999
DXF file: C:\Users\sesa63760\Dev\_Creo\CAD\MCADID0005464_3D-CAD\drw0001_2.dxf
999
Pro/ENGINEER 2019471 by Parametric Technology Corporation
  0
SECTION
  2
HEADER
  9
$ACADVER
  1
AC1024
  9
$DWGCODEPAGE
  3
ANSI_1252
  9
$EXTMAX
 10
37.6622598534
 20
53.2651960784
 30
0.0
  9
$EXTMIN
 10
0.0
 20
0.0
 30
0.0
  9
$LIMMIN
 10
0.0
 20
0.0
  9
$LIMMAX
 10
37.6622598534
 20
53.2651960784
  9
$VIEWCTR
 10
18.8311299267
 20
26.6325980392
  9
$VIEWSIZE
 40
53.2651960784
  9
$CLAYER
  8
0
  9
$LTSCALE
 40
3.4721016703
  9
$CELTYPE
  6
BYLAYER
  9
$DIMSCALE
 40
1.0
  9
$DIMASZ
 40
0.4483602364
  9
$DIMEXO
 40
1.0
  9
$DIMDLI
 40
2.3989066086
  9
$DIMEXE
 40
1.0
  9
$DIMCEN
 40
0.5681620915
  9
$DIMLFAC
 40
1.0
  9
$DIMBLK
  1
_FILLED
  9
$DIMALT
 70
0
  9
$DIMALTF
 40
0.0393700787
  9
$DIMTXT
 40
0.6277043309
  9
$DIMTOL
 70
1
  9
$DIMLIM
 70
0
  9
$DIMTFAC
 40
1.0
  9
$DIMTP
 40
0.01
  9
$DIMTM
 40
0.01
  9
$DIMGAP
 40
0.625
  9
$DIMDSEP
 70
46
  9
$AUNITS
 70
0
  9
$PDMODE
 70
3
  9
$PDSIZE
 40
0.3125
  9
$HANDSEED
  5
288
  9
$TILEMODE
 70
1
  9
$MEASUREMENT
 70
1
  9
$INSUNITS
 70
4
  0
ENDSEC
  0
SECTION
  2
CLASSES
  0
CLASS
  1
ACDBDICTIONARYWDFLT
  2
AcDbDictionaryWithDefault
  3
AutoCAD 2000
 90
0
 91
1
280
0
281
0
  0
CLASS
  1
ACDBPLACEHOLDER
  2
AcDbPlaceHolder
  3
AutoCAD 2000
 90
0
 91
1
280
0
281
0
  0
CLASS
  1
LAYOUT
  2
AcDbLayout
  3
AutoCAD 2000
 90
0
 91
0
280
0
281
0
  0
ENDSEC
  0
SECTION
  2
TABLES
  0
TABLE
  2
VPORT
  5
8
100
AcDbSymbolTable
 70
2
  0
VPORT
  5
1F4
100
AcDbSymbolTableRecord
100
AcDbViewportTableRecord
  2
*ACTIVE
 70
0
 10
0.0
 20
0.0
 11
1.0
 21
1.0
 12
18.8311299267
 22
26.6325980392
 13
0.0
 23
0.0
 14
1.0
 24
1.0
 15
0.0
 25
0.0
 16
0.0
 26
0.0
 36
1.0
 17
0.0
 27
0.0
 37
0.0
 40
53.2651960784
 41
0.7070707071
 42
50.0
 43
0.0
 44
0.0
 50
0.0
 51
0.0
 71
0
 72
100
 73
1
 74
1
 75
0
 76
0
 77
0
 78
0
  0
ENDTAB
  0
TABLE
  2
LTYPE
  5
5
100
AcDbSymbolTable
 70
6
  0
LTYPE
  5
14
100
AcDbSymbolTableRecord
100
AcDbLinetypeTableRecord
  2
BYBLOCK
 70
0
  3

 72
65
 73
0
 40
0.0
  0
LTYPE
  5
15
100
AcDbSymbolTableRecord
100
AcDbLinetypeTableRecord
  2
BYLAYER
 70
0
  3

 72
65
 73
0
 40
0.0
  0
LTYPE
  5
16
100
AcDbSymbolTableRecord
100
AcDbLinetypeTableRecord
  2
CONTINUOUS
 70
64
  3
Solid line
 72
65
 73
0
 40
0.0
  0
LTYPE
  5
1F5
100
AcDbSymbolTableRecord
100
AcDbLinetypeTableRecord
  2
CENTER
 70
64
  3
____ _ ____ _ ____ _ ____ _ ____ _ ____ _ ____
 72
65
 73
4
 40
0.6
 49
0.375
 74
0
 49
-0.075
 74
0
 49
0.075
 74
0
 49
-0.075
 74
0
  0
LTYPE
  5
1F6
100
AcDbSymbolTableRecord
100
AcDbLinetypeTableRecord
  2
HIDDEN
 70
64
  3
- - - - - - - - - - - - - - - - - - - -
 72
65
 73
2
 40
0.2
 49
0.1
 74
0
 49
-0.1
 74
0
  0
LTYPE
  5
1F7
100
AcDbSymbolTableRecord
100
AcDbLinetypeTableRecord
  2
PHANTOM
 70
64
  3
_____ _ _ _____ _ _ _____ _ _ _____
 72
65
 73
6
 40
0.8
 49
0.45
 74
0
 49
-0.05
 74
0
 49
0.1
 74
0
 49
-0.05
 74
0
 49
0.1
 74
0
 49
-0.05
 74
0
  0
LTYPE
  5
1F8
100
AcDbSymbolTableRecord
100
AcDbLinetypeTableRecord
  2
DOT
 70
64
  3
. . . . . . . . . . . . . . . . . . . .
 72
65
 73
2
 40
0.2
 49
0.1
 74
0
 49
-0.1
 74
0
  0
LTYPE
  5
1F9
100
AcDbSymbolTableRecord
100
AcDbLinetypeTableRecord
  2
DASHED
 70
64
  3
- - - - - - - - - - - - - - - - - - - -
 72
65
 73
2
 40
0.2
 49
0.1
 74
0
 49
-0.1
 74
0
  0
ENDTAB
  0
TABLE
  2
LAYER
  5
2
100
AcDbSymbolTable
 70
36
  0
LAYER
  5
10
100
AcDbSymbolTableRecord
100
AcDbLayerTableRecord
  2
0
 70
0
 62
7
  6
CONTINUOUS
370
-3
390
F
  0
LAYER
  5
1FA
100
AcDbSymbolTableRecord
100
AcDbLayerTableRecord
  2
DEFAULT_1
 70
0
 62
7
  6
CENTER
370
-3
390
F
  0
LAYER
  5
1FB
100
AcDbSymbolTableRecord
100
AcDbLayerTableRecord
  2
DEFAULT_2
 70
0
 62
7
  6
HIDDEN
370
-3
390
F
  0
LAYER
  5
1FC
100
AcDbSymbolTableRecord
100
AcDbLayerTableRecord
  2
DEFAULT_3
 70
0
 62
7
  6
PHANTOM
370
-3
390
F
  0
LAYER
  5
1FD
100
AcDbSymbolTableRecord
100
AcDbLayerTableRecord
  2
00_COMPONENTS
 70
0
 62
7
  6
CONTINUOUS
370
-3
390
F
  0
LAYER
  5
1FE
100
AcDbSymbolTableRecord
100
AcDbLayerTableRecord
  2
01_1_DEFAULT_DATUMS
 70
0
 62
7
  6
CONTINUOUS
370
-3
390
F
  0
LAYER
  5
1FF
100
AcDbSymbolTableRecord
100
AcDbLayerTableRecord
  2
01_PLANES
 70
0
 62
7
  6
CONTINUOUS
370
-3
390
F
  0
LAYER
  5
200
100
AcDbSymbolTableRecord
100
AcDbLayerTableRecord
  2
02_COORD_SYS
 70
0
 62
7
  6
CONTINUOUS
370
-3
390
F
  0
LAYER
  5
201
100
AcDbSymbolTableRecord
100
AcDbLayerTableRecord
  2
03_AXES
 70
0
 62
7
  6
CONTINUOUS
370
-3
390
F
  0
LAYER
  5
202
100
AcDbSymbolTableRecord
100
AcDbLayerTableRecord
  2
04_POINTS
 70
0
 62
7
  6
CONTINUOUS
370
-3
390
F
  0
LAYER
  5
203
100
AcDbSymbolTableRecord
100
AcDbLayerTableRecord
  2
05_CURVES
 70
0
 62
7
  6
CONTINUOUS
370
-3
390
F
  0
LAYER
  5
204
100
AcDbSymbolTableRecord
100
AcDbLayerTableRecord
  2
06_SURFS
 70
0
 62
7
  6
CONTINUOUS
370
-3
390
F
  0
LAYER
  5
205
100
AcDbSymbolTableRecord
100
AcDbLayerTableRecord
  2
07_COSMETICS
 70
0
 62
7
  6
CONTINUOUS
370
-3
390
F
  0
LAYER
  5
206
100
AcDbSymbolTableRecord
100
AcDbLayerTableRecord
  2
10_NOTES
 70
0
 62
7
  6
CONTINUOUS
370
-3
390
F
  0
LAYER
  5
207
100
AcDbSymbolTableRecord
100
AcDbLayerTableRecord
  2
11_NOTES_PUB
 70
0
 62
7
  6
CONTINUOUS
370
-3
390
F
  0
LAYER
  5
208
100
AcDbSymbolTableRecord
100
AcDbLayerTableRecord
  2
13_REF_GTOL
 70
0
 62
7
  6
CONTINUOUS
370
-3
390
F
  0
LAYER
  5
209
100
AcDbSymbolTableRecord
100
AcDbLayerTableRecord
  2
16_MISC
 70
0
 62
7
  6
CONTINUOUS
370
-3
390
F
  0
LAYER
  5
20A
100
AcDbSymbolTableRecord
100
AcDbLayerTableRecord
  2
17_NO_PRINT
 70
0
 62
7
  6
CONTINUOUS
370
-3
390
F
  0
LAYER
  5
20B
100
AcDbSymbolTableRecord
100
AcDbLayerTableRecord
  2
18_DATUM_CAMS_JOINTS
 70
0
 62
7
  6
CONTINUOUS
370
-3
390
F
  0
LAYER
  5
20C
100
AcDbSymbolTableRecord
100
AcDbLayerTableRecord
  2
19_DATUM_FUNCTIONAL
 70
0
 62
7
  6
CONTINUOUS
370
-3
390
F
  0
LAYER
  5
20D
100
AcDbSymbolTableRecord
100
AcDbLayerTableRecord
  2
20_DATUM_KINEMATIC_SCHEME
 70
0
 62
7
  6
CONTINUOUS
370
-3
390
F
  0
ENDTAB
  0
TABLE
  2
STYLE
  5
3
100
AcDbSymbolTable
 70
1
  0
STYLE
  5
11
100
AcDbSymbolTableRecord
100
AcDbTextStyleTableRecord
  2
STANDARD
 70
0
 40
0.0
 41
1.0
 50
0.0
 71
0
 42
0.2
  3
ARIAL.TTF
  4

  0
STYLE
  5
20E
100
AcDbSymbolTableRecord
100
AcDbTextStyleTableRecord
  2
TEXTSTYLE_1
 70
0
 40
0.0
 41
0.8
 50
0.0
 71
0
 42
0.2
  3
gdt
  4

  0
ENDTAB
  0
TABLE
  2
VIEW
  5
6
100
AcDbSymbolTable
 70
0
  0
ENDTAB
  0
TABLE
  2
UCS
  5
7
100
AcDbSymbolTable
 70
0
  0
ENDTAB
  0
TABLE
  2
APPID
  5
9
100
AcDbSymbolTable
 70
1
  0
APPID
  5
20F
100
AcDbSymbolTableRecord
100
AcDbRegAppTableRecord
  2
ACAD
 70
0
  0
ENDTAB
  0
TABLE
  2
BLOCK_RECORD
  5
1
100
AcDbSymbolTable
 70
0
  0
BLOCK_RECORD
  5
210
100
AcDbSymbolTableRecord
100
AcDbBlockTableRecord
  2
*Model_Space
  0
BLOCK_RECORD
  5
211
100
AcDbSymbolTableRecord
100
AcDbBlockTableRecord
  2
*Paper_Space
  0
BLOCK_RECORD
  5
212
100
AcDbSymbolTableRecord
100
AcDbBlockTableRecord
  2
_FILLED
  0
ENDTAB
  0
TABLE
  2
DIMSTYLE
  5
A
100
AcDbSymbolTable
 70
1
100
AcDbDimStyleTable
 71
0
  0
DIMSTYLE
105
213
100
AcDbSymbolTableRecord
100
AcDbDimStyleTableRecord
  2
STANDARD
 70
0
  3

  4

 40
1.0
 41
0.4483602364
 42
1.0
 43
0.38
 44
1.0
 45
0.0
 46
0.0
 47
0.01
 48
0.01
140
0.6277043309
141
0.09
142
0.0
143
25.4
144
1.0
145
0.0
146
1.0
147
0.625
 71
1
 72
0
 73
0
 74
0
 75
0
 76
0
 77
1
 78
8
 79
2
170
0
171
1
172
0
173
0
174
0
175
0
176
0
177
0
178
0
270
2
179
2
271
2
272
2
273
2
274
2
275
0
280
0
281
0
282
0
283
1
284
8
285
0
286
0
287
3
288
0
340
11
278
46
341
212
342
212
343
212
344
212
  0
ENDTAB
  0
ENDSEC
  0
SECTION
  2
BLOCKS
  0
BLOCK
  5
20
100
AcDbEntity
  8
0
100
AcDbBlockBegin
  2
*Model_Space
 70
0
 10
0.0
 20
0.0
 30
0.0
  3
*Model_Space
  1

  0
ENDBLK
  5
21
100
AcDbEntity
  8
0
100
AcDbBlockEnd
  0
BLOCK
  5
1C
100
AcDbEntity
  8
0
100
AcDbBlockBegin
  2
*Paper_Space
 70
0
 10
0.0
 20
0.0
 30
0.0
  3
*Paper_Space
  1

  0
ENDBLK
  5
1D
100
AcDbEntity
  8
0
100
AcDbBlockEnd
  0
BLOCK
  5
214
100
AcDbEntity
  8
0
100
AcDbBlockBegin
  2
_FILLED
 70
64
 10
0.0
 20
0.0
  3
_FILLED
  1

  0
SOLID
  5
215
100
AcDbEntity
  8
0
  6
BYBLOCK
 62
0
100
AcDbTrace
 10
0.0
 20
0.0
 11
-1.0
 21
0.25
 12
-1.0
 22
-0.25
 13
-1.0
 23
-0.25
  0
ENDBLK
  5
216
100
AcDbEntity
  8
0
  6
BYBLOCK
 62
0
100
AcDbBlockEnd
  0
ENDSEC
  0
SECTION
  2
ENTITIES
  0
LINE
  5
217
100
AcDbEntity
  8
0
100
AcDbLine
 62
7
  6
BYLAYER
 10
8.4721056941
 20
45.7098039216
 11
5.3544142404
 21
43.9098039216
  0
LINE
  5
218
100
AcDbEntity
  8
0
100
AcDbLine
 62
7
  6
BYLAYER
 10
5.2544142404
 20
5.9098039216
 11
33.0544142404
 21
5.9098039216
  0
LINE
  5
219
100
AcDbEntity
  8
0
100
AcDbLine
 62
7
  6
BYLAYER
 10
5.7544142404
 20
6.7914388252
 11
12.6544142404
 21
6.7914388252
  0
LINE
  5
21A
100
AcDbEntity
  8
0
100
AcDbLine
 62
7
  6
BYLAYER
 10
14.1544142404
 20
6.7914388252
 11
24.1544142404
 21
6.7914388252
  0
LINE
  5
21B
100
AcDbEntity
  8
0
100
AcDbLine
 62
7
  6
BYLAYER
 10
25.6544142404
 20
6.7914388252
 11
32.5544142404
 21
6.7914388252
  0
LINE
  5
21C
100
AcDbEntity
  8
0
100
AcDbLine
 62
7
  6
BYLAYER
 10
5.2544142404
 20
7.0559292962
 11
33.0544142404
 21
7.0559292962
  0
LINE
  5
21D
100
AcDbEntity
  8
0
100
AcDbLine
 62
7
  6
BYLAYER
 10
13.9044142404
 20
8.4098039216
 11
4.1294142404
 21
8.4098039216
  0
LINE
  5
21E
100
AcDbEntity
  8
0
100
AcDbLine
 62
7
  6
BYLAYER
 10
24.2294142404
 20
8.4098039216
 11
34.0294142404
 21
8.4098039216
  0
LINE
  5
21F
100
AcDbEntity
  8
0
100
AcDbLine
 62
7
  6
BYLAYER
 10
13.9044142404
 20
9.9098039216
 11
4.1294142404
 21
9.9098039216
  0
LINE
  5
220
100
AcDbEntity
  8
0
100
AcDbLine
 62
7
  6
BYLAYER
 10
24.2294142404
 20
9.9098039216
 11
34.0294142404
 21
9.9098039216
  0
LINE
  5
221
100
AcDbEntity
  8
0
100
AcDbLine
 62
7
  6
BYLAYER
 10
23.2044142404
 20
11.016919999
 11
15.1044142404
 21
11.016919999
  0
LINE
  5
222
100
AcDbEntity
  8
0
100
AcDbLine
 62
7
  6
BYLAYER
 10
4.1294142404
 20
8.4098039216
 11
4.1294142404
 21
40.4098039216
  0
LINE
  5
223
100
AcDbEntity
  8
0
100
AcDbLine
 62
7
  6
BYLAYER
 10
5.1294142404
 20
37.1098039216
 11
5.1294142404
 21
40.2928908118
  0
LINE
  5
224
100
AcDbEntity
  8
0
100
AcDbLine
 62
7
  6
BYLAYER
 10
5.2544142404
 20
5.9098039216
 11
5.2544142404
 21
8.4098039216
  0
LINE
  5
225
100
AcDbEntity
  8
0
100
AcDbLine
 62
7
  6
BYLAYER
 10
5.3544142404
 20
40.4098039216
 11
5.3544142404
 21
43.9098039216
  0
LINE
  5
226
100
AcDbEntity
  8
0
100
AcDbLine
 62
7
  6
BYLAYER
 10
34.0294142404
 20
11.7098039216
 11
34.0544142404
 21
11.7098039216
  0
LINE
  5
227
100
AcDbEntity
  8
0
100
AcDbLine
 62
7
  6
BYLAYER
 10
23.2044142404
 20
12.3098039216
 11
15.1044142404
 21
12.3098039216
  0
LINE
  5
228
100
AcDbEntity
  8
0
100
AcDbLine
 62
7
  6
BYLAYER
 10
11.5044142404
 20
12.9395635044
 11
6.5044142404
 21
12.9395635044
  0
LINE
  5
229
100
AcDbEntity
  8
0
100
AcDbLine
 62
7
  6
BYLAYER
 10
5.7544142404
 20
6.7914388252
 11
5.7544142404
 21
5.9098039216
  0
LINE
  5
22A
100
AcDbEntity
  8
0
100
AcDbLine
 62
7
  6
BYLAYER
 10
6.0463743489
 20
15.5870686783
 11
6.0463743489
 21
15.6482857707
  0
LINE
  5
22B
100
AcDbEntity
  8
0
100
AcDbLine
 62
7
  6
BYLAYER
 10
6.5044142404
 20
14.3395635044
 11
6.5044142404
 21
12.9395635044
  0
LINE
  5
22C
100
AcDbEntity
  8
0
100
AcDbLine
 62
7
  6
BYLAYER
 10
6.3351962313
 20
14.6634780177
 11
8.6344142404
 21
14.6634780177
  0
LINE
  5
22D
100
AcDbEntity
  8
0
100
AcDbLine
 62
7
  6
BYLAYER
 10
9.3744142404
 20
14.6634780177
 11
11.6736322496
 21
14.6634780177
  0
LINE
  5
22E
100
AcDbEntity
  8
0
100
AcDbLine
 62
7
  6
BYLAYER
 10
8.6344142404
 20
35.199481214
 11
8.6344142404
 21
34.2603187321
  0
LINE
  5
22F
100
AcDbEntity
  8
0
100
AcDbLine
 62
7
  6
BYLAYER
 10
8.6344142404
 20
33.4491591568
 11
8.6344142404
 21
32.3363484972
  0
LINE
  5
230
100
AcDbEntity
  8
0
100
AcDbLine
 62
7
  6
BYLAYER
 10
8.6344142404
 20
16.5874482526
 11
8.6344142404
 21
15.4746375931
  0
LINE
  5
231
100
AcDbEntity
  8
0
100
AcDbLine
 62
7
  6
BYLAYER
 10
8.6344142404
 20
14.6634780177
 11
8.6344142404
 21
13.7243155358
  0
LINE
  5
232
100
AcDbEntity
  8
0
100
AcDbLine
 62
7
  6
BYLAYER
 10
24.2294142404
 20
15.316919999
 11
23.6646206624
 21
15.316919999
  0
LINE
  5
233
100
AcDbEntity
  8
0
100
AcDbLine
 62
7
  6
BYLAYER
 10
14.6442078185
 20
15.316919999
 11
13.9044142404
 21
15.316919999
  0
LINE
  5
234
100
AcDbEntity
  8
0
100
AcDbLine
 62
7
  6
BYLAYER
 10
11.9516435556
 20
15.4746375931
 11
9.3744142404
 21
15.4746375931
  0
LINE
  5
235
100
AcDbEntity
  8
0
100
AcDbLine
 62
7
  6
BYLAYER
 10
8.6344142404
 20
15.4746375931
 11
6.0571849253
 21
15.4746375931
  0
LINE
  5
236
100
AcDbEntity
  8
0
100
AcDbLine
 62
7
  6
BYLAYER
 10
11.962454132
 20
15.6482857707
 11
9.3744142404
 21
15.6482857707
  0
LINE
  5
237
100
AcDbEntity
  8
0
100
AcDbLine
 62
7
  6
BYLAYER
 10
8.6344142404
 20
15.6482857707
 11
6.0463743489
 21
15.6482857707
  0
LINE
  5
238
100
AcDbEntity
  8
0
100
AcDbLine
 62
7
  6
BYLAYER
 10
9.3744142404
 20
13.7243155358
 11
9.3744142404
 21
14.6634780177
  0
LINE
  5
239
100
AcDbEntity
  8
0
100
AcDbLine
 62
7
  6
BYLAYER
 10
9.3744142404
 20
15.4746375931
 11
9.3744142404
 21
16.5874482526
  0
LINE
  5
23A
100
AcDbEntity
  8
0
100
AcDbLine
 62
7
  6
BYLAYER
 10
9.3744142404
 20
32.3363484972
 11
9.3744142404
 21
33.4491591568
  0
LINE
  5
23B
100
AcDbEntity
  8
0
100
AcDbLine
 62
7
  6
BYLAYER
 10
9.3744142404
 20
34.2603187321
 11
9.3744142404
 21
35.199481214
  0
LINE
  5
23C
100
AcDbEntity
  8
0
100
AcDbLine
 62
7
  6
BYLAYER
 10
34.0544142404
 20
17.0543575601
 11
34.0294142404
 21
17.0543575601
  0
LINE
  5
23D
100
AcDbEntity
  8
0
100
AcDbLine
 62
7
  6
BYLAYER
 10
11.5044142404
 20
12.9395635044
 11
11.5044142404
 21
14.3395635044
  0
LINE
  5
23E
100
AcDbEntity
  8
0
100
AcDbLine
 62
7
  6
BYLAYER
 10
11.962454132
 20
15.6482857707
 11
11.962454132
 21
15.5870686783
  0
LINE
  5
23F
100
AcDbEntity
  8
0
100
AcDbLine
 62
7
  6
BYLAYER
 10
34.0544142404
 20
19.5098039216
 11
34.0294142404
 21
19.5098039216
  0
LINE
  5
240
100
AcDbEntity
  8
0
100
AcDbLine
 62
7
  6
BYLAYER
 10
12.6544142404
 20
5.9098039216
 11
12.6544142404
 21
6.7914388252
  0
LINE
  5
241
100
AcDbEntity
  8
0
100
AcDbLine
 62
7
  6
BYLAYER
 10
12.9044142404
 20
40.2928908118
 11
12.9044142404
 21
37.1098039216
  0
LINE
  5
242
100
AcDbEntity
  8
0
100
AcDbLine
 62
7
  6
BYLAYER
 10
13.9044142404
 20
8.4098039216
 11
13.9044142404
 21
40.4098039216
  0
LINE
  5
243
100
AcDbEntity
  8
0
100
AcDbLine
 62
7
  6
BYLAYER
 10
14.1544142404
 20
6.7914388252
 11
14.1544142404
 21
5.9098039216
  0
LINE
  5
244
100
AcDbEntity
  8
0
100
AcDbLine
 62
7
  6
BYLAYER
 10
15.1044142404
 20
11.016919999
 11
15.1044142404
 21
15.1028172987
  0
LINE
  5
245
100
AcDbEntity
  8
0
100
AcDbLine
 62
7
  6
BYLAYER
 10
23.2044142404
 20
15.1028172987
 11
23.2044142404
 21
11.016919999
  0
LINE
  5
246
100
AcDbEntity
  8
0
100
AcDbLine
 62
7
  6
BYLAYER
 10
24.1544142404
 20
5.9098039216
 11
24.1544142404
 21
6.7914388252
  0
LINE
  5
247
100
AcDbEntity
  8
0
100
AcDbLine
 62
7
  6
BYLAYER
 10
24.2294142404
 20
8.4098039216
 11
24.2294142404
 21
40.4098039216
  0
LINE
  5
248
100
AcDbEntity
  8
0
100
AcDbLine
 62
7
  6
BYLAYER
 10
25.6544142404
 20
6.7914388252
 11
25.6544142404
 21
5.9098039216
  0
LINE
  5
249
100
AcDbEntity
  8
0
100
AcDbLine
 62
7
  6
BYLAYER
 10
6.0463743489
 20
33.2755109791
 11
8.6344142404
 21
33.2755109791
  0
LINE
  5
24A
100
AcDbEntity
  8
0
100
AcDbLine
 62
7
  6
BYLAYER
 10
9.3744142404
 20
33.2755109791
 11
11.962454132
 21
33.2755109791
  0
LINE
  5
24B
100
AcDbEntity
  8
0
100
AcDbLine
 62
7
  6
BYLAYER
 10
6.1353810435
 20
33.4491591568
 11
8.6344142404
 21
33.4491591568
  0
LINE
  5
24C
100
AcDbEntity
  8
0
100
AcDbLine
 62
7
  6
BYLAYER
 10
9.3744142404
 20
33.4491591568
 11
11.8802496432
 21
33.4491591568
  0
LINE
  5
24D
100
AcDbEntity
  8
0
100
AcDbLine
 62
7
  6
BYLAYER
 10
11.5787915514
 20
34.2603187321
 11
9.3744142404
 21
34.2603187321
  0
LINE
  5
24E
100
AcDbEntity
  8
0
100
AcDbLine
 62
7
  6
BYLAYER
 10
8.6344142404
 20
34.2603187321
 11
6.4271892217
 21
34.2603187321
  0
LINE
  5
24F
100
AcDbEntity
  8
0
100
AcDbLine
 62
7
  6
BYLAYER
 10
34.0544142404
 20
34.9098039216
 11
34.0294142404
 21
34.9098039216
  0
LINE
  5
250
100
AcDbEntity
  8
0
100
AcDbLine
 62
7
  6
BYLAYER
 10
24.2294142404
 20
36.5098039216
 11
13.9044142404
 21
36.5098039216
  0
LINE
  5
251
100
AcDbEntity
  8
0
100
AcDbLine
 62
7
  6
BYLAYER
 10
24.2294142404
 20
36.9098039216
 11
13.9044142404
 21
36.9098039216
  0
LINE
  5
252
100
AcDbEntity
  8
0
100
AcDbLine
 62
7
  6
BYLAYER
 10
13.9044142404
 20
37.1098039216
 11
12.9044142404
 21
37.1098039216
  0
LINE
  5
253
100
AcDbEntity
  8
0
100
AcDbLine
 62
7
  6
BYLAYER
 10
4.1294142404
 20
37.1098039216
 11
5.1294142404
 21
37.1098039216
  0
LINE
  5
254
100
AcDbEntity
  8
0
100
AcDbLine
 62
7
  6
BYLAYER
 10
13.9044142404
 20
37.6928908118
 11
12.9044142404
 21
37.6928908118
  0
LINE
  5
255
100
AcDbEntity
  8
0
100
AcDbLine
 62
7
  6
BYLAYER
 10
4.1294142404
 20
37.6928908118
 11
5.1294142404
 21
37.6928908118
  0
LINE
  5
256
100
AcDbEntity
  8
0
100
AcDbLine
 62
7
  6
BYLAYER
 10
32.5544142404
 20
5.9098039216
 11
32.5544142404
 21
6.7914388252
  0
LINE
  5
257
100
AcDbEntity
  8
0
100
AcDbLine
 62
7
  6
BYLAYER
 10
34.0294142404
 20
38.9098039216
 11
24.2294142404
 21
38.9098039216
  0
LINE
  5
258
100
AcDbEntity
  8
0
100
AcDbLine
 62
7
  6
BYLAYER
 10
12.9044142404
 20
38.9098039216
 11
5.1294142404
 21
38.9098039216
  0
LINE
  5
259
100
AcDbEntity
  8
0
100
AcDbLine
 62
7
  6
BYLAYER
 10
13.9044142404
 20
40.2928908118
 11
12.9044142404
 21
40.2928908118
  0
LINE
  5
25A
100
AcDbEntity
  8
0
100
AcDbLine
 62
7
  6
BYLAYER
 10
4.1294142404
 20
40.2928908118
 11
5.1294142404
 21
40.2928908118
  0
LINE
  5
25B
100
AcDbEntity
  8
0
100
AcDbLine
 62
7
  6
BYLAYER
 10
32.9544142404
 20
43.9098039216
 11
32.9544142404
 21
40.4098039216
  0
LINE
  5
25C
100
AcDbEntity
  8
0
100
AcDbLine
 62
7
  6
BYLAYER
 10
33.0544142404
 20
5.9098039216
 11
33.0544142404
 21
8.4098039216
  0
LINE
  5
25D
100
AcDbEntity
  8
0
100
AcDbLine
 62
7
  6
BYLAYER
 10
34.0294142404
 20
40.4098039216
 11
34.0294142404
 21
8.4098039216
  0
LINE
  5
25E
100
AcDbEntity
  8
0
100
AcDbLine
 62
7
  6
BYLAYER
 10
34.0544142404
 20
11.7098039216
 11
34.0544142404
 21
34.9098039216
  0
LINE
  5
25F
100
AcDbEntity
  8
0
100
AcDbLine
 62
7
  6
BYLAYER
 10
13.9044142404
 20
40.4098039216
 11
4.1294142404
 21
40.4098039216
  0
LINE
  5
260
100
AcDbEntity
  8
0
100
AcDbLine
 62
7
  6
BYLAYER
 10
24.2294142404
 20
40.4098039216
 11
34.0294142404
 21
40.4098039216
  0
LINE
  5
261
100
AcDbEntity
  8
0
100
AcDbLine
 62
7
  6
BYLAYER
 10
32.9544142404
 20
42.4377289032
 11
5.3544142404
 21
42.4377289032
  0
LINE
  5
262
100
AcDbEntity
  8
0
100
AcDbLine
 62
7
  6
BYLAYER
 10
32.9544142404
 20
43.7098039216
 11
5.3544142404
 21
43.7098039216
  0
LINE
  5
263
100
AcDbEntity
  8
0
100
AcDbLine
 62
7
  6
BYLAYER
 10
8.4721056941
 20
45.7098039216
 11
15.3370198411
 21
45.7098039216
  0
LINE
  5
264
100
AcDbEntity
  8
0
100
AcDbLine
 62
7
  6
BYLAYER
 10
22.9718086398
 20
45.7098039216
 11
29.8367227868
 21
45.7098039216
  0
LINE
  5
265
100
AcDbEntity
  8
0
100
AcDbLine
 62
7
  6
BYLAYER
 10
32.9544142404
 20
43.9098039216
 11
29.8367227868
 21
45.7098039216
  0
ARC
  5
266
100
AcDbEntity
  8
0
100
AcDbCircle
 62
7
  6
BYLAYER
 10
19.1544142404
 20
24.4098039216
 40
10.15
100
AcDbArc
 50
60.0
 51
122.3236133492
  0
ARC
  5
267
100
AcDbEntity
  8
0
100
AcDbCircle
 62
7
  6
BYLAYER
 10
19.1544142404
 20
24.4098039216
 40
10.15
100
AcDbArc
 50
238.838552826
 51
300.0063958685
  0
ARC
  5
268
100
AcDbEntity
  8
0
100
AcDbCircle
 62
7
  6
BYLAYER
 10
19.1544142404
 20
24.4098039216
 40
10.0
100
AcDbArc
 50
238.1172275795
 51
300.5641582329
  0
ARC
  5
269
100
AcDbEntity
  8
0
100
AcDbCircle
 62
7
  6
BYLAYER
 10
19.1544142404
 20
24.4098039216
 40
10.0
100
AcDbArc
 50
59.4278807101
 51
121.8738237345
  0
ARC
  5
26A
100
AcDbEntity
  8
0
100
AcDbCircle
 62
7
  6
BYLAYER
 10
19.1544142404
 20
41.4098039216
 40
5.75
100
AcDbArc
 50
48.4024161073
 51
131.5975838927
  0
ARC
  5
26B
100
AcDbEntity
  8
0
100
AcDbCircle
 62
7
  6
BYLAYER
 10
29.2189588733
 20
15.156206085
 40
2.9103769562
100
AcDbArc
 50
8.5009669681
 51
16.0679294474
  0
ARC
  5
26C
100
AcDbEntity
  8
0
100
AcDbCircle
 62
7
  6
BYLAYER
 10
29.0396913315
 20
15.156267573
 40
2.9101903846
100
AcDbArc
 50
163.939656435
 51
171.3166355338
  0
ARC
  5
26D
100
AcDbEntity
  8
0
100
AcDbCircle
 62
7
  6
BYLAYER
 10
29.0199708518
 20
33.248525014
 40
2.890553062
100
AcDbArc
 50
178.4984482306
 51
185.2234611808
  0
ARC
  5
26E
100
AcDbEntity
  8
0
100
AcDbCircle
 62
7
  6
BYLAYER
 10
29.2444791687
 20
33.2297666918
 40
2.8849590007
100
AcDbArc
 50
346.7583974876
 51
348.8909594637
  0
ARC
  5
26F
100
AcDbEntity
  8
0
100
AcDbCircle
 62
7
  6
BYLAYER
 10
29.2467192108
 20
33.2292763876
 40
2.8826662072
100
AcDbArc
 50
345.9930987721
 51
346.757685321
  0
ARC
  5
270
100
AcDbEntity
  8
0
100
AcDbCircle
 62
7
  6
BYLAYER
 10
9.0043471198
 20
33.7232402297
 40
1.521886257
100
AcDbArc
 50
75.9318846468
 51
104.0681153532
  0
ARC
  5
271
100
AcDbEntity
  8
0
100
AcDbCircle
 62
7
  6
BYLAYER
 10
9.0043471198
 20
15.2005565202
 40
1.521886257
100
AcDbArc
 50
255.9318846468
 51
284.0681153532
  0
ARC
  5
272
100
AcDbEntity
  8
0
100
AcDbCircle
 62
7
  6
BYLAYER
 10
9.0043471198
 20
33.9862376593
 40
1.521886257
100
AcDbArc
 50
255.9318846468
 51
284.0681153532
  0
ARC
  5
273
100
AcDbEntity
  8
0
100
AcDbCircle
 62
7
  6
BYLAYER
 10
9.0044813611
 20
15.1112072683
 40
1.521886257
100
AcDbArc
 50
75.9318846468
 51
104.0681153532
  0
ARC
  5
274
100
AcDbEntity
  8
0
100
AcDbCircle
 62
7
  6
BYLAYER
 10
9.0044813611
 20
33.8125894816
 40
1.521886257
100
AcDbArc
 50
255.9318846468
 51
284.0681153532
  0
ARC
  5
275
100
AcDbEntity
  8
0
100
AcDbCircle
 62
7
  6
BYLAYER
 10
9.0043471198
 20
14.9375590906
 40
1.521886257
100
AcDbArc
 50
75.9318846468
 51
104.0681153532
  0
SPLINE
  5
276
100
AcDbEntity
  8
0
100
AcDbSpline
 62
7
  6
BYLAYER
 70
0
 71
3
 72
33
 73
29
 74
0
 42
0.0000001
 43
0.0000001
 44
0.0000000001
 40
0.0
 40
0.0
 40
0.0
 40
0.0
 40
0.0619844795
 40
0.0930560467
 40
0.124147707
 40
0.1552741688
 40
0.1864437492
 40
0.2176549981
 40
0.2489071067
 40
0.2802
 40
0.3115326692
 40
0.3429022171
 40
0.3743036193
 40
0.4371224994
 40
0.499998177
 40
0.562873699
 40
0.6256921825
 40
0.6570934164
 40
0.6884629185
 40
0.7197956604
 40
0.7510888746
 40
0.7823414506
 40
0.8135532761
 40
0.8447233937
 40
0.8758503892
 40
0.906942734
 40
0.9380150059
 40
1.0
 40
1.0
 40
1.0
 40
1.0
 10
11.962454132
 20
15.6482857707
 30
0.0
 10
11.9332410331
 20
15.8184871638
 30
0.0
 10
11.8663451341
 20
16.0708302808
 30
0.0
 10
11.7340385662
 20
16.3907314145
 30
0.0
 10
11.6136809795
 20
16.6215085276
 30
0.0
 10
11.4732827897
 20
16.8409497816
 30
0.0
 10
11.3138953523
 20
17.0474419017
 30
0.0
 10
11.1367893059
 20
17.2394277235
 30
0.0
 10
10.9432487806
 20
17.415342176
 30
0.0
 10
10.7348478585
 20
17.5739288923
 30
0.0
 10
10.5131182427
 20
17.713875948
 30
0.0
 10
10.2797999673
 20
17.83420596
 30
0.0
 10
9.9557453827
 20
17.967132512
 30
0.0
 10
9.5304007066
 20
18.0799703475
 30
0.0
 10
9.0044301595
 20
18.1254689374
 30
0.0
 10
8.4784605261
 20
18.0799758649
 30
0.0
 10
8.0531157689
 20
17.9671450401
 30
0.0
 10
7.7290627826
 20
17.8342193082
 30
0.0
 10
7.4957420302
 20
17.7138950192
 30
0.0
 10
7.2740109304
 20
17.5739483316
 30
0.0
 10
7.0656059899
 20
17.4153631035
 30
0.0
 10
6.8720600918
 20
17.2394487372
 30
0.0
 10
6.6949508171
 20
17.0474599623
 30
0.0
 10
6.5355568118
 20
16.840967101
 30
0.0
 10
6.3951558957
 20
16.6215217039
 30
0.0
 10
6.2747940091
 20
16.390740807
 30
0.0
 10
6.1424853968
 20
16.0708347277
 30
0.0
 10
6.0755876904
 20
15.8184885769
 30
0.0
 10
6.0463743489
 20
15.6482857707
 30
0.0
  0
SPLINE
  5
277
100
AcDbEntity
  8
0
100
AcDbSpline
 62
7
  6
BYLAYER
 70
0
 71
3
 72
15
 73
11
 74
0
 42
0.0000001
 43
0.0000001
 44
0.0000000001
 40
0.0
 40
0.0
 40
0.0
 40
0.0
 40
0.1240938065
 40
0.2483734654
 40
0.3729387522
 40
0.497829009
 40
0.6230372223
 40
0.7485108312
 40
0.8742161211
 40
1.0
 40
1.0
 40
1.0
 40
1.0
 10
6.0684957057
 20
33.1605846303
 30
0.0
 10
6.1035509604
 20
32.9963469838
 30
0.0
 10
6.2023202603
 20
32.6729930573
 30
0.0
 10
6.4316160493
 20
32.2207116698
 30
0.0
 10
6.7354861506
 20
31.8132629846
 30
0.0
 10
7.1050509816
 20
31.4625476776
 30
0.0
 10
7.5296158024
 20
31.1787248239
 30
0.0
 10
7.9968820913
 20
30.9698716552
 30
0.0
 10
8.4931604097
 20
30.8421716008
 30
0.0
 10
8.8341899349
 20
30.8134915966
 30
0.0
 10
9.0044142404
 20
30.8134915966
 30
0.0
  0
SPLINE
  5
278
100
AcDbEntity
  8
0
100
AcDbSpline
 62
7
  6
BYLAYER
 70
0
 71
3
 72
15
 73
11
 74
0
 42
0.0000001
 43
0.0000001
 44
0.0000000001
 40
0.0
 40
0.0
 40
0.0
 40
0.0
 40
0.1257863471
 40
0.2514932069
 40
0.3769679948
 40
0.5021762833
 40
0.6270658325
 40
0.7516295694
 40
0.8759089048
 40
1.0
 40
1.0
 40
1.0
 40
1.0
 10
9.0044142404
 20
30.8134915966
 30
0.0
 10
9.1749949851
 20
30.8134915966
 30
0.0
 10
9.5167403288
 20
30.8422918848
 30
0.0
 10
10.013996496
 20
30.9705245548
 30
0.0
 10
10.4820599786
 20
31.1802302744
 30
0.0
 10
10.9071607015
 20
31.4651771445
 30
0.0
 10
11.2769316598
 20
31.8172204517
 30
0.0
 10
11.5806306149
 20
32.2261200892
 30
0.0
 10
11.8093379443
 20
32.6798819882
 30
0.0
 10
11.9074357059
 20
33.0041775349
 30
0.0
 10
11.9420851626
 20
33.168853506
 30
0.0
  0
SPLINE
  5
279
100
AcDbEntity
  8
0
100
AcDbSpline
 62
7
  6
BYLAYER
 70
0
 71
3
 72
16
 73
12
 74
0
 42
0.0000001
 43
0.0000001
 44
0.0000000001
 40
0.0
 40
0.0
 40
0.0
 40
0.0
 40
0.1249859429
 40
0.1875453954
 40
0.2501031847
 40
0.3750866269
 40
0.5000678219
 40
0.6250562558
 40
0.7500327421
 40
0.8750383378
 40
1.0
 40
1.0
 40
1.0
 40
1.0
 10
26.0994696757
 20
32.9826737941
 30
0.0
 10
26.1143052808
 20
33.1704208355
 30
0.0
 10
26.1623253658
 20
33.4509855835
 30
0.0
 10
26.2759885942
 20
33.8106909639
 30
0.0
 10
26.4218096523
 20
34.1587024354
 30
0.0
 10
26.6630106706
 20
34.5664913986
 30
0.0
 10
27.0369804785
 20
34.9942341905
 30
0.0
 10
27.4838878021
 20
35.3452908026
 30
0.0
 10
27.9886789273
 20
35.6066294898
 30
0.0
 10
28.5335887008
 20
35.7678479795
 30
0.0
 10
28.9112362074
 20
35.8042300053
 30
0.0
 10
29.0995318981
 20
35.8042300709
 30
0.0
  0
SPLINE
  5
27A
100
AcDbEntity
  8
0
100
AcDbSpline
 62
7
  6
BYLAYER
 70
0
 71
3
 72
15
 73
11
 74
0
 42
0.0000001
 43
0.0000001
 44
0.0000000001
 40
0.0
 40
0.0
 40
0.0
 40
0.0
 40
0.1249896045
 40
0.2499944108
 40
0.3749914439
 40
0.4999863654
 40
0.6249811634
 40
0.7499845673
 40
0.8749939212
 40
1.0
 40
1.0
 40
1.0
 40
1.0
 10
29.0995318981
 20
35.8042300709
 30
0.0
 10
29.307068031
 20
35.8042301432
 30
0.0
 10
29.7235048606
 20
35.7600012252
 30
0.0
 10
30.3191819589
 20
35.5640277075
 30
0.0
 10
30.860937371
 20
35.2478182021
 30
0.0
 10
31.3253354135
 20
34.8263915052
 30
0.0
 10
31.6935174013
 20
34.3188459568
 30
0.0
 10
31.9511964468
 20
33.7472414197
 30
0.0
 10
32.089170189
 20
33.1359217428
 30
0.0
 10
32.0980855727
 20
32.7175925762
 30
0.0
 10
32.081735052
 20
32.5106740857
 30
0.0
  0
SPLINE
  5
27B
100
AcDbEntity
  8
0
100
AcDbSpline
 62
7
  6
BYLAYER
 70
0
 71
3
 72
16
 73
12
 74
0
 42
0.0000001
 43
0.0000001
 44
0.0000000001
 40
0.0
 40
0.0
 40
0.0
 40
0.0
 40
0.1249859454
 40
0.1875453979
 40
0.250103187
 40
0.3750866295
 40
0.5000678223
 40
0.625056258
 40
0.7500327439
 40
0.8750383403
 40
1.0
 40
1.0
 40
1.0
 40
1.0
 10
32.081735052
 20
32.5106740857
 30
0.0
 10
32.0668994455
 20
32.3229270807
 30
0.0
 10
32.0188793574
 20
32.0423623919
 30
0.0
 10
31.9052161669
 20
31.6826570806
 30
0.0
 10
31.7593951595
 20
31.3346456752
 30
0.0
 10
31.5181942466
 20
30.9268567711
 30
0.0
 10
31.1442245609
 20
30.4991140331
 30
0.0
 10
30.6973173934
 20
30.1480574238
 30
0.0
 10
30.1925264203
 20
29.8867186949
 30
0.0
 10
29.647616836
 20
29.7255000756
 30
0.0
 10
29.2699694159
 20
29.689117808
 30
0.0
 10
29.081673769
 20
29.689117808
 30
0.0
  0
SPLINE
  5
27C
100
AcDbEntity
  8
0
100
AcDbSpline
 62
7
  6
BYLAYER
 70
0
 71
3
 72
17
 73
13
 74
0
 42
0.0000001
 43
0.0000001
 44
0.0000000001
 40
0.0
 40
0.0
 40
0.0
 40
0.0
 40
0.1237424562
 40
0.2477695366
 40
0.3721815262
 40
0.434613949
 40
0.4971567714
 40
0.6224280328
 40
0.7480393715
 40
0.8110138123
 40
0.8740625157
 40
1.0
 40
1.0
 40
1.0
 40
1.0
 10
26.1414216688
 20
32.9853680162
 30
0.0
 10
26.1579577089
 20
32.8044382552
 30
0.0
 10
26.2254624821
 20
32.4443665885
 30
0.0
 10
26.4258948689
 20
31.9327880491
 30
0.0
 10
26.6700081474
 20
31.5436846736
 30
0.0
 10
26.9060302366
 20
31.2631641435
 30
0.0
 10
27.1677900246
 20
31.0046663983
 30
0.0
 10
27.5389154661
 20
30.7279249922
 30
0.0
 10
27.9547568769
 20
30.5231447832
 30
0.0
 10
28.3057867085
 20
30.4064201691
 30
0.0
 10
28.6663383267
 20
30.3219980788
 30
0.0
 10
28.9445910756
 20
30.2957832899
 30
0.0
 10
29.1294969629
 20
30.2952433332
 30
0.0
  0
SPLINE
  5
27D
100
AcDbEntity
  8
0
100
AcDbSpline
 62
7
  6
BYLAYER
 70
0
 71
3
 72
15
 73
11
 74
0
 42
0.0000001
 43
0.0000001
 44
0.0000000001
 40
0.0
 40
0.0
 40
0.0
 40
0.0
 40
0.1240821463
 40
0.2484017826
 40
0.3730053401
 40
0.4979202921
 40
0.6231362494
 40
0.748585332
 40
0.8742868363
 40
1.0
 40
1.0
 40
1.0
 40
1.0
 10
32.0156397035
 20
15.9617309828
 30
0.0
 10
31.9715047247
 20
16.1149870429
 30
0.0
 10
31.8577919084
 20
16.4151311834
 30
0.0
 10
31.6160947994
 20
16.8315287882
 30
0.0
 10
31.3094553457
 20
17.2042344775
 30
0.0
 10
30.9459008963
 20
17.5233583251
 30
0.0
 10
30.5349466492
 20
17.7805768666
 30
0.0
 10
30.0872581256
 20
17.9693157229
 30
0.0
 10
29.6147247606
 20
18.0844244719
 30
0.0
 10
29.2909950344
 20
18.1103051527
 30
0.0
 10
29.1294141317
 20
18.1103051498
 30
0.0
  0
SPLINE
  5
27E
100
AcDbEntity
  8
0
100
AcDbSpline
 62
7
  6
BYLAYER
 70
0
 71
3
 72
15
 73
11
 74
0
 42
0.0000001
 43
0.0000001
 44
0.0000000001
 40
0.0
 40
0.0
 40
0.0
 40
0.0
 40
0.1257141192
 40
0.25141349
 40
0.3768607194
 40
0.502075024
 40
0.6269887186
 40
0.7515928171
 40
0.8759145747
 40
1.0
 40
1.0
 40
1.0
 40
1.0
 10
29.1294141317
 20
18.1103051498
 30
0.0
 10
28.9678162751
 20
18.1103051469
 30
0.0
 10
28.6440563774
 20
18.0844204633
 30
0.0
 10
28.1714830524
 20
17.9692900428
 30
0.0
 10
27.7237652661
 20
17.7805173234
 30
0.0
 10
27.3127863129
 20
17.5232604041
 30
0.0
 10
26.949219232
 20
17.2040830692
 30
0.0
 10
26.6425810694
 20
16.8313127066
 30
0.0
 10
26.4008964832
 20
16.4148444829
 30
0.0
 10
26.2872041642
 20
16.1146511954
 30
0.0
 10
26.2430831652
 20
15.9613705722
 30
0.0
  0
SPLINE
  5
27F
100
AcDbEntity
  8
0
100
AcDbSpline
 62
7
  6
BYLAYER
 70
0
 71
3
 72
15
 73
11
 74
0
 42
0.0000001
 43
0.0000001
 44
0.0000000001
 40
0.0
 40
0.0
 40
0.0
 40
0.0
 40
0.1260188684
 40
0.2519302889
 40
0.3774934122
 40
0.5027198
 40
0.6275492236
 40
0.7519967374
 40
0.8761184322
 40
1.0
 40
1.0
 40
1.0
 40
1.0
 10
29.1294969629
 20
30.2952433332
 30
0.0
 10
29.2955746669
 20
30.2947583579
 30
0.0
 10
29.628299588
 20
30.3210189175
 30
0.0
 10
30.1133522253
 20
30.440782481
 30
0.0
 10
30.5714434964
 20
30.6379541693
 30
0.0
 10
30.9897525022
 20
30.9068513348
 30
0.0
 10
31.3567600532
 20
31.2402607514
 30
0.0
 10
31.6623093777
 20
31.6289792401
 30
0.0
 10
31.8979313453
 20
32.0621037358
 30
0.0
 10
32.0041585056
 20
32.373151984
 30
0.0
 10
32.0436738928
 20
32.5315594185
 30
0.0
  0
SPLINE
  5
280
100
AcDbEntity
  8
0
100
AcDbSpline
 62
7
  6
BYLAYER
 70
0
 71
3
 72
15
 73
11
 74
0
 42
0.0000001
 43
0.0000001
 44
0.0000000001
 40
0.0
 40
0.0
 40
0.0
 40
0.0
 40
0.1249896052
 40
0.249994418
 40
0.3749914551
 40
0.4999863829
 40
0.6249811806
 40
0.749984581
 40
0.8749939265
 40
1.0
 40
1.0
 40
1.0
 40
1.0
 10
29.081673769
 20
29.689117808
 30
0.0
 10
28.874137595
 20
29.689117808
 30
0.0
 10
28.4577006616
 20
29.7333464151
 30
0.0
 10
27.8620233676
 20
29.929319881
 30
0.0
 10
27.320267782
 20
30.2455293583
 30
0.0
 10
26.8558695204
 20
30.666956032
 30
0.0
 10
26.4876874798
 20
31.1745016988
 30
0.0
 10
26.2300083061
 20
31.746106281
 30
0.0
 10
26.0920345082
 20
32.3574260486
 30
0.0
 10
26.0831191572
 20
32.7757552722
 30
0.0
 10
26.0994696757
 20
32.9826737941
 30
0.0
  0
ELLIPSE
  5
281
100
AcDbEntity
  8
0
100
AcDbEllipse
 62
7
  6
BYLAYER
 10
9.0044142404
 20
15.3181501185
 30
0.0
 11
-0.0
 21
3.0462798357
 31
0.0
 40
0.984807753
 41
-2.4798353547
 42
-2.1564818703
  0
ELLIPSE
  5
282
100
AcDbEntity
  8
0
100
AcDbEllipse
 62
7
  6
BYLAYER
 10
9.0044142404
 20
15.3181501185
 30
0.0
 11
0.0
 21
3.0462798357
 31
0.0
 40
0.984807753
 41
-4.1267034369
 42
-3.8033500651
  0
ELLIPSE
  5
283
100
AcDbEntity
  8
0
100
AcDbEllipse
 62
7
  6
BYLAYER
 10
9.0044142404
 20
16.0234580413
 30
0.0
 11
0.0
 21
3.0462798357
 31
0.0
 40
0.984807753
 41
4.1267034369
 42
8.4396671774
  0
ELLIPSE
  5
284
100
AcDbEntity
  8
0
100
AcDbEllipse
 62
7
  6
BYLAYER
 10
9.0044142404
 20
32.7961498019
 30
0.0
 11
0.0
 21
3.0462798357
 31
0.0
 40
0.984807753
 41
0.0
 42
6.2831853072
  0
ELLIPSE
  5
285
100
AcDbEntity
  8
0
100
AcDbEllipse
 62
7
  6
BYLAYER
 10
29.1294142404
 20
16.0234580413
 30
0.0
 11
0.0
 21
3.0462798357
 31
0.0
 40
0.984807753
 41
0.0
 42
6.2831853072
  0
ENDSEC
  0
SECTION
  2
OBJECTS
  0
DICTIONARY
  5
C
100
AcDbDictionary
280
0
281
1
  3
ACAD_GROUP
350
D
  3
ACAD_MLINESTYLE
350
17
  3
ACAD_LAYOUT
350
1A
  3
ACAD_PLOTSETTINGS
350
19
  3
ACAD_PLOTSTYLENAME
350
E
  0
DICTIONARY
  5
D
102
{ACAD_REACTORS
330
C
102
}
100
AcDbDictionary
280
0
281
1
  0
ACDBDICTIONARYWDFLT
  5
E
102
{ACAD_REACTORS
330
C
102
}
100
AcDbDictionary
281
1
  3
Normal
350
F
100
AcDbDictionaryWithDefault
340
F
  0
DICTIONARY
  5
17
102
{ACAD_REACTORS
330
C
102
}
100
AcDbDictionary
280
0
281
1
  3
Standard
350
18
  0
DICTIONARY
  5
19
102
{ACAD_REACTORS
330
C
102
}
100
AcDbDictionary
281
1
  0
DICTIONARY
  5
1A
102
{ACAD_REACTORS
330
C
102
}
100
AcDbDictionary
281
1
  3
Model
350
286
  3
Layout1
350
287
  0
ACDBPLACEHOLDER
  5
F
102
{ACAD_REACTORS
330
E
102
}
  0
MLINESTYLE
  5
18
102
{ACAD_REACTORS
330
17
102
}
100
AcDbMlineStyle
  2
STANDARD
 70
0
  3

 62
256
 51
90.0
 52
90.0
 71
2
 49
0.5
 62
256
  6
BYLAYER
 49
-0.5
 62
256
  6
BYLAYER
  0
LAYOUT
  5
286
102
{ACAD_REACTORS
330
1A
102
}
100
AcDbPlotSettings
  1

  2
none_device
  4

  6

 40
0.0
 41
0.0
 42
0.0
 43
0.0
 44
210.0
 45
297.0
 46
0.0
 47
0.0
 48
0.0
 49
0.0
140
0.0
141
0.0
142
1.0
143
1.0
 70
1024
 72
1
 73
0
 74
0
  7

 75
0
147
1.0
148
0.0
149
0.0
100
AcDbLayout
  1
Model
 70
0
 71
0
 10
0.0
 20
0.0
 11
210.0
 21
297.0
 12
0.0
 22
0.0
 32
0.0
 14
0.0
 24
0.0
 34
0.0
 15
0.0
 25
0.0
 35
0.0
146
0.0
 13
0.0
 23
0.0
 33
0.0
 16
1.0
 26
0.0
 36
0.0
 17
0.0
 27
1.0
 37
0.0
 76
0
330
210
345
0
346
0
  0
LAYOUT
  5
287
102
{ACAD_REACTORS
330
1A
102
}
100
AcDbPlotSettings
  1

  2
none_device
  4

  6

 40
0.0
 41
0.0
 42
0.0
 43
0.0
 44
210.0
 45
297.0
 46
0.0
 47
0.0
 48
0.0
 49
0.0
140
0.0
141
0.0
142
1.0
143
1.0
 70
0
 72
1
 73
0
 74
0
  7

 75
0
147
1.0
148
0.0
149
0.0
100
AcDbLayout
  1
Layout1
 70
0
 71
1
 10
0.0
 20
0.0
 11
210.0
 21
297.0
 12
0.0
 22
0.0
 32
0.0
 14
0.0
 24
0.0
 34
0.0
 15
0.0
 25
0.0
 35
0.0
146
0.0
 13
0.0
 23
0.0
 33
0.0
 16
1.0
 26
0.0
 36
0.0
 17
0.0
 27
1.0
 37
0.0
 76
0
330
211
345
0
346
0
  0
ENDSEC
  0
EOF
