999
DXF file: C:\Users\sesa63760\Dev\_Creo\CAD\MCADID0001389_3D-CAD\drw0001_2.dxf
999
Pro/ENGINEER 2019471 by Parametric Technology Corporation
  0
SECTION
  2
HEADER
  9
$ACADVER
  1
AC1024
  9
$DWGCODEPAGE
  3
ANSI_1252
  9
$EXTMAX
 10
91.2811232901
 20
129.0975886531
 30
0.0
  9
$EXTMIN
 10
0.0
 20
0.0
 30
0.0
  9
$LIMMIN
 10
0.0
 20
0.0
  9
$LIMMAX
 10
91.2811232901
 20
129.0975886531
  9
$VIEWCTR
 10
45.640561645
 20
64.5487943265
  9
$VIEWSIZE
 40
129.0975886531
  9
$CLAYER
  8
0
  9
$LTSCALE
 40
8.4152502233
  9
$CELTYPE
  6
BYLAYER
  9
$DIMSCALE
 40
1.0
  9
$DIMASZ
 40
1.0866800392
  9
$DIMEXO
 40
1.0
  9
$DIMDLI
 40
5.8141728816
  9
$DIMEXE
 40
1.0
  9
$DIMCEN
 40
1.3770409456
  9
$DIMLFAC
 40
1.0
  9
$DIMBLK
  1
_FILLED
  9
$DIMALT
 70
0
  9
$DIMALTF
 40
0.0393700787
  9
$DIMTXT
 40
1.5213520548
  9
$DIMTOL
 70
1
  9
$DIMLIM
 70
0
  9
$DIMTFAC
 40
1.0
  9
$DIMTP
 40
0.01
  9
$DIMTM
 40
0.01
  9
$DIMGAP
 40
0.625
  9
$DIMDSEP
 70
46
  9
$AUNITS
 70
0
  9
$PDMODE
 70
3
  9
$PDSIZE
 40
0.3125
  9
$HANDSEED
  5
2E3
  9
$TILEMODE
 70
1
  9
$MEASUREMENT
 70
1
  9
$INSUNITS
 70
4
  0
ENDSEC
  0
SECTION
  2
CLASSES
  0
CLASS
  1
ACDBDICTIONARYWDFLT
  2
AcDbDictionaryWithDefault
  3
AutoCAD 2000
 90
0
 91
1
280
0
281
0
  0
CLASS
  1
ACDBPLACEHOLDER
  2
AcDbPlaceHolder
  3
AutoCAD 2000
 90
0
 91
1
280
0
281
0
  0
CLASS
  1
LAYOUT
  2
AcDbLayout
  3
AutoCAD 2000
 90
0
 91
0
280
0
281
0
  0
ENDSEC
  0
SECTION
  2
TABLES
  0
TABLE
  2
VPORT
  5
8
100
AcDbSymbolTable
 70
2
  0
VPORT
  5
1F4
100
AcDbSymbolTableRecord
100
AcDbViewportTableRecord
  2
*ACTIVE
 70
0
 10
0.0
 20
0.0
 11
1.0
 21
1.0
 12
45.640561645
 22
64.5487943265
 13
0.0
 23
0.0
 14
1.0
 24
1.0
 15
0.0
 25
0.0
 16
0.0
 26
0.0
 36
1.0
 17
0.0
 27
0.0
 37
0.0
 40
129.0975886531
 41
0.7070707071
 42
50.0
 43
0.0
 44
0.0
 50
0.0
 51
0.0
 71
0
 72
100
 73
1
 74
1
 75
0
 76
0
 77
0
 78
0
  0
ENDTAB
  0
TABLE
  2
LTYPE
  5
5
100
AcDbSymbolTable
 70
6
  0
LTYPE
  5
14
100
AcDbSymbolTableRecord
100
AcDbLinetypeTableRecord
  2
BYBLOCK
 70
0
  3

 72
65
 73
0
 40
0.0
  0
LTYPE
  5
15
100
AcDbSymbolTableRecord
100
AcDbLinetypeTableRecord
  2
BYLAYER
 70
0
  3

 72
65
 73
0
 40
0.0
  0
LTYPE
  5
16
100
AcDbSymbolTableRecord
100
AcDbLinetypeTableRecord
  2
CONTINUOUS
 70
64
  3
Solid line
 72
65
 73
0
 40
0.0
  0
LTYPE
  5
1F5
100
AcDbSymbolTableRecord
100
AcDbLinetypeTableRecord
  2
CENTER
 70
64
  3
____ _ ____ _ ____ _ ____ _ ____ _ ____ _ ____
 72
65
 73
4
 40
0.6
 49
0.375
 74
0
 49
-0.075
 74
0
 49
0.075
 74
0
 49
-0.075
 74
0
  0
LTYPE
  5
1F6
100
AcDbSymbolTableRecord
100
AcDbLinetypeTableRecord
  2
HIDDEN
 70
64
  3
- - - - - - - - - - - - - - - - - - - -
 72
65
 73
2
 40
0.2
 49
0.1
 74
0
 49
-0.1
 74
0
  0
LTYPE
  5
1F7
100
AcDbSymbolTableRecord
100
AcDbLinetypeTableRecord
  2
PHANTOM
 70
64
  3
_____ _ _ _____ _ _ _____ _ _ _____
 72
65
 73
6
 40
0.8
 49
0.45
 74
0
 49
-0.05
 74
0
 49
0.1
 74
0
 49
-0.05
 74
0
 49
0.1
 74
0
 49
-0.05
 74
0
  0
LTYPE
  5
1F8
100
AcDbSymbolTableRecord
100
AcDbLinetypeTableRecord
  2
DOT
 70
64
  3
. . . . . . . . . . . . . . . . . . . .
 72
65
 73
2
 40
0.2
 49
0.1
 74
0
 49
-0.1
 74
0
  0
LTYPE
  5
1F9
100
AcDbSymbolTableRecord
100
AcDbLinetypeTableRecord
  2
DASHED
 70
64
  3
- - - - - - - - - - - - - - - - - - - -
 72
65
 73
2
 40
0.2
 49
0.1
 74
0
 49
-0.1
 74
0
  0
ENDTAB
  0
TABLE
  2
LAYER
  5
2
100
AcDbSymbolTable
 70
36
  0
LAYER
  5
10
100
AcDbSymbolTableRecord
100
AcDbLayerTableRecord
  2
0
 70
0
 62
7
  6
CONTINUOUS
370
-3
390
F
  0
LAYER
  5
1FA
100
AcDbSymbolTableRecord
100
AcDbLayerTableRecord
  2
DEFAULT_1
 70
0
 62
7
  6
CENTER
370
-3
390
F
  0
LAYER
  5
1FB
100
AcDbSymbolTableRecord
100
AcDbLayerTableRecord
  2
DEFAULT_2
 70
0
 62
8
  6
HIDDEN
370
-3
390
F
  0
LAYER
  5
1FC
100
AcDbSymbolTableRecord
100
AcDbLayerTableRecord
  2
DEFAULT_3
 70
0
 62
7
  6
PHANTOM
370
-3
390
F
  0
LAYER
  5
1FD
100
AcDbSymbolTableRecord
100
AcDbLayerTableRecord
  2
00_COMPONENTS
 70
0
 62
7
  6
CONTINUOUS
370
-3
390
F
  0
LAYER
  5
1FE
100
AcDbSymbolTableRecord
100
AcDbLayerTableRecord
  2
01_1_DEFAULT_DATUMS
 70
0
 62
7
  6
CONTINUOUS
370
-3
390
F
  0
LAYER
  5
1FF
100
AcDbSymbolTableRecord
100
AcDbLayerTableRecord
  2
01_PLANES
 70
0
 62
7
  6
CONTINUOUS
370
-3
390
F
  0
LAYER
  5
200
100
AcDbSymbolTableRecord
100
AcDbLayerTableRecord
  2
02_COORD_SYS
 70
0
 62
7
  6
CONTINUOUS
370
-3
390
F
  0
LAYER
  5
201
100
AcDbSymbolTableRecord
100
AcDbLayerTableRecord
  2
03_AXES
 70
0
 62
7
  6
CONTINUOUS
370
-3
390
F
  0
LAYER
  5
202
100
AcDbSymbolTableRecord
100
AcDbLayerTableRecord
  2
04_POINTS
 70
0
 62
7
  6
CONTINUOUS
370
-3
390
F
  0
LAYER
  5
203
100
AcDbSymbolTableRecord
100
AcDbLayerTableRecord
  2
05_CURVES
 70
0
 62
7
  6
CONTINUOUS
370
-3
390
F
  0
LAYER
  5
204
100
AcDbSymbolTableRecord
100
AcDbLayerTableRecord
  2
06_SURFS
 70
0
 62
7
  6
CONTINUOUS
370
-3
390
F
  0
LAYER
  5
205
100
AcDbSymbolTableRecord
100
AcDbLayerTableRecord
  2
07_COSMETICS
 70
0
 62
7
  6
CONTINUOUS
370
-3
390
F
  0
LAYER
  5
206
100
AcDbSymbolTableRecord
100
AcDbLayerTableRecord
  2
10_NOTES
 70
0
 62
7
  6
CONTINUOUS
370
-3
390
F
  0
LAYER
  5
207
100
AcDbSymbolTableRecord
100
AcDbLayerTableRecord
  2
11_NOTES_PUB
 70
0
 62
7
  6
CONTINUOUS
370
-3
390
F
  0
LAYER
  5
208
100
AcDbSymbolTableRecord
100
AcDbLayerTableRecord
  2
13_REF_GTOL
 70
0
 62
7
  6
CONTINUOUS
370
-3
390
F
  0
LAYER
  5
209
100
AcDbSymbolTableRecord
100
AcDbLayerTableRecord
  2
16_MISC
 70
0
 62
7
  6
CONTINUOUS
370
-3
390
F
  0
LAYER
  5
20A
100
AcDbSymbolTableRecord
100
AcDbLayerTableRecord
  2
17_NO_PRINT
 70
0
 62
7
  6
CONTINUOUS
370
-3
390
F
  0
LAYER
  5
20B
100
AcDbSymbolTableRecord
100
AcDbLayerTableRecord
  2
18_DATUM_CAMS_JOINTS
 70
0
 62
7
  6
CONTINUOUS
370
-3
390
F
  0
LAYER
  5
20C
100
AcDbSymbolTableRecord
100
AcDbLayerTableRecord
  2
19_DATUM_FUNCTIONAL
 70
0
 62
7
  6
CONTINUOUS
370
-3
390
F
  0
LAYER
  5
20D
100
AcDbSymbolTableRecord
100
AcDbLayerTableRecord
  2
20_DATUM_KINEMATIC_SCHEME
 70
0
 62
7
  6
CONTINUOUS
370
-3
390
F
  0
LAYER
  5
20E
100
AcDbSymbolTableRecord
100
AcDbLayerTableRecord
  2
INTFCLR_16532
 70
0
 62
7
  6
CONTINUOUS
370
-3
390
F
  0
LAYER
  5
20F
100
AcDbSymbolTableRecord
100
AcDbLayerTableRecord
  2
_1
 70
0
 62
7
  6
CONTINUOUS
370
-3
390
F
  0
ENDTAB
  0
TABLE
  2
STYLE
  5
3
100
AcDbSymbolTable
 70
1
  0
STYLE
  5
11
100
AcDbSymbolTableRecord
100
AcDbTextStyleTableRecord
  2
STANDARD
 70
0
 40
0.0
 41
0.8
 50
0.0
 71
0
 42
0.2
  3
txt
  4

  0
STYLE
  5
210
100
AcDbSymbolTableRecord
100
AcDbTextStyleTableRecord
  2
TEXTSTYLE_1
 70
0
 40
0.0
 41
0.8
 50
0.0
 71
0
 42
0.2
  3
gdt
  4

  0
ENDTAB
  0
TABLE
  2
VIEW
  5
6
100
AcDbSymbolTable
 70
0
  0
ENDTAB
  0
TABLE
  2
UCS
  5
7
100
AcDbSymbolTable
 70
0
  0
ENDTAB
  0
TABLE
  2
APPID
  5
9
100
AcDbSymbolTable
 70
1
  0
APPID
  5
211
100
AcDbSymbolTableRecord
100
AcDbRegAppTableRecord
  2
ACAD
 70
0
  0
ENDTAB
  0
TABLE
  2
BLOCK_RECORD
  5
1
100
AcDbSymbolTable
 70
0
  0
BLOCK_RECORD
  5
212
100
AcDbSymbolTableRecord
100
AcDbBlockTableRecord
  2
*Model_Space
  0
BLOCK_RECORD
  5
213
100
AcDbSymbolTableRecord
100
AcDbBlockTableRecord
  2
*Paper_Space
  0
BLOCK_RECORD
  5
214
100
AcDbSymbolTableRecord
100
AcDbBlockTableRecord
  2
_FILLED
  0
ENDTAB
  0
TABLE
  2
DIMSTYLE
  5
A
100
AcDbSymbolTable
 70
1
100
AcDbDimStyleTable
 71
0
  0
DIMSTYLE
105
215
100
AcDbSymbolTableRecord
100
AcDbDimStyleTableRecord
  2
STANDARD
 70
0
  3

  4

 40
1.0
 41
1.0866800392
 42
1.0
 43
0.38
 44
1.0
 45
0.0
 46
0.0
 47
0.01
 48
0.01
140
1.5213520548
141
0.09
142
0.0
143
25.4
144
1.0
145
0.0
146
1.0
147
0.625
 71
1
 72
0
 73
0
 74
0
 75
0
 76
0
 77
1
 78
8
 79
2
170
0
171
1
172
0
173
0
174
0
175
0
176
0
177
0
178
0
270
2
179
2
271
2
272
2
273
2
274
2
275
0
280
0
281
0
282
0
283
1
284
8
285
0
286
0
287
3
288
0
340
11
278
46
341
214
342
214
343
214
344
214
  0
ENDTAB
  0
ENDSEC
  0
SECTION
  2
BLOCKS
  0
BLOCK
  5
20
100
AcDbEntity
  8
0
100
AcDbBlockBegin
  2
*Model_Space
 70
0
 10
0.0
 20
0.0
 30
0.0
  3
*Model_Space
  1

  0
ENDBLK
  5
21
100
AcDbEntity
  8
0
100
AcDbBlockEnd
  0
BLOCK
  5
1C
100
AcDbEntity
  8
0
100
AcDbBlockBegin
  2
*Paper_Space
 70
0
 10
0.0
 20
0.0
 30
0.0
  3
*Paper_Space
  1

  0
ENDBLK
  5
1D
100
AcDbEntity
  8
0
100
AcDbBlockEnd
  0
BLOCK
  5
216
100
AcDbEntity
  8
0
100
AcDbBlockBegin
  2
_FILLED
 70
64
 10
0.0
 20
0.0
  3
_FILLED
  1

  0
SOLID
  5
217
100
AcDbEntity
  8
0
  6
BYBLOCK
 62
0
100
AcDbTrace
 10
0.0
 20
0.0
 11
-1.0
 21
0.25
 12
-1.0
 22
-0.25
 13
-1.0
 23
-0.25
  0
ENDBLK
  5
218
100
AcDbEntity
  8
0
  6
BYBLOCK
 62
0
100
AcDbBlockEnd
  0
ENDSEC
  0
SECTION
  2
ENTITIES
  0
LINE
  5
219
100
AcDbEntity
  8
_1
100
AcDbLine
 62
7
  6
CONTINUOUS
 10
16.7025108005
 20
8.6117730502
 11
75.8427259647
 21
8.6117730502
  0
LINE
  5
21A
100
AcDbEntity
  8
_1
100
AcDbLine
 62
7
  6
CONTINUOUS
 10
78.31889583
 20
21.1117730502
 11
74.8295715096
 21
21.1117730502
  0
LINE
  5
21B
100
AcDbEntity
  8
_1
100
AcDbLine
 62
7
  6
CONTINUOUS
 10
14.2263409353
 20
21.1117730502
 11
17.7156652556
 21
21.1117730502
  0
LINE
  5
21C
100
AcDbEntity
  8
_1
100
AcDbLine
 62
7
  6
CONTINUOUS
 10
11.4381202587
 20
32.0484662591
 11
11.7030228536
 21
13.5402169937
  0
LINE
  5
21D
100
AcDbEntity
  8
_1
100
AcDbLine
 62
7
  6
CONTINUOUS
 10
11.363484677
 20
33.1995270352
 11
11.2726183826
 21
43.6117730502
  0
LINE
  5
21E
100
AcDbEntity
  8
_1
100
AcDbLine
 62
7
  6
CONTINUOUS
 10
11.2726183826
 20
43.6117730502
 11
11.363484677
 21
54.0240190652
  0
LINE
  5
21F
100
AcDbEntity
  8
_1
100
AcDbLine
 62
7
  6
CONTINUOUS
 10
11.7030228536
 20
73.6833291067
 11
11.4346131875
 21
54.9300473304
  0
LINE
  5
220
100
AcDbEntity
  8
_1
100
AcDbLine
 62
7
  6
CONTINUOUS
 10
81.1419204376
 20
32.4631553665
 11
75.7726183826
 21
32.4631553665
  0
LINE
  5
221
100
AcDbEntity
  8
_1
100
AcDbLine
 62
7
  6
CONTINUOUS
 10
16.7726183826
 20
32.4631553665
 11
11.4033163277
 21
32.4631553665
  0
LINE
  5
222
100
AcDbEntity
  8
_1
100
AcDbLine
 62
7
  6
CONTINUOUS
 10
17.5226183826
 20
88.8117730502
 11
17.5226183826
 21
106.1087969238
  0
LINE
  5
223
100
AcDbEntity
  8
_1
100
AcDbLine
 62
7
  6
CONTINUOUS
 10
18.2908753114
 20
108.7754633203
 11
18.2908753114
 21
93.8117730502
  0
LINE
  5
224
100
AcDbEntity
  8
_1
100
AcDbLine
 62
7
  6
CONTINUOUS
 10
18.5226183826
 20
85.2117730502
 11
18.5226183826
 21
80.6117730502
  0
LINE
  5
225
100
AcDbEntity
  8
_1
100
AcDbLine
 62
7
  6
CONTINUOUS
 10
18.7726183826
 20
85.2117730502
 11
18.7726183826
 21
87.2117730502
  0
LINE
  5
226
100
AcDbEntity
  8
_1
100
AcDbLine
 62
7
  6
CONTINUOUS
 10
19.5226183826
 20
87.7117730502
 11
19.5226183826
 21
88.8117730502
  0
LINE
  5
227
100
AcDbEntity
  8
_1
100
AcDbLine
 62
7
  6
CONTINUOUS
 10
18.3075285125
 20
80.6117730502
 11
18.2726183826
 21
78.6117730502
  0
LINE
  5
228
100
AcDbEntity
  8
_1
100
AcDbLine
 62
7
  6
CONTINUOUS
 10
28.7726183826
 20
36.9451065502
 11
63.7726183826
 21
36.9451065502
  0
LINE
  5
229
100
AcDbEntity
  8
_1
100
AcDbLine
 62
7
  6
CONTINUOUS
 10
23.7477189158
 20
11.4649685422
 11
23.6237398191
 21
25.6715618979
  0
LINE
  5
22A
100
AcDbEntity
  8
_1
100
AcDbLine
 62
7
  6
CONTINUOUS
 10
21.2726183826
 20
78.6117730502
 11
21.2726183826
 21
80.6117730502
  0
LINE
  5
22B
100
AcDbEntity
  8
_1
100
AcDbLine
 62
7
  6
CONTINUOUS
 10
21.5226183826
 20
80.6117730502
 11
21.5226183826
 21
85.2117730502
  0
LINE
  5
22C
100
AcDbEntity
  8
_1
100
AcDbLine
 62
7
  6
CONTINUOUS
 10
21.7840293683
 20
88.8117730502
 11
21.7840293683
 21
87.7117730502
  0
LINE
  5
22D
100
AcDbEntity
  8
_1
100
AcDbLine
 62
7
  6
CONTINUOUS
 10
24.2726183826
 20
85.2117730502
 11
24.2726183826
 21
87.2117730502
  0
LINE
  5
22E
100
AcDbEntity
  8
_1
100
AcDbLine
 62
7
  6
CONTINUOUS
 10
24.511207397
 20
85.2117730502
 11
24.511207397
 21
88.8117730502
  0
LINE
  5
22F
100
AcDbEntity
  8
_1
100
AcDbLine
 62
7
  6
CONTINUOUS
 10
25.3226183826
 20
72.1117730502
 11
25.3226183826
 21
78.6117730502
  0
LINE
  5
230
100
AcDbEntity
  8
_1
100
AcDbLine
 62
7
  6
CONTINUOUS
 10
26.2726183826
 20
39.4451065502
 11
26.2726183826
 21
47.7784395502
  0
LINE
  5
231
100
AcDbEntity
  8
_1
100
AcDbLine
 62
7
  6
CONTINUOUS
 10
73.319452763
 20
12.6758513733
 11
70.8445790289
 21
15.1507251075
  0
LINE
  5
232
100
AcDbEntity
  8
_1
100
AcDbLine
 62
7
  6
CONTINUOUS
 10
28.7726183826
 20
50.2784395502
 11
63.7726183826
 21
50.2784395502
  0
LINE
  5
233
100
AcDbEntity
  8
_1
100
AcDbLine
 62
7
  6
CONTINUOUS
 10
74.7336663254
 20
19.039812404
 11
77.2085400595
 21
16.5649386698
  0
LINE
  5
234
100
AcDbEntity
  8
_1
100
AcDbLine
 62
7
  6
CONTINUOUS
 10
38.5340293683
 20
88.8117730502
 11
38.5340293683
 21
85.2117730502
  0
LINE
  5
235
100
AcDbEntity
  8
_1
100
AcDbLine
 62
7
  6
CONTINUOUS
 10
38.7726183826
 20
85.2117730502
 11
38.7726183826
 21
87.2117730502
  0
LINE
  5
236
100
AcDbEntity
  8
_1
100
AcDbLine
 62
7
  6
CONTINUOUS
 10
41.261207397
 20
87.7117730502
 11
41.261207397
 21
88.8117730502
  0
LINE
  5
237
100
AcDbEntity
  8
_1
100
AcDbLine
 62
7
  6
CONTINUOUS
 10
41.5226183826
 20
85.2117730502
 11
41.5226183826
 21
80.6117730502
  0
LINE
  5
238
100
AcDbEntity
  8
_1
100
AcDbLine
 62
7
  6
CONTINUOUS
 10
43.5226183826
 20
88.8117730502
 11
43.5226183826
 21
87.7117730502
  0
LINE
  5
239
100
AcDbEntity
  8
_1
100
AcDbLine
 62
7
  6
CONTINUOUS
 10
44.2726183826
 20
85.2117730502
 11
44.2726183826
 21
87.2117730502
  0
LINE
  5
23A
100
AcDbEntity
  8
_1
100
AcDbLine
 62
7
  6
CONTINUOUS
 10
44.2726183826
 20
87.3117730502
 11
44.2726183826
 21
88.8117730502
  0
LINE
  5
23B
100
AcDbEntity
  8
_1
100
AcDbLine
 62
7
  6
CONTINUOUS
 10
44.5226183826
 20
80.6117730502
 11
44.5226183826
 21
85.2117730502
  0
LINE
  5
23C
100
AcDbEntity
  8
_1
100
AcDbLine
 62
7
  6
CONTINUOUS
 10
44.7543614538
 20
93.8117730502
 11
44.7543614538
 21
108.7754633203
  0
LINE
  5
23D
100
AcDbEntity
  8
_1
100
AcDbLine
 62
7
  6
CONTINUOUS
 10
45.5226183826
 20
106.1087969238
 11
45.5226183826
 21
88.8117730502
  0
LINE
  5
23E
100
AcDbEntity
  8
_1
100
AcDbLine
 62
7
  6
CONTINUOUS
 10
46.2726183826
 20
80.6117730502
 11
46.2726183826
 21
82.4117730502
  0
LINE
  5
23F
100
AcDbEntity
  8
_1
100
AcDbLine
 62
7
  6
CONTINUOUS
 10
46.2726183826
 20
84.1117730502
 11
46.2726183826
 21
87.3117730502
  0
LINE
  5
240
100
AcDbEntity
  8
_1
100
AcDbLine
 62
7
  6
CONTINUOUS
 10
47.0226183826
 20
88.8117730502
 11
47.0226183826
 21
106.1087969238
  0
LINE
  5
241
100
AcDbEntity
  8
_1
100
AcDbLine
 62
7
  6
CONTINUOUS
 10
47.8607168504
 20
108.7984940626
 11
47.8607168504
 21
93.8117730502
  0
LINE
  5
242
100
AcDbEntity
  8
_1
100
AcDbLine
 62
7
  6
CONTINUOUS
 10
48.0226183826
 20
85.2117730502
 11
48.0226183826
 21
80.6117730502
  0
LINE
  5
243
100
AcDbEntity
  8
_1
100
AcDbLine
 62
7
  6
CONTINUOUS
 10
48.2726183826
 20
85.2117730502
 11
48.2726183826
 21
87.2117730502
  0
LINE
  5
244
100
AcDbEntity
  8
_1
100
AcDbLine
 62
7
  6
CONTINUOUS
 10
48.2726183826
 20
87.3117730502
 11
48.2726183826
 21
88.8117730502
  0
LINE
  5
245
100
AcDbEntity
  8
_1
100
AcDbLine
 62
7
  6
CONTINUOUS
 10
49.0226183826
 20
87.7117730502
 11
49.0226183826
 21
88.8117730502
  0
LINE
  5
246
100
AcDbEntity
  8
_1
100
AcDbLine
 62
7
  6
CONTINUOUS
 10
51.0226183826
 20
80.6117730502
 11
51.0226183826
 21
85.2117730502
  0
LINE
  5
247
100
AcDbEntity
  8
_1
100
AcDbLine
 62
7
  6
CONTINUOUS
 10
13.0638183767
 20
66.3117730502
 11
19.5226183826
 21
66.3117730502
  0
LINE
  5
248
100
AcDbEntity
  8
_1
100
AcDbLine
 62
7
  6
CONTINUOUS
 10
73.0226183826
 20
66.3117730502
 11
79.4814183886
 21
66.3117730502
  0
LINE
  5
249
100
AcDbEntity
  8
_1
100
AcDbLine
 62
7
  6
CONTINUOUS
 10
51.2840293683
 20
88.8117730502
 11
51.2840293683
 21
87.7117730502
  0
LINE
  5
24A
100
AcDbEntity
  8
_1
100
AcDbLine
 62
7
  6
CONTINUOUS
 10
53.7726183826
 20
85.2117730502
 11
53.7726183826
 21
87.2117730502
  0
LINE
  5
24B
100
AcDbEntity
  8
_1
100
AcDbLine
 62
7
  6
CONTINUOUS
 10
54.011207397
 20
85.2117730502
 11
54.011207397
 21
88.8117730502
  0
LINE
  5
24C
100
AcDbEntity
  8
_1
100
AcDbLine
 62
7
  6
CONTINUOUS
 10
15.3366967057
 20
16.5649386698
 11
17.8115704399
 21
19.039812404
  0
LINE
  5
24D
100
AcDbEntity
  8
_1
100
AcDbLine
 62
7
  6
CONTINUOUS
 10
21.7006577364
 20
15.1507251075
 11
19.2257840022
 21
12.6758513733
  0
LINE
  5
24E
100
AcDbEntity
  8
_1
100
AcDbLine
 62
7
  6
CONTINUOUS
 10
75.8427259647
 20
78.6117730502
 11
74.2726183826
 21
78.6117730502
  0
LINE
  5
24F
100
AcDbEntity
  8
_1
100
AcDbLine
 62
7
  6
CONTINUOUS
 10
18.2726183826
 20
78.6117730502
 11
16.7025108005
 21
78.6117730502
  0
LINE
  5
250
100
AcDbEntity
  8
_1
100
AcDbLine
 62
7
  6
CONTINUOUS
 10
18.4477748899
 20
78.6117730502
 11
74.0974618754
 21
78.6117730502
  0
LINE
  5
251
100
AcDbEntity
  8
_1
100
AcDbLine
 62
7
  6
CONTINUOUS
 10
18.3075285125
 20
80.6117730502
 11
74.2377082528
 21
80.6117730502
  0
LINE
  5
252
100
AcDbEntity
  8
_1
100
AcDbLine
 62
7
  6
CONTINUOUS
 10
48.0226183826
 20
82.4117730502
 11
44.5226183826
 21
82.4117730502
  0
LINE
  5
253
100
AcDbEntity
  8
_1
100
AcDbLine
 62
7
  6
CONTINUOUS
 10
66.2726183826
 20
39.4451065502
 11
66.2726183826
 21
47.7784395502
  0
LINE
  5
254
100
AcDbEntity
  8
_1
100
AcDbLine
 62
7
  6
CONTINUOUS
 10
67.2226183826
 20
78.6117730502
 11
67.2226183826
 21
72.1117730502
  0
LINE
  5
255
100
AcDbEntity
  8
_1
100
AcDbLine
 62
7
  6
CONTINUOUS
 10
68.0340293683
 20
88.8117730502
 11
68.0340293683
 21
85.2117730502
  0
LINE
  5
256
100
AcDbEntity
  8
_1
100
AcDbLine
 62
7
  6
CONTINUOUS
 10
68.2726183826
 20
85.2117730502
 11
68.2726183826
 21
87.2117730502
  0
LINE
  5
257
100
AcDbEntity
  8
_1
100
AcDbLine
 62
7
  6
CONTINUOUS
 10
44.5226183826
 20
83.2117730502
 11
48.0226183826
 21
83.2117730502
  0
LINE
  5
258
100
AcDbEntity
  8
_1
100
AcDbLine
 62
7
  6
CONTINUOUS
 10
44.5226183826
 20
84.1117730502
 11
48.0226183826
 21
84.1117730502
  0
LINE
  5
259
100
AcDbEntity
  8
_1
100
AcDbLine
 62
7
  6
CONTINUOUS
 10
18.5226183826
 20
85.2117730502
 11
44.5226183826
 21
85.2117730502
  0
LINE
  5
25A
100
AcDbEntity
  8
_1
100
AcDbLine
 62
7
  6
CONTINUOUS
 10
48.0226183826
 20
85.2117730502
 11
74.0226183826
 21
85.2117730502
  0
LINE
  5
25B
100
AcDbEntity
  8
_1
100
AcDbLine
 62
7
  6
CONTINUOUS
 10
70.761207397
 20
87.7117730502
 11
70.761207397
 21
88.8117730502
  0
LINE
  5
25C
100
AcDbEntity
  8
_1
100
AcDbLine
 62
7
  6
CONTINUOUS
 10
71.0226183826
 20
85.2117730502
 11
71.0226183826
 21
80.6117730502
  0
LINE
  5
25D
100
AcDbEntity
  8
_1
100
AcDbLine
 62
7
  6
CONTINUOUS
 10
71.2726183826
 20
80.6117730502
 11
71.2726183826
 21
78.6117730502
  0
LINE
  5
25E
100
AcDbEntity
  8
_1
100
AcDbLine
 62
7
  6
CONTINUOUS
 10
73.0226183826
 20
88.8117730502
 11
73.0226183826
 21
87.7117730502
  0
LINE
  5
25F
100
AcDbEntity
  8
_1
100
AcDbLine
 62
7
  6
CONTINUOUS
 10
68.9214969461
 20
25.6715618979
 11
68.7975178495
 21
11.4649685422
  0
LINE
  5
260
100
AcDbEntity
  8
_1
100
AcDbLine
 62
7
  6
CONTINUOUS
 10
18.7726183826
 20
87.2117730502
 11
24.2726183826
 21
87.2117730502
  0
LINE
  5
261
100
AcDbEntity
  8
_1
100
AcDbLine
 62
7
  6
CONTINUOUS
 10
38.7726183826
 20
87.2117730502
 11
44.2726183826
 21
87.2117730502
  0
LINE
  5
262
100
AcDbEntity
  8
_1
100
AcDbLine
 62
7
  6
CONTINUOUS
 10
48.2726183826
 20
87.2117730502
 11
53.7726183826
 21
87.2117730502
  0
LINE
  5
263
100
AcDbEntity
  8
_1
100
AcDbLine
 62
7
  6
CONTINUOUS
 10
68.2726183826
 20
87.2117730502
 11
73.7726183826
 21
87.2117730502
  0
LINE
  5
264
100
AcDbEntity
  8
_1
100
AcDbLine
 62
7
  6
CONTINUOUS
 10
44.240126413
 20
87.3117730502
 11
48.3051103522
 21
87.3117730502
  0
LINE
  5
265
100
AcDbEntity
  8
_1
100
AcDbLine
 62
7
  6
CONTINUOUS
 10
19.2726183826
 20
87.7117730502
 11
23.7726183826
 21
87.7117730502
  0
LINE
  5
266
100
AcDbEntity
  8
_1
100
AcDbLine
 62
7
  6
CONTINUOUS
 10
39.2726183826
 20
87.7117730502
 11
43.7726183826
 21
87.7117730502
  0
LINE
  5
267
100
AcDbEntity
  8
_1
100
AcDbLine
 62
7
  6
CONTINUOUS
 10
48.7726183826
 20
87.7117730502
 11
53.2726183826
 21
87.7117730502
  0
LINE
  5
268
100
AcDbEntity
  8
_1
100
AcDbLine
 62
7
  6
CONTINUOUS
 10
68.7726183826
 20
87.7117730502
 11
73.2726183826
 21
87.7117730502
  0
LINE
  5
269
100
AcDbEntity
  8
_1
100
AcDbLine
 62
7
  6
CONTINUOUS
 10
17.5226183826
 20
88.8117730502
 11
45.5226183826
 21
88.8117730502
  0
LINE
  5
26A
100
AcDbEntity
  8
_1
100
AcDbLine
 62
7
  6
CONTINUOUS
 10
47.0226183826
 20
88.8117730502
 11
75.0226183826
 21
88.8117730502
  0
LINE
  5
26B
100
AcDbEntity
  8
_1
100
AcDbLine
 62
7
  6
CONTINUOUS
 10
45.5226183826
 20
91.2117730502
 11
47.0226183826
 21
91.2117730502
  0
LINE
  5
26C
100
AcDbEntity
  8
_1
100
AcDbLine
 62
7
  6
CONTINUOUS
 10
74.2726183826
 20
78.6117730502
 11
74.2377082528
 21
80.6117730502
  0
LINE
  5
26D
100
AcDbEntity
  8
_1
100
AcDbLine
 62
7
  6
CONTINUOUS
 10
73.7726183826
 20
85.2117730502
 11
73.7726183826
 21
87.2117730502
  0
LINE
  5
26E
100
AcDbEntity
  8
_1
100
AcDbLine
 62
7
  6
CONTINUOUS
 10
74.0226183826
 20
80.6117730502
 11
74.0226183826
 21
85.2117730502
  0
LINE
  5
26F
100
AcDbEntity
  8
_1
100
AcDbLine
 62
7
  6
CONTINUOUS
 10
74.1845199148
 20
93.8117730502
 11
74.1845199148
 21
108.7984940626
  0
LINE
  5
270
100
AcDbEntity
  8
_1
100
AcDbLine
 62
7
  6
CONTINUOUS
 10
75.0226183826
 20
106.1087969238
 11
75.0226183826
 21
88.8117730502
  0
LINE
  5
271
100
AcDbEntity
  8
_1
100
AcDbLine
 62
7
  6
CONTINUOUS
 10
74.1845199148
 20
93.8117730502
 11
47.8607168504
 21
93.8117730502
  0
LINE
  5
272
100
AcDbEntity
  8
_1
100
AcDbLine
 62
7
  6
CONTINUOUS
 10
44.7543614538
 20
93.8117730502
 11
18.2908753114
 21
93.8117730502
  0
LINE
  5
273
100
AcDbEntity
  8
_1
100
AcDbLine
 62
7
  6
CONTINUOUS
 10
81.1106235778
 20
54.9300473304
 11
80.8422139116
 21
73.6833291067
  0
LINE
  5
274
100
AcDbEntity
  8
_1
100
AcDbLine
 62
7
  6
CONTINUOUS
 10
81.1817520882
 20
54.0240190652
 11
81.2726183826
 21
43.6117730502
  0
LINE
  5
275
100
AcDbEntity
  8
_1
100
AcDbLine
 62
7
  6
CONTINUOUS
 10
81.2726183826
 20
43.6117730502
 11
81.1817520882
 21
33.1995270352
  0
LINE
  5
276
100
AcDbEntity
  8
_1
100
AcDbLine
 62
7
  6
CONTINUOUS
 10
80.8422139116
 20
13.5402169937
 11
81.1071165066
 21
32.0484662591
  0
LINE
  5
277
100
AcDbEntity
  8
_1
100
AcDbLine
 62
7
  6
CONTINUOUS
 10
25.7175112853
 20
120.0117730502
 11
37.32772548
 21
120.0117730502
  0
LINE
  5
278
100
AcDbEntity
  8
_1
100
AcDbLine
 62
7
  6
CONTINUOUS
 10
55.2175112853
 20
120.0117730502
 11
66.82772548
 21
120.0117730502
  0
ARC
  5
279
100
AcDbEntity
  8
_1
100
AcDbCircle
 62
7
  6
CONTINUOUS
 10
11.2726183839
 20
50.6117730469
 40
69.99235957
100
AcDbArc
 50
2.7943739039
 51
22.4821698275
  0
ARC
  5
27A
100
AcDbEntity
  8
_1
100
AcDbCircle
 62
7
  6
CONTINUOUS
 10
11.2726183839
 20
36.6117730535
 40
69.99235957
100
AcDbArc
 50
348.2054839286
 51
357.2056260961
  0
ARC
  5
27B
100
AcDbEntity
  8
_1
100
AcDbCircle
 62
7
  6
CONTINUOUS
 10
16.7726183826
 20
25.6117730502
 40
6.8513823163
100
AcDbArc
 50
0.50000014
 51
90.0
  0
ARC
  5
27C
100
AcDbEntity
  8
_1
100
AcDbCircle
 62
7
  6
CONTINUOUS
 10
17.7156652556
 20
15.1117730502
 40
6.0
100
AcDbArc
 50
0.50000014
 51
90.0
  0
ARC
  5
27D
100
AcDbEntity
  8
_1
100
AcDbCircle
 62
7
  6
CONTINUOUS
 10
16.7025108005
 20
13.6117730502
 40
5.0
100
AcDbArc
 50
180.82
 51
270.0
  0
CIRCLE
  5
27E
100
AcDbEntity
  8
_1
100
AcDbCircle
 62
7
  6
CONTINUOUS
 10
16.7726183826
 20
25.6117730502
 40
3.0
  0
ARC
  5
27F
100
AcDbEntity
  8
_1
100
AcDbCircle
 62
7
  6
CONTINUOUS
 10
19.7561140881
 20
17.0952687557
 40
2.75
100
AcDbArc
 50
315.0
 51
135.0
  0
ARC
  5
280
100
AcDbEntity
  8
_1
100
AcDbCircle
 62
7
  6
CONTINUOUS
 10
17.281240354
 20
14.6203950216
 40
2.75
100
AcDbArc
 50
135.0
 51
315.0
  0
ARC
  5
281
100
AcDbEntity
  8
_1
100
AcDbCircle
 62
7
  6
CONTINUOUS
 10
28.7726183826
 20
39.4451065502
 40
2.5
100
AcDbArc
 50
180.0
 51
213.8295760539
  0
ARC
  5
282
100
AcDbEntity
  8
_1
100
AcDbCircle
 62
7
  6
CONTINUOUS
 10
28.7726183826
 20
39.4451065502
 40
2.5
100
AcDbArc
 50
225.0472704302
 51
236.3195876162
  0
ARC
  5
283
100
AcDbEntity
  8
_1
100
AcDbCircle
 62
7
  6
CONTINUOUS
 10
28.7726183826
 20
39.4451065502
 40
2.5
100
AcDbArc
 50
247.5219487575
 51
270.0
  0
ARC
  5
284
100
AcDbEntity
  8
_1
100
AcDbCircle
 62
7
  6
CONTINUOUS
 10
28.7726183826
 20
47.7784395502
 40
2.5
100
AcDbArc
 50
90.0
 51
123.7779799346
  0
ARC
  5
285
100
AcDbEntity
  8
_1
100
AcDbCircle
 62
7
  6
CONTINUOUS
 10
28.7726183826
 20
47.7784395502
 40
2.5
100
AcDbArc
 50
134.993990137
 51
146.270033083
  0
ARC
  5
286
100
AcDbEntity
  8
_1
100
AcDbCircle
 62
7
  6
CONTINUOUS
 10
28.7726183826
 20
47.7784395502
 40
2.5
100
AcDbArc
 50
157.4841440303
 51
180.0
  0
ARC
  5
287
100
AcDbEntity
  8
_1
100
AcDbCircle
 62
7
  6
CONTINUOUS
 10
28.769799538
 20
39.4398227021
 40
2.4940399289
100
AcDbArc
 50
236.3061592366
 51
247.5353768666
  0
ARC
  5
288
100
AcDbEntity
  8
_1
100
AcDbCircle
 62
7
  6
CONTINUOUS
 10
28.7673249567
 20
47.7812686977
 40
2.4940267507
100
AcDbArc
 50
146.2565608812
 51
157.4976162526
  0
ARC
  5
289
100
AcDbEntity
  8
_1
100
AcDbCircle
 62
7
  6
CONTINUOUS
 10
28.7687826944
 20
47.7831115299
 40
2.4939841785
100
AcDbArc
 50
123.7644092589
 51
135.0075610157
  0
ARC
  5
28A
100
AcDbEntity
  8
_1
100
AcDbCircle
 62
7
  6
CONTINUOUS
 10
28.767948575
 20
39.4412654862
 40
2.4939824605
100
AcDbArc
 50
213.8159994585
 51
225.0608472617
  0
ARC
  5
28B
100
AcDbEntity
  8
_1
100
AcDbCircle
 62
7
  6
CONTINUOUS
 10
14.2263409353
 20
22.6117730502
 40
1.5
100
AcDbArc
 50
191.7945160714
 51
270.0
  0
ARC
  5
28C
100
AcDbEntity
  8
_1
100
AcDbCircle
 62
7
  6
CONTINUOUS
 10
25.2476618004
 20
11.4780583491
 40
1.5
100
AcDbArc
 50
180.50000014
 51
258.2000058268
  0
ARC
  5
28D
100
AcDbEntity
  8
INTFCLR_16532
100
AcDbCircle
 62
7
  6
CONTINUOUS
 10
17.6886125239
 20
72.1304066782
 40
6.0327910263
100
AcDbArc
 50
319.9368426682
 51
330.9458954449
  0
ARC
  5
28E
100
AcDbEntity
  8
INTFCLR_16532
100
AcDbCircle
 62
7
  6
CONTINUOUS
 10
17.6972810232
 20
72.1389878332
 40
6.0327843693
100
AcDbArc
 50
298.5321752998
 51
309.5477901144
  0
ARC
  5
28F
100
AcDbEntity
  8
INTFCLR_16532
100
AcDbCircle
 62
7
  6
CONTINUOUS
 10
17.7156652717
 20
72.1117730502
 40
6.0
100
AcDbArc
 50
319.9067526329
 51
330.9759854968
  0
ARC
  5
290
100
AcDbEntity
  8
INTFCLR_16532
100
AcDbCircle
 62
7
  6
CONTINUOUS
 10
17.7156652717
 20
72.1117730502
 40
6.0
100
AcDbArc
 50
298.5020734796
 51
309.5778919225
  0
ARC
  5
291
100
AcDbEntity
  8
_1
100
AcDbCircle
 62
7
  6
CONTINUOUS
 10
19.5226183826
 20
72.1117730502
 40
5.8
100
AcDbArc
 50
270.0
 51
360.0
  0
ARC
  5
292
100
AcDbEntity
  8
_1
100
AcDbCircle
 62
7
  6
CONTINUOUS
 10
16.7025108005
 20
73.6117730502
 40
5.0
100
AcDbArc
 50
90.0
 51
179.18
  0
CIRCLE
  5
293
100
AcDbEntity
  8
_1
100
AcDbCircle
 62
7
  6
CONTINUOUS
 10
19.5226183826
 20
72.1117730502
 40
3.0
  0
ARC
  5
294
100
AcDbEntity
  8
_1
100
AcDbCircle
 62
7
  6
CONTINUOUS
 10
17.281240354
 20
72.6031510789
 40
2.75
100
AcDbArc
 50
135.4951671476
 51
194.8475240154
  0
ARC
  5
295
100
AcDbEntity
  8
_1
100
AcDbCircle
 62
7
  6
CONTINUOUS
 10
18.4477748899
 20
76.6117730502
 40
2.0
100
AcDbArc
 50
90.0
 51
157.5178301725
  0
ARC
  5
296
100
AcDbEntity
  8
_1
100
AcDbCircle
 62
7
  6
CONTINUOUS
 10
23.7726183826
 20
87.2117730502
 40
0.5
100
AcDbArc
 50
0.0
 51
90.0
  0
ARC
  5
297
100
AcDbEntity
  8
_1
100
AcDbCircle
 62
7
  6
CONTINUOUS
 10
19.2726183826
 20
87.2117730502
 40
0.5
100
AcDbArc
 50
90.0
 51
180.0
  0
CIRCLE
  5
298
100
AcDbEntity
  8
_1
100
AcDbCircle
 62
7
  6
CONTINUOUS
 10
29.6606637645
 20
100.6367730502
 40
0.5
  0
CIRCLE
  5
299
100
AcDbEntity
  8
_1
100
AcDbCircle
 62
7
  6
CONTINUOUS
 10
29.6606637645
 20
107.0867730502
 40
0.5
  0
CIRCLE
  5
29A
100
AcDbEntity
  8
_1
100
AcDbCircle
 62
7
  6
CONTINUOUS
 10
27.7987091464
 20
110.3117730502
 40
0.5
  0
CIRCLE
  5
29B
100
AcDbEntity
  8
_1
100
AcDbCircle
 62
7
  6
CONTINUOUS
 10
25.9059516838
 20
106.9120814389
 40
0.5
  0
ARC
  5
29C
100
AcDbEntity
  8
_1
100
AcDbCircle
 62
7
  6
CONTINUOUS
 10
39.2726183826
 20
78.6117730502
 40
70.0830522557
100
AcDbArc
 50
258.2000058268
 51
267.21034986
  0
ARC
  5
29D
100
AcDbEntity
  8
_1
100
AcDbCircle
 62
7
  6
CONTINUOUS
 10
39.2726183826
 20
87.2117730502
 40
0.5
100
AcDbArc
 50
90.0
 51
180.0
  0
ARC
  5
29E
100
AcDbEntity
  8
_1
100
AcDbCircle
 62
7
  6
CONTINUOUS
 10
43.7726183826
 20
87.2117730502
 40
0.5
100
AcDbArc
 50
0.0
 51
90.0
  0
CIRCLE
  5
29F
100
AcDbEntity
  8
_1
100
AcDbCircle
 62
7
  6
CONTINUOUS
 10
31.5226183826
 20
106.0117730502
 40
11.5
  0
CIRCLE
  5
2A0
100
AcDbEntity
  8
_1
100
AcDbCircle
 62
7
  6
CONTINUOUS
 10
31.5226183826
 20
106.0117730502
 40
9.5
  0
CIRCLE
  5
2A1
100
AcDbEntity
  8
_1
100
AcDbCircle
 62
7
  6
CONTINUOUS
 10
37.108482237
 20
107.0867730502
 40
0.5
  0
CIRCLE
  5
2A2
100
AcDbEntity
  8
_1
100
AcDbCircle
 62
7
  6
CONTINUOUS
 10
36.4926350287
 20
103.2447467516
 40
0.5
  0
CIRCLE
  5
2A3
100
AcDbEntity
  8
_1
100
AcDbCircle
 62
7
  6
CONTINUOUS
 10
35.1106416679
 20
110.4257949016
 40
0.5
  0
CIRCLE
  5
2A4
100
AcDbEntity
  8
_1
100
AcDbCircle
 62
7
  6
CONTINUOUS
 10
33.5512617961
 20
100.6974428101
 40
0.5
  0
CIRCLE
  5
2A5
100
AcDbEntity
  8
_1
100
AcDbCircle
 62
7
  6
CONTINUOUS
 10
31.5226183826
 20
110.3117730502
 40
0.5
  0
CIRCLE
  5
2A6
100
AcDbEntity
  8
_1
100
AcDbCircle
 62
7
  6
CONTINUOUS
 10
31.5226183826
 20
103.8617730502
 40
0.5
  0
ARC
  5
2A7
100
AcDbEntity
  8
_1
100
AcDbCircle
 62
7
  6
CONTINUOUS
 10
81.2726183813
 20
50.6117730469
 40
69.99235957
100
AcDbArc
 50
157.5178301725
 51
177.2056260961
  0
ARC
  5
2A8
100
AcDbEntity
  8
_1
100
AcDbCircle
 62
7
  6
CONTINUOUS
 10
81.2726183813
 20
36.6117730535
 40
69.99235957
100
AcDbArc
 50
182.7943739039
 51
191.7945160714
  0
ARC
  5
2A9
100
AcDbEntity
  8
_1
100
AcDbCircle
 62
7
  6
CONTINUOUS
 10
75.7726183826
 20
25.6117730502
 40
6.8513823163
100
AcDbArc
 50
90.0
 51
179.49999986
  0
ARC
  5
2AA
100
AcDbEntity
  8
_1
100
AcDbCircle
 62
7
  6
CONTINUOUS
 10
74.8295715096
 20
15.1117730502
 40
6.0
100
AcDbArc
 50
90.0
 51
179.499998474
  0
ARC
  5
2AB
100
AcDbEntity
  8
_1
100
AcDbCircle
 62
7
  6
CONTINUOUS
 10
75.8427259647
 20
13.6117730502
 40
5.0
100
AcDbArc
 50
270.0
 51
359.18
  0
CIRCLE
  5
2AC
100
AcDbEntity
  8
_1
100
AcDbCircle
 62
7
  6
CONTINUOUS
 10
75.7726183826
 20
25.6117730502
 40
3.0
  0
ARC
  5
2AD
100
AcDbEntity
  8
_1
100
AcDbCircle
 62
7
  6
CONTINUOUS
 10
75.2639964113
 20
14.6203950216
 40
2.75
100
AcDbArc
 50
225.0
 51
45.0
  0
ARC
  5
2AE
100
AcDbEntity
  8
_1
100
AcDbCircle
 62
7
  6
CONTINUOUS
 10
72.7891226771
 20
17.0952687557
 40
2.75
100
AcDbArc
 50
45.0
 51
225.0
  0
ARC
  5
2AF
100
AcDbEntity
  8
_1
100
AcDbCircle
 62
7
  6
CONTINUOUS
 10
63.7726183826
 20
39.4451065502
 40
2.5
100
AcDbArc
 50
270.0
 51
303.7779248869
  0
ARC
  5
2B0
100
AcDbEntity
  8
_1
100
AcDbCircle
 62
7
  6
CONTINUOUS
 10
63.7726183826
 20
39.4451065502
 40
2.5
100
AcDbArc
 50
314.9940147358
 51
326.2700859456
  0
ARC
  5
2B1
100
AcDbEntity
  8
_1
100
AcDbCircle
 62
7
  6
CONTINUOUS
 10
63.7726183826
 20
39.4451065502
 40
2.5
100
AcDbArc
 50
337.4841198738
 51
360.0
  0
ARC
  5
2B2
100
AcDbEntity
  8
_1
100
AcDbCircle
 62
7
  6
CONTINUOUS
 10
63.7726183826
 20
47.7784395502
 40
2.5
100
AcDbArc
 50
0.0
 51
33.8295433002
  0
ARC
  5
2B3
100
AcDbEntity
  8
_1
100
AcDbCircle
 62
7
  6
CONTINUOUS
 10
63.7726183826
 20
47.7784395502
 40
2.5
100
AcDbArc
 50
45.0472819595
 51
56.3195633636
  0
ARC
  5
2B4
100
AcDbEntity
  8
_1
100
AcDbCircle
 62
7
  6
CONTINUOUS
 10
63.7726183826
 20
47.7784395502
 40
2.5
100
AcDbArc
 50
67.52196142
 51
90.0
  0
ARC
  5
2B5
100
AcDbEntity
  8
_1
100
AcDbCircle
 62
7
  6
CONTINUOUS
 10
63.7754372092
 20
47.7837233633
 40
2.4940399683
100
AcDbArc
 50
56.3061350284
 51
67.5353894847
  0
ARC
  5
2B6
100
AcDbEntity
  8
_1
100
AcDbCircle
 62
7
  6
CONTINUOUS
 10
63.7779118818
 20
39.4422773653
 40
2.4940266685
100
AcDbArc
 50
326.256613651
 51
337.4975921889
  0
ARC
  5
2B7
100
AcDbEntity
  8
_1
100
AcDbCircle
 62
7
  6
CONTINUOUS
 10
63.7764540144
 20
39.4404346368
 40
2.4939842656
100
AcDbArc
 50
303.7643543093
 51
315.0075855129
  0
ARC
  5
2B8
100
AcDbEntity
  8
_1
100
AcDbCircle
 62
7
  6
CONTINUOUS
 10
63.7772881543
 20
47.7822805832
 40
2.493982508
100
AcDbArc
 50
33.8159667582
 51
45.0608587376
  0
ARC
  5
2B9
100
AcDbEntity
  8
_1
100
AcDbCircle
 62
7
  6
CONTINUOUS
 10
78.31889583
 20
22.6117730502
 40
1.5
100
AcDbArc
 50
270.0
 51
348.2054839286
  0
ARC
  5
2BA
100
AcDbEntity
  8
_1
100
AcDbCircle
 62
7
  6
CONTINUOUS
 10
67.2975749649
 20
11.4780583491
 40
1.5
100
AcDbArc
 50
281.7999941732
 51
359.49999986
  0
ARC
  5
2BB
100
AcDbEntity
  8
_1
100
AcDbCircle
 62
7
  6
CONTINUOUS
 10
53.2726183826
 20
78.6117730502
 40
70.0830522557
100
AcDbArc
 50
272.78965014
 51
281.7999941732
  0
CIRCLE
  5
2BC
100
AcDbEntity
  8
_1
100
AcDbCircle
 62
7
  6
CONTINUOUS
 10
61.0226183826
 20
106.0117730502
 40
11.5
  0
CIRCLE
  5
2BD
100
AcDbEntity
  8
_1
100
AcDbCircle
 62
7
  6
CONTINUOUS
 10
61.0226183826
 20
106.0117730502
 40
9.25
  0
ARC
  5
2BE
100
AcDbEntity
  8
INTFCLR_16532
100
AcDbCircle
 62
7
  6
CONTINUOUS
 10
74.8566242414
 20
72.1304066782
 40
6.0327910663
100
AcDbArc
 50
209.0541046316
 51
220.0631572774
  0
ARC
  5
2BF
100
AcDbEntity
  8
INTFCLR_16532
100
AcDbCircle
 62
7
  6
CONTINUOUS
 10
74.8479557422
 20
72.1389878333
 40
6.0327843234
100
AcDbArc
 50
230.4522100315
 51
241.4678247087
  0
ARC
  5
2C0
100
AcDbEntity
  8
INTFCLR_16532
100
AcDbCircle
 62
7
  6
CONTINUOUS
 10
74.8295714936
 20
72.1117730502
 40
6.0
100
AcDbArc
 50
209.02401458
 51
220.0932473125
  0
ARC
  5
2C1
100
AcDbEntity
  8
INTFCLR_16532
100
AcDbCircle
 62
7
  6
CONTINUOUS
 10
74.8295714936
 20
72.1117730502
 40
6.0
100
AcDbArc
 50
230.422108224
 51
241.497926529
  0
ARC
  5
2C2
100
AcDbEntity
  8
_1
100
AcDbCircle
 62
7
  6
CONTINUOUS
 10
73.0226183826
 20
72.1117730502
 40
5.8
100
AcDbArc
 50
180.0
 51
270.0
  0
ARC
  5
2C3
100
AcDbEntity
  8
_1
100
AcDbCircle
 62
7
  6
CONTINUOUS
 10
75.8427259647
 20
73.6117730502
 40
5.0
100
AcDbArc
 50
0.82
 51
90.0
  0
CIRCLE
  5
2C4
100
AcDbEntity
  8
_1
100
AcDbCircle
 62
7
  6
CONTINUOUS
 10
73.0226183826
 20
72.1117730502
 40
3.0
  0
ARC
  5
2C5
100
AcDbEntity
  8
_1
100
AcDbCircle
 62
7
  6
CONTINUOUS
 10
75.2639964113
 20
72.6031510789
 40
2.75
100
AcDbArc
 50
345.1524759846
 51
44.5046410725
  0
ARC
  5
2C6
100
AcDbEntity
  8
_1
100
AcDbCircle
 62
7
  6
CONTINUOUS
 10
74.0974618754
 20
76.6117730502
 40
2.0
100
AcDbArc
 50
22.4821698275
 51
90.0
  0
CIRCLE
  5
2C7
100
AcDbEntity
  8
_1
100
AcDbCircle
 62
7
  6
CONTINUOUS
 10
66.8721858557
 20
104.6766474465
 40
1.25
  0
CIRCLE
  5
2C8
100
AcDbEntity
  8
_1
100
AcDbCircle
 62
7
  6
CONTINUOUS
 10
65.7136072774
 20
109.7527118614
 40
1.25
  0
CIRCLE
  5
2C9
100
AcDbEntity
  8
_1
100
AcDbCircle
 62
7
  6
CONTINUOUS
 10
63.6259208173
 20
100.6059598428
 40
1.25
  0
CIRCLE
  5
2CA
100
AcDbEntity
  8
_1
100
AcDbCircle
 62
7
  6
CONTINUOUS
 10
61.0226183826
 20
112.0117730502
 40
1.25
  0
CIRCLE
  5
2CB
100
AcDbEntity
  8
_1
100
AcDbCircle
 62
7
  6
CONTINUOUS
 10
61.0226183826
 20
106.0117730502
 40
1.25
  0
CIRCLE
  5
2CC
100
AcDbEntity
  8
_1
100
AcDbCircle
 62
7
  6
CONTINUOUS
 10
56.3316294878
 20
109.7527118614
 40
1.25
  0
CIRCLE
  5
2CD
100
AcDbEntity
  8
_1
100
AcDbCircle
 62
7
  6
CONTINUOUS
 10
66.8721858557
 20
104.6766474465
 40
0.5
  0
CIRCLE
  5
2CE
100
AcDbEntity
  8
_1
100
AcDbCircle
 62
7
  6
CONTINUOUS
 10
63.6259208173
 20
100.6059598428
 40
0.5
  0
ARC
  5
2CF
100
AcDbEntity
  8
_1
100
AcDbCircle
 62
7
  6
CONTINUOUS
 10
68.7726183826
 20
87.2117730502
 40
0.5
100
AcDbArc
 50
90.0
 51
180.0
  0
ARC
  5
2D0
100
AcDbEntity
  8
_1
100
AcDbCircle
 62
7
  6
CONTINUOUS
 10
73.2726183826
 20
87.2117730502
 40
0.5
100
AcDbArc
 50
0.0
 51
90.0
  0
ARC
  5
2D1
100
AcDbEntity
  8
_1
100
AcDbCircle
 62
7
  6
CONTINUOUS
 10
53.2726183826
 20
87.2117730502
 40
0.5
100
AcDbArc
 50
0.0
 51
90.0
  0
ARC
  5
2D2
100
AcDbEntity
  8
_1
100
AcDbCircle
 62
7
  6
CONTINUOUS
 10
48.7726183826
 20
87.2117730502
 40
0.5
100
AcDbArc
 50
90.0
 51
180.0
  0
SPLINE
  5
2D3
100
AcDbEntity
  8
_1
100
AcDbSpline
 62
7
  6
CONTINUOUS
 70
0
 71
3
 72
15
 73
11
 74
0
 42
0.0000001
 43
0.0000001
 44
0.0000000001
 40
0.0
 40
0.0
 40
0.0
 40
0.0
 40
0.1415511042
 40
0.2760385585
 40
0.4046398789
 40
0.5286468062
 40
0.6492415639
 40
0.7674265879
 40
0.8840925191
 40
1.0
 40
1.0
 40
1.0
 40
1.0
 10
25.7175112853
 20
120.0117730502
 30
0.0
 10
25.0004418039
 20
119.6551915768
 30
0.0
 10
23.6615006176
 20
118.8328293823
 30
0.0
 10
21.9311514439
 20
117.3199726217
 30
0.0
 10
20.516485138
 20
115.6377004705
 30
0.0
 10
19.3955450972
 20
113.8406989906
 30
0.0
 10
18.5466171025
 20
111.9657750179
 30
0.0
 10
17.952160953
 20
110.0392908284
 30
0.0
 10
17.6003829677
 20
108.0816741577
 30
0.0
 10
17.5226183826
 20
106.764552552
 30
0.0
 10
17.5226183826
 20
106.1087969238
 30
0.0
  0
SPLINE
  5
2D4
100
AcDbEntity
  8
_1
100
AcDbSpline
 62
7
  6
CONTINUOUS
 70
0
 71
3
 72
18
 73
14
 74
0
 42
0.0000001
 43
0.0000001
 44
0.0000000001
 40
0.0
 40
0.0
 40
0.0
 40
0.0
 40
0.1415264047
 40
0.2096247549
 40
0.2760907708
 40
0.3410861179
 40
0.4047505629
 40
0.5287220966
 40
0.6492860867
 40
0.767432549
 40
0.8259134259
 40
0.8841222218
 40
1.0
 40
1.0
 40
1.0
 40
1.0
 10
37.32772548
 20
120.0117730502
 30
0.0
 10
38.0448411313
 20
119.6551686176
 30
0.0
 10
39.0621841509
 20
119.0296190336
 30
0.0
 10
40.2800767069
 20
118.0492664389
 30
0.0
 10
41.1009213525
 20
117.271817092
 30
0.0
 10
41.8428173361
 20
116.4525959971
 30
0.0
 10
42.72355829
 20
115.3251732673
 30
0.0
 10
43.6497801533
 20
113.8402599964
 30
0.0
 10
44.4985421801
 20
111.965688717
 30
0.0
 10
44.9958800043
 20
110.3542620986
 30
0.0
 10
45.2702123767
 20
109.053239447
 30
0.0
 10
45.4643706081
 20
107.7509864974
 30
0.0
 10
45.5226183826
 20
106.7645411401
 30
0.0
 10
45.5226183826
 20
106.1087969238
 30
0.0
  0
SPLINE
  5
2D5
100
AcDbEntity
  8
_1
100
AcDbSpline
 62
7
  6
CONTINUOUS
 70
0
 71
3
 72
15
 73
11
 74
0
 42
0.0000001
 43
0.0000001
 44
0.0000000001
 40
0.0
 40
0.0
 40
0.0
 40
0.0
 40
0.1415513285
 40
0.2760388365
 40
0.4046401378
 40
0.5286470727
 40
0.6492417362
 40
0.7674267364
 40
0.8840925748
 40
1.0
 40
1.0
 40
1.0
 40
1.0
 10
55.2175112853
 20
120.0117730502
 30
0.0
 10
54.5004406666
 20
119.6551910113
 30
0.0
 10
53.161498211
 20
118.8328278205
 30
0.0
 10
51.4311482494
 20
117.3199696741
 30
0.0
 10
50.0164826189
 20
115.6376966705
 30
0.0
 10
48.8955429407
 20
113.8406956657
 30
0.0
 10
48.0466160385
 20
111.9657718664
 30
0.0
 10
47.4521606243
 20
110.0392887254
 30
0.0
 10
47.1003828894
 20
108.0816730055
 30
0.0
 10
47.0226183826
 20
106.764552238
 30
0.0
 10
47.0226183826
 20
106.1087969238
 30
0.0
  0
SPLINE
  5
2D6
100
AcDbEntity
  8
_1
100
AcDbSpline
 62
7
  6
CONTINUOUS
 70
0
 71
3
 72
17
 73
13
 74
0
 42
0.0000001
 43
0.0000001
 44
0.0000000001
 40
0.0
 40
0.0
 40
0.0
 40
0.0
 40
0.1415340608
 40
0.2096360173
 40
0.2761054936
 40
0.3411042748
 40
0.4047720647
 40
0.5287500105
 40
0.649320303
 40
0.7674728849
 40
0.8841161804
 40
1.0
 40
1.0
 40
1.0
 40
1.0
 10
66.82772548
 20
120.0117730502
 30
0.0
 10
67.5448423508
 20
119.6551680112
 30
0.0
 10
68.5621864086
 20
119.0296169626
 30
0.0
 10
69.780079865
 20
118.0492633665
 30
0.0
 10
70.600925433
 20
117.2718142933
 30
0.0
 10
71.3428192618
 20
116.4525919775
 30
0.0
 10
72.2235615057
 20
115.3251666753
 30
0.0
 10
73.1497758674
 20
113.840277304
 30
0.0
 10
73.9985684477
 20
111.9656140951
 30
0.0
 10
74.5931093822
 20
110.0391844607
 30
0.0
 10
74.9448456468
 20
108.0816468285
 30
0.0
 10
75.0226183826
 20
106.7645409694
 30
0.0
 10
75.0226183826
 20
106.1087969238
 30
0.0
  0
ELLIPSE
  5
2D7
100
AcDbEntity
  8
_1
100
AcDbEllipse
 62
7
  6
CONTINUOUS
 10
44.9289653013
 20
93.8117730502
 30
0.0
 11
0.0
 21
5.0
 31
0.0
 40
0.0349207695
 41
-4.7123889804
 42
-3.1415926536
  0
ELLIPSE
  5
2D8
100
AcDbEntity
  8
_1
100
AcDbEllipse
 62
7
  6
CONTINUOUS
 10
18.116271464
 20
93.8117730502
 30
0.0
 11
0.0
 21
5.0
 31
0.0
 40
0.0349207695
 41
-3.1415926536
 42
-1.5707963268
  0
ELLIPSE
  5
2D9
100
AcDbEntity
  8
_1
100
AcDbEllipse
 62
7
  6
CONTINUOUS
 10
31.5226183826
 20
71.0339315302
 30
0.0
 11
13.2075188366
 21
37.7505922521
 31
0.0
 40
0.1230028499
 41
-0.3380770455
 42
-0.0052561986
  0
ELLIPSE
  5
2DA
100
AcDbEntity
  8
_1
100
AcDbEllipse
 62
7
  6
CONTINUOUS
 10
31.5226183826
 20
104.1840463262
 30
0.0
 11
0.0
 21
14.0534777256
 31
0.0
 40
0.9961946981
 41
-1.23797548
 42
1.23797548
  0
ELLIPSE
  5
2DB
100
AcDbEntity
  8
_1
100
AcDbEllipse
 62
7
  6
CONTINUOUS
 10
31.5226183826
 20
71.0339315302
 30
0.0
 11
-13.2075188366
 21
37.7505922521
 31
0.0
 40
0.1230028499
 41
0.0052561986
 42
0.3380770455
  0
ELLIPSE
  5
2DC
100
AcDbEntity
  8
_1
100
AcDbEllipse
 62
7
  6
CONTINUOUS
 10
61.0226183826
 20
71.0339315302
 30
0.0
 11
13.2075188366
 21
37.7505922521
 31
0.0
 40
0.1230028499
 41
-0.3380770455
 42
0.0096906508
  0
ELLIPSE
  5
2DD
100
AcDbEntity
  8
_1
100
AcDbEllipse
 62
7
  6
CONTINUOUS
 10
61.0226183826
 20
104.0090689992
 30
0.0
 11
0.0
 21
14.0534777256
 31
0.0
 40
0.9961946981
 41
-1.2230286305
 42
1.2230286305
  0
ELLIPSE
  5
2DE
100
AcDbEntity
  8
_1
100
AcDbEllipse
 62
7
  6
CONTINUOUS
 10
61.0226183826
 20
71.0339315302
 30
0.0
 11
-13.2075188366
 21
37.7505922521
 31
0.0
 40
0.1230028499
 41
-0.0096906508
 42
0.3380770455
  0
ELLIPSE
  5
2DF
100
AcDbEntity
  8
_1
100
AcDbEllipse
 62
7
  6
CONTINUOUS
 10
74.3591237623
 20
93.8117730502
 30
0.0
 11
0.0
 21
5.0
 31
0.0
 40
0.0349207695
 41
-4.7123889804
 42
-3.1415926536
  0
ELLIPSE
  5
2E0
100
AcDbEntity
  8
_1
100
AcDbEllipse
 62
7
  6
CONTINUOUS
 10
47.686113003
 20
93.8117730502
 30
0.0
 11
0.0
 21
5.0
 31
0.0
 40
0.0349207695
 41
-3.1415926536
 42
-1.5707963268
  0
ENDSEC
  0
SECTION
  2
OBJECTS
  0
DICTIONARY
  5
C
100
AcDbDictionary
280
0
281
1
  3
ACAD_GROUP
350
D
  3
ACAD_MLINESTYLE
350
17
  3
ACAD_LAYOUT
350
1A
  3
ACAD_PLOTSETTINGS
350
19
  3
ACAD_PLOTSTYLENAME
350
E
  0
DICTIONARY
  5
D
102
{ACAD_REACTORS
330
C
102
}
100
AcDbDictionary
280
0
281
1
  0
ACDBDICTIONARYWDFLT
  5
E
102
{ACAD_REACTORS
330
C
102
}
100
AcDbDictionary
281
1
  3
Normal
350
F
100
AcDbDictionaryWithDefault
340
F
  0
DICTIONARY
  5
17
102
{ACAD_REACTORS
330
C
102
}
100
AcDbDictionary
280
0
281
1
  3
Standard
350
18
  0
DICTIONARY
  5
19
102
{ACAD_REACTORS
330
C
102
}
100
AcDbDictionary
281
1
  0
DICTIONARY
  5
1A
102
{ACAD_REACTORS
330
C
102
}
100
AcDbDictionary
281
1
  3
Model
350
2E1
  3
Layout1
350
2E2
  0
ACDBPLACEHOLDER
  5
F
102
{ACAD_REACTORS
330
E
102
}
  0
MLINESTYLE
  5
18
102
{ACAD_REACTORS
330
17
102
}
100
AcDbMlineStyle
  2
STANDARD
 70
0
  3

 62
256
 51
90.0
 52
90.0
 71
2
 49
0.5
 62
256
  6
BYLAYER
 49
-0.5
 62
256
  6
BYLAYER
  0
LAYOUT
  5
2E1
102
{ACAD_REACTORS
330
1A
102
}
100
AcDbPlotSettings
  1

  2
none_device
  4

  6

 40
0.0
 41
0.0
 42
0.0
 43
0.0
 44
210.0
 45
297.0
 46
0.0
 47
0.0
 48
0.0
 49
0.0
140
0.0
141
0.0
142
1.0
143
1.0
 70
1024
 72
1
 73
0
 74
0
  7

 75
0
147
1.0
148
0.0
149
0.0
100
AcDbLayout
  1
Model
 70
0
 71
0
 10
0.0
 20
0.0
 11
210.0
 21
297.0
 12
0.0
 22
0.0
 32
0.0
 14
0.0
 24
0.0
 34
0.0
 15
0.0
 25
0.0
 35
0.0
146
0.0
 13
0.0
 23
0.0
 33
0.0
 16
1.0
 26
0.0
 36
0.0
 17
0.0
 27
1.0
 37
0.0
 76
0
330
212
345
0
346
0
  0
LAYOUT
  5
2E2
102
{ACAD_REACTORS
330
1A
102
}
100
AcDbPlotSettings
  1

  2
none_device
  4

  6

 40
0.0
 41
0.0
 42
0.0
 43
0.0
 44
210.0
 45
297.0
 46
0.0
 47
0.0
 48
0.0
 49
0.0
140
0.0
141
0.0
142
1.0
143
1.0
 70
0
 72
1
 73
0
 74
0
  7

 75
0
147
1.0
148
0.0
149
0.0
100
AcDbLayout
  1
Layout1
 70
0
 71
1
 10
0.0
 20
0.0
 11
210.0
 21
297.0
 12
0.0
 22
0.0
 32
0.0
 14
0.0
 24
0.0
 34
0.0
 15
0.0
 25
0.0
 35
0.0
146
0.0
 13
0.0
 23
0.0
 33
0.0
 16
1.0
 26
0.0
 36
0.0
 17
0.0
 27
1.0
 37
0.0
 76
0
330
213
345
0
346
0
  0
ENDSEC
  0
EOF
