999
DXF file: C:\Users\sesa63760\Dev\_Creo\CAD\MCADFD0002511_3D-CAD\drw0001_1.dxf
999
Pro/ENGINEER 2019471 by Parametric Technology Corporation
  0
SECTION
  2
HEADER
  9
$ACADVER
  1
AC1024
  9
$DWGCODEPAGE
  3
ANSI_1252
  9
$EXTMAX
 10
56.632619933
 20
80.0947053338
 30
0.0
  9
$EXTMIN
 10
0.0
 20
0.0
 30
0.0
  9
$LIMMIN
 10
0.0
 20
0.0
  9
$LIMMAX
 10
56.632619933
 20
80.0947053338
  9
$VIEWCTR
 10
28.3163099665
 20
40.0473526669
  9
$VIEWSIZE
 40
80.0947053338
  9
$CLAYER
  8
0
  9
$LTSCALE
 40
5.2209881995
  9
$CELTYPE
  6
BYLAYER
  9
$DIMSCALE
 40
1.0
  9
$DIMASZ
 40
0.6741978563
  9
$DIMEXO
 40
1.0
  9
$DIMDLI
 40
3.6072282106
  9
$DIMEXE
 40
1.0
  9
$DIMCEN
 40
0.8543435236
  9
$DIMLFAC
 40
1.0
  9
$DIMBLK
  1
_FILLED
  9
$DIMALT
 70
0
  9
$DIMALTF
 40
0.0393700787
  9
$DIMTXT
 40
0.9438769989
  9
$DIMTOL
 70
1
  9
$DIMLIM
 70
0
  9
$DIMTFAC
 40
1.0
  9
$DIMTP
 40
0.01
  9
$DIMTM
 40
0.01
  9
$DIMGAP
 40
0.625
  9
$DIMDSEP
 70
46
  9
$AUNITS
 70
0
  9
$PDMODE
 70
3
  9
$PDSIZE
 40
0.3125
  9
$HANDSEED
  5
329
  9
$TILEMODE
 70
1
  9
$MEASUREMENT
 70
1
  9
$INSUNITS
 70
4
  0
ENDSEC
  0
SECTION
  2
CLASSES
  0
CLASS
  1
ACDBDICTIONARYWDFLT
  2
AcDbDictionaryWithDefault
  3
AutoCAD 2000
 90
0
 91
1
280
0
281
0
  0
CLASS
  1
ACDBPLACEHOLDER
  2
AcDbPlaceHolder
  3
AutoCAD 2000
 90
0
 91
1
280
0
281
0
  0
CLASS
  1
LAYOUT
  2
AcDbLayout
  3
AutoCAD 2000
 90
0
 91
0
280
0
281
0
  0
ENDSEC
  0
SECTION
  2
TABLES
  0
TABLE
  2
VPORT
  5
8
100
AcDbSymbolTable
 70
2
  0
VPORT
  5
1F4
100
AcDbSymbolTableRecord
100
AcDbViewportTableRecord
  2
*ACTIVE
 70
0
 10
0.0
 20
0.0
 11
1.0
 21
1.0
 12
28.3163099665
 22
40.0473526669
 13
0.0
 23
0.0
 14
1.0
 24
1.0
 15
0.0
 25
0.0
 16
0.0
 26
0.0
 36
1.0
 17
0.0
 27
0.0
 37
0.0
 40
80.0947053338
 41
0.7070707071
 42
50.0
 43
0.0
 44
0.0
 50
0.0
 51
0.0
 71
0
 72
100
 73
1
 74
1
 75
0
 76
0
 77
0
 78
0
  0
ENDTAB
  0
TABLE
  2
LTYPE
  5
5
100
AcDbSymbolTable
 70
6
  0
LTYPE
  5
14
100
AcDbSymbolTableRecord
100
AcDbLinetypeTableRecord
  2
BYBLOCK
 70
0
  3

 72
65
 73
0
 40
0.0
  0
LTYPE
  5
15
100
AcDbSymbolTableRecord
100
AcDbLinetypeTableRecord
  2
BYLAYER
 70
0
  3

 72
65
 73
0
 40
0.0
  0
LTYPE
  5
16
100
AcDbSymbolTableRecord
100
AcDbLinetypeTableRecord
  2
CONTINUOUS
 70
64
  3
Solid line
 72
65
 73
0
 40
0.0
  0
LTYPE
  5
1F5
100
AcDbSymbolTableRecord
100
AcDbLinetypeTableRecord
  2
CENTER
 70
64
  3
____ _ ____ _ ____ _ ____ _ ____ _ ____ _ ____
 72
65
 73
4
 40
0.6
 49
0.375
 74
0
 49
-0.075
 74
0
 49
0.075
 74
0
 49
-0.075
 74
0
  0
LTYPE
  5
1F6
100
AcDbSymbolTableRecord
100
AcDbLinetypeTableRecord
  2
HIDDEN
 70
64
  3
- - - - - - - - - - - - - - - - - - - -
 72
65
 73
2
 40
0.2
 49
0.1
 74
0
 49
-0.1
 74
0
  0
LTYPE
  5
1F7
100
AcDbSymbolTableRecord
100
AcDbLinetypeTableRecord
  2
PHANTOM
 70
64
  3
_____ _ _ _____ _ _ _____ _ _ _____
 72
65
 73
6
 40
0.8
 49
0.45
 74
0
 49
-0.05
 74
0
 49
0.1
 74
0
 49
-0.05
 74
0
 49
0.1
 74
0
 49
-0.05
 74
0
  0
LTYPE
  5
1F8
100
AcDbSymbolTableRecord
100
AcDbLinetypeTableRecord
  2
DOT
 70
64
  3
. . . . . . . . . . . . . . . . . . . .
 72
65
 73
2
 40
0.2
 49
0.1
 74
0
 49
-0.1
 74
0
  0
LTYPE
  5
1F9
100
AcDbSymbolTableRecord
100
AcDbLinetypeTableRecord
  2
DASHED
 70
64
  3
- - - - - - - - - - - - - - - - - - - -
 72
65
 73
2
 40
0.2
 49
0.1
 74
0
 49
-0.1
 74
0
  0
ENDTAB
  0
TABLE
  2
LAYER
  5
2
100
AcDbSymbolTable
 70
36
  0
LAYER
  5
10
100
AcDbSymbolTableRecord
100
AcDbLayerTableRecord
  2
0
 70
0
 62
7
  6
CONTINUOUS
370
-3
390
F
  0
LAYER
  5
1FA
100
AcDbSymbolTableRecord
100
AcDbLayerTableRecord
  2
DEFAULT_1
 70
0
 62
7
  6
CENTER
370
-3
390
F
  0
LAYER
  5
1FB
100
AcDbSymbolTableRecord
100
AcDbLayerTableRecord
  2
DEFAULT_2
 70
0
 62
8
  6
HIDDEN
370
-3
390
F
  0
LAYER
  5
1FC
100
AcDbSymbolTableRecord
100
AcDbLayerTableRecord
  2
DEFAULT_3
 70
0
 62
7
  6
PHANTOM
370
-3
390
F
  0
LAYER
  5
1FD
100
AcDbSymbolTableRecord
100
AcDbLayerTableRecord
  2
00_COMPONENTS
 70
0
 62
7
  6
CONTINUOUS
370
-3
390
F
  0
LAYER
  5
1FE
100
AcDbSymbolTableRecord
100
AcDbLayerTableRecord
  2
01_1_DEFAULT_DATUMS
 70
0
 62
7
  6
CONTINUOUS
370
-3
390
F
  0
LAYER
  5
1FF
100
AcDbSymbolTableRecord
100
AcDbLayerTableRecord
  2
01_PLANES
 70
0
 62
7
  6
CONTINUOUS
370
-3
390
F
  0
LAYER
  5
200
100
AcDbSymbolTableRecord
100
AcDbLayerTableRecord
  2
02_COORD_SYS
 70
0
 62
7
  6
CONTINUOUS
370
-3
390
F
  0
LAYER
  5
201
100
AcDbSymbolTableRecord
100
AcDbLayerTableRecord
  2
03_AXES
 70
0
 62
7
  6
CONTINUOUS
370
-3
390
F
  0
LAYER
  5
202
100
AcDbSymbolTableRecord
100
AcDbLayerTableRecord
  2
04_POINTS
 70
0
 62
7
  6
CONTINUOUS
370
-3
390
F
  0
LAYER
  5
203
100
AcDbSymbolTableRecord
100
AcDbLayerTableRecord
  2
05_CURVES
 70
0
 62
7
  6
CONTINUOUS
370
-3
390
F
  0
LAYER
  5
204
100
AcDbSymbolTableRecord
100
AcDbLayerTableRecord
  2
06_SURFS
 70
0
 62
7
  6
CONTINUOUS
370
-3
390
F
  0
LAYER
  5
205
100
AcDbSymbolTableRecord
100
AcDbLayerTableRecord
  2
07_COSMETICS
 70
0
 62
7
  6
CONTINUOUS
370
-3
390
F
  0
LAYER
  5
206
100
AcDbSymbolTableRecord
100
AcDbLayerTableRecord
  2
10_NOTES
 70
0
 62
7
  6
CONTINUOUS
370
-3
390
F
  0
LAYER
  5
207
100
AcDbSymbolTableRecord
100
AcDbLayerTableRecord
  2
11_NOTES_PUB
 70
0
 62
7
  6
CONTINUOUS
370
-3
390
F
  0
LAYER
  5
208
100
AcDbSymbolTableRecord
100
AcDbLayerTableRecord
  2
13_REF_GTOL
 70
0
 62
7
  6
CONTINUOUS
370
-3
390
F
  0
LAYER
  5
209
100
AcDbSymbolTableRecord
100
AcDbLayerTableRecord
  2
16_MISC
 70
0
 62
7
  6
CONTINUOUS
370
-3
390
F
  0
LAYER
  5
20A
100
AcDbSymbolTableRecord
100
AcDbLayerTableRecord
  2
17_NO_PRINT
 70
0
 62
7
  6
CONTINUOUS
370
-3
390
F
  0
LAYER
  5
20B
100
AcDbSymbolTableRecord
100
AcDbLayerTableRecord
  2
18_DATUM_CAMS_JOINTS
 70
0
 62
7
  6
CONTINUOUS
370
-3
390
F
  0
LAYER
  5
20C
100
AcDbSymbolTableRecord
100
AcDbLayerTableRecord
  2
19_DATUM_FUNCTIONAL
 70
0
 62
7
  6
CONTINUOUS
370
-3
390
F
  0
LAYER
  5
20D
100
AcDbSymbolTableRecord
100
AcDbLayerTableRecord
  2
20_DATUM_KINEMATIC_SCHEME
 70
0
 62
7
  6
CONTINUOUS
370
-3
390
F
  0
ENDTAB
  0
TABLE
  2
STYLE
  5
3
100
AcDbSymbolTable
 70
1
  0
STYLE
  5
11
100
AcDbSymbolTableRecord
100
AcDbTextStyleTableRecord
  2
STANDARD
 70
0
 40
0.0
 41
0.8
 50
0.0
 71
0
 42
0.2
  3
txt
  4

  0
STYLE
  5
20E
100
AcDbSymbolTableRecord
100
AcDbTextStyleTableRecord
  2
TEXTSTYLE_1
 70
0
 40
0.0
 41
0.8
 50
0.0
 71
0
 42
0.2
  3
gdt
  4

  0
ENDTAB
  0
TABLE
  2
VIEW
  5
6
100
AcDbSymbolTable
 70
0
  0
ENDTAB
  0
TABLE
  2
UCS
  5
7
100
AcDbSymbolTable
 70
0
  0
ENDTAB
  0
TABLE
  2
APPID
  5
9
100
AcDbSymbolTable
 70
1
  0
APPID
  5
20F
100
AcDbSymbolTableRecord
100
AcDbRegAppTableRecord
  2
ACAD
 70
0
  0
ENDTAB
  0
TABLE
  2
BLOCK_RECORD
  5
1
100
AcDbSymbolTable
 70
0
  0
BLOCK_RECORD
  5
210
100
AcDbSymbolTableRecord
100
AcDbBlockTableRecord
  2
*Model_Space
  0
BLOCK_RECORD
  5
211
100
AcDbSymbolTableRecord
100
AcDbBlockTableRecord
  2
*Paper_Space
  0
BLOCK_RECORD
  5
212
100
AcDbSymbolTableRecord
100
AcDbBlockTableRecord
  2
_FILLED
  0
ENDTAB
  0
TABLE
  2
DIMSTYLE
  5
A
100
AcDbSymbolTable
 70
1
100
AcDbDimStyleTable
 71
0
  0
DIMSTYLE
105
213
100
AcDbSymbolTableRecord
100
AcDbDimStyleTableRecord
  2
STANDARD
 70
0
  3

  4

 40
1.0
 41
0.6741978563
 42
1.0
 43
0.38
 44
1.0
 45
0.0
 46
0.0
 47
0.01
 48
0.01
140
0.9438769989
141
0.09
142
0.0
143
25.4
144
1.0
145
0.0
146
1.0
147
0.625
 71
1
 72
0
 73
0
 74
0
 75
0
 76
0
 77
1
 78
8
 79
2
170
0
171
1
172
0
173
0
174
0
175
0
176
0
177
0
178
0
270
2
179
2
271
2
272
2
273
2
274
2
275
0
280
0
281
0
282
0
283
1
284
8
285
0
286
0
287
3
288
0
340
11
278
46
341
212
342
212
343
212
344
212
  0
ENDTAB
  0
ENDSEC
  0
SECTION
  2
BLOCKS
  0
BLOCK
  5
20
100
AcDbEntity
  8
0
100
AcDbBlockBegin
  2
*Model_Space
 70
0
 10
0.0
 20
0.0
 30
0.0
  3
*Model_Space
  1

  0
ENDBLK
  5
21
100
AcDbEntity
  8
0
100
AcDbBlockEnd
  0
BLOCK
  5
1C
100
AcDbEntity
  8
0
100
AcDbBlockBegin
  2
*Paper_Space
 70
0
 10
0.0
 20
0.0
 30
0.0
  3
*Paper_Space
  1

  0
ENDBLK
  5
1D
100
AcDbEntity
  8
0
100
AcDbBlockEnd
  0
BLOCK
  5
214
100
AcDbEntity
  8
0
100
AcDbBlockBegin
  2
_FILLED
 70
64
 10
0.0
 20
0.0
  3
_FILLED
  1

  0
SOLID
  5
215
100
AcDbEntity
  8
0
  6
BYBLOCK
 62
0
100
AcDbTrace
 10
0.0
 20
0.0
 11
-1.0
 21
0.25
 12
-1.0
 22
-0.25
 13
-1.0
 23
-0.25
  0
ENDBLK
  5
216
100
AcDbEntity
  8
0
  6
BYBLOCK
 62
0
100
AcDbBlockEnd
  0
ENDSEC
  0
SECTION
  2
ENTITIES
  0
LINE
  5
217
100
AcDbEntity
  8
0
100
AcDbLine
 62
7
  6
CONTINUOUS
 10
17.2722491344
 20
6.2575909449
 11
15.983031805
 21
7.0019040785
  0
LINE
  5
218
100
AcDbEntity
  8
0
100
AcDbLine
 62
7
  6
CONTINUOUS
 10
15.2759220798
 20
7.410144833
 11
13.8617026295
 21
8.2266263421
  0
LINE
  5
219
100
AcDbEntity
  8
0
100
AcDbLine
 62
7
  6
CONTINUOUS
 10
13.1545929044
 20
8.6348670966
 11
11.8681510076
 21
9.3775778696
  0
LINE
  5
21A
100
AcDbEntity
  8
0
100
AcDbLine
 62
7
  6
CONTINUOUS
 10
11.5116832365
 20
9.972324351
 11
12.9164137355
 21
9.1613211666
  0
LINE
  5
21B
100
AcDbEntity
  8
0
100
AcDbLine
 62
7
  6
CONTINUOUS
 10
13.6235234607
 20
8.753080412
 11
15.037742911
 21
7.936598903
  0
LINE
  5
21C
100
AcDbEntity
  8
0
100
AcDbLine
 62
7
  6
CONTINUOUS
 10
15.7448526361
 20
7.5283581485
 11
17.1590720864
 21
6.7118766394
  0
LINE
  5
21D
100
AcDbEntity
  8
0
100
AcDbLine
 62
7
  6
CONTINUOUS
 10
13.2699656541
 20
10.2938795642
 11
13.6235234607
 21
10.0897574873
  0
LINE
  5
21E
100
AcDbEntity
  8
0
100
AcDbLine
 62
7
  6
CONTINUOUS
 10
15.3912948296
 20
9.0691573007
 11
15.7448526361
 21
8.8650352237
  0
LINE
  5
21F
100
AcDbEntity
  8
0
100
AcDbLine
 62
7
  6
CONTINUOUS
 10
17.512624005
 20
7.8444350371
 11
18.3976024397
 21
7.3335040584
  0
LINE
  5
220
100
AcDbEntity
  8
0
100
AcDbLine
 62
7
  6
CONTINUOUS
 10
6.7649998829
 20
18.4114887928
 11
18.997998128
 21
11.3489237396
  0
LINE
  5
221
100
AcDbEntity
  8
0
100
AcDbLine
 62
7
  6
CONTINUOUS
 10
11.5116832365
 20
9.972324351
 11
11.5021942852
 21
9.9865757349
  0
LINE
  5
222
100
AcDbEntity
  8
0
100
AcDbLine
 62
7
  6
CONTINUOUS
 10
14.0845268296
 20
18.6995015385
 11
11.6096427916
 21
20.1283441793
  0
LINE
  5
223
100
AcDbEntity
  8
0
100
AcDbLine
 62
7
  6
CONTINUOUS
 10
14.0793335404
 20
19.3836640416
 11
12.1944530545
 21
20.4718756789
  0
LINE
  5
224
100
AcDbEntity
  8
0
100
AcDbLine
 62
7
  6
CONTINUOUS
 10
6.570035486
 20
44.0960449944
 11
6.7649998829
 21
18.4114887928
  0
LINE
  5
225
100
AcDbEntity
  8
0
100
AcDbLine
 62
7
  6
CONTINUOUS
 10
7.0833333171
 20
53.7859977692
 11
7.0833333171
 21
53.5423954574
  0
LINE
  5
226
100
AcDbEntity
  8
0
100
AcDbLine
 62
7
  6
CONTINUOUS
 10
7.0833333171
 20
52.4770187039
 11
7.0833333171
 21
52.23599159
  0
LINE
  5
227
100
AcDbEntity
  8
0
100
AcDbLine
 62
7
  6
CONTINUOUS
 10
7.0833333171
 20
51.1680396387
 11
7.0833333171
 21
50.9295877226
  0
LINE
  5
228
100
AcDbEntity
  8
0
100
AcDbLine
 62
7
  6
CONTINUOUS
 10
7.0833333171
 20
49.8590605734
 11
7.0833333171
 21
49.6231838552
  0
LINE
  5
229
100
AcDbEntity
  8
0
100
AcDbLine
 62
7
  6
CONTINUOUS
 10
7.0833333171
 20
48.5500815081
 11
7.0833333171
 21
48.3167799878
  0
LINE
  5
22A
100
AcDbEntity
  8
0
100
AcDbLine
 62
7
  6
CONTINUOUS
 10
7.0833333171
 20
47.2411024428
 11
7.0833333171
 21
47.0103761204
  0
LINE
  5
22B
100
AcDbEntity
  8
0
100
AcDbLine
 62
7
  6
CONTINUOUS
 10
7.0833333171
 20
45.9321233775
 11
7.0833333171
 21
45.703972253
  0
LINE
  5
22C
100
AcDbEntity
  8
0
100
AcDbLine
 62
7
  6
CONTINUOUS
 10
7.0833333171
 20
44.6231443122
 11
7.0833333171
 21
44.3975683856
  0
LINE
  5
22D
100
AcDbEntity
  8
0
100
AcDbLine
 62
7
  6
CONTINUOUS
 10
6.7129930374
 20
44.8369555354
 11
6.7141081467
 21
45.4908012739
  0
LINE
  5
22E
100
AcDbEntity
  8
0
100
AcDbLine
 62
7
  6
CONTINUOUS
 10
6.7152232561
 20
46.1446470124
 11
6.7163383654
 21
46.798492751
  0
LINE
  5
22F
100
AcDbEntity
  8
0
100
AcDbLine
 62
7
  6
CONTINUOUS
 10
6.7174534747
 20
47.4523384895
 11
6.7185685841
 21
48.106184228
  0
LINE
  5
230
100
AcDbEntity
  8
0
100
AcDbLine
 62
7
  6
CONTINUOUS
 10
6.7196836934
 20
48.7600299666
 11
6.7207988027
 21
49.4138757051
  0
LINE
  5
231
100
AcDbEntity
  8
0
100
AcDbLine
 62
7
  6
CONTINUOUS
 10
6.7219139121
 20
50.0677214436
 11
6.7230290214
 21
50.7215671822
  0
LINE
  5
232
100
AcDbEntity
  8
0
100
AcDbLine
 62
7
  6
CONTINUOUS
 10
6.7241441307
 20
51.3754129207
 11
6.7252592401
 21
52.0292586592
  0
LINE
  5
233
100
AcDbEntity
  8
0
100
AcDbLine
 62
7
  6
CONTINUOUS
 10
6.7263743494
 20
52.6831043978
 11
6.7274894587
 21
53.3369501363
  0
LINE
  5
234
100
AcDbEntity
  8
0
100
AcDbLine
 62
7
  6
CONTINUOUS
 10
6.7286045681
 20
53.9907958748
 11
6.7297813985
 21
54.6808318746
  0
LINE
  5
235
100
AcDbEntity
  8
0
100
AcDbLine
 62
7
  6
CONTINUOUS
 10
7.0833333171
 20
53.5423954574
 11
6.7274894587
 21
53.3369501363
  0
LINE
  5
236
100
AcDbEntity
  8
0
100
AcDbLine
 62
7
  6
CONTINUOUS
 10
37.1108362936
 20
70.4615104754
 11
36.3527157172
 21
70.0238119693
  0
LINE
  5
237
100
AcDbEntity
  8
0
100
AcDbLine
 62
7
  6
CONTINUOUS
 10
7.0833333171
 20
52.23599159
 11
6.7252592401
 21
52.0292586592
  0
LINE
  5
238
100
AcDbEntity
  8
0
100
AcDbLine
 62
7
  6
CONTINUOUS
 10
14.0609293335
 20
21.8082292159
 11
11.5860452954
 21
23.2370718567
  0
LINE
  5
239
100
AcDbEntity
  8
0
100
AcDbLine
 62
7
  6
CONTINUOUS
 10
11.5381340063
 20
23.2910747772
 11
12.598798594
 21
22.6787136454
  0
LINE
  5
23A
100
AcDbEntity
  8
0
100
AcDbLine
 62
7
  6
CONTINUOUS
 10
7.0833333171
 20
50.9295877226
 11
6.7230290214
 21
50.7215671822
  0
LINE
  5
23B
100
AcDbEntity
  8
0
100
AcDbLine
 62
7
  6
CONTINUOUS
 10
7.0833333171
 20
49.6231838552
 11
6.7207988027
 21
49.4138757051
  0
LINE
  5
23C
100
AcDbEntity
  8
0
100
AcDbLine
 62
7
  6
CONTINUOUS
 10
11.6096427916
 20
20.1283441793
 11
11.5860452954
 21
23.2370718567
  0
LINE
  5
23D
100
AcDbEntity
  8
0
100
AcDbLine
 62
7
  6
CONTINUOUS
 10
10.9797957839
 20
34.6360400694
 11
10.9797957839
 21
34.8401656737
  0
LINE
  5
23E
100
AcDbEntity
  8
0
100
AcDbLine
 62
7
  6
CONTINUOUS
 10
11.4214609016
 20
34.381037304
 11
11.4214609016
 21
33.4708169379
  0
LINE
  5
23F
100
AcDbEntity
  8
0
100
AcDbLine
 62
7
  6
CONTINUOUS
 10
11.4214609016
 20
35.605156344
 11
11.4214609016
 21
37.6472268015
  0
LINE
  5
240
100
AcDbEntity
  8
0
100
AcDbLine
 62
7
  6
CONTINUOUS
 10
11.5021942852
 20
15.6765302024
 11
11.5021942852
 21
9.9865757349
  0
LINE
  5
241
100
AcDbEntity
  8
0
100
AcDbLine
 62
7
  6
CONTINUOUS
 10
11.5381340063
 20
33.2687343145
 11
11.5381340063
 21
23.2910747772
  0
LINE
  5
242
100
AcDbEntity
  8
0
100
AcDbLine
 62
7
  6
CONTINUOUS
 10
12.2738065809
 20
33.8889594886
 11
12.2738065809
 21
34.0930850929
  0
LINE
  5
243
100
AcDbEntity
  8
0
100
AcDbLine
 62
7
  6
CONTINUOUS
 10
12.598798594
 20
22.6787136454
 11
12.598798594
 21
32.6563731828
  0
LINE
  5
244
100
AcDbEntity
  8
0
100
AcDbLine
 62
7
  6
CONTINUOUS
 10
12.7154716986
 20
32.7237363571
 11
12.7154716986
 21
33.6339567232
  0
LINE
  5
245
100
AcDbEntity
  8
0
100
AcDbLine
 62
7
  6
CONTINUOUS
 10
12.7154716986
 20
34.8580757633
 11
12.7154716986
 21
36.9001462207
  0
LINE
  5
246
100
AcDbEntity
  8
0
100
AcDbLine
 62
7
  6
CONTINUOUS
 10
7.0833333171
 20
48.3167799878
 11
6.7185685841
 21
48.106184228
  0
LINE
  5
247
100
AcDbEntity
  8
0
100
AcDbLine
 62
7
  6
CONTINUOUS
 10
7.0833333171
 20
47.0103761204
 11
6.7163383654
 21
46.798492751
  0
LINE
  5
248
100
AcDbEntity
  8
0
100
AcDbLine
 62
7
  6
CONTINUOUS
 10
30.6365013997
 20
18.0683766267
 11
31.0059180015
 21
17.8569599379
  0
LINE
  5
249
100
AcDbEntity
  8
0
100
AcDbLine
 62
7
  6
CONTINUOUS
 10
11.5381340063
 20
33.2687343145
 11
11.4214609016
 21
33.4708169379
  0
LINE
  5
24A
100
AcDbEntity
  8
0
100
AcDbLine
 62
7
  6
CONTINUOUS
 10
13.3469747467
 20
23.1182101659
 11
13.2715732923
 21
33.0515770901
  0
LINE
  5
24B
100
AcDbEntity
  8
0
100
AcDbLine
 62
7
  6
CONTINUOUS
 10
13.3557158013
 20
37.2697891193
 11
13.3872282922
 21
33.1183422055
  0
LINE
  5
24C
100
AcDbEntity
  8
0
100
AcDbLine
 62
7
  6
CONTINUOUS
 10
14.0609293335
 20
21.8082292159
 11
14.0845268296
 21
18.6995015385
  0
LINE
  5
24D
100
AcDbEntity
  8
0
100
AcDbLine
 62
7
  6
CONTINUOUS
 10
12.9164137355
 20
9.1613211666
 11
12.9164137355
 21
14.3461115153
  0
LINE
  5
24E
100
AcDbEntity
  8
0
100
AcDbLine
 62
7
  6
CONTINUOUS
 10
13.2699656541
 20
14.5502335923
 11
13.2699656541
 21
9.3654432435
  0
LINE
  5
24F
100
AcDbEntity
  8
0
100
AcDbLine
 62
7
  6
CONTINUOUS
 10
13.6235234607
 20
13.9378707608
 11
13.6235234607
 21
8.753080412
  0
LINE
  5
250
100
AcDbEntity
  8
0
100
AcDbLine
 62
7
  6
CONTINUOUS
 10
15.037742911
 20
7.936598903
 11
15.037742911
 21
13.1213892518
  0
LINE
  5
251
100
AcDbEntity
  8
0
100
AcDbLine
 62
7
  6
CONTINUOUS
 10
15.3912948296
 20
13.3255113287
 11
15.3912948296
 21
8.1407209799
  0
LINE
  5
252
100
AcDbEntity
  8
0
100
AcDbLine
 62
7
  6
CONTINUOUS
 10
6.570035486
 20
44.0960449944
 11
6.7119033255
 21
44.1793815477
  0
LINE
  5
253
100
AcDbEntity
  8
0
100
AcDbLine
 62
7
  6
CONTINUOUS
 10
7.0833333171
 20
44.3975683856
 11
6.7118891819
 21
44.1812448235
  0
LINE
  5
254
100
AcDbEntity
  8
0
100
AcDbLine
 62
7
  6
CONTINUOUS
 10
7.0833333171
 20
45.703972253
 11
6.7141081467
 21
45.4908012739
  0
LINE
  5
255
100
AcDbEntity
  8
0
100
AcDbLine
 62
7
  6
CONTINUOUS
 10
10.9797957839
 20
34.6360400694
 11
12.7154716986
 21
33.6339567232
  0
LINE
  5
256
100
AcDbEntity
  8
0
100
AcDbLine
 62
7
  6
CONTINUOUS
 10
10.9797957839
 20
34.8401656737
 11
12.2738065809
 21
34.0930850929
  0
LINE
  5
257
100
AcDbEntity
  8
0
100
AcDbLine
 62
7
  6
CONTINUOUS
 10
15.7448526361
 20
12.7131484973
 11
15.7448526361
 21
7.5283581485
  0
LINE
  5
258
100
AcDbEntity
  8
0
100
AcDbLine
 62
7
  6
CONTINUOUS
 10
17.1590720864
 20
6.7118766394
 11
17.1590720864
 21
12.4106041663
  0
LINE
  5
259
100
AcDbEntity
  8
0
100
AcDbLine
 62
7
  6
CONTINUOUS
 10
17.512624005
 20
12.2064854887
 11
17.512624005
 21
6.9159987164
  0
LINE
  5
25A
100
AcDbEntity
  8
0
100
AcDbLine
 62
7
  6
CONTINUOUS
 10
13.4446899733
 20
14.3884526162
 11
13.2699656541
 21
13.4136724674
  0
LINE
  5
25B
100
AcDbEntity
  8
0
100
AcDbLine
 62
7
  6
CONTINUOUS
 10
12.7306163553
 20
22.5762683966
 11
12.1944530545
 21
20.4718756789
  0
LINE
  5
25C
100
AcDbEntity
  8
0
100
AcDbLine
 62
7
  6
CONTINUOUS
 10
11.4214609016
 20
35.605156344
 11
10.9797957839
 21
34.8401656737
  0
LINE
  5
25D
100
AcDbEntity
  8
0
100
AcDbLine
 62
7
  6
CONTINUOUS
 10
12.2738065809
 20
34.0930850929
 11
12.7154716986
 21
34.8580757633
  0
LINE
  5
25E
100
AcDbEntity
  8
0
100
AcDbLine
 62
7
  6
CONTINUOUS
 10
19.3163315622
 20
47.1330323379
 11
18.9616028131
 21
46.9282308216
  0
LINE
  5
25F
100
AcDbEntity
  8
0
100
AcDbLine
 62
7
  6
CONTINUOUS
 10
50.4289003996
 20
65.0957751083
 11
50.7827458122
 21
65.300066633
  0
LINE
  5
260
100
AcDbEntity
  8
0
100
AcDbLine
 62
7
  6
CONTINUOUS
 10
11.4214609016
 20
35.605156344
 11
12.7154716986
 21
34.8580757633
  0
LINE
  5
261
100
AcDbEntity
  8
0
100
AcDbLine
 62
7
  6
CONTINUOUS
 10
11.4214609016
 20
37.6472268015
 11
12.7154716986
 21
36.9001462207
  0
LINE
  5
262
100
AcDbEntity
  8
0
100
AcDbLine
 62
7
  6
CONTINUOUS
 10
18.997998128
 20
11.3489237396
 11
18.803033731
 21
37.0334799412
  0
LINE
  5
263
100
AcDbEntity
  8
0
100
AcDbLine
 62
7
  6
CONTINUOUS
 10
19.3163315622
 20
47.1330323379
 11
19.3163315622
 21
46.4798304042
  0
LINE
  5
264
100
AcDbEntity
  8
0
100
AcDbLine
 62
7
  6
CONTINUOUS
 10
19.3163315622
 20
45.8266284705
 11
19.3163315622
 21
45.1734265368
  0
LINE
  5
265
100
AcDbEntity
  8
0
100
AcDbLine
 62
7
  6
CONTINUOUS
 10
19.3163315622
 20
44.5202246031
 11
19.3163315622
 21
43.8670226694
  0
LINE
  5
266
100
AcDbEntity
  8
0
100
AcDbLine
 62
7
  6
CONTINUOUS
 10
19.3163315622
 20
43.2138207357
 11
19.3163315622
 21
42.560618802
  0
LINE
  5
267
100
AcDbEntity
  8
0
100
AcDbLine
 62
7
  6
CONTINUOUS
 10
19.3163315622
 20
41.9074168683
 11
19.3163315622
 21
41.2542149346
  0
LINE
  5
268
100
AcDbEntity
  8
0
100
AcDbLine
 62
7
  6
CONTINUOUS
 10
19.3163315622
 20
40.6010130009
 11
19.3163315622
 21
39.9478110672
  0
LINE
  5
269
100
AcDbEntity
  8
0
100
AcDbLine
 62
7
  6
CONTINUOUS
 10
19.3163315622
 20
39.2946091335
 11
19.3163315622
 21
38.6414071998
  0
LINE
  5
26A
100
AcDbEntity
  8
0
100
AcDbLine
 62
7
  6
CONTINUOUS
 10
19.3163315622
 20
37.9882052661
 11
19.3163315622
 21
37.3350033324
  0
LINE
  5
26B
100
AcDbEntity
  8
0
100
AcDbLine
 62
7
  6
CONTINUOUS
 10
20.1341277212
 20
12.0048645506
 11
20.1341277212
 21
11.7143341363
  0
LINE
  5
26C
100
AcDbEntity
  8
0
100
AcDbLine
 62
7
  6
CONTINUOUS
 10
20.2154022311
 20
11.8894567793
 11
20.2154022311
 21
12.0517881307
  0
LINE
  5
26D
100
AcDbEntity
  8
0
100
AcDbLine
 62
7
  6
CONTINUOUS
 10
18.9459912824
 20
37.7743904822
 11
18.9471063918
 21
38.4282362207
  0
LINE
  5
26E
100
AcDbEntity
  8
0
100
AcDbLine
 62
7
  6
CONTINUOUS
 10
18.9482215011
 20
39.0820819592
 11
18.9493366105
 21
39.7359276978
  0
LINE
  5
26F
100
AcDbEntity
  8
0
100
AcDbLine
 62
7
  6
CONTINUOUS
 10
18.9504517198
 20
40.3897734363
 11
18.9515668291
 21
41.0436191748
  0
LINE
  5
270
100
AcDbEntity
  8
0
100
AcDbLine
 62
7
  6
CONTINUOUS
 10
18.9526819384
 20
41.6974649134
 11
18.9537970478
 21
42.3513106519
  0
LINE
  5
271
100
AcDbEntity
  8
0
100
AcDbLine
 62
7
  6
CONTINUOUS
 10
18.9549121571
 20
43.0051563904
 11
18.9560272665
 21
43.659002129
  0
LINE
  5
272
100
AcDbEntity
  8
0
100
AcDbLine
 62
7
  6
CONTINUOUS
 10
18.9571423758
 20
44.3128478675
 11
18.9582574851
 21
44.966693606
  0
LINE
  5
273
100
AcDbEntity
  8
0
100
AcDbLine
 62
7
  6
CONTINUOUS
 10
18.9593725944
 20
45.6205393446
 11
18.9604877038
 21
46.2743850831
  0
LINE
  5
274
100
AcDbEntity
  8
0
100
AcDbLine
 62
7
  6
CONTINUOUS
 10
18.9616028131
 20
46.9282308216
 11
18.9627796436
 21
47.6182668214
  0
LINE
  5
275
100
AcDbEntity
  8
0
100
AcDbLine
 62
7
  6
CONTINUOUS
 10
15.5660191488
 20
13.1637303527
 11
15.3912948296
 21
12.1889502039
  0
LINE
  5
276
100
AcDbEntity
  8
0
100
AcDbLine
 62
7
  6
CONTINUOUS
 10
19.3163315622
 20
46.4798304042
 11
18.9604877038
 21
46.2743850831
  0
LINE
  5
277
100
AcDbEntity
  8
0
100
AcDbLine
 62
7
  6
CONTINUOUS
 10
50.4289003996
 20
64.4425731746
 11
50.7839197881
 21
64.6475424906
  0
LINE
  5
278
100
AcDbEntity
  8
0
100
AcDbLine
 62
7
  6
CONTINUOUS
 10
19.3163315622
 20
45.8266284705
 11
18.9593725944
 21
45.6205393446
  0
LINE
  5
279
100
AcDbEntity
  8
0
100
AcDbLine
 62
7
  6
CONTINUOUS
 10
50.4289003996
 20
63.7893712409
 11
50.7850937641
 21
63.9950183482
  0
LINE
  5
27A
100
AcDbEntity
  8
0
100
AcDbLine
 62
7
  6
CONTINUOUS
 10
19.3163315622
 20
45.1734265368
 11
18.9582574851
 21
44.966693606
  0
LINE
  5
27B
100
AcDbEntity
  8
0
100
AcDbLine
 62
7
  6
CONTINUOUS
 10
50.4289003996
 20
63.1361693071
 11
50.78626774
 21
63.3424942057
  0
LINE
  5
27C
100
AcDbEntity
  8
0
100
AcDbLine
 62
7
  6
CONTINUOUS
 10
19.3163315622
 20
44.5202246031
 11
18.9571423758
 21
44.3128478675
  0
LINE
  5
27D
100
AcDbEntity
  8
0
100
AcDbLine
 62
7
  6
CONTINUOUS
 10
50.4289003996
 20
62.4829673734
 11
50.787441716
 21
62.6899700633
  0
LINE
  5
27E
100
AcDbEntity
  8
0
100
AcDbLine
 62
7
  6
CONTINUOUS
 10
19.3163315622
 20
43.8670226694
 11
18.9560272665
 21
43.659002129
  0
LINE
  5
27F
100
AcDbEntity
  8
0
100
AcDbLine
 62
7
  6
CONTINUOUS
 10
50.4289003996
 20
61.8297654397
 11
50.7886156919
 21
62.0374459209
  0
LINE
  5
280
100
AcDbEntity
  8
0
100
AcDbLine
 62
7
  6
CONTINUOUS
 10
13.3557158013
 20
37.2697891193
 11
12.0617050043
 21
38.0168697
  0
LINE
  5
281
100
AcDbEntity
  8
0
100
AcDbLine
 62
7
  6
CONTINUOUS
 10
41.155910746
 20
23.9848506815
 11
42.5701301963
 21
23.1683691725
  0
LINE
  5
282
100
AcDbEntity
  8
0
100
AcDbLine
 62
7
  6
CONTINUOUS
 10
43.2772399214
 20
22.7601284179
 11
44.5664572508
 21
22.0158152844
  0
LINE
  5
283
100
AcDbEntity
  8
0
100
AcDbLine
 62
7
  6
CONTINUOUS
 10
21.3698198442
 20
12.7182874719
 11
21.3698198442
 21
12.7012792221
  0
LINE
  5
284
100
AcDbEntity
  8
0
100
AcDbLine
 62
7
  6
CONTINUOUS
 10
17.7144104556
 20
12.0899866627
 11
17.512624005
 21
10.9642279403
  0
LINE
  5
285
100
AcDbEntity
  8
0
100
AcDbLine
 62
7
  6
CONTINUOUS
 10
19.3163315622
 20
43.2138207357
 11
18.9549121571
 21
43.0051563904
  0
LINE
  5
286
100
AcDbEntity
  8
0
100
AcDbLine
 62
7
  6
CONTINUOUS
 10
50.4289003996
 20
61.176563506
 11
50.7897896678
 21
61.3849217785
  0
LINE
  5
287
100
AcDbEntity
  8
0
100
AcDbLine
 62
7
  6
CONTINUOUS
 10
19.3163315622
 20
42.560618802
 11
18.9537970478
 21
42.3513106519
  0
LINE
  5
288
100
AcDbEntity
  8
0
100
AcDbLine
 62
7
  6
CONTINUOUS
 10
50.4289003996
 20
60.5233615723
 11
50.7909636438
 21
60.7323976361
  0
LINE
  5
289
100
AcDbEntity
  8
0
100
AcDbLine
 62
7
  6
CONTINUOUS
 10
11.4214609016
 20
37.6472268015
 11
12.0617050043
 21
38.0168697
  0
LINE
  5
28A
100
AcDbEntity
  8
0
100
AcDbLine
 62
7
  6
CONTINUOUS
 10
19.3163315622
 20
41.9074168683
 11
18.9526819384
 21
41.6974649134
  0
LINE
  5
28B
100
AcDbEntity
  8
0
100
AcDbLine
 62
7
  6
CONTINUOUS
 10
50.4289003996
 20
59.8701596386
 11
50.7921376197
 21
60.0798734936
  0
LINE
  5
28C
100
AcDbEntity
  8
0
100
AcDbLine
 62
7
  6
CONTINUOUS
 10
19.3163315622
 20
41.2542149346
 11
18.9515668291
 21
41.0436191748
  0
LINE
  5
28D
100
AcDbEntity
  8
0
100
AcDbLine
 62
7
  6
CONTINUOUS
 10
50.4289003996
 20
59.2169577049
 11
50.7933115957
 21
59.4273493512
  0
LINE
  5
28E
100
AcDbEntity
  8
0
100
AcDbLine
 62
7
  6
CONTINUOUS
 10
12.7154716986
 20
36.9001462207
 11
13.3557158013
 21
37.2697891193
  0
LINE
  5
28F
100
AcDbEntity
  8
0
100
AcDbLine
 62
7
  6
CONTINUOUS
 10
19.3163315622
 20
40.6010130009
 11
18.9504517198
 21
40.3897734363
  0
LINE
  5
290
100
AcDbEntity
  8
0
100
AcDbLine
 62
7
  6
CONTINUOUS
 10
50.4289003996
 20
58.5637557712
 11
50.7944855716
 21
58.7748252088
  0
LINE
  5
291
100
AcDbEntity
  8
0
100
AcDbLine
 62
7
  6
CONTINUOUS
 10
6.570035486
 20
44.0960449944
 11
18.803033731
 21
37.0334799412
  0
LINE
  5
292
100
AcDbEntity
  8
0
100
AcDbLine
 62
7
  6
CONTINUOUS
 10
41.1948063609
 20
24.1641804512
 11
42.3527925068
 21
23.4956319628
  0
LINE
  5
293
100
AcDbEntity
  8
0
100
AcDbLine
 62
7
  6
CONTINUOUS
 10
43.0599022319
 20
23.0873912083
 11
44.4343554127
 21
22.2938682463
  0
LINE
  5
294
100
AcDbEntity
  8
0
100
AcDbLine
 62
7
  6
CONTINUOUS
 10
18.9448874269
 20
37.120551241
 11
6.7118891819
 21
44.1831162942
  0
LINE
  5
295
100
AcDbEntity
  8
0
100
AcDbLine
 62
7
  6
CONTINUOUS
 10
7.0833333171
 20
44.3975683856
 11
19.3163315622
 21
37.3350033324
  0
LINE
  5
296
100
AcDbEntity
  8
0
100
AcDbLine
 62
7
  6
CONTINUOUS
 10
18.9459912825
 20
37.7743904822
 11
6.7129930374
 21
44.8369555354
  0
LINE
  5
297
100
AcDbEntity
  8
0
100
AcDbLine
 62
7
  6
CONTINUOUS
 10
18.9471063918
 20
38.4282362207
 11
6.7141081467
 21
45.4908012739
  0
LINE
  5
298
100
AcDbEntity
  8
0
100
AcDbLine
 62
7
  6
CONTINUOUS
 10
44.515198378
 20
23.9040200289
 11
45.7260671099
 21
23.2049404558
  0
LINE
  5
299
100
AcDbEntity
  8
0
100
AcDbLine
 62
7
  6
CONTINUOUS
 10
7.0833333171
 20
45.703972253
 11
19.3163315622
 21
38.6414071998
  0
LINE
  5
29A
100
AcDbEntity
  8
0
100
AcDbLine
 62
7
  6
CONTINUOUS
 10
18.9482215011
 20
39.0820819592
 11
6.7152232561
 21
46.1446470124
  0
LINE
  5
29B
100
AcDbEntity
  8
0
100
AcDbLine
 62
7
  6
CONTINUOUS
 10
18.9493366105
 20
39.7359276978
 11
6.7163383654
 21
46.798492751
  0
LINE
  5
29C
100
AcDbEntity
  8
0
100
AcDbLine
 62
7
  6
CONTINUOUS
 10
18.4439488215
 20
7.4536961403
 11
19.1587878559
 21
11.4417551782
  0
LINE
  5
29D
100
AcDbEntity
  8
0
100
AcDbLine
 62
7
  6
CONTINUOUS
 10
19.5216396423
 20
11.6512465042
 11
18.8068006079
 21
7.6631874663
  0
LINE
  5
29E
100
AcDbEntity
  8
0
100
AcDbLine
 62
7
  6
CONTINUOUS
 10
18.803033731
 20
37.0334799412
 11
18.9448874269
 21
37.1186797703
  0
LINE
  5
29F
100
AcDbEntity
  8
0
100
AcDbLine
 62
7
  6
CONTINUOUS
 10
19.3163315622
 20
39.9478110672
 11
18.9493366105
 21
39.7359276978
  0
LINE
  5
2A0
100
AcDbEntity
  8
0
100
AcDbLine
 62
7
  6
CONTINUOUS
 10
50.4289003996
 20
57.9105538375
 11
50.7956595476
 21
58.1223010664
  0
LINE
  5
2A1
100
AcDbEntity
  8
0
100
AcDbLine
 62
7
  6
CONTINUOUS
 10
19.3163315622
 20
39.2946091335
 11
18.9482215011
 21
39.0820819592
  0
LINE
  5
2A2
100
AcDbEntity
  8
0
100
AcDbLine
 62
7
  6
CONTINUOUS
 10
50.4289003996
 20
57.2573519038
 11
50.7968335235
 21
57.4697769239
  0
LINE
  5
2A3
100
AcDbEntity
  8
0
100
AcDbLine
 62
7
  6
CONTINUOUS
 10
19.3163315622
 20
38.6414071998
 11
18.9471063918
 21
38.4282362207
  0
LINE
  5
2A4
100
AcDbEntity
  8
0
100
AcDbLine
 62
7
  6
CONTINUOUS
 10
50.4289003996
 20
56.6041499701
 11
50.7980074994
 21
56.8172527815
  0
LINE
  5
2A5
100
AcDbEntity
  8
0
100
AcDbLine
 62
7
  6
CONTINUOUS
 10
19.3163315622
 20
37.9882052661
 11
18.9459912824
 21
37.7743904822
  0
LINE
  5
2A6
100
AcDbEntity
  8
0
100
AcDbLine
 62
7
  6
CONTINUOUS
 10
50.4289003996
 20
55.9509480364
 11
50.7991814754
 21
56.1647286391
  0
LINE
  5
2A7
100
AcDbEntity
  8
0
100
AcDbLine
 62
7
  6
CONTINUOUS
 10
50.4289003996
 20
55.2964983585
 11
50.9422090327
 21
55.5903599786
  0
LINE
  5
2A8
100
AcDbEntity
  8
0
100
AcDbLine
 62
7
  6
CONTINUOUS
 10
7.0833333171
 20
47.0103761204
 11
19.3163315622
 21
39.9478110672
  0
LINE
  5
2A9
100
AcDbEntity
  8
0
100
AcDbLine
 62
7
  6
CONTINUOUS
 10
18.9504517198
 20
40.3897734363
 11
6.7174534747
 21
47.4523384895
  0
LINE
  5
2AA
100
AcDbEntity
  8
0
100
AcDbLine
 62
7
  6
CONTINUOUS
 10
18.9515668291
 20
41.0436191748
 11
6.7185685841
 21
48.106184228
  0
LINE
  5
2AB
100
AcDbEntity
  8
0
100
AcDbLine
 62
7
  6
CONTINUOUS
 10
7.0833333171
 20
48.3167799878
 11
19.3163315622
 21
41.2542149346
  0
LINE
  5
2AC
100
AcDbEntity
  8
0
100
AcDbLine
 62
7
  6
CONTINUOUS
 10
18.9526819384
 20
41.6974649134
 11
6.7196836934
 21
48.7600299666
  0
LINE
  5
2AD
100
AcDbEntity
  8
0
100
AcDbLine
 62
7
  6
CONTINUOUS
 10
18.9537970478
 20
42.3513106519
 11
6.7207988027
 21
49.4138757051
  0
LINE
  5
2AE
100
AcDbEntity
  8
0
100
AcDbLine
 62
7
  6
CONTINUOUS
 10
7.0833333171
 20
49.6231838552
 11
19.3163315622
 21
42.560618802
  0
LINE
  5
2AF
100
AcDbEntity
  8
0
100
AcDbLine
 62
7
  6
CONTINUOUS
 10
18.9549121571
 20
43.0051563904
 11
6.7219139121
 21
50.0677214436
  0
LINE
  5
2B0
100
AcDbEntity
  8
0
100
AcDbLine
 62
7
  6
CONTINUOUS
 10
13.3872282922
 20
33.1183422055
 11
12.7154716986
 21
32.7237363571
  0
LINE
  5
2B1
100
AcDbEntity
  8
0
100
AcDbLine
 62
7
  6
CONTINUOUS
 10
19.3163315622
 20
37.3350033324
 11
18.9448874269
 21
37.120551241
  0
LINE
  5
2B2
100
AcDbEntity
  8
0
100
AcDbLine
 62
7
  6
CONTINUOUS
 10
12.7154716986
 20
32.7237363571
 11
12.598798594
 21
32.6563731828
  0
LINE
  5
2B3
100
AcDbEntity
  8
0
100
AcDbLine
 62
7
  6
CONTINUOUS
 10
18.9560272665
 20
43.659002129
 11
6.7230290214
 21
50.7215671822
  0
LINE
  5
2B4
100
AcDbEntity
  8
0
100
AcDbLine
 62
7
  6
CONTINUOUS
 10
7.0833333171
 20
50.9295877226
 11
19.3163315622
 21
43.8670226694
  0
LINE
  5
2B5
100
AcDbEntity
  8
0
100
AcDbLine
 62
7
  6
CONTINUOUS
 10
18.9571423758
 20
44.3128478675
 11
6.7241441307
 21
51.3754129207
  0
LINE
  5
2B6
100
AcDbEntity
  8
0
100
AcDbLine
 62
7
  6
CONTINUOUS
 10
18.9582574851
 20
44.966693606
 11
6.7252592401
 21
52.0292586592
  0
LINE
  5
2B7
100
AcDbEntity
  8
0
100
AcDbLine
 62
7
  6
CONTINUOUS
 10
7.0833333171
 20
52.23599159
 11
19.3163315622
 21
45.1734265368
  0
LINE
  5
2B8
100
AcDbEntity
  8
0
100
AcDbLine
 62
7
  6
CONTINUOUS
 10
18.9593725944
 20
45.6205393446
 11
6.7263743494
 21
52.6831043978
  0
LINE
  5
2B9
100
AcDbEntity
  8
0
100
AcDbLine
 62
7
  6
CONTINUOUS
 10
18.4439488215
 20
7.4536961403
 11
18.3976024397
 21
7.3335040584
  0
LINE
  5
2BA
100
AcDbEntity
  8
0
100
AcDbLine
 62
7
  6
CONTINUOUS
 10
18.8068006079
 20
7.6631874663
 11
18.7248031631
 21
7.4505399369
  0
LINE
  5
2BB
100
AcDbEntity
  8
0
100
AcDbLine
 62
7
  6
CONTINUOUS
 10
18.9604877038
 20
46.2743850831
 11
6.7274894587
 21
53.3369501363
  0
LINE
  5
2BC
100
AcDbEntity
  8
0
100
AcDbLine
 62
7
  6
CONTINUOUS
 10
7.0833333171
 20
53.5423954574
 11
19.3163315622
 21
46.4798304042
  0
LINE
  5
2BD
100
AcDbEntity
  8
0
100
AcDbLine
 62
7
  6
CONTINUOUS
 10
18.9616028131
 20
46.9282308216
 11
6.7286045681
 21
53.9907958748
  0
LINE
  5
2BE
100
AcDbEntity
  8
0
100
AcDbLine
 62
7
  6
CONTINUOUS
 10
18.9627796436
 20
47.6182668214
 11
6.7297813985
 21
54.6808318746
  0
LINE
  5
2BF
100
AcDbEntity
  8
0
100
AcDbLine
 62
7
  6
CONTINUOUS
 10
20.1341277212
 20
11.7143341363
 11
20.2154022311
 21
11.8894567793
  0
LINE
  5
2C0
100
AcDbEntity
  8
0
100
AcDbLine
 62
7
  6
CONTINUOUS
 10
7.7979779047
 20
56.8809245702
 11
20.0309761498
 21
49.818359517
  0
LINE
  5
2C1
100
AcDbEntity
  8
0
100
AcDbLine
 62
7
  6
CONTINUOUS
 10
37.1108362936
 20
71.1023211683
 11
37.1108362936
 21
70.4615104754
  0
LINE
  5
2C2
100
AcDbEntity
  8
0
100
AcDbLine
 62
7
  6
CONTINUOUS
 10
12.598798594
 20
22.6787136454
 11
13.3469747467
 21
23.1182101659
  0
LINE
  5
2C3
100
AcDbEntity
  8
0
100
AcDbLine
 62
7
  6
CONTINUOUS
 10
12.1944530545
 20
20.4718756789
 11
11.6096427916
 21
20.1283441793
  0
LINE
  5
2C4
100
AcDbEntity
  8
0
100
AcDbLine
 62
7
  6
CONTINUOUS
 10
42.3527925068
 20
23.4956319628
 11
42.0854571857
 21
24.6783948753
  0
LINE
  5
2C5
100
AcDbEntity
  8
0
100
AcDbLine
 62
7
  6
CONTINUOUS
 10
42.4483089721
 20
24.8878862013
 11
42.6972829126
 21
23.7863589439
  0
LINE
  5
2C6
100
AcDbEntity
  8
0
100
AcDbLine
 62
7
  6
CONTINUOUS
 10
42.629321948
 20
24.9923934678
 11
43.0599022319
 21
23.0873912083
  0
LINE
  5
2C7
100
AcDbEntity
  8
0
100
AcDbLine
 62
7
  6
CONTINUOUS
 10
44.431890507
 20
22.4577517059
 11
43.7170514726
 21
25.620390653
  0
LINE
  5
2C8
100
AcDbEntity
  8
0
100
AcDbLine
 62
7
  6
CONTINUOUS
 10
44.0799032589
 20
25.8298819791
 11
44.7947422934
 21
22.667243032
  0
LINE
  5
2C9
100
AcDbEntity
  8
0
100
AcDbLine
 62
7
  6
CONTINUOUS
 10
44.431890507
 20
22.4577517059
 11
44.4343554127
 21
22.2938682463
  0
LINE
  5
2CA
100
AcDbEntity
  8
0
100
AcDbLine
 62
7
  6
CONTINUOUS
 10
44.7947422934
 20
22.667243032
 11
44.7961355009
 21
22.5746132504
  0
LINE
  5
2CB
100
AcDbEntity
  8
0
100
AcDbLine
 62
7
  6
CONTINUOUS
 10
44.3118476596
 20
24.8036979577
 11
44.3118476596
 21
25.9637943418
  0
LINE
  5
2CC
100
AcDbEntity
  8
0
100
AcDbLine
 62
7
  6
CONTINUOUS
 10
13.2699656541
 20
14.5502335923
 11
12.9164137355
 21
14.3461115153
  0
LINE
  5
2CD
100
AcDbEntity
  8
0
100
AcDbLine
 62
7
  6
CONTINUOUS
 10
15.3912948296
 20
13.3255113287
 11
15.037742911
 21
13.1213892518
  0
LINE
  5
2CE
100
AcDbEntity
  8
0
100
AcDbLine
 62
7
  6
CONTINUOUS
 10
45.7260671099
 20
26.7802894483
 11
45.7260671099
 21
23.2049404558
  0
LINE
  5
2CF
100
AcDbEntity
  8
0
100
AcDbLine
 62
7
  6
CONTINUOUS
 10
46.0796190285
 20
23.4090625328
 11
46.0796190285
 21
26.9844115253
  0
LINE
  5
2D0
100
AcDbEntity
  8
0
100
AcDbLine
 62
7
  6
CONTINUOUS
 10
50.4289003996
 20
55.2964983585
 11
50.4289003996
 21
55.9509480364
  0
LINE
  5
2D1
100
AcDbEntity
  8
0
100
AcDbLine
 62
7
  6
CONTINUOUS
 10
50.4289003996
 20
56.6041499701
 11
50.4289003996
 21
57.2573519038
  0
LINE
  5
2D2
100
AcDbEntity
  8
0
100
AcDbLine
 62
7
  6
CONTINUOUS
 10
50.4289003996
 20
57.9105538375
 11
50.4289003996
 21
58.5637557712
  0
LINE
  5
2D3
100
AcDbEntity
  8
0
100
AcDbLine
 62
7
  6
CONTINUOUS
 10
50.4289003996
 20
59.2169577049
 11
50.4289003996
 21
59.8701596386
  0
LINE
  5
2D4
100
AcDbEntity
  8
0
100
AcDbLine
 62
7
  6
CONTINUOUS
 10
50.4289003996
 20
60.5233615723
 11
50.4289003996
 21
61.176563506
  0
LINE
  5
2D5
100
AcDbEntity
  8
0
100
AcDbLine
 62
7
  6
CONTINUOUS
 10
50.4289003996
 20
61.8297654397
 11
50.4289003996
 21
62.4829673734
  0
LINE
  5
2D6
100
AcDbEntity
  8
0
100
AcDbLine
 62
7
  6
CONTINUOUS
 10
50.4289003996
 20
63.1361693071
 11
50.4289003996
 21
63.7893712409
  0
LINE
  5
2D7
100
AcDbEntity
  8
0
100
AcDbLine
 62
7
  6
CONTINUOUS
 10
50.4289003996
 20
64.4425731746
 11
50.4289003996
 21
65.0957751083
  0
LINE
  5
2D8
100
AcDbEntity
  8
0
100
AcDbLine
 62
7
  6
CONTINUOUS
 10
50.7472338338
 20
29.6792441036
 11
18.997998128
 21
11.3489237396
  0
LINE
  5
2D9
100
AcDbEntity
  8
0
100
AcDbLine
 62
7
  6
CONTINUOUS
 10
31.9659235871
 20
18.1077971631
 11
31.6406558218
 21
17.9200048522
  0
LINE
  5
2DA
100
AcDbEntity
  8
0
100
AcDbLine
 62
7
  6
CONTINUOUS
 10
50.7824523182
 20
65.4631976674
 11
50.7827458122
 21
65.300066633
  0
LINE
  5
2DB
100
AcDbEntity
  8
0
100
AcDbLine
 62
7
  6
CONTINUOUS
 10
50.7839197881
 20
64.6475424906
 11
50.7850937641
 21
63.9950183482
  0
LINE
  5
2DC
100
AcDbEntity
  8
0
100
AcDbLine
 62
7
  6
CONTINUOUS
 10
50.78626774
 20
63.3424942057
 11
50.787441716
 21
62.6899700633
  0
LINE
  5
2DD
100
AcDbEntity
  8
0
100
AcDbLine
 62
7
  6
CONTINUOUS
 10
50.7886156919
 20
62.0374459209
 11
50.7897896678
 21
61.3849217785
  0
LINE
  5
2DE
100
AcDbEntity
  8
0
100
AcDbLine
 62
7
  6
CONTINUOUS
 10
50.7909636438
 20
60.7323976361
 11
50.7921376197
 21
60.0798734936
  0
LINE
  5
2DF
100
AcDbEntity
  8
0
100
AcDbLine
 62
7
  6
CONTINUOUS
 10
50.7933115957
 20
59.4273493512
 11
50.7944855716
 21
58.7748252088
  0
LINE
  5
2E0
100
AcDbEntity
  8
0
100
AcDbLine
 62
7
  6
CONTINUOUS
 10
50.7956595476
 20
58.1223010664
 11
50.7968335235
 21
57.4697769239
  0
LINE
  5
2E1
100
AcDbEntity
  8
0
100
AcDbLine
 62
7
  6
CONTINUOUS
 10
50.7980074994
 20
56.8172527815
 11
50.7991814754
 21
56.1647286391
  0
LINE
  5
2E2
100
AcDbEntity
  8
0
100
AcDbLine
 62
7
  6
CONTINUOUS
 10
50.7824523182
 20
65.9986132372
 11
50.7824523182
 21
65.4631976674
  0
LINE
  5
2E3
100
AcDbEntity
  8
0
100
AcDbLine
 62
7
  6
CONTINUOUS
 10
50.9422090327
 20
55.5903599786
 11
50.7472338338
 21
29.6792441036
  0
LINE
  5
2E4
100
AcDbEntity
  8
0
100
AcDbLine
 62
7
  6
CONTINUOUS
 10
46.0796190285
 20
23.4090625328
 11
45.7260671099
 21
23.2049404558
  0
LINE
  5
2E5
100
AcDbEntity
  8
0
100
AcDbLine
 62
7
  6
CONTINUOUS
 10
44.7947422934
 20
22.667243032
 11
44.431890507
 21
22.4577517059
  0
LINE
  5
2E6
100
AcDbEntity
  8
0
100
AcDbLine
 62
7
  6
CONTINUOUS
 10
17.1590720864
 20
6.7118766394
 11
17.512624005
 21
6.9159987164
  0
LINE
  5
2E7
100
AcDbEntity
  8
0
100
AcDbLine
 62
7
  6
CONTINUOUS
 10
18.4439488215
 20
7.4536961403
 11
18.8068006079
 21
7.6631874663
  0
LINE
  5
2E8
100
AcDbEntity
  8
0
100
AcDbLine
 62
7
  6
CONTINUOUS
 10
50.4289003996
 20
55.8867121518
 11
50.9422090327
 21
55.5903599786
  0
LINE
  5
2E9
100
AcDbEntity
  8
0
100
AcDbLine
 62
7
  6
CONTINUOUS
 10
50.7980074994
 20
56.8172527815
 11
50.4289003996
 21
57.030352044
  0
LINE
  5
2EA
100
AcDbEntity
  8
0
100
AcDbLine
 62
7
  6
CONTINUOUS
 10
50.7956595476
 20
58.1223010664
 11
50.4289003996
 21
58.3340447689
  0
LINE
  5
2EB
100
AcDbEntity
  8
0
100
AcDbLine
 62
7
  6
CONTINUOUS
 10
50.7933115957
 20
59.4273493512
 11
50.4289003996
 21
59.6377374937
  0
LINE
  5
2EC
100
AcDbEntity
  8
0
100
AcDbLine
 62
7
  6
CONTINUOUS
 10
50.7909636438
 20
60.7323976361
 11
50.4289003996
 21
60.9414302186
  0
LINE
  5
2ED
100
AcDbEntity
  8
0
100
AcDbLine
 62
7
  6
CONTINUOUS
 10
35.5167856576
 20
70.506425496
 11
41.7393512389
 21
66.9139068563
  0
LINE
  5
2EE
100
AcDbEntity
  8
0
100
AcDbLine
 62
7
  6
CONTINUOUS
 10
50.7886156919
 20
62.0374459209
 11
50.4289003996
 21
62.2451229435
  0
LINE
  5
2EF
100
AcDbEntity
  8
0
100
AcDbLine
 62
7
  6
CONTINUOUS
 10
42.6537793736
 20
67.2613631931
 11
37.1108362936
 21
70.4615104754
  0
LINE
  5
2F0
100
AcDbEntity
  8
0
100
AcDbLine
 62
7
  6
CONTINUOUS
 10
43.3334018749
 20
67.5098025285
 11
37.1108362936
 21
71.1023211683
  0
LINE
  5
2F1
100
AcDbEntity
  8
0
100
AcDbLine
 62
7
  6
CONTINUOUS
 10
50.78626774
 20
63.3424942057
 11
50.4289003996
 21
63.5488156683
  0
LINE
  5
2F2
100
AcDbEntity
  8
0
100
AcDbLine
 62
7
  6
CONTINUOUS
 10
50.7839197881
 20
64.6475424906
 11
50.4289003996
 21
64.8525083932
  0
LINE
  5
2F3
100
AcDbEntity
  8
0
100
AcDbLine
 62
7
  6
CONTINUOUS
 10
37.4804907699
 20
74.0276117238
 11
49.713489015
 21
66.9650466706
  0
LINE
  5
2F4
100
AcDbEntity
  8
0
100
AcDbLine
 62
7
  6
CONTINUOUS
 10
38.1352294317
 20
73.976750586
 11
50.3682276767
 21
66.9141855328
  0
ARC
  5
2F5
100
AcDbEntity
  8
0
100
AcDbCircle
 62
7
  6
CONTINUOUS
 10
57.8153122777
 20
13.2858250097
 40
61.4119088925
100
AcDbArc
 50
109.7027873293
 51
111.2905624651
  0
ARC
  5
2F6
100
AcDbEntity
  8
0
100
AcDbCircle
 62
7
  6
CONTINUOUS
 10
63.8645740941
 20
10.1569103622
 40
60.9170195637
100
AcDbArc
 50
109.6963373759
 51
111.2970124186
  0
SPLINE
  5
2F7
100
AcDbEntity
  8
0
100
AcDbSpline
 62
7
  6
CONTINUOUS
 70
0
 71
3
 72
16
 73
12
 74
0
 42
0.0000001
 43
0.0000001
 44
0.0000000001
 40
0.0
 40
0.0
 40
0.0
 40
0.0
 40
0.1482757869
 40
0.2889966461
 40
0.4220857791
 40
0.4859164045
 40
0.5480251604
 40
0.6674421963
 40
0.7815148135
 40
0.8917585753
 40
1.0
 40
1.0
 40
1.0
 40
1.0
 10
31.6406558218
 20
17.9200048522
 30
0.0
 10
31.6120899961
 20
17.9035124635
 30
0.0
 10
31.5550401484
 20
17.8736561104
 30
0.0
 10
31.468007115
 20
17.838043211
 30
0.0
 10
31.3957294364
 20
17.816984367
 30
0.0
 10
31.3391579293
 20
17.8058536437
 30
0.0
 10
31.2850248785
 20
17.7986566608
 30
0.0
 10
31.2190864167
 20
17.7963286911
 30
0.0
 10
31.1427908701
 20
17.8047582428
 30
0.0
 10
31.0711470206
 20
17.8244155964
 30
0.0
 10
31.0268171613
 20
17.845000665
 30
0.0
 10
31.0059184672
 20
17.8569607517
 30
0.0
  0
SPLINE
  5
2F8
100
AcDbEntity
  8
0
100
AcDbSpline
 62
7
  6
CONTINUOUS
 70
0
 71
3
 72
15
 73
11
 74
0
 42
0.0000001
 43
0.0000001
 44
0.0000000001
 40
0.0
 40
0.0
 40
0.0
 40
0.0
 40
0.1246714162
 40
0.2535815557
 40
0.3846868663
 40
0.5158317533
 40
0.6448582926
 40
0.7697178853
 40
0.8885872178
 40
1.0
 40
1.0
 40
1.0
 40
1.0
 10
32.8194805449
 20
19.3282897649
 30
0.0
 10
32.8051088147
 20
19.2665047497
 30
0.0
 10
32.7690440682
 20
19.1423453798
 30
0.0
 10
32.6963347341
 20
18.9603231895
 30
0.0
 10
32.6056052387
 20
18.7828609415
 30
0.0
 10
32.4990870531
 20
18.6143385388
 30
0.0
 10
32.379392509
 20
18.4588812574
 30
0.0
 10
32.24943513
 20
18.320288287
 30
0.0
 10
32.1124115084
 20
18.2019641309
 30
0.0
 10
32.015017186
 20
18.1361411964
 30
0.0
 10
31.9659235871
 20
18.1077971631
 30
0.0
  0
SPLINE
  5
2F9
100
AcDbEntity
  8
0
100
AcDbSpline
 62
7
  6
CONTINUOUS
 70
0
 71
3
 72
13
 73
9
 74
0
 42
0.0000001
 43
0.0000001
 44
0.0000000001
 40
0.0
 40
0.0
 40
0.0
 40
0.0
 40
0.1171415263
 40
0.2351137992
 40
0.3547176929
 40
0.4767022799
 40
0.730156955
 40
1.0
 40
1.0
 40
1.0
 40
1.0
 10
31.0059184672
 20
17.8569607517
 30
0.0
 10
30.9930840353
 20
17.8643057522
 30
0.0
 10
30.9680745477
 20
17.880404782
 30
0.0
 10
30.9330636901
 20
17.9084398692
 30
0.0
 10
30.900625358
 20
17.9402997916
 30
0.0
 10
30.8604739209
 20
17.9882997508
 30
0.0
 10
30.8173388229
 20
18.0579425768
 30
0.0
 10
30.7922579575
 20
18.1193778522
 30
0.0
 10
30.7816231903
 20
18.1517392957
 30
0.0
  0
SPLINE
  5
2FA
100
AcDbEntity
  8
0
100
AcDbSpline
 62
7
  6
CONTINUOUS
 70
0
 71
3
 72
13
 73
9
 74
0
 42
0.0000001
 43
0.0000001
 44
0.0000000001
 40
0.0
 40
0.0
 40
0.0
 40
0.0
 40
0.1123547526
 40
0.2245527614
 40
0.338805826
 40
0.457145251
 40
0.7121916889
 40
1.0
 40
1.0
 40
1.0
 40
1.0
 10
44.8708017652
 20
22.4174528908
 30
0.0
 10
44.8648979543
 20
22.4208614799
 30
0.0
 10
44.8536057254
 20
22.4286043846
 30
0.0
 10
44.838655116
 20
22.4428331169
 30
0.0
 10
44.8258742979
 20
22.4594989627
 30
0.0
 10
44.8114502168
 20
22.4854391752
 30
0.0
 10
44.7993959659
 20
22.5241511675
 30
0.0
 10
44.7963981226
 20
22.5571524043
 30
0.0
 10
44.7961355009
 20
22.5746132504
 30
0.0
  0
SPLINE
  5
2FB
100
AcDbEntity
  8
0
100
AcDbSpline
 62
7
  6
CONTINUOUS
 70
0
 71
3
 72
15
 73
11
 74
0
 42
0.0000001
 43
0.0000001
 44
0.0000000001
 40
0.0
 40
0.0
 40
0.0
 40
0.0
 40
0.0933416852
 40
0.1925127893
 40
0.3000137021
 40
0.4175727968
 40
0.5461950789
 40
0.6862753105
 40
0.8377094013
 40
1.0
 40
1.0
 40
1.0
 40
1.0
 10
44.5664573289
 20
22.0158153851
 30
0.0
 10
44.5813498725
 20
22.0072170623
 30
0.0
 10
44.6141198732
 20
21.9928643175
 30
0.0
 10
44.6684382029
 20
21.9811240117
 30
0.0
 10
44.7283770956
 20
21.9786986183
 30
0.0
 10
44.7933660302
 20
21.9855451947
 30
0.0
 10
44.8628523302
 20
22.0015603777
 30
0.0
 10
44.9362156978
 20
22.0265944119
 30
0.0
 10
45.0127710757
 20
22.0604143085
 30
0.0
 10
45.0637787955
 20
22.0877146325
 30
0.0
 10
45.0896721684
 20
22.1026640891
 30
0.0
  0
SPLINE
  5
2FC
100
AcDbEntity
  8
0
100
AcDbSpline
 62
7
  6
CONTINUOUS
 70
0
 71
3
 72
18
 73
14
 74
0
 42
0.0000001
 43
0.0000001
 44
0.0000000001
 40
0.0
 40
0.0
 40
0.0
 40
0.0
 40
0.0512097744
 40
0.105760853
 40
0.1634000429
 40
0.2238130557
 40
0.3514097352
 40
0.4851574113
 40
0.6211049617
 40
0.7550059284
 40
0.8825946127
 40
0.9427947174
 40
1.0
 40
1.0
 40
1.0
 40
1.0
 10
46.0796190285
 20
23.4090625328
 30
0.0
 10
46.0737006833
 20
23.3810433047
 30
0.0
 10
46.0591147943
 20
23.3236598456
 30
0.0
 10
46.0305442429
 20
23.2368032844
 30
0.0
 10
45.9947990502
 20
23.1470812733
 30
0.0
 10
45.9369086567
 20
23.0224401935
 30
0.0
 10
45.8485104614
 20
22.8653626647
 30
0.0
 10
45.7223414099
 20
22.6821619115
 30
0.0
 10
45.5786016184
 20
22.507780278
 30
0.0
 10
45.4226311432
 20
22.3490506224
 30
0.0
 10
45.2848380578
 20
22.2328630227
 30
0.0
 10
45.1731177755
 20
22.1534531306
 30
0.0
 10
45.1173765848
 20
22.1186591459
 30
0.0
 10
45.0896721684
 20
22.1026640891
 30
0.0
  0
SPLINE
  5
2FD
100
AcDbEntity
  8
0
100
AcDbSpline
 62
7
  6
CONTINUOUS
 70
0
 71
3
 72
13
 73
9
 74
0
 42
0.0000001
 43
0.0000001
 44
0.0000000001
 40
0.0
 40
0.0
 40
0.0
 40
0.0
 40
0.2751402101
 40
0.5298962968
 40
0.6511120589
 40
0.76920799
 40
0.885154911
 40
1.0
 40
1.0
 40
1.0
 40
1.0
 10
43.0599022319
 20
23.0873912083
 30
0.0
 10
43.0680717423
 20
23.051247111
 30
0.0
 10
43.0890017199
 20
22.9826355416
 30
0.0
 10
43.1295889969
 20
22.9042104776
 30
0.0
 10
43.1692923728
 20
22.8506626301
 30
0.0
 10
43.2019641295
 20
22.8155608929
 30
0.0
 10
43.2378486337
 20
22.7850649463
 30
0.0
 10
43.2638468644
 20
22.7678656128
 30
0.0
 10
43.2772412049
 20
22.7601306387
 30
0.0
  0
SPLINE
  5
2FE
100
AcDbEntity
  8
0
100
AcDbSpline
 62
7
  6
CONTINUOUS
 70
0
 71
3
 72
13
 73
9
 74
0
 42
0.0000001
 43
0.0000001
 44
0.0000000001
 40
0.0
 40
0.0
 40
0.0
 40
0.0
 40
0.2815795481
 40
0.5378847186
 40
0.6582716681
 40
0.7745823442
 40
0.8880294502
 40
1.0
 40
1.0
 40
1.0
 40
1.0
 10
43.0393832414
 20
23.172258074
 30
0.0
 10
42.9974049386
 20
23.1543751219
 30
0.0
 10
42.9143650717
 20
23.1262894841
 30
0.0
 10
42.8077000046
 20
23.1123098583
 30
0.0
 10
42.7277219259
 20
23.1162544348
 30
0.0
 10
42.6716977331
 20
23.1262420872
 30
0.0
 10
42.6188310621
 20
23.1432739391
 30
0.0
 10
42.5858440361
 20
23.1592976941
 30
0.0
 10
42.5701314798
 20
23.1683713932
 30
0.0
  0
SPLINE
  5
2FF
100
AcDbEntity
  8
0
100
AcDbSpline
 62
7
  6
CONTINUOUS
 70
0
 71
3
 72
11
 73
7
 74
0
 42
0.0000001
 43
0.0000001
 44
0.0000000001
 40
0.0
 40
0.0
 40
0.0
 40
0.0
 40
0.275288409
 40
0.5303241723
 40
0.7694607495
 40
1.0
 40
1.0
 40
1.0
 40
1.0
 10
42.6972829126
 20
23.7863589439
 30
0.0
 10
42.7018993126
 20
23.7659347565
 30
0.0
 10
42.713743735
 20
23.7271488346
 30
0.0
 10
42.7407933358
 20
23.6748315002
 30
0.0
 10
42.7760920557
 20
23.6319139151
 30
0.0
 10
42.8049432475
 20
23.6101583556
 30
0.0
 10
42.8201295117
 20
23.6013904877
 30
0.0
  0
SPLINE
  5
300
100
AcDbEntity
  8
0
100
AcDbSpline
 62
7
  6
CONTINUOUS
 70
0
 71
3
 72
9
 73
5
 74
0
 42
0.0000001
 43
0.0000001
 44
0.0000000001
 40
0.0
 40
0.0
 40
0.0
 40
0.0
 40
0.5050054621
 40
1.0
 40
1.0
 40
1.0
 40
1.0
 10
41.05128308
 20
24.0728292871
 30
0.0
 10
41.0662143904
 20
24.0552066565
 30
0.0
 10
41.0986698171
 20
24.0226346569
 30
0.0
 10
41.1363065216
 20
23.9961747061
 30
0.0
 10
41.1559120295
 20
23.9848529023
 30
0.0
  0
SPLINE
  5
301
100
AcDbEntity
  8
0
100
AcDbSpline
 62
7
  6
CONTINUOUS
 70
0
 71
3
 72
10
 73
6
 74
0
 42
0.0000001
 43
0.0000001
 44
0.0000000001
 40
0.0
 40
0.0
 40
0.0
 40
0.0
 40
0.2417394707
 40
0.4870522039
 40
1.0
 40
1.0
 40
1.0
 40
1.0
 10
42.8201295117
 20
23.6013904877
 30
0.0
 10
42.8295319326
 20
23.5959619517
 30
0.0
 10
42.8493366581
 20
23.5864365552
 30
0.0
 10
42.8923659593
 20
23.5731533756
 30
0.0
 10
42.9268408355
 20
23.5703047701
 30
0.0
 10
42.9498639094
 20
23.5711202607
 30
0.0
  0
SPLINE
  5
302
100
AcDbEntity
  8
0
100
AcDbSpline
 62
7
  6
CONTINUOUS
 70
0
 71
3
 72
13
 73
9
 74
0
 42
0.0000001
 43
0.0000001
 44
0.0000000001
 40
0.0
 40
0.0
 40
0.0
 40
0.0
 40
0.114845089
 40
0.23079201
 40
0.3488879411
 40
0.4701037032
 40
0.7248597899
 40
1.0
 40
1.0
 40
1.0
 40
1.0
 10
42.5701314798
 20
23.1683713932
 30
0.0
 10
42.5567371392
 20
23.1761063673
 30
0.0
 10
42.5307389086
 20
23.1933057008
 30
0.0
 10
42.4948544044
 20
23.2238016474
 30
0.0
 10
42.4621826477
 20
23.2589033846
 30
0.0
 10
42.4224792717
 20
23.3124512321
 30
0.0
 10
42.3818919948
 20
23.3908762961
 30
0.0
 10
42.3609620171
 20
23.4594878655
 30
0.0
 10
42.3527925068
 20
23.4956319628
 30
0.0
  0
SPLINE
  5
303
100
AcDbEntity
  8
0
100
AcDbSpline
 62
7
  6
CONTINUOUS
 70
0
 71
3
 72
15
 73
11
 74
0
 42
0.0000001
 43
0.0000001
 44
0.0000000001
 40
0.0
 40
0.0
 40
0.0
 40
0.0
 40
0.1057149713
 40
0.2237393202
 40
0.3513564685
 40
0.4851259276
 40
0.6210956828
 40
0.7550185037
 40
0.8826276227
 40
1.0
 40
1.0
 40
1.0
 40
1.0
 10
45.7260671099
 20
23.2049404558
 30
0.0
 10
45.7191626677
 20
23.1722527476
 30
0.0
 10
45.6988102259
 20
23.1042512674
 30
0.0
 10
45.6543341581
 20
23.0022982495
 30
0.0
 10
45.5954450079
 20
22.8976349582
 30
0.0
 10
45.5241263167
 20
22.7940827361
 30
0.0
 10
45.4428861989
 20
22.6955234419
 30
0.0
 10
45.3547187494
 20
22.6057944106
 30
0.0
 10
45.2630333252
 20
22.5284974466
 30
0.0
 10
45.1986554714
 20
22.4850877612
 30
0.0
 10
45.1665319281
 20
22.4665413355
 30
0.0
  0
SPLINE
  5
304
100
AcDbEntity
  8
0
100
AcDbSpline
 62
7
  6
CONTINUOUS
 70
0
 71
3
 72
15
 73
11
 74
0
 42
0.0000001
 43
0.0000001
 44
0.0000000001
 40
0.0
 40
0.0
 40
0.0
 40
0.0
 40
0.1622867453
 40
0.3137270878
 40
0.4538040446
 40
0.5824274264
 40
0.6999860709
 40
0.8074871466
 40
0.906658333
 40
1.0
 40
1.0
 40
1.0
 40
1.0
 10
45.1665319281
 20
22.4665413355
 30
0.0
 10
45.1518968951
 20
22.4580918457
 30
0.0
 10
45.1230661384
 20
22.4426613196
 30
0.0
 10
45.0797959761
 20
22.4235453352
 30
0.0
 10
45.0383291588
 20
22.4093960605
 30
0.0
 10
44.9990546395
 20
22.4003437954
 30
0.0
 10
44.9623216674
 20
22.3964741431
 30
0.0
 10
44.9284431998
 20
22.3978448915
 30
0.0
 10
44.8977414965
 20
22.4044806246
 30
0.0
 10
44.8792192987
 20
22.4125929939
 30
0.0
 10
44.8708017652
 20
22.4174528908
 30
0.0
  0
SPLINE
  5
305
100
AcDbEntity
  8
0
100
AcDbSpline
 62
7
  6
CONTINUOUS
 70
0
 71
3
 72
14
 73
10
 74
0
 42
0.0000001
 43
0.0000001
 44
0.0000000001
 40
0.0
 40
0.0
 40
0.0
 40
0.0
 40
0.2876753256
 40
0.4189666812
 40
0.5430655704
 40
0.6613494146
 40
0.7755498569
 40
0.8876967004
 40
1.0
 40
1.0
 40
1.0
 40
1.0
 10
44.4343554127
 20
22.2938682463
 30
0.0
 10
44.434820049
 20
22.262976107
 30
0.0
 10
44.4389444951
 20
22.2178074179
 30
0.0
 10
44.4536134134
 20
22.1612496129
 30
0.0
 10
44.4682993445
 20
22.1237825956
 30
0.0
 10
44.4869708976
 20
22.0902037099
 30
0.0
 10
44.5095823681
 20
22.060718977
 30
0.0
 10
44.5360330961
 20
22.0355442313
 30
0.0
 10
44.5560121409
 20
22.0218459935
 30
0.0
 10
44.5664573289
 20
22.0158153851
 30
0.0
  0
SPLINE
  5
306
100
AcDbEntity
  8
0
100
AcDbSpline
 62
7
  6
CONTINUOUS
 70
0
 71
3
 72
13
 73
9
 74
0
 42
0.0000001
 43
0.0000001
 44
0.0000000001
 40
0.0
 40
0.0
 40
0.0
 40
0.0
 40
0.282847164
 40
0.5395096278
 40
0.6597333044
 40
0.7756855725
 40
0.8886222078
 40
1.0
 40
1.0
 40
1.0
 40
1.0
 10
13.6397369692
 20
8.6457092762
 30
0.0
 10
13.5964359414
 20
8.6262672389
 30
0.0
 10
13.5107424101
 20
8.5954618483
 30
0.0
 10
13.4002593495
 20
8.579108886
 30
0.0
 10
13.3174078127
 20
8.5821251383
 30
0.0
 10
13.2594508795
 20
8.5918559735
 30
0.0
 10
13.2048187878
 20
8.6090822954
 30
0.0
 10
13.1707805657
 20
8.6255236268
 30
0.0
 10
13.154593886
 20
8.6348687968
 30
0.0
  0
SPLINE
  5
307
100
AcDbEntity
  8
0
100
AcDbSpline
 62
7
  6
CONTINUOUS
 70
0
 71
3
 72
14
 73
10
 74
0
 42
0.0000001
 43
0.0000001
 44
0.0000000001
 40
0.0
 40
0.0
 40
0.0
 40
0.0
 40
0.2892484383
 40
0.422572185
 40
0.5485194239
 40
0.6678937481
 40
0.7818658678
 40
0.8919548143
 40
1.0
 40
1.0
 40
1.0
 40
1.0
 10
13.2699656541
 20
9.3654432435
 30
0.0
 10
13.2699656541
 20
9.3325002794
 30
0.0
 10
13.2738182807
 20
9.2841373385
 30
0.0
 10
13.2886787181
 20
9.2233489301
 30
0.0
 10
13.3038074789
 20
9.1828424593
 30
0.0
 10
13.3230871763
 20
9.1466013645
 30
0.0
 10
13.3463750647
 20
9.114984357
 30
0.0
 10
13.3734400149
 20
9.0883312189
 30
0.0
 10
13.3939341698
 20
9.0740390002
 30
0.0
 10
13.4045910516
 20
9.0678863853
 30
0.0
  0
SPLINE
  5
308
100
AcDbEntity
  8
0
100
AcDbSpline
 62
7
  6
CONTINUOUS
 70
0
 71
3
 72
13
 73
9
 74
0
 42
0.0000001
 43
0.0000001
 44
0.0000000001
 40
0.0
 40
0.0
 40
0.0
 40
0.0
 40
0.282847164
 40
0.5395096278
 40
0.6597333044
 40
0.7756855725
 40
0.8886222078
 40
1.0
 40
1.0
 40
1.0
 40
1.0
 10
15.7610661446
 20
7.4209870126
 30
0.0
 10
15.7177651169
 20
7.4015449753
 30
0.0
 10
15.6320715856
 20
7.3707395848
 30
0.0
 10
15.5215885249
 20
7.3543866224
 30
0.0
 10
15.4387369881
 20
7.3574028747
 30
0.0
 10
15.380780055
 20
7.3671337099
 30
0.0
 10
15.3261479633
 20
7.3843600319
 30
0.0
 10
15.2921097411
 20
7.4008013633
 30
0.0
 10
15.2759230614
 20
7.4101465333
 30
0.0
  0
SPLINE
  5
309
100
AcDbEntity
  8
0
100
AcDbSpline
 62
7
  6
CONTINUOUS
 70
0
 71
3
 72
14
 73
10
 74
0
 42
0.0000001
 43
0.0000001
 44
0.0000000001
 40
0.0
 40
0.0
 40
0.0
 40
0.0
 40
0.2892484383
 40
0.422572185
 40
0.5485194239
 40
0.6678937481
 40
0.7818658678
 40
0.8919548143
 40
1.0
 40
1.0
 40
1.0
 40
1.0
 10
15.3912948296
 20
8.1407209799
 30
0.0
 10
15.3912948296
 20
8.1077780159
 30
0.0
 10
15.3951474561
 20
8.0594150749
 30
0.0
 10
15.4100078935
 20
7.9986266666
 30
0.0
 10
15.4251366544
 20
7.9581201958
 30
0.0
 10
15.4444163517
 20
7.921879101
 30
0.0
 10
15.4677042401
 20
7.8902620934
 30
0.0
 10
15.4947691903
 20
7.8636089553
 30
0.0
 10
15.5152633453
 20
7.8493167367
 30
0.0
 10
15.525920227
 20
7.8431641218
 30
0.0
  0
SPLINE
  5
30A
100
AcDbEntity
  8
0
100
AcDbSpline
 62
7
  6
CONTINUOUS
 70
0
 71
3
 72
15
 73
11
 74
0
 42
0.0000001
 43
0.0000001
 44
0.0000000001
 40
0.0
 40
0.0
 40
0.0
 40
0.0
 40
0.1485262567
 40
0.2895015863
 40
0.4227423164
 40
0.5486456673
 40
0.6679961316
 40
0.7819399209
 40
0.8919884213
 40
1.0
 40
1.0
 40
1.0
 40
1.0
 10
13.6235234607
 20
8.753080412
 30
0.0
 10
13.6235234607
 20
8.7231425921
 30
0.0
 10
13.6259484397
 20
8.6647495512
 30
0.0
 10
13.6374275829
 20
8.5801805306
 30
0.0
 10
13.6566377047
 20
8.5016800929
 30
0.0
 10
13.6833913035
 20
8.430023432
 30
0.0
 10
13.717511131
 20
8.3659044252
 30
0.0
 10
13.7586939667
 20
8.3099467088
 30
0.0
 10
13.8066028515
 20
8.2628149669
 30
0.0
 10
13.84284888
 20
8.2375135796
 30
0.0
 10
13.8617036111
 20
8.2266280423
 30
0.0
  0
SPLINE
  5
30B
100
AcDbEntity
  8
0
100
AcDbSpline
 62
7
  6
CONTINUOUS
 70
0
 71
3
 72
11
 73
7
 74
0
 42
0.0000001
 43
0.0000001
 44
0.0000000001
 40
0.0
 40
0.0
 40
0.0
 40
0.0
 40
0.2687865453
 40
0.523745591
 40
0.7664024483
 40
1.0
 40
1.0
 40
1.0
 40
1.0
 10
11.5701564358
 20
9.7514068792
 30
0.0
 10
11.5857552641
 20
9.7106693189
 30
0.0
 10
11.6214954066
 20
9.6331729025
 30
0.0
 10
11.6904268606
 20
9.5290016229
 30
0.0
 10
11.7722111891
 20
9.4421729038
 30
0.0
 10
11.8353210939
 20
9.3965373122
 30
0.0
 10
11.8681513778
 20
9.3775789732
 30
0.0
  0
SPLINE
  5
30C
100
AcDbEntity
  8
0
100
AcDbSpline
 62
7
  6
CONTINUOUS
 70
0
 71
3
 72
22
 73
18
 74
0
 42
0.0000001
 43
0.0000001
 44
0.0000000001
 40
0.0
 40
0.0
 40
0.0
 40
0.0
 40
0.0623733376
 40
0.1287716097
 40
0.1983811692
 40
0.2703737278
 40
0.4173924039
 40
0.4904355364
 40
0.5617443103
 40
0.63036063
 40
0.6954682993
 40
0.7564329449
 40
0.8128858053
 40
0.86480336
 40
0.9125912811
 40
0.9571797025
 40
1.0
 40
1.0
 40
1.0
 40
1.0
 10
15.7448526361
 20
12.7131484973
 30
0.0
 10
15.7448526361
 20
12.7338820755
 30
0.0
 10
15.7420313047
 20
12.7767149887
 30
0.0
 10
15.7304842608
 20
12.8417500211
 30
0.0
 10
15.7116758509
 20
12.9084012376
 30
0.0
 10
15.6772616619
 20
12.9980591249
 30
0.0
 10
15.6307890985
 20
13.0839417335
 30
0.0
 10
15.5742510081
 20
13.1626897953
 30
0.0
 10
15.5280058151
 20
13.2164263354
 30
0.0
 10
15.4788345467
 20
13.2637740515
 30
0.0
 10
15.4277806525
 20
13.3037505508
 30
0.0
 10
15.375892031
 20
13.3354915565
 30
0.0
 10
15.3242299386
 20
13.3583218573
 30
0.0
 10
15.2738220207
 20
13.3717221916
 30
0.0
 10
15.225655188
 20
13.3752575964
 30
0.0
 10
15.1807992351
 20
13.3686937305
 30
0.0
 10
15.153628623
 20
13.3573943715
 30
0.0
 10
15.1413003935
 20
13.3502796233
 30
0.0
  0
SPLINE
  5
30D
100
AcDbEntity
  8
0
100
AcDbSpline
 62
7
  6
CONTINUOUS
 70
0
 71
3
 72
22
 73
18
 74
0
 42
0.0000001
 43
0.0000001
 44
0.0000000001
 40
0.0
 40
0.0
 40
0.0
 40
0.0
 40
0.0623733376
 40
0.1287716097
 40
0.1983811692
 40
0.2703737278
 40
0.4173924039
 40
0.4904355364
 40
0.5617443103
 40
0.63036063
 40
0.6954682993
 40
0.7564329449
 40
0.8128858053
 40
0.86480336
 40
0.9125912811
 40
0.9571797025
 40
1.0
 40
1.0
 40
1.0
 40
1.0
 10
13.6235234607
 20
13.9378707608
 30
0.0
 10
13.6235234607
 20
13.958604339
 30
0.0
 10
13.6207021292
 20
14.0014372523
 30
0.0
 10
13.6091550854
 20
14.0664722847
 30
0.0
 10
13.5903466755
 20
14.1331235011
 30
0.0
 10
13.5559324865
 20
14.2227813884
 30
0.0
 10
13.5094599231
 20
14.3086639971
 30
0.0
 10
13.4529218327
 20
14.3874120588
 30
0.0
 10
13.4066766396
 20
14.4411485989
 30
0.0
 10
13.3575053713
 20
14.4884963151
 30
0.0
 10
13.3064514771
 20
14.5284728144
 30
0.0
 10
13.2545628556
 20
14.5602138201
 30
0.0
 10
13.2029007632
 20
14.5830441208
 30
0.0
 10
13.1524928452
 20
14.5964444552
 30
0.0
 10
13.1043260126
 20
14.5999798599
 30
0.0
 10
13.0594700596
 20
14.5934159941
 30
0.0
 10
13.0322994475
 20
14.5821166351
 30
0.0
 10
13.0199712181
 20
14.5750018868
 30
0.0
  0
SPLINE
  5
30E
100
AcDbEntity
  8
0
100
AcDbSpline
 62
7
  6
CONTINUOUS
 70
0
 71
3
 72
15
 73
11
 74
0
 42
0.0000001
 43
0.0000001
 44
0.0000000001
 40
0.0
 40
0.0
 40
0.0
 40
0.0
 40
0.1612751755
 40
0.3102936065
 40
0.4471714683
 40
0.5726049911
 40
0.6879646409
 40
0.7954688765
 40
0.8982168211
 40
1.0
 40
1.0
 40
1.0
 40
1.0
 10
17.512624005
 20
6.9159987164
 30
0.0
 10
17.509486654
 20
6.9011455521
 30
0.0
 10
17.5045385842
 20
6.8723178622
 30
0.0
 10
17.5012608762
 20
6.8302855206
 30
0.0
 10
17.5024659894
 20
6.7914946285
 30
0.0
 10
17.5081873648
 20
6.7562867828
 30
0.0
 10
17.51845307
 20
6.7249854493
 30
0.0
 10
17.5332833751
 20
6.6979303968
 30
0.0
 10
17.5526207359
 20
6.6755216233
 30
0.0
 10
17.5682963678
 20
6.664019015
 30
0.0
 10
17.5765936485
 20
6.6592285509
 30
0.0
  0
SPLINE
  5
30F
100
AcDbEntity
  8
0
100
AcDbSpline
 62
7
  6
CONTINUOUS
 70
0
 71
3
 72
15
 73
11
 74
0
 42
0.0000001
 43
0.0000001
 44
0.0000000001
 40
0.0
 40
0.0
 40
0.0
 40
0.0
 40
0.1485262567
 40
0.2895015863
 40
0.4227423164
 40
0.5486456673
 40
0.6679961316
 40
0.7819399209
 40
0.8919884213
 40
1.0
 40
1.0
 40
1.0
 40
1.0
 10
15.7448526361
 20
7.5283581485
 30
0.0
 10
15.7448526361
 20
7.4984203286
 30
0.0
 10
15.7472776151
 20
7.4400272876
 30
0.0
 10
15.7587567583
 20
7.3554582671
 30
0.0
 10
15.7779668801
 20
7.2769578293
 30
0.0
 10
15.8047204789
 20
7.2053011684
 30
0.0
 10
15.8388403065
 20
7.1411821616
 30
0.0
 10
15.8800231421
 20
7.0852244452
 30
0.0
 10
15.927932027
 20
7.0380927033
 30
0.0
 10
15.9641780555
 20
7.012791316
 30
0.0
 10
15.9830327866
 20
7.0019057788
 30
0.0
  0
SPLINE
  5
310
100
AcDbEntity
  8
0
100
AcDbSpline
 62
7
  6
CONTINUOUS
 70
0
 71
3
 72
15
 73
11
 74
0
 42
0.0000001
 43
0.0000001
 44
0.0000000001
 40
0.0
 40
0.0
 40
0.0
 40
0.0
 40
0.0933416578
 40
0.1925127662
 40
0.3000138457
 40
0.4175725118
 40
0.5461958604
 40
0.6862728387
 40
0.837713227
 40
1.0
 40
1.0
 40
1.0
 40
1.0
 10
17.5765936485
 20
6.6592285509
 30
0.0
 10
17.5850111831
 20
6.6543686579
 30
0.0
 10
17.6035333726
 20
6.6462562958
 30
0.0
 10
17.6342350642
 20
6.6396205486
 30
0.0
 10
17.668113527
 20
6.6382498081
 30
0.0
 10
17.704846499
 20
6.6421194483
 30
0.0
 10
17.7441210197
 20
6.6511717143
 30
0.0
 10
17.7855878405
 20
6.6653209886
 30
0.0
 10
17.8288580131
 20
6.6844369742
 30
0.0
 10
17.8576887761
 20
6.6998675048
 30
0.0
 10
17.8723238116
 20
6.7083169961
 30
0.0
  0
SPLINE
  5
311
100
AcDbEntity
  8
0
100
AcDbSpline
 62
7
  6
CONTINUOUS
 70
0
 71
3
 72
11
 73
7
 74
0
 42
0.0000001
 43
0.0000001
 44
0.0000000001
 40
0.0
 40
0.0
 40
0.0
 40
0.0
 40
0.2309155388
 40
0.4702666273
 40
0.7249940857
 40
1.0
 40
1.0
 40
1.0
 40
1.0
 10
15.525920227
 20
7.8431641218
 30
0.0
 10
15.5409324897
 20
7.8344969832
 30
0.0
 10
15.5737795816
 20
7.8205163313
 30
0.0
 10
15.627856322
 20
7.8113180437
 30
0.0
 10
15.6859016143
 20
7.8136492455
 30
0.0
 10
15.7249113392
 20
7.8223991037
 30
0.0
 10
15.7446681347
 20
7.8283873978
 30
0.0
  0
SPLINE
  5
312
100
AcDbEntity
  8
0
100
AcDbSpline
 62
7
  6
CONTINUOUS
 70
0
 71
3
 72
15
 73
11
 74
0
 42
0.0000001
 43
0.0000001
 44
0.0000000001
 40
0.0
 40
0.0
 40
0.0
 40
0.0
 40
0.1080115846
 40
0.2180600894
 40
0.3320038814
 40
0.4513543506
 40
0.577257702
 40
0.7104984223
 40
0.8514737404
 40
1.0
 40
1.0
 40
1.0
 40
1.0
 10
13.154593886
 20
8.6348687968
 30
0.0
 10
13.1357391528
 20
8.645754333
 30
0.0
 10
13.099493124
 20
8.6710557241
 30
0.0
 10
13.0515842369
 20
8.718187467
 30
0.0
 10
13.0104014
 20
8.7741451859
 30
0.0
 10
12.9762815746
 20
8.8382641957
 30
0.0
 10
12.9495279767
 20
8.909920856
 30
0.0
 10
12.9303178563
 20
8.9884212898
 30
0.0
 10
12.9188387127
 20
9.0729903067
 30
0.0
 10
12.9164137355
 20
9.131383346
 30
0.0
 10
12.9164137355
 20
9.1613211666
 30
0.0
  0
SPLINE
  5
313
100
AcDbEntity
  8
0
100
AcDbSpline
 62
7
  6
CONTINUOUS
 70
0
 71
3
 72
15
 73
11
 74
0
 42
0.0000001
 43
0.0000001
 44
0.0000000001
 40
0.0
 40
0.0
 40
0.0
 40
0.0
 40
0.1080115846
 40
0.2180600894
 40
0.3320038814
 40
0.4513543506
 40
0.577257702
 40
0.7104984223
 40
0.8514737404
 40
1.0
 40
1.0
 40
1.0
 40
1.0
 10
15.2759230614
 20
7.4101465333
 30
0.0
 10
15.2570683283
 20
7.4210320694
 30
0.0
 10
15.2208222995
 20
7.4463334605
 30
0.0
 10
15.1729134123
 20
7.4934652034
 30
0.0
 10
15.1317305754
 20
7.5494229223
 30
0.0
 10
15.09761075
 20
7.6135419322
 30
0.0
 10
15.0708571521
 20
7.6851985924
 30
0.0
 10
15.0516470318
 20
7.7636990262
 30
0.0
 10
15.0401678881
 20
7.8482680431
 30
0.0
 10
15.037742911
 20
7.9066610825
 30
0.0
 10
15.037742911
 20
7.936598903
 30
0.0
  0
SPLINE
  5
314
100
AcDbEntity
  8
0
100
AcDbSpline
 62
7
  6
CONTINUOUS
 70
0
 71
3
 72
11
 73
7
 74
0
 42
0.0000001
 43
0.0000001
 44
0.0000000001
 40
0.0
 40
0.0
 40
0.0
 40
0.0
 40
0.2309155388
 40
0.4702666273
 40
0.7249940857
 40
1.0
 40
1.0
 40
1.0
 40
1.0
 10
13.4045910516
 20
9.0678863853
 30
0.0
 10
13.4196033142
 20
9.0592192467
 30
0.0
 10
13.4524504062
 20
9.0452385948
 30
0.0
 10
13.5065271465
 20
9.0360403073
 30
0.0
 10
13.5645724388
 20
9.038371509
 30
0.0
 10
13.6035821638
 20
9.0471213673
 30
0.0
 10
13.6233389593
 20
9.0531096614
 30
0.0
  0
SPLINE
  5
315
100
AcDbEntity
  8
0
100
AcDbSpline
 62
7
  6
CONTINUOUS
 70
0
 71
3
 72
15
 73
11
 74
0
 42
0.0000001
 43
0.0000001
 44
0.0000000001
 40
0.0
 40
0.0
 40
0.0
 40
0.0
 40
0.1162141949
 40
0.2403683943
 40
0.3700396819
 40
0.5024707835
 40
0.6346877133
 40
0.7636268705
 40
0.8862985842
 40
1.0
 40
1.0
 40
1.0
 40
1.0
 10
18.3976024397
 20
7.3335040584
 30
0.0
 10
18.3860364455
 20
7.3035094641
 30
0.0
 10
18.3588525449
 20
7.2427011657
 30
0.0
 10
18.3091056411
 20
7.1531218672
 30
0.0
 10
18.2500110826
 20
7.0639779138
 30
0.0
 10
18.1830855519
 20
6.9777207787
 30
0.0
 10
18.1101104263
 20
6.8967869802
 30
0.0
 10
18.0331016585
 20
6.8235260447
 30
0.0
 10
17.9542675457
 20
6.7601165259
 30
0.0
 10
17.899562254
 20
6.7240430243
 30
0.0
 10
17.8723238116
 20
6.7083169961
 30
0.0
  0
SPLINE
  5
316
100
AcDbEntity
  8
0
100
AcDbSpline
 62
7
  6
CONTINUOUS
 70
0
 71
3
 72
13
 73
9
 74
0
 42
0.0000001
 43
0.0000001
 44
0.0000000001
 40
0.0
 40
0.0
 40
0.0
 40
0.0
 40
0.1080961318
 40
0.2182381485
 40
0.3322526862
 40
0.4516803264
 40
0.710658913
 40
1.0
 40
1.0
 40
1.0
 40
1.0
 10
13.0199712181
 20
14.5750018868
 30
0.0
 10
13.0117726703
 20
14.5702704205
 30
0.0
 10
12.996011171
 20
14.5592703488
 30
0.0
 10
12.9751921453
 20
14.5387699274
 30
0.0
 10
12.9572724938
 20
14.5144527367
 30
0.0
 10
12.9369649293
 20
14.4762631868
 30
0.0
 10
12.9202362539
 20
14.4196084987
 30
0.0
 10
12.9164137355
 20
14.371448862
 30
0.0
 10
12.9164137355
 20
14.3461115153
 30
0.0
  0
SPLINE
  5
317
100
AcDbEntity
  8
0
100
AcDbSpline
 62
7
  6
CONTINUOUS
 70
0
 71
3
 72
13
 73
9
 74
0
 42
0.0000001
 43
0.0000001
 44
0.0000000001
 40
0.0
 40
0.0
 40
0.0
 40
0.0
 40
0.1080961318
 40
0.2182381485
 40
0.3322526862
 40
0.4516803264
 40
0.710658913
 40
1.0
 40
1.0
 40
1.0
 40
1.0
 10
15.1413003935
 20
13.3502796233
 30
0.0
 10
15.1331018457
 20
13.3455481569
 30
0.0
 10
15.1173403464
 20
13.3345480853
 30
0.0
 10
15.0965213208
 20
13.3140476638
 30
0.0
 10
15.0786016692
 20
13.2897304731
 30
0.0
 10
15.0582941047
 20
13.2515409233
 30
0.0
 10
15.0415654293
 20
13.1948862352
 30
0.0
 10
15.037742911
 20
13.1467265985
 30
0.0
 10
15.037742911
 20
13.1213892518
 30
0.0
  0
SPLINE
  5
318
100
AcDbEntity
  8
0
100
AcDbSpline
 62
7
  6
CONTINUOUS
 70
0
 71
3
 72
10
 73
6
 74
0
 42
0.0000001
 43
0.0000001
 44
0.0000000001
 40
0.0
 40
0.0
 40
0.0
 40
0.0
 40
0.5246435235
 40
0.7719837833
 40
1.0
 40
1.0
 40
1.0
 40
1.0
 10
19.4857266966
 20
11.4438365055
 30
0.0
 10
19.5733256644
 20
11.4409327487
 30
0.0
 10
19.7036521045
 20
11.4517441937
 30
0.0
 10
19.8645198059
 20
11.4981067922
 30
0.0
 10
19.9371568541
 20
11.5313069748
 30
0.0
 10
19.9701459308
 20
11.5503531134
 30
0.0
  0
SPLINE
  5
319
100
AcDbEntity
  8
0
100
AcDbSpline
 62
7
  6
CONTINUOUS
 70
0
 71
3
 72
13
 73
9
 74
0
 42
0.0000001
 43
0.0000001
 44
0.0000000001
 40
0.0
 40
0.0
 40
0.0
 40
0.0
 40
0.1080964161
 40
0.2182340338
 40
0.3322369221
 40
0.4516625734
 40
0.7107024759
 40
1.0
 40
1.0
 40
1.0
 40
1.0
 10
50.3682251912
 20
66.9141812295
 30
0.0
 10
50.4010101028
 20
66.8952395241
 30
0.0
 10
50.464028299
 20
66.8512100086
 30
0.0
 10
50.5473460435
 20
66.7692615723
 30
0.0
 10
50.6190147071
 20
66.6719903468
 30
0.0
 10
50.7002555287
 20
66.519220594
 30
0.0
 10
50.7671279781
 20
66.2925844791
 30
0.0
 10
50.7824523182
 20
66.0999467897
 30
0.0
 10
50.7824523182
 20
65.9986132372
 30
0.0
  0
SPLINE
  5
31A
100
AcDbEntity
  8
0
100
AcDbSpline
 62
7
  6
CONTINUOUS
 70
0
 71
3
 72
11
 73
7
 74
0
 42
0.0000001
 43
0.0000001
 44
0.0000000001
 40
0.0
 40
0.0
 40
0.0
 40
0.0
 40
0.2316050522
 40
0.4713707054
 40
0.7261857215
 40
1.0
 40
1.0
 40
1.0
 40
1.0
 10
38.1352269484
 20
73.9767462864
 30
0.0
 10
38.0901790835
 20
74.0027729873
 30
0.0
 10
37.9918260848
 20
74.044951664
 30
0.0
 10
37.8300387125
 20
74.0739316194
 30
0.0
 10
37.656466239
 20
74.06891177
 30
0.0
 10
37.5396169669
 20
74.0445606247
 30
0.0
 10
37.4804907699
 20
74.0276117238
 30
0.0
  0
SPLINE
  5
31B
100
AcDbEntity
  8
0
100
AcDbSpline
 62
7
  6
CONTINUOUS
 70
0
 71
3
 72
9
 73
5
 74
0
 42
0.0000001
 43
0.0000001
 44
0.0000000001
 40
0.0
 40
0.0
 40
0.0
 40
0.0
 40
0.5371443078
 40
1.0
 40
1.0
 40
1.0
 40
1.0
 10
19.9701459308
 20
11.5503531134
 30
0.0
 10
20.0065206879
 20
11.5713539639
 30
0.0
 10
20.0706582694
 20
11.6175615366
 30
0.0
 10
20.1188914812
 20
11.6815045242
 30
0.0
 10
20.1341277212
 20
11.7143341363
 30
0.0
  0
SPLINE
  5
31C
100
AcDbEntity
  8
0
100
AcDbSpline
 62
7
  6
CONTINUOUS
 70
0
 71
3
 72
12
 73
8
 74
0
 42
0.0000001
 43
0.0000001
 44
0.0000000001
 40
0.0
 40
0.0
 40
0.0
 40
0.0
 40
0.2894249481
 40
0.5486994449
 40
0.781648259
 40
0.8918334611
 40
1.0
 40
1.0
 40
1.0
 40
1.0
 10
20.9499377486
 20
12.1160328065
 30
0.0
 10
21.01282775
 20
12.152342149
 30
0.0
 10
21.1269384457
 20
12.2310094494
 30
0.0
 10
21.2633609755
 20
12.3741699467
 30
0.0
 10
21.3365989629
 20
12.5091761056
 30
0.0
 10
21.365051207
 20
12.6192434985
 30
0.0
 10
21.3697832979
 20
12.6741394295
 30
0.0
 10
21.3697942007
 20
12.701279268
 30
0.0
  0
SPLINE
  5
31D
100
AcDbEntity
  8
0
100
AcDbSpline
 62
7
  6
CONTINUOUS
 70
0
 71
3
 72
9
 73
5
 74
0
 42
0.0000001
 43
0.0000001
 44
0.0000000001
 40
0.0
 40
0.0
 40
0.0
 40
0.0
 40
0.5238971326
 40
1.0
 40
1.0
 40
1.0
 40
1.0
 10
20.2154022311
 20
11.8894567793
 30
0.0
 10
20.3494411915
 20
11.9048204733
 30
0.0
 10
20.6033861458
 20
11.9555449874
 30
0.0
 10
20.8437556247
 20
12.0547288946
 30
0.0
 10
20.9499377486
 20
12.1160328065
 30
0.0
  0
SPLINE
  5
31E
100
AcDbEntity
  8
0
100
AcDbSpline
 62
7
  6
CONTINUOUS
 70
0
 71
3
 72
11
 73
7
 74
0
 42
0.0000001
 43
0.0000001
 44
0.0000000001
 40
0.0
 40
0.0
 40
0.0
 40
0.0
 40
0.2372838551
 40
0.4830473466
 40
0.7373207392
 40
1.0
 40
1.0
 40
1.0
 40
1.0
 10
37.4804907699
 20
74.0276117238
 30
0.0
 10
36.2487909675
 20
73.6745371323
 30
0.0
 10
33.7662766655
 20
72.8663335208
 30
0.0
 10
30.0662577695
 20
71.3893174592
 30
0.0
 10
26.338851057
 20
69.6319793394
 30
0.0
 10
23.8841032985
 20
68.2993959433
 30
0.0
 10
22.65569747
 20
67.590179741
 30
0.0
  0
SPLINE
  5
31F
100
AcDbEntity
  8
0
100
AcDbSpline
 62
7
  6
CONTINUOUS
 70
0
 71
3
 72
11
 73
7
 74
0
 42
0.0000001
 43
0.0000001
 44
0.0000000001
 40
0.0
 40
0.0
 40
0.0
 40
0.0
 40
0.2398217286
 40
0.486681994
 40
0.7402205155
 40
1.0
 40
1.0
 40
1.0
 40
1.0
 10
22.65569747
 20
67.590179741
 30
0.0
 10
21.3859273306
 20
66.8570819853
 30
0.0
 10
18.8490826442
 20
65.2991707253
 30
0.0
 10
15.1152843038
 20
62.7390113574
 30
0.0
 10
11.410454124
 20
59.9303212955
 30
0.0
 10
8.9969553766
 20
57.9225050406
 30
0.0
 10
7.7979779048
 20
56.8809245703
 30
0.0
  0
SPLINE
  5
320
100
AcDbEntity
  8
0
100
AcDbSpline
 62
7
  6
CONTINUOUS
 70
0
 71
3
 72
14
 73
10
 74
0
 42
0.0000001
 43
0.0000001
 44
0.0000000001
 40
0.0
 40
0.0
 40
0.0
 40
0.0
 40
0.1227883733
 40
0.2508777328
 40
0.5130775855
 40
0.6428579046
 40
0.7685587804
 40
0.8882358576
 40
1.0
 40
1.0
 40
1.0
 40
1.0
 10
7.7979779048
 20
56.8809245703
 30
0.0
 10
7.7203966979
 20
56.8135279162
 30
0.0
 10
7.5699469441
 20
56.6663054039
 30
0.0
 10
7.2953556447
 20
56.3354993497
 30
0.0
 10
7.0674053328
 20
55.9608889056
 30
0.0
 10
6.8966099979
 20
55.5621683419
 30
0.0
 10
6.8023347661
 20
55.2620162043
 30
0.0
 10
6.7441715036
 20
54.9682219922
 30
0.0
 10
6.7297813985
 20
54.7743726367
 30
0.0
 10
6.7297813985
 20
54.6808318746
 30
0.0
  0
SPLINE
  5
321
100
AcDbEntity
  8
0
100
AcDbSpline
 62
7
  6
CONTINUOUS
 70
0
 71
3
 72
14
 73
10
 74
0
 42
0.0000001
 43
0.0000001
 44
0.0000000001
 40
0.0
 40
0.0
 40
0.0
 40
0.0
 40
0.1117641193
 40
0.2314411498
 40
0.357142
 40
0.4869223176
 40
0.7491221932
 40
0.8772116025
 40
1.0
 40
1.0
 40
1.0
 40
1.0
 10
18.9627796436
 20
47.6182668214
 30
0.0
 10
18.9627796436
 20
47.7118075642
 30
0.0
 10
18.9771697233
 20
47.905656863
 30
0.0
 10
19.0353329836
 20
48.1994509942
 30
0.0
 10
19.1296081621
 20
48.4996030828
 30
0.0
 10
19.300403476
 20
48.8983236519
 30
0.0
 10
19.5283537813
 20
49.2729341724
 30
0.0
 10
19.8029451425
 20
49.6037402808
 30
0.0
 10
19.9533949277
 20
49.7509628497
 30
0.0
 10
20.0309761498
 20
49.8183595171
 30
0.0
  0
SPLINE
  5
322
100
AcDbEntity
  8
0
100
AcDbSpline
 62
7
  6
CONTINUOUS
 70
0
 71
3
 72
11
 73
7
 74
0
 42
0.0000001
 43
0.0000001
 44
0.0000000001
 40
0.0
 40
0.0
 40
0.0
 40
0.0
 40
0.2597794845
 40
0.513318006
 40
0.7601782714
 40
1.0
 40
1.0
 40
1.0
 40
1.0
 10
20.0309761498
 20
49.8183595171
 30
0.0
 10
21.2299536216
 20
50.8599399874
 30
0.0
 10
23.643452369
 20
52.8677562423
 30
0.0
 10
27.3482825489
 20
55.6764463042
 30
0.0
 10
31.0820808892
 20
58.2366056721
 30
0.0
 10
33.6189255757
 20
59.7945169321
 30
0.0
 10
34.888695715
 20
60.5276146878
 30
0.0
  0
SPLINE
  5
323
100
AcDbEntity
  8
0
100
AcDbSpline
 62
7
  6
CONTINUOUS
 70
0
 71
3
 72
11
 73
7
 74
0
 42
0.0000001
 43
0.0000001
 44
0.0000000001
 40
0.0
 40
0.0
 40
0.0
 40
0.0
 40
0.2626792608
 40
0.5169526534
 40
0.7627161449
 40
1.0
 40
1.0
 40
1.0
 40
1.0
 10
34.888695715
 20
60.5276146878
 30
0.0
 10
36.1171015435
 20
61.2368308901
 30
0.0
 10
38.571849302
 20
62.5694142862
 30
0.0
 10
42.2992560146
 20
64.326752406
 30
0.0
 10
45.9992749106
 20
65.8037684676
 30
0.0
 10
48.4817892125
 20
66.6119720791
 30
0.0
 10
49.713489015
 20
66.9650466706
 30
0.0
  0
SPLINE
  5
324
100
AcDbEntity
  8
0
100
AcDbSpline
 62
7
  6
CONTINUOUS
 70
0
 71
3
 72
11
 73
7
 74
0
 42
0.0000001
 43
0.0000001
 44
0.0000000001
 40
0.0
 40
0.0
 40
0.0
 40
0.0
 40
0.2738143058
 40
0.5286292788
 40
0.7683949154
 40
1.0
 40
1.0
 40
1.0
 40
1.0
 10
49.713489015
 20
66.9650466706
 30
0.0
 10
49.772615218
 20
66.9819955732
 30
0.0
 10
49.8894644841
 20
67.006346734
 30
0.0
 10
50.0630369526
 20
67.011366567
 30
0.0
 10
50.2248243169
 20
66.9823866129
 30
0.0
 10
50.3231773238
 20
66.9402079408
 30
0.0
 10
50.3682251912
 20
66.9141812295
 30
0.0
  0
ELLIPSE
  5
325
100
AcDbEntity
  8
0
100
AcDbEllipse
 62
7
  6
CONTINUOUS
 10
12.3248526493
 20
10.4418051279
 30
0.0
 11
0.3469489068
 21
1.1124120974
 31
0.0
 40
0.6780092448
 41
-4.0783513509
 42
-3.8514585482
  0
ELLIPSE
  5
326
100
AcDbEntity
  8
0
100
AcDbEllipse
 62
7
  6
CONTINUOUS
 10
17.9722414992
 20
7.1813574164
 30
0.0
 11
0.7295237715
 21
0.903517808
 31
0.0
 40
0.4431147994
 41
-3.8575759425
 42
-0.9428760917
  0
ENDSEC
  0
SECTION
  2
OBJECTS
  0
DICTIONARY
  5
C
100
AcDbDictionary
280
0
281
1
  3
ACAD_GROUP
350
D
  3
ACAD_MLINESTYLE
350
17
  3
ACAD_LAYOUT
350
1A
  3
ACAD_PLOTSETTINGS
350
19
  3
ACAD_PLOTSTYLENAME
350
E
  0
DICTIONARY
  5
D
102
{ACAD_REACTORS
330
C
102
}
100
AcDbDictionary
280
0
281
1
  0
ACDBDICTIONARYWDFLT
  5
E
102
{ACAD_REACTORS
330
C
102
}
100
AcDbDictionary
281
1
  3
Normal
350
F
100
AcDbDictionaryWithDefault
340
F
  0
DICTIONARY
  5
17
102
{ACAD_REACTORS
330
C
102
}
100
AcDbDictionary
280
0
281
1
  3
Standard
350
18
  0
DICTIONARY
  5
19
102
{ACAD_REACTORS
330
C
102
}
100
AcDbDictionary
281
1
  0
DICTIONARY
  5
1A
102
{ACAD_REACTORS
330
C
102
}
100
AcDbDictionary
281
1
  3
Model
350
327
  3
Layout1
350
328
  0
ACDBPLACEHOLDER
  5
F
102
{ACAD_REACTORS
330
E
102
}
  0
MLINESTYLE
  5
18
102
{ACAD_REACTORS
330
17
102
}
100
AcDbMlineStyle
  2
STANDARD
 70
0
  3

 62
256
 51
90.0
 52
90.0
 71
2
 49
0.5
 62
256
  6
BYLAYER
 49
-0.5
 62
256
  6
BYLAYER
  0
LAYOUT
  5
327
102
{ACAD_REACTORS
330
1A
102
}
100
AcDbPlotSettings
  1

  2
none_device
  4

  6

 40
0.0
 41
0.0
 42
0.0
 43
0.0
 44
210.0
 45
297.0
 46
0.0
 47
0.0
 48
0.0
 49
0.0
140
0.0
141
0.0
142
1.0
143
1.0
 70
1024
 72
1
 73
0
 74
0
  7

 75
0
147
1.0
148
0.0
149
0.0
100
AcDbLayout
  1
Model
 70
0
 71
0
 10
0.0
 20
0.0
 11
210.0
 21
297.0
 12
0.0
 22
0.0
 32
0.0
 14
0.0
 24
0.0
 34
0.0
 15
0.0
 25
0.0
 35
0.0
146
0.0
 13
0.0
 23
0.0
 33
0.0
 16
1.0
 26
0.0
 36
0.0
 17
0.0
 27
1.0
 37
0.0
 76
0
330
210
345
0
346
0
  0
LAYOUT
  5
328
102
{ACAD_REACTORS
330
1A
102
}
100
AcDbPlotSettings
  1

  2
none_device
  4

  6

 40
0.0
 41
0.0
 42
0.0
 43
0.0
 44
210.0
 45
297.0
 46
0.0
 47
0.0
 48
0.0
 49
0.0
140
0.0
141
0.0
142
1.0
143
1.0
 70
0
 72
1
 73
0
 74
0
  7

 75
0
147
1.0
148
0.0
149
0.0
100
AcDbLayout
  1
Layout1
 70
0
 71
1
 10
0.0
 20
0.0
 11
210.0
 21
297.0
 12
0.0
 22
0.0
 32
0.0
 14
0.0
 24
0.0
 34
0.0
 15
0.0
 25
0.0
 35
0.0
146
0.0
 13
0.0
 23
0.0
 33
0.0
 16
1.0
 26
0.0
 36
0.0
 17
0.0
 27
1.0
 37
0.0
 76
0
330
211
345
0
346
0
  0
ENDSEC
  0
EOF
