999
DXF file: C:\Users\sesa63760\Dev\_Creo\CAD\MCADID0005270_3D-CAD\drw0001_5.dxf
999
Pro/ENGINEER 2019471 by Parametric Technology Corporation
  0
SECTION
  2
HEADER
  9
$ACADVER
  1
AC1024
  9
$DWGCODEPAGE
  3
ANSI_1252
  9
$EXTMAX
 10
55.6230989635
 20
78.6669542484
 30
0.0
  9
$EXTMIN
 10
0.0
 20
0.0
 30
0.0
  9
$LIMMIN
 10
0.0
 20
0.0
  9
$LIMMAX
 10
55.6230989635
 20
78.6669542484
  9
$VIEWCTR
 10
27.8115494817
 20
39.3334771242
  9
$VIEWSIZE
 40
78.6669542484
  9
$CLAYER
  8
0
  9
$LTSCALE
 40
5.1279199806
  9
$CELTYPE
  6
BYLAYER
  9
$DIMSCALE
 40
1.0
  9
$DIMASZ
 40
0.6621797496
  9
$DIMEXO
 40
1.0
  9
$DIMDLI
 40
3.5429265321
  9
$DIMEXE
 40
1.0
  9
$DIMCEN
 40
0.8391141786
  9
$DIMLFAC
 40
1.0
  9
$DIMBLK
  1
_FILLED
  9
$DIMALT
 70
0
  9
$DIMALTF
 40
0.0393700787
  9
$DIMTXT
 40
0.9270516494
  9
$DIMTOL
 70
1
  9
$DIMLIM
 70
0
  9
$DIMTFAC
 40
1.0
  9
$DIMTP
 40
0.01
  9
$DIMTM
 40
0.01
  9
$DIMGAP
 40
0.625
  9
$DIMDSEP
 70
46
  9
$AUNITS
 70
0
  9
$PDMODE
 70
3
  9
$PDSIZE
 40
0.3125
  9
$HANDSEED
  5
26D
  9
$TILEMODE
 70
1
  9
$MEASUREMENT
 70
1
  9
$INSUNITS
 70
4
  0
ENDSEC
  0
SECTION
  2
CLASSES
  0
CLASS
  1
ACDBDICTIONARYWDFLT
  2
AcDbDictionaryWithDefault
  3
AutoCAD 2000
 90
0
 91
1
280
0
281
0
  0
CLASS
  1
ACDBPLACEHOLDER
  2
AcDbPlaceHolder
  3
AutoCAD 2000
 90
0
 91
1
280
0
281
0
  0
CLASS
  1
LAYOUT
  2
AcDbLayout
  3
AutoCAD 2000
 90
0
 91
0
280
0
281
0
  0
ENDSEC
  0
SECTION
  2
TABLES
  0
TABLE
  2
VPORT
  5
8
100
AcDbSymbolTable
 70
2
  0
VPORT
  5
1F4
100
AcDbSymbolTableRecord
100
AcDbViewportTableRecord
  2
*ACTIVE
 70
0
 10
0.0
 20
0.0
 11
1.0
 21
1.0
 12
27.8115494817
 22
39.3334771242
 13
0.0
 23
0.0
 14
1.0
 24
1.0
 15
0.0
 25
0.0
 16
0.0
 26
0.0
 36
1.0
 17
0.0
 27
0.0
 37
0.0
 40
78.6669542484
 41
0.7070707071
 42
50.0
 43
0.0
 44
0.0
 50
0.0
 51
0.0
 71
0
 72
100
 73
1
 74
1
 75
0
 76
0
 77
0
 78
0
  0
ENDTAB
  0
TABLE
  2
LTYPE
  5
5
100
AcDbSymbolTable
 70
6
  0
LTYPE
  5
14
100
AcDbSymbolTableRecord
100
AcDbLinetypeTableRecord
  2
BYBLOCK
 70
0
  3

 72
65
 73
0
 40
0.0
  0
LTYPE
  5
15
100
AcDbSymbolTableRecord
100
AcDbLinetypeTableRecord
  2
BYLAYER
 70
0
  3

 72
65
 73
0
 40
0.0
  0
LTYPE
  5
16
100
AcDbSymbolTableRecord
100
AcDbLinetypeTableRecord
  2
CONTINUOUS
 70
64
  3
Solid line
 72
65
 73
0
 40
0.0
  0
LTYPE
  5
1F5
100
AcDbSymbolTableRecord
100
AcDbLinetypeTableRecord
  2
CENTER
 70
64
  3
____ _ ____ _ ____ _ ____ _ ____ _ ____ _ ____
 72
65
 73
4
 40
0.6
 49
0.375
 74
0
 49
-0.075
 74
0
 49
0.075
 74
0
 49
-0.075
 74
0
  0
LTYPE
  5
1F6
100
AcDbSymbolTableRecord
100
AcDbLinetypeTableRecord
  2
HIDDEN
 70
64
  3
- - - - - - - - - - - - - - - - - - - -
 72
65
 73
2
 40
0.2
 49
0.1
 74
0
 49
-0.1
 74
0
  0
LTYPE
  5
1F7
100
AcDbSymbolTableRecord
100
AcDbLinetypeTableRecord
  2
PHANTOM
 70
64
  3
_____ _ _ _____ _ _ _____ _ _ _____
 72
65
 73
6
 40
0.8
 49
0.45
 74
0
 49
-0.05
 74
0
 49
0.1
 74
0
 49
-0.05
 74
0
 49
0.1
 74
0
 49
-0.05
 74
0
  0
LTYPE
  5
1F8
100
AcDbSymbolTableRecord
100
AcDbLinetypeTableRecord
  2
DOT
 70
64
  3
. . . . . . . . . . . . . . . . . . . .
 72
65
 73
2
 40
0.2
 49
0.1
 74
0
 49
-0.1
 74
0
  0
LTYPE
  5
1F9
100
AcDbSymbolTableRecord
100
AcDbLinetypeTableRecord
  2
DASHED
 70
64
  3
- - - - - - - - - - - - - - - - - - - -
 72
65
 73
2
 40
0.2
 49
0.1
 74
0
 49
-0.1
 74
0
  0
ENDTAB
  0
TABLE
  2
LAYER
  5
2
100
AcDbSymbolTable
 70
36
  0
LAYER
  5
10
100
AcDbSymbolTableRecord
100
AcDbLayerTableRecord
  2
0
 70
0
 62
7
  6
CONTINUOUS
370
-3
390
F
  0
LAYER
  5
1FA
100
AcDbSymbolTableRecord
100
AcDbLayerTableRecord
  2
DEFAULT_1
 70
0
 62
7
  6
CENTER
370
-3
390
F
  0
LAYER
  5
1FB
100
AcDbSymbolTableRecord
100
AcDbLayerTableRecord
  2
DEFAULT_2
 70
0
 62
7
  6
HIDDEN
370
-3
390
F
  0
LAYER
  5
1FC
100
AcDbSymbolTableRecord
100
AcDbLayerTableRecord
  2
DEFAULT_3
 70
0
 62
7
  6
PHANTOM
370
-3
390
F
  0
LAYER
  5
1FD
100
AcDbSymbolTableRecord
100
AcDbLayerTableRecord
  2
00_COMPONENTS
 70
0
 62
7
  6
CONTINUOUS
370
-3
390
F
  0
LAYER
  5
1FE
100
AcDbSymbolTableRecord
100
AcDbLayerTableRecord
  2
00_COMPONENTS_1
 70
0
 62
7
  6
CONTINUOUS
370
-3
390
F
  0
LAYER
  5
1FF
100
AcDbSymbolTableRecord
100
AcDbLayerTableRecord
  2
00_COMPONENTS_2
 70
0
 62
7
  6
CONTINUOUS
370
-3
390
F
  0
LAYER
  5
200
100
AcDbSymbolTableRecord
100
AcDbLayerTableRecord
  2
00_COMPONENTS_3
 70
0
 62
7
  6
CONTINUOUS
370
-3
390
F
  0
LAYER
  5
201
100
AcDbSymbolTableRecord
100
AcDbLayerTableRecord
  2
00_COMPONENTS_5
 70
0
 62
7
  6
CONTINUOUS
370
-3
390
F
  0
LAYER
  5
202
100
AcDbSymbolTableRecord
100
AcDbLayerTableRecord
  2
01_1_DEFAULT_DATUMS
 70
0
 62
7
  6
CONTINUOUS
370
-3
390
F
  0
LAYER
  5
203
100
AcDbSymbolTableRecord
100
AcDbLayerTableRecord
  2
01_PLANES
 70
0
 62
7
  6
CONTINUOUS
370
-3
390
F
  0
LAYER
  5
204
100
AcDbSymbolTableRecord
100
AcDbLayerTableRecord
  2
02_COORD_SYS
 70
0
 62
7
  6
CONTINUOUS
370
-3
390
F
  0
LAYER
  5
205
100
AcDbSymbolTableRecord
100
AcDbLayerTableRecord
  2
03_AXES
 70
0
 62
7
  6
CONTINUOUS
370
-3
390
F
  0
LAYER
  5
206
100
AcDbSymbolTableRecord
100
AcDbLayerTableRecord
  2
04_POINTS
 70
0
 62
7
  6
CONTINUOUS
370
-3
390
F
  0
LAYER
  5
207
100
AcDbSymbolTableRecord
100
AcDbLayerTableRecord
  2
05_CURVES
 70
0
 62
7
  6
CONTINUOUS
370
-3
390
F
  0
LAYER
  5
208
100
AcDbSymbolTableRecord
100
AcDbLayerTableRecord
  2
06_SURFS
 70
0
 62
7
  6
CONTINUOUS
370
-3
390
F
  0
LAYER
  5
209
100
AcDbSymbolTableRecord
100
AcDbLayerTableRecord
  2
07_COSMETICS
 70
0
 62
7
  6
CONTINUOUS
370
-3
390
F
  0
LAYER
  5
20A
100
AcDbSymbolTableRecord
100
AcDbLayerTableRecord
  2
10_NOTES
 70
0
 62
7
  6
CONTINUOUS
370
-3
390
F
  0
LAYER
  5
20B
100
AcDbSymbolTableRecord
100
AcDbLayerTableRecord
  2
11_NOTES_PUB
 70
0
 62
7
  6
CONTINUOUS
370
-3
390
F
  0
LAYER
  5
20C
100
AcDbSymbolTableRecord
100
AcDbLayerTableRecord
  2
13_REF_GTOL
 70
0
 62
7
  6
CONTINUOUS
370
-3
390
F
  0
LAYER
  5
20D
100
AcDbSymbolTableRecord
100
AcDbLayerTableRecord
  2
16_MISC
 70
0
 62
7
  6
CONTINUOUS
370
-3
390
F
  0
LAYER
  5
20E
100
AcDbSymbolTableRecord
100
AcDbLayerTableRecord
  2
17_NO_PRINT
 70
0
 62
7
  6
CONTINUOUS
370
-3
390
F
  0
LAYER
  5
20F
100
AcDbSymbolTableRecord
100
AcDbLayerTableRecord
  2
18_DATUM_CAMS_JOINTS
 70
0
 62
7
  6
CONTINUOUS
370
-3
390
F
  0
LAYER
  5
210
100
AcDbSymbolTableRecord
100
AcDbLayerTableRecord
  2
19_DATUM_FUNCTIONAL
 70
0
 62
7
  6
CONTINUOUS
370
-3
390
F
  0
LAYER
  5
211
100
AcDbSymbolTableRecord
100
AcDbLayerTableRecord
  2
20_DATUM_KINEMATIC_SCHEME
 70
0
 62
7
  6
CONTINUOUS
370
-3
390
F
  0
LAYER
  5
212
100
AcDbSymbolTableRecord
100
AcDbLayerTableRecord
  2
INTF_BLANK
 70
0
 62
7
  6
CONTINUOUS
370
-3
390
F
  0
LAYER
  5
213
100
AcDbSymbolTableRecord
100
AcDbLayerTableRecord
  2
SHELL1
 70
0
 62
7
  6
CONTINUOUS
370
-3
390
F
  0
LAYER
  5
214
100
AcDbSymbolTableRecord
100
AcDbLayerTableRecord
  2
SHELL1_1
 70
0
 62
7
  6
CONTINUOUS
370
-3
390
F
  0
LAYER
  5
215
100
AcDbSymbolTableRecord
100
AcDbLayerTableRecord
  2
SHELL2
 70
0
 62
7
  6
CONTINUOUS
370
-3
390
F
  0
LAYER
  5
216
100
AcDbSymbolTableRecord
100
AcDbLayerTableRecord
  2
_BLACK_HOLE
 70
0
 62
7
  6
CONTINUOUS
370
-3
390
F
  0
LAYER
  5
217
100
AcDbSymbolTableRecord
100
AcDbLayerTableRecord
  2
black
 70
0
 62
7
  6
CONTINUOUS
370
-3
390
F
  0
ENDTAB
  0
TABLE
  2
STYLE
  5
3
100
AcDbSymbolTable
 70
1
  0
STYLE
  5
11
100
AcDbSymbolTableRecord
100
AcDbTextStyleTableRecord
  2
STANDARD
 70
0
 40
0.0
 41
1.0
 50
0.0
 71
0
 42
0.2
  3
ARIAL.TTF
  4

  0
STYLE
  5
218
100
AcDbSymbolTableRecord
100
AcDbTextStyleTableRecord
  2
TEXTSTYLE_1
 70
0
 40
0.0
 41
0.8
 50
0.0
 71
0
 42
0.2
  3
gdt
  4

  0
ENDTAB
  0
TABLE
  2
VIEW
  5
6
100
AcDbSymbolTable
 70
0
  0
ENDTAB
  0
TABLE
  2
UCS
  5
7
100
AcDbSymbolTable
 70
0
  0
ENDTAB
  0
TABLE
  2
APPID
  5
9
100
AcDbSymbolTable
 70
1
  0
APPID
  5
219
100
AcDbSymbolTableRecord
100
AcDbRegAppTableRecord
  2
ACAD
 70
0
  0
ENDTAB
  0
TABLE
  2
BLOCK_RECORD
  5
1
100
AcDbSymbolTable
 70
0
  0
BLOCK_RECORD
  5
21A
100
AcDbSymbolTableRecord
100
AcDbBlockTableRecord
  2
*Model_Space
  0
BLOCK_RECORD
  5
21B
100
AcDbSymbolTableRecord
100
AcDbBlockTableRecord
  2
*Paper_Space
  0
BLOCK_RECORD
  5
21C
100
AcDbSymbolTableRecord
100
AcDbBlockTableRecord
  2
_FILLED
  0
ENDTAB
  0
TABLE
  2
DIMSTYLE
  5
A
100
AcDbSymbolTable
 70
1
100
AcDbDimStyleTable
 71
0
  0
DIMSTYLE
105
21D
100
AcDbSymbolTableRecord
100
AcDbDimStyleTableRecord
  2
STANDARD
 70
0
  3

  4

 40
1.0
 41
0.6621797496
 42
1.0
 43
0.38
 44
1.0
 45
0.0
 46
0.0
 47
0.01
 48
0.01
140
0.9270516494
141
0.09
142
0.0
143
25.4
144
1.0
145
0.0
146
1.0
147
0.625
 71
1
 72
0
 73
0
 74
0
 75
0
 76
0
 77
1
 78
8
 79
2
170
0
171
1
172
0
173
0
174
0
175
0
176
0
177
0
178
0
270
2
179
2
271
2
272
2
273
2
274
2
275
0
280
0
281
0
282
0
283
1
284
8
285
0
286
0
287
3
288
0
340
11
278
46
341
21C
342
21C
343
21C
344
21C
  0
ENDTAB
  0
ENDSEC
  0
SECTION
  2
BLOCKS
  0
BLOCK
  5
20
100
AcDbEntity
  8
0
100
AcDbBlockBegin
  2
*Model_Space
 70
0
 10
0.0
 20
0.0
 30
0.0
  3
*Model_Space
  1

  0
ENDBLK
  5
21
100
AcDbEntity
  8
0
100
AcDbBlockEnd
  0
BLOCK
  5
1C
100
AcDbEntity
  8
0
100
AcDbBlockBegin
  2
*Paper_Space
 70
0
 10
0.0
 20
0.0
 30
0.0
  3
*Paper_Space
  1

  0
ENDBLK
  5
1D
100
AcDbEntity
  8
0
100
AcDbBlockEnd
  0
BLOCK
  5
21E
100
AcDbEntity
  8
0
100
AcDbBlockBegin
  2
_FILLED
 70
64
 10
0.0
 20
0.0
  3
_FILLED
  1

  0
SOLID
  5
21F
100
AcDbEntity
  8
0
  6
BYBLOCK
 62
0
100
AcDbTrace
 10
0.0
 20
0.0
 11
-1.0
 21
0.25
 12
-1.0
 22
-0.25
 13
-1.0
 23
-0.25
  0
ENDBLK
  5
220
100
AcDbEntity
  8
0
  6
BYBLOCK
 62
0
100
AcDbBlockEnd
  0
ENDSEC
  0
SECTION
  2
ENTITIES
  0
LINE
  5
221
100
AcDbEntity
  8
00_COMPONENTS_3
100
AcDbLine
 62
7
  6
BYLAYER
 10
12.1754501313
 20
9.2799647059
 11
11.9214501313
 21
9.5339647059
  0
LINE
  5
222
100
AcDbEntity
  8
00_COMPONENTS_3
100
AcDbLine
 62
7
  6
BYLAYER
 10
12.175458822
 20
9.2799647059
 11
43.6674414487
 21
9.2799647059
  0
LINE
  5
223
100
AcDbEntity
  8
00_COMPONENTS_3
100
AcDbLine
 62
7
  6
BYLAYER
 10
11.9214501313
 20
9.5339647059
 11
43.9214501393
 21
9.5339647059
  0
LINE
  5
224
100
AcDbEntity
  8
00_COMPONENTS_3
100
AcDbLine
 62
7
  6
BYLAYER
 10
11.5277501313
 20
15.6540675069
 11
10.4589501353
 21
16.2711394723
  0
LINE
  5
225
100
AcDbEntity
  8
00_COMPONENTS_5
100
AcDbLine
 62
7
  6
BYLAYER
 10
6.4838501353
 20
35.6959647059
 11
6.4838501353
 21
43.1381647059
  0
LINE
  5
226
100
AcDbEntity
  8
00_COMPONENTS_1
100
AcDbLine
 62
7
  6
BYLAYER
 10
7.6192241303
 20
52.4378872511
 11
7.9730501353
 21
52.7917132561
  0
LINE
  5
227
100
AcDbEntity
  8
00_COMPONENTS_3
100
AcDbLine
 62
7
  6
BYLAYER
 10
43.9214501393
 20
14.9721591039
 11
11.9214501313
 21
14.9721591039
  0
LINE
  5
228
100
AcDbEntity
  8
00_COMPONENTS_3
100
AcDbLine
 62
7
  6
BYLAYER
 10
11.5277501313
 20
15.6540675069
 11
44.3151501393
 21
15.6540675069
  0
LINE
  5
229
100
AcDbEntity
  8
00_COMPONENTS_1
100
AcDbLine
 62
7
  6
BYLAYER
 10
7.6192241303
 20
51.0408872511
 11
7.6192241303
 21
52.4378872511
  0
LINE
  5
22A
100
AcDbEntity
  8
00_COMPONENTS_5
100
AcDbLine
 62
7
  6
BYLAYER
 10
7.6268501353
 20
33.2956647059
 11
7.6268501353
 21
35.6959647059
  0
LINE
  5
22B
100
AcDbEntity
  8
00_COMPONENTS_1
100
AcDbLine
 62
7
  6
BYLAYER
 10
7.9730501353
 20
43.1381647059
 11
7.9730501353
 21
67.7761647059
  0
LINE
  5
22C
100
AcDbEntity
  8
00_COMPONENTS_3
100
AcDbLine
 62
7
  6
BYLAYER
 10
8.0777001353
 20
23.8341647059
 11
8.0777001353
 21
25.3581647059
  0
LINE
  5
22D
100
AcDbEntity
  8
00_COMPONENTS_5
100
AcDbLine
 62
7
  6
BYLAYER
 10
8.0777001353
 20
31.7081647059
 11
8.0777001353
 21
33.2956647059
  0
LINE
  5
22E
100
AcDbEntity
  8
00_COMPONENTS_3
100
AcDbLine
 62
7
  6
BYLAYER
 10
9.2524501353
 20
22.5641647059
 11
9.2524501353
 21
23.8341647059
  0
LINE
  5
22F
100
AcDbEntity
  8
00_COMPONENTS_3
100
AcDbLine
 62
7
  6
BYLAYER
 10
10.4589501353
 20
16.2710118275
 11
10.4589501353
 21
22.5641647059
  0
LINE
  5
230
100
AcDbEntity
  8
00_COMPONENTS_3
100
AcDbLine
 62
7
  6
BYLAYER
 10
11.9214501313
 20
9.5339647059
 11
11.9214501313
 21
14.9721591039
  0
LINE
  5
231
100
AcDbEntity
  8
00_COMPONENTS_1
100
AcDbLine
 62
7
  6
BYLAYER
 10
12.6974501353
 20
43.1381647059
 11
12.6974501353
 21
67.7761647059
  0
LINE
  5
232
100
AcDbEntity
  8
00_COMPONENTS_5
100
AcDbLine
 62
7
  6
BYLAYER
 10
12.9354501353
 20
25.3581647059
 11
12.9354501353
 21
31.7081647059
  0
LINE
  5
233
100
AcDbEntity
  8
00_COMPONENTS_3
100
AcDbLine
 62
7
  6
BYLAYER
 10
9.2524543195
 20
22.5641647059
 11
46.3364501353
 21
22.5641647059
  0
LINE
  5
234
100
AcDbEntity
  8
00_COMPONENTS_3
100
AcDbLine
 62
7
  6
BYLAYER
 10
8.0778476632
 20
23.8341647059
 11
47.7650526075
 21
23.8341647059
  0
LINE
  5
235
100
AcDbEntity
  8
00_COMPONENTS_1
100
AcDbLine
 62
7
  6
BYLAYER
 10
16.0121501353
 20
67.7761647059
 11
16.0121501353
 21
43.1381647059
  0
LINE
  5
236
100
AcDbEntity
  8
00_COMPONENTS_3
100
AcDbLine
 62
7
  6
BYLAYER
 10
8.0778476632
 20
25.3581647059
 11
47.7650526075
 21
25.3581647059
  0
LINE
  5
237
100
AcDbEntity
  8
00_COMPONENTS_3
100
AcDbLine
 62
7
  6
BYLAYER
 10
20.6882458024
 20
22.5641647059
 11
20.6882458024
 21
17.1018159116
  0
LINE
  5
238
100
AcDbEntity
  8
00_COMPONENTS_5
100
AcDbLine
 62
7
  6
BYLAYER
 10
8.0778702963
 20
31.7081647059
 11
47.7650299744
 21
31.7081647059
  0
LINE
  5
239
100
AcDbEntity
  8
00_COMPONENTS_5
100
AcDbLine
 62
7
  6
BYLAYER
 10
22.0580099131
 20
40.6574313726
 11
22.0580099131
 21
35.6959647059
  0
LINE
  5
23A
100
AcDbEntity
  8
00_COMPONENTS_3
100
AcDbLine
 62
7
  6
BYLAYER
 10
22.3652001353
 20
25.3581647059
 11
22.3652001353
 21
23.8341647059
  0
LINE
  5
23B
100
AcDbEntity
  8
00_COMPONENTS_5
100
AcDbLine
 62
7
  6
BYLAYER
 10
7.6270249156
 20
33.2956647059
 11
48.2158753551
 21
33.2956647059
  0
LINE
  5
23C
100
AcDbEntity
  8
00_COMPONENTS_1
100
AcDbLine
 62
7
  6
BYLAYER
 10
7.9730501353
 20
50.6870612461
 11
7.6192241303
 21
51.0408872511
  0
LINE
  5
23D
100
AcDbEntity
  8
00_COMPONENTS_3
100
AcDbLine
 62
7
  6
BYLAYER
 10
24.852356458
 20
23.8341647059
 11
24.852356458
 21
22.5641647059
  0
LINE
  5
23E
100
AcDbEntity
  8
00_COMPONENTS_1
100
AcDbLine
 62
7
  6
BYLAYER
 10
24.9275501353
 20
67.7761647059
 11
24.9275501353
 21
69.5795647059
  0
LINE
  5
23F
100
AcDbEntity
  8
00_COMPONENTS_1
100
AcDbLine
 62
7
  6
BYLAYER
 10
26.1975501353
 20
67.7761647059
 11
26.1975501353
 21
69.5795647059
  0
LINE
  5
240
100
AcDbEntity
  8
00_COMPONENTS_5
100
AcDbLine
 62
7
  6
BYLAYER
 10
6.4838501353
 20
35.6959647059
 11
50.6798501353
 21
35.6959647059
  0
LINE
  5
241
100
AcDbEntity
  8
00_COMPONENTS_1
100
AcDbLine
 62
7
  6
BYLAYER
 10
30.1345501353
 20
67.7761647059
 11
30.1345501353
 21
69.5795647059
  0
LINE
  5
242
100
AcDbEntity
  8
00_COMPONENTS_3
100
AcDbLine
 62
7
  6
BYLAYER
 10
30.9905438126
 20
22.5641647059
 11
30.9905438126
 21
23.8341647059
  0
LINE
  5
243
100
AcDbEntity
  8
00_COMPONENTS_1
100
AcDbLine
 62
7
  6
BYLAYER
 10
31.4045501353
 20
67.7761647059
 11
31.4045501353
 21
69.5795647059
  0
LINE
  5
244
100
AcDbEntity
  8
00_COMPONENTS_5
100
AcDbLine
 62
7
  6
BYLAYER
 10
6.4838501353
 20
40.6574313726
 11
22.0580099131
 21
40.6574313726
  0
LINE
  5
245
100
AcDbEntity
  8
00_COMPONENTS_5
100
AcDbLine
 62
7
  6
BYLAYER
 10
33.7848903576
 20
40.6574313726
 11
49.3590501353
 21
40.6574313726
  0
LINE
  5
246
100
AcDbEntity
  8
00_COMPONENTS_3
100
AcDbLine
 62
7
  6
BYLAYER
 10
33.4777001353
 20
23.8341647059
 11
33.4777001353
 21
25.3581647059
  0
LINE
  5
247
100
AcDbEntity
  8
00_COMPONENTS_5
100
AcDbLine
 62
7
  6
BYLAYER
 10
33.7848903576
 20
35.6959647059
 11
33.7848903576
 21
40.6574313726
  0
LINE
  5
248
100
AcDbEntity
  8
00_COMPONENTS_5
100
AcDbLine
 62
7
  6
BYLAYER
 10
50.6798501353
 20
43.1381647059
 11
6.4838501353
 21
43.1381647059
  0
LINE
  5
249
100
AcDbEntity
  8
00_COMPONENTS_3
100
AcDbLine
 62
7
  6
BYLAYER
 10
35.1546544683
 20
22.5641647059
 11
35.1546544683
 21
17.1018159116
  0
LINE
  5
24A
100
AcDbEntity
  8
00_COMPONENTS_1
100
AcDbLine
 62
7
  6
BYLAYER
 10
48.7128761404
 20
51.0408872511
 11
48.3590501353
 21
50.6870612461
  0
LINE
  5
24B
100
AcDbEntity
  8
00_COMPONENTS_1
100
AcDbLine
 62
7
  6
BYLAYER
 10
40.3326501353
 20
47.6085647059
 11
46.6572501353
 21
47.6085647059
  0
LINE
  5
24C
100
AcDbEntity
  8
00_COMPONENTS_1
100
AcDbLine
 62
7
  6
BYLAYER
 10
46.6572501353
 20
48.8785647059
 11
40.3326501353
 21
48.8785647059
  0
LINE
  5
24D
100
AcDbEntity
  8
00_COMPONENTS_1
100
AcDbLine
 62
7
  6
BYLAYER
 10
40.3326501353
 20
43.1381647059
 11
40.3326501353
 21
67.7761647059
  0
LINE
  5
24E
100
AcDbEntity
  8
00_COMPONENTS_1
100
AcDbLine
 62
7
  6
BYLAYER
 10
42.3138501353
 20
43.1381647059
 11
42.3138501353
 21
47.6085647059
  0
LINE
  5
24F
100
AcDbEntity
  8
00_COMPONENTS_5
100
AcDbLine
 62
7
  6
BYLAYER
 10
42.9074501353
 20
25.3581647059
 11
42.9074501353
 21
31.7081647059
  0
LINE
  5
250
100
AcDbEntity
  8
00_COMPONENTS_1
100
AcDbLine
 62
7
  6
BYLAYER
 10
43.6346501353
 20
67.7761647059
 11
43.6346501353
 21
47.6085647059
  0
LINE
  5
251
100
AcDbEntity
  8
00_COMPONENTS_3
100
AcDbLine
 62
7
  6
BYLAYER
 10
43.9214501393
 20
9.5339647059
 11
43.9214501393
 21
14.9721591039
  0
LINE
  5
252
100
AcDbEntity
  8
00_COMPONENTS_1
100
AcDbLine
 62
7
  6
BYLAYER
 10
44.9554501353
 20
47.6085647059
 11
44.9554501353
 21
43.1381647059
  0
LINE
  5
253
100
AcDbEntity
  8
00_COMPONENTS_3
100
AcDbLine
 62
7
  6
BYLAYER
 10
45.3839501353
 20
22.5641647059
 11
45.3839501353
 21
16.2710118275
  0
LINE
  5
254
100
AcDbEntity
  8
00_COMPONENTS_3
100
AcDbLine
 62
7
  6
BYLAYER
 10
46.3364501353
 20
23.8341647059
 11
46.3364501353
 21
22.5641647059
  0
LINE
  5
255
100
AcDbEntity
  8
00_COMPONENTS_1
100
AcDbLine
 62
7
  6
BYLAYER
 10
46.6572501353
 20
66.5061647059
 11
46.6572501353
 21
48.8785647059
  0
LINE
  5
256
100
AcDbEntity
  8
00_COMPONENTS_1
100
AcDbLine
 62
7
  6
BYLAYER
 10
46.6572501353
 20
47.6085647059
 11
46.6572501353
 21
43.1381647059
  0
LINE
  5
257
100
AcDbEntity
  8
00_COMPONENTS_3
100
AcDbLine
 62
7
  6
BYLAYER
 10
47.7652001353
 20
23.8341647059
 11
47.7652001353
 21
25.3581647059
  0
LINE
  5
258
100
AcDbEntity
  8
00_COMPONENTS_5
100
AcDbLine
 62
7
  6
BYLAYER
 10
47.7652001353
 20
31.7081647059
 11
47.7652001353
 21
33.2956647059
  0
LINE
  5
259
100
AcDbEntity
  8
00_COMPONENTS_5
100
AcDbLine
 62
7
  6
BYLAYER
 10
48.2160501353
 20
33.2956647059
 11
48.2160501353
 21
35.6959647059
  0
LINE
  5
25A
100
AcDbEntity
  8
00_COMPONENTS_1
100
AcDbLine
 62
7
  6
BYLAYER
 10
48.3590501353
 20
43.1381647059
 11
48.3590501353
 21
67.7761647059
  0
LINE
  5
25B
100
AcDbEntity
  8
00_COMPONENTS_1
100
AcDbLine
 62
7
  6
BYLAYER
 10
48.7128761404
 20
52.4378872511
 11
48.7128761404
 21
51.0408872511
  0
LINE
  5
25C
100
AcDbEntity
  8
00_COMPONENTS_5
100
AcDbLine
 62
7
  6
BYLAYER
 10
49.1713944704
 20
40.6574313726
 11
49.1713944704
 21
35.6959647059
  0
LINE
  5
25D
100
AcDbEntity
  8
00_COMPONENTS_5
100
AcDbLine
 62
7
  6
BYLAYER
 10
49.3590501353
 20
43.1381647059
 11
49.3590501353
 21
40.6574313726
  0
LINE
  5
25E
100
AcDbEntity
  8
00_COMPONENTS_5
100
AcDbLine
 62
7
  6
BYLAYER
 10
50.6798501353
 20
43.1381647059
 11
50.6798501353
 21
35.6959647059
  0
LINE
  5
25F
100
AcDbEntity
  8
00_COMPONENTS_1
100
AcDbLine
 62
7
  6
BYLAYER
 10
48.3590501353
 20
52.7917132561
 11
48.7128761404
 21
52.4378872511
  0
LINE
  5
260
100
AcDbEntity
  8
00_COMPONENTS_1
100
AcDbLine
 62
7
  6
BYLAYER
 10
40.3326501353
 20
66.5061647059
 11
46.6572501353
 21
66.5061647059
  0
LINE
  5
261
100
AcDbEntity
  8
00_COMPONENTS_3
100
AcDbLine
 62
7
  6
BYLAYER
 10
44.3151501393
 20
15.6540675069
 11
45.3839501353
 21
16.2711394723
  0
LINE
  5
262
100
AcDbEntity
  8
00_COMPONENTS_1
100
AcDbLine
 62
7
  6
BYLAYER
 10
7.9730501353
 20
67.7761647059
 11
48.3590501353
 21
67.7761647059
  0
LINE
  5
263
100
AcDbEntity
  8
00_COMPONENTS_1
100
AcDbLine
 62
7
  6
BYLAYER
 10
31.4045501353
 20
69.5795647059
 11
24.9275501353
 21
69.5795647059
  0
LINE
  5
264
100
AcDbEntity
  8
00_COMPONENTS_3
100
AcDbLine
 62
7
  6
BYLAYER
 10
43.6674501393
 20
9.2799647059
 11
43.9214501393
 21
9.5339647059
  0
ARC
  5
265
100
AcDbEntity
  8
00_COMPONENTS_3
100
AcDbCircle
 62
7
  6
BYLAYER
 10
11.1340501313
 20
14.9721591039
 40
0.7874
100
AcDbArc
 50
0.0
 51
60.0
  0
ARC
  5
266
100
AcDbEntity
  8
00_COMPONENTS_3
100
AcDbCircle
 62
7
  6
BYLAYER
 10
44.7088501393
 20
14.9721591039
 40
0.7874
100
AcDbArc
 50
120.0
 51
180.0
  0
SPLINE
  5
267
100
AcDbEntity
  8
00_COMPONENTS_3
100
AcDbSpline
 62
7
  6
BYLAYER
 70
0
 71
3
 72
15
 73
11
 74
0
 42
0.0000001
 43
0.0000001
 44
0.0000000001
 40
0.0
 40
0.0
 40
0.0
 40
0.0
 40
0.1262643924
 40
0.2515123322
 40
0.3759716731
 40
0.5
 40
0.6240283269
 40
0.7484876678
 40
0.8737356076
 40
1.0
 40
1.0
 40
1.0
 40
1.0
 10
10.4589501353
 20
17.1018159116
 30
0.0
 10
10.8767999615
 20
16.9712546744
 30
0.0
 10
11.7171594718
 20
16.7358056281
 30
0.0
 10
12.9948016217
 20
16.4715961579
 30
0.0
 10
14.2816674087
 20
16.3081128366
 30
0.0
 10
15.5735979689
 20
16.2527031373
 30
0.0
 10
16.865528529
 20
16.3081128366
 30
0.0
 10
18.1523943161
 20
16.4715961579
 30
0.0
 10
19.4300364659
 20
16.7358056281
 30
0.0
 10
20.2703959762
 20
16.9712546744
 30
0.0
 10
20.6882458024
 20
17.1018159116
 30
0.0
  0
SPLINE
  5
268
100
AcDbEntity
  8
00_COMPONENTS_3
100
AcDbSpline
 62
7
  6
BYLAYER
 70
0
 71
3
 72
11
 73
7
 74
0
 42
0.0000001
 43
0.0000001
 44
0.0000000001
 40
0.0
 40
0.0
 40
0.0
 40
0.0
 40
0.250002409
 40
0.5000015229
 40
0.7500018388
 40
1.0
 40
1.0
 40
1.0
 40
1.0
 10
20.6882458024
 20
17.1018159116
 30
0.0
 10
21.2818078616
 20
16.970672896
 30
0.0
 10
22.4749385065
 20
16.7345588603
 30
0.0
 10
24.2802574217
 20
16.4709610097
 30
0.0
 10
26.0975367198
 20
16.3079868217
 30
0.0
 10
27.3135834955
 20
16.2711394723
 30
0.0
 10
27.9214501353
 20
16.2711394723
 30
0.0
  0
SPLINE
  5
269
100
AcDbEntity
  8
00_COMPONENTS_3
100
AcDbSpline
 62
7
  6
BYLAYER
 70
0
 71
3
 72
11
 73
7
 74
0
 42
0.0000001
 43
0.0000001
 44
0.0000000001
 40
0.0
 40
0.0
 40
0.0
 40
0.0
 40
0.2499981613
 40
0.4999984974
 40
0.7499975914
 40
1.0
 40
1.0
 40
1.0
 40
1.0
 10
27.9214501353
 20
16.2711394723
 30
0.0
 10
28.5293167732
 20
16.2711394723
 30
0.0
 10
29.7453635334
 20
16.3079880462
 30
0.0
 10
31.562642993
 20
16.4709602509
 30
0.0
 10
33.3679617681
 20
16.7345592331
 30
0.0
 10
34.5610924121
 20
16.9706728966
 30
0.0
 10
35.1546544683
 20
17.1018159116
 30
0.0
  0
SPLINE
  5
26A
100
AcDbEntity
  8
00_COMPONENTS_3
100
AcDbSpline
 62
7
  6
BYLAYER
 70
0
 71
3
 72
15
 73
11
 74
0
 42
0.0000001
 43
0.0000001
 44
0.0000000001
 40
0.0
 40
0.0
 40
0.0
 40
0.0
 40
0.1262643924
 40
0.2515123322
 40
0.3759716731
 40
0.5
 40
0.6240283269
 40
0.7484876678
 40
0.8737356076
 40
1.0
 40
1.0
 40
1.0
 40
1.0
 10
35.1546544683
 20
17.1018159116
 30
0.0
 10
35.5725042945
 20
16.9712546744
 30
0.0
 10
36.4128638048
 20
16.7358056281
 30
0.0
 10
37.6905059546
 20
16.4715961579
 30
0.0
 10
38.9773717416
 20
16.3081128366
 30
0.0
 10
40.2693023018
 20
16.2527031373
 30
0.0
 10
41.561232862
 20
16.3081128366
 30
0.0
 10
42.848098649
 20
16.4715961579
 30
0.0
 10
44.1257407989
 20
16.7358056281
 30
0.0
 10
44.9661003091
 20
16.9712546744
 30
0.0
 10
45.3839501353
 20
17.1018159116
 30
0.0
  0
ENDSEC
  0
SECTION
  2
OBJECTS
  0
DICTIONARY
  5
C
100
AcDbDictionary
280
0
281
1
  3
ACAD_GROUP
350
D
  3
ACAD_MLINESTYLE
350
17
  3
ACAD_LAYOUT
350
1A
  3
ACAD_PLOTSETTINGS
350
19
  3
ACAD_PLOTSTYLENAME
350
E
  0
DICTIONARY
  5
D
102
{ACAD_REACTORS
330
C
102
}
100
AcDbDictionary
280
0
281
1
  0
ACDBDICTIONARYWDFLT
  5
E
102
{ACAD_REACTORS
330
C
102
}
100
AcDbDictionary
281
1
  3
Normal
350
F
100
AcDbDictionaryWithDefault
340
F
  0
DICTIONARY
  5
17
102
{ACAD_REACTORS
330
C
102
}
100
AcDbDictionary
280
0
281
1
  3
Standard
350
18
  0
DICTIONARY
  5
19
102
{ACAD_REACTORS
330
C
102
}
100
AcDbDictionary
281
1
  0
DICTIONARY
  5
1A
102
{ACAD_REACTORS
330
C
102
}
100
AcDbDictionary
281
1
  3
Model
350
26B
  3
Layout1
350
26C
  0
ACDBPLACEHOLDER
  5
F
102
{ACAD_REACTORS
330
E
102
}
  0
MLINESTYLE
  5
18
102
{ACAD_REACTORS
330
17
102
}
100
AcDbMlineStyle
  2
STANDARD
 70
0
  3

 62
256
 51
90.0
 52
90.0
 71
2
 49
0.5
 62
256
  6
BYLAYER
 49
-0.5
 62
256
  6
BYLAYER
  0
LAYOUT
  5
26B
102
{ACAD_REACTORS
330
1A
102
}
100
AcDbPlotSettings
  1

  2
none_device
  4

  6

 40
0.0
 41
0.0
 42
0.0
 43
0.0
 44
210.0
 45
297.0
 46
0.0
 47
0.0
 48
0.0
 49
0.0
140
0.0
141
0.0
142
1.0
143
1.0
 70
1024
 72
1
 73
0
 74
0
  7

 75
0
147
1.0
148
0.0
149
0.0
100
AcDbLayout
  1
Model
 70
0
 71
0
 10
0.0
 20
0.0
 11
210.0
 21
297.0
 12
0.0
 22
0.0
 32
0.0
 14
0.0
 24
0.0
 34
0.0
 15
0.0
 25
0.0
 35
0.0
146
0.0
 13
0.0
 23
0.0
 33
0.0
 16
1.0
 26
0.0
 36
0.0
 17
0.0
 27
1.0
 37
0.0
 76
0
330
21A
345
0
346
0
  0
LAYOUT
  5
26C
102
{ACAD_REACTORS
330
1A
102
}
100
AcDbPlotSettings
  1

  2
none_device
  4

  6

 40
0.0
 41
0.0
 42
0.0
 43
0.0
 44
210.0
 45
297.0
 46
0.0
 47
0.0
 48
0.0
 49
0.0
140
0.0
141
0.0
142
1.0
143
1.0
 70
0
 72
1
 73
0
 74
0
  7

 75
0
147
1.0
148
0.0
149
0.0
100
AcDbLayout
  1
Layout1
 70
0
 71
1
 10
0.0
 20
0.0
 11
210.0
 21
297.0
 12
0.0
 22
0.0
 32
0.0
 14
0.0
 24
0.0
 34
0.0
 15
0.0
 25
0.0
 35
0.0
146
0.0
 13
0.0
 23
0.0
 33
0.0
 16
1.0
 26
0.0
 36
0.0
 17
0.0
 27
1.0
 37
0.0
 76
0
330
21B
345
0
346
0
  0
ENDSEC
  0
EOF
