999
DXF file: C:\Users\sesa63760\Dev\_Creo\CAD\MCADPD0003932_3D-CAD\drw0001_1.dxf
999
Pro/ENGINEER 2019471 by Parametric Technology Corporation
  0
SECTION
  2
HEADER
  9
$ACADVER
  1
AC1024
  9
$DWGCODEPAGE
  3
ANSI_1252
  9
$EXTMAX
 10
309.3794945494
 20
437.5509994342
 30
0.0
  9
$EXTMIN
 10
0.0
 20
0.0
 30
0.0
  9
$LIMMIN
 10
0.0
 20
0.0
  9
$LIMMAX
 10
309.3794945494
 20
437.5509994342
  9
$VIEWCTR
 10
154.6897472747
 20
218.7754997171
  9
$VIEWSIZE
 40
437.5509994342
  9
$CLAYER
  8
0
  9
$LTSCALE
 40
28.5218429261
  9
$CELTYPE
  6
BYLAYER
  9
$DIMSCALE
 40
1.0
  9
$DIMASZ
 40
3.6830892208
  9
$DIMEXO
 40
1.0
  9
$DIMDLI
 40
19.7060005671
  9
$DIMEXE
 40
1.0
  9
$DIMCEN
 40
4.6672106606
  9
$DIMLFAC
 40
1.0
  9
$DIMBLK
  1
_FILLED
  9
$DIMALT
 70
0
  9
$DIMALTF
 40
0.0393700787
  9
$DIMTXT
 40
5.1563249092
  9
$DIMTOL
 70
1
  9
$DIMLIM
 70
0
  9
$DIMTFAC
 40
1.0
  9
$DIMTP
 40
0.01
  9
$DIMTM
 40
0.01
  9
$DIMGAP
 40
0.625
  9
$DIMDSEP
 70
46
  9
$AUNITS
 70
0
  9
$PDMODE
 70
3
  9
$PDSIZE
 40
0.3125
  9
$HANDSEED
  5
3F4
  9
$TILEMODE
 70
1
  9
$MEASUREMENT
 70
1
  9
$INSUNITS
 70
4
  0
ENDSEC
  0
SECTION
  2
CLASSES
  0
CLASS
  1
ACDBDICTIONARYWDFLT
  2
AcDbDictionaryWithDefault
  3
AutoCAD 2000
 90
0
 91
1
280
0
281
0
  0
CLASS
  1
ACDBPLACEHOLDER
  2
AcDbPlaceHolder
  3
AutoCAD 2000
 90
0
 91
1
280
0
281
0
  0
CLASS
  1
LAYOUT
  2
AcDbLayout
  3
AutoCAD 2000
 90
0
 91
0
280
0
281
0
  0
ENDSEC
  0
SECTION
  2
TABLES
  0
TABLE
  2
VPORT
  5
8
100
AcDbSymbolTable
 70
2
  0
VPORT
  5
1F4
100
AcDbSymbolTableRecord
100
AcDbViewportTableRecord
  2
*ACTIVE
 70
0
 10
0.0
 20
0.0
 11
1.0
 21
1.0
 12
154.6897472747
 22
218.7754997171
 13
0.0
 23
0.0
 14
1.0
 24
1.0
 15
0.0
 25
0.0
 16
0.0
 26
0.0
 36
1.0
 17
0.0
 27
0.0
 37
0.0
 40
437.5509994342
 41
0.7070707071
 42
50.0
 43
0.0
 44
0.0
 50
0.0
 51
0.0
 71
0
 72
100
 73
1
 74
1
 75
0
 76
0
 77
0
 78
0
  0
ENDTAB
  0
TABLE
  2
LTYPE
  5
5
100
AcDbSymbolTable
 70
6
  0
LTYPE
  5
14
100
AcDbSymbolTableRecord
100
AcDbLinetypeTableRecord
  2
BYBLOCK
 70
0
  3

 72
65
 73
0
 40
0.0
  0
LTYPE
  5
15
100
AcDbSymbolTableRecord
100
AcDbLinetypeTableRecord
  2
BYLAYER
 70
0
  3

 72
65
 73
0
 40
0.0
  0
LTYPE
  5
16
100
AcDbSymbolTableRecord
100
AcDbLinetypeTableRecord
  2
CONTINUOUS
 70
64
  3
Solid line
 72
65
 73
0
 40
0.0
  0
LTYPE
  5
1F5
100
AcDbSymbolTableRecord
100
AcDbLinetypeTableRecord
  2
CENTER
 70
64
  3
____ _ ____ _ ____ _ ____ _ ____ _ ____ _ ____
 72
65
 73
4
 40
0.6
 49
0.375
 74
0
 49
-0.075
 74
0
 49
0.075
 74
0
 49
-0.075
 74
0
  0
LTYPE
  5
1F6
100
AcDbSymbolTableRecord
100
AcDbLinetypeTableRecord
  2
HIDDEN
 70
64
  3
- - - - - - - - - - - - - - - - - - - -
 72
65
 73
2
 40
0.2
 49
0.1
 74
0
 49
-0.1
 74
0
  0
LTYPE
  5
1F7
100
AcDbSymbolTableRecord
100
AcDbLinetypeTableRecord
  2
PHANTOM
 70
64
  3
_____ _ _ _____ _ _ _____ _ _ _____
 72
65
 73
6
 40
0.8
 49
0.45
 74
0
 49
-0.05
 74
0
 49
0.1
 74
0
 49
-0.05
 74
0
 49
0.1
 74
0
 49
-0.05
 74
0
  0
LTYPE
  5
1F8
100
AcDbSymbolTableRecord
100
AcDbLinetypeTableRecord
  2
DOT
 70
64
  3
. . . . . . . . . . . . . . . . . . . .
 72
65
 73
2
 40
0.2
 49
0.1
 74
0
 49
-0.1
 74
0
  0
LTYPE
  5
1F9
100
AcDbSymbolTableRecord
100
AcDbLinetypeTableRecord
  2
DASHED
 70
64
  3
- - - - - - - - - - - - - - - - - - - -
 72
65
 73
2
 40
0.2
 49
0.1
 74
0
 49
-0.1
 74
0
  0
ENDTAB
  0
TABLE
  2
LAYER
  5
2
100
AcDbSymbolTable
 70
36
  0
LAYER
  5
10
100
AcDbSymbolTableRecord
100
AcDbLayerTableRecord
  2
0
 70
0
 62
7
  6
CONTINUOUS
370
-3
390
F
  0
LAYER
  5
1FA
100
AcDbSymbolTableRecord
100
AcDbLayerTableRecord
  2
DEFAULT_1
 70
0
 62
7
  6
CENTER
370
-3
390
F
  0
LAYER
  5
1FB
100
AcDbSymbolTableRecord
100
AcDbLayerTableRecord
  2
DEFAULT_2
 70
0
 62
7
  6
HIDDEN
370
-3
390
F
  0
LAYER
  5
1FC
100
AcDbSymbolTableRecord
100
AcDbLayerTableRecord
  2
DEFAULT_3
 70
0
 62
7
  6
PHANTOM
370
-3
390
F
  0
LAYER
  5
1FD
100
AcDbSymbolTableRecord
100
AcDbLayerTableRecord
  2
00_COMPONENTS
 70
0
 62
7
  6
CONTINUOUS
370
-3
390
F
  0
LAYER
  5
1FE
100
AcDbSymbolTableRecord
100
AcDbLayerTableRecord
  2
01_1_DEFAULT_DATUMS
 70
0
 62
7
  6
CONTINUOUS
370
-3
390
F
  0
LAYER
  5
1FF
100
AcDbSymbolTableRecord
100
AcDbLayerTableRecord
  2
01_PLANES
 70
0
 62
7
  6
CONTINUOUS
370
-3
390
F
  0
LAYER
  5
200
100
AcDbSymbolTableRecord
100
AcDbLayerTableRecord
  2
02_COORD_SYS
 70
0
 62
7
  6
CONTINUOUS
370
-3
390
F
  0
LAYER
  5
201
100
AcDbSymbolTableRecord
100
AcDbLayerTableRecord
  2
03_AXES
 70
0
 62
7
  6
CONTINUOUS
370
-3
390
F
  0
LAYER
  5
202
100
AcDbSymbolTableRecord
100
AcDbLayerTableRecord
  2
04_POINTS
 70
0
 62
7
  6
CONTINUOUS
370
-3
390
F
  0
LAYER
  5
203
100
AcDbSymbolTableRecord
100
AcDbLayerTableRecord
  2
05_CURVES
 70
0
 62
7
  6
CONTINUOUS
370
-3
390
F
  0
LAYER
  5
204
100
AcDbSymbolTableRecord
100
AcDbLayerTableRecord
  2
06_SURFS
 70
0
 62
7
  6
CONTINUOUS
370
-3
390
F
  0
LAYER
  5
205
100
AcDbSymbolTableRecord
100
AcDbLayerTableRecord
  2
07_COSMETICS
 70
0
 62
7
  6
CONTINUOUS
370
-3
390
F
  0
LAYER
  5
206
100
AcDbSymbolTableRecord
100
AcDbLayerTableRecord
  2
10_NOTES
 70
0
 62
7
  6
CONTINUOUS
370
-3
390
F
  0
LAYER
  5
207
100
AcDbSymbolTableRecord
100
AcDbLayerTableRecord
  2
11_NOTES_PUB
 70
0
 62
7
  6
CONTINUOUS
370
-3
390
F
  0
LAYER
  5
208
100
AcDbSymbolTableRecord
100
AcDbLayerTableRecord
  2
13_REF_GTOL
 70
0
 62
7
  6
CONTINUOUS
370
-3
390
F
  0
LAYER
  5
209
100
AcDbSymbolTableRecord
100
AcDbLayerTableRecord
  2
16_MISC
 70
0
 62
7
  6
CONTINUOUS
370
-3
390
F
  0
LAYER
  5
20A
100
AcDbSymbolTableRecord
100
AcDbLayerTableRecord
  2
17_NO_PRINT
 70
0
 62
7
  6
CONTINUOUS
370
-3
390
F
  0
LAYER
  5
20B
100
AcDbSymbolTableRecord
100
AcDbLayerTableRecord
  2
18_DATUM_CAMS_JOINTS
 70
0
 62
7
  6
CONTINUOUS
370
-3
390
F
  0
LAYER
  5
20C
100
AcDbSymbolTableRecord
100
AcDbLayerTableRecord
  2
19_DATUM_FUNCTIONAL
 70
0
 62
7
  6
CONTINUOUS
370
-3
390
F
  0
LAYER
  5
20D
100
AcDbSymbolTableRecord
100
AcDbLayerTableRecord
  2
20_DATUM_KINEMATIC_SCHEME
 70
0
 62
7
  6
CONTINUOUS
370
-3
390
F
  0
ENDTAB
  0
TABLE
  2
STYLE
  5
3
100
AcDbSymbolTable
 70
1
  0
STYLE
  5
11
100
AcDbSymbolTableRecord
100
AcDbTextStyleTableRecord
  2
STANDARD
 70
0
 40
0.0
 41
1.0
 50
0.0
 71
0
 42
0.2
  3
ARIAL.TTF
  4

  0
STYLE
  5
20E
100
AcDbSymbolTableRecord
100
AcDbTextStyleTableRecord
  2
TEXTSTYLE_1
 70
0
 40
0.0
 41
0.8
 50
0.0
 71
0
 42
0.2
  3
gdt
  4

  0
ENDTAB
  0
TABLE
  2
VIEW
  5
6
100
AcDbSymbolTable
 70
0
  0
ENDTAB
  0
TABLE
  2
UCS
  5
7
100
AcDbSymbolTable
 70
0
  0
ENDTAB
  0
TABLE
  2
APPID
  5
9
100
AcDbSymbolTable
 70
1
  0
APPID
  5
20F
100
AcDbSymbolTableRecord
100
AcDbRegAppTableRecord
  2
ACAD
 70
0
  0
ENDTAB
  0
TABLE
  2
BLOCK_RECORD
  5
1
100
AcDbSymbolTable
 70
0
  0
BLOCK_RECORD
  5
210
100
AcDbSymbolTableRecord
100
AcDbBlockTableRecord
  2
*Model_Space
  0
BLOCK_RECORD
  5
211
100
AcDbSymbolTableRecord
100
AcDbBlockTableRecord
  2
*Paper_Space
  0
BLOCK_RECORD
  5
212
100
AcDbSymbolTableRecord
100
AcDbBlockTableRecord
  2
_FILLED
  0
ENDTAB
  0
TABLE
  2
DIMSTYLE
  5
A
100
AcDbSymbolTable
 70
1
100
AcDbDimStyleTable
 71
0
  0
DIMSTYLE
105
213
100
AcDbSymbolTableRecord
100
AcDbDimStyleTableRecord
  2
STANDARD
 70
0
  3

  4

 40
1.0
 41
3.6830892208
 42
1.0
 43
0.38
 44
1.0
 45
0.0
 46
0.0
 47
0.01
 48
0.01
140
5.1563249092
141
0.09
142
0.0
143
25.4
144
1.0
145
0.0
146
1.0
147
0.625
 71
1
 72
0
 73
0
 74
0
 75
0
 76
0
 77
1
 78
8
 79
2
170
0
171
1
172
0
173
0
174
0
175
0
176
0
177
0
178
0
270
2
179
2
271
2
272
2
273
2
274
2
275
0
280
0
281
0
282
0
283
1
284
8
285
0
286
0
287
3
288
0
340
11
278
46
341
212
342
212
343
212
344
212
  0
ENDTAB
  0
ENDSEC
  0
SECTION
  2
BLOCKS
  0
BLOCK
  5
20
100
AcDbEntity
  8
0
100
AcDbBlockBegin
  2
*Model_Space
 70
0
 10
0.0
 20
0.0
 30
0.0
  3
*Model_Space
  1

  0
ENDBLK
  5
21
100
AcDbEntity
  8
0
100
AcDbBlockEnd
  0
BLOCK
  5
1C
100
AcDbEntity
  8
0
100
AcDbBlockBegin
  2
*Paper_Space
 70
0
 10
0.0
 20
0.0
 30
0.0
  3
*Paper_Space
  1

  0
ENDBLK
  5
1D
100
AcDbEntity
  8
0
100
AcDbBlockEnd
  0
BLOCK
  5
214
100
AcDbEntity
  8
0
100
AcDbBlockBegin
  2
_FILLED
 70
64
 10
0.0
 20
0.0
  3
_FILLED
  1

  0
SOLID
  5
215
100
AcDbEntity
  8
0
  6
BYBLOCK
 62
0
100
AcDbTrace
 10
0.0
 20
0.0
 11
-1.0
 21
0.25
 12
-1.0
 22
-0.25
 13
-1.0
 23
-0.25
  0
ENDBLK
  5
216
100
AcDbEntity
  8
0
  6
BYBLOCK
 62
0
100
AcDbBlockEnd
  0
ENDSEC
  0
SECTION
  2
ENTITIES
  0
LINE
  5
217
100
AcDbEntity
  8
0
100
AcDbLine
 62
7
  6
BYLAYER
 10
73.2449765425
 20
99.0833964016
 11
71.6893351472
 21
99.9815260615
  0
LINE
  5
218
100
AcDbEntity
  8
0
100
AcDbLine
 62
7
  6
BYLAYER
 10
37.8541347989
 20
119.5158461653
 11
36.2984934035
 21
120.4139758253
  0
LINE
  5
219
100
AcDbEntity
  8
0
100
AcDbLine
 62
7
  6
BYLAYER
 10
35.8915808634
 20
121.4996156891
 11
37.4472222587
 21
120.6014860292
  0
LINE
  5
21A
100
AcDbEntity
  8
0
100
AcDbLine
 62
7
  6
BYLAYER
 10
71.282422607
 20
101.0671659254
 11
72.8380640023
 21
100.1690362654
  0
LINE
  5
21B
100
AcDbEntity
  8
0
100
AcDbLine
 62
7
  6
BYLAYER
 10
36.2125733797
 20
169.1409295025
 11
36.2125733797
 21
177.3059536738
  0
LINE
  5
21C
100
AcDbEntity
  8
0
100
AcDbLine
 62
7
  6
BYLAYER
 10
36.4951876404
 20
256.9959109265
 11
36.4951876404
 21
194.5334760161
  0
LINE
  5
21D
100
AcDbEntity
  8
0
100
AcDbLine
 62
7
  6
BYLAYER
 10
39.005624116
 20
258.6091259795
 11
39.005624116
 21
261.4668844395
  0
LINE
  5
21E
100
AcDbEntity
  8
0
100
AcDbLine
 62
7
  6
BYLAYER
 10
42.0106175896
 20
263.9361859752
 11
42.0106175896
 21
263.2018078743
  0
LINE
  5
21F
100
AcDbEntity
  8
0
100
AcDbLine
 62
7
  6
BYLAYER
 10
44.3124291492
 20
255.5453099778
 11
42.1815599106
 21
231.9241118259
  0
LINE
  5
220
100
AcDbEntity
  8
0
100
AcDbLine
 62
7
  6
BYLAYER
 10
44.4443110311
 20
230.6177414114
 11
46.5751802697
 21
254.2389395634
  0
LINE
  5
221
100
AcDbEntity
  8
0
100
AcDbLine
 62
7
  6
BYLAYER
 10
51.5213985399
 20
251.3833037167
 11
51.5213985399
 21
240.5823034356
  0
LINE
  5
222
100
AcDbEntity
  8
0
100
AcDbLine
 62
7
  6
BYLAYER
 10
52.5820542957
 20
215.6610719425
 11
52.5820542957
 21
214.0280671083
  0
LINE
  5
223
100
AcDbEntity
  8
0
100
AcDbLine
 62
7
  6
BYLAYER
 10
143.0568110451
 20
102.6382629214
 11
114.0653123141
 21
119.3761338568
  0
LINE
  5
224
100
AcDbEntity
  8
0
100
AcDbLine
 62
7
  6
BYLAYER
 10
140.0869920038
 20
109.1703626635
 11
106.9942568669
 21
128.2760299751
  0
LINE
  5
225
100
AcDbEntity
  8
0
100
AcDbLine
 62
7
  6
BYLAYER
 10
76.6597354369
 20
145.7892778859
 11
71.6034151233
 21
148.7084797388
  0
LINE
  5
226
100
AcDbEntity
  8
0
100
AcDbLine
 62
7
  6
BYLAYER
 10
41.2688936932
 20
166.2217276496
 11
36.2125733797
 21
169.1409295025
  0
LINE
  5
227
100
AcDbEntity
  8
0
100
AcDbLine
 62
7
  6
BYLAYER
 10
57.6376123921
 20
272.9583817758
 11
57.6376123921
 21
272.2240036748
  0
LINE
  5
228
100
AcDbEntity
  8
0
100
AcDbLine
 62
7
  6
BYLAYER
 10
58.0267991794
 20
212.5176181327
 11
58.0267991794
 21
210.8846132985
  0
LINE
  5
229
100
AcDbEntity
  8
0
100
AcDbLine
 62
7
  6
BYLAYER
 10
59.3348594359
 20
273.2039038633
 11
59.3348594359
 21
275.6091585388
  0
LINE
  5
22A
100
AcDbEntity
  8
0
100
AcDbLine
 62
7
  6
BYLAYER
 10
61.4561709476
 20
206.5067708921
 11
61.4561709476
 21
191.880264528
  0
LINE
  5
22B
100
AcDbEntity
  8
0
100
AcDbLine
 62
7
  6
BYLAYER
 10
61.9865164893
 20
191.0433742107
 11
61.9865164893
 21
206.1486689276
  0
LINE
  5
22C
100
AcDbEntity
  8
0
100
AcDbLine
 62
7
  6
BYLAYER
 10
63.5422091096
 20
214.0689176987
 11
63.5422091096
 21
215.7019225329
  0
LINE
  5
22D
100
AcDbEntity
  8
0
100
AcDbLine
 62
7
  6
BYLAYER
 10
64.2492676097
 20
222.80535169
 11
64.2492676097
 21
204.8422985131
  0
LINE
  5
22E
100
AcDbEntity
  8
0
100
AcDbLine
 62
7
  6
BYLAYER
 10
65.239221225
 20
194.0644812427
 11
65.239221225
 21
197.2488406695
  0
LINE
  5
22F
100
AcDbEntity
  8
0
100
AcDbLine
 62
7
  6
BYLAYER
 10
65.239221225
 20
201.8212542054
 11
65.239221225
 21
207.7000716088
  0
LINE
  5
230
100
AcDbEntity
  8
0
100
AcDbLine
 62
7
  6
BYLAYER
 10
148.7127844598
 20
327.8772110759
 11
169.0420197797
 21
339.6142304997
  0
LINE
  5
231
100
AcDbEntity
  8
0
100
AcDbLine
 62
7
  6
BYLAYER
 10
42.0106175896
 20
263.9361859752
 11
48.2331313571
 21
267.5287345293
  0
LINE
  5
232
100
AcDbEntity
  8
0
100
AcDbLine
 62
7
  6
BYLAYER
 10
57.6376123921
 20
272.9583817758
 11
59.3348594359
 21
273.9382819642
  0
LINE
  5
233
100
AcDbEntity
  8
0
100
AcDbLine
 62
7
  6
BYLAYER
 10
39.005624116
 20
261.4668844395
 11
59.3348594359
 21
273.2039038633
  0
LINE
  5
234
100
AcDbEntity
  8
0
100
AcDbLine
 62
7
  6
BYLAYER
 10
39.1475006167
 20
258.5272153967
 11
36.4951876404
 21
256.9959109265
  0
LINE
  5
235
100
AcDbEntity
  8
0
100
AcDbLine
 62
7
  6
BYLAYER
 10
152.991619958
 20
108.3740932833
 11
161.0880263109
 21
103.6997366441
  0
LINE
  5
236
100
AcDbEntity
  8
0
100
AcDbLine
 62
7
  6
BYLAYER
 10
140.0869920038
 20
117.3353868348
 11
106.9942568669
 21
136.4410541464
  0
LINE
  5
237
100
AcDbEntity
  8
0
100
AcDbLine
 62
7
  6
BYLAYER
 10
77.8144292106
 20
153.2876543776
 11
71.6034151233
 21
156.8735039101
  0
LINE
  5
238
100
AcDbEntity
  8
0
100
AcDbLine
 62
7
  6
BYLAYER
 10
42.423587467
 20
173.7201041414
 11
36.2125733797
 21
177.3059536738
  0
LINE
  5
239
100
AcDbEntity
  8
0
100
AcDbLine
 62
7
  6
BYLAYER
 10
152.991619958
 20
110.0070981176
 11
161.0880263109
 21
105.3327414783
  0
LINE
  5
23A
100
AcDbEntity
  8
0
100
AcDbLine
 62
7
  6
BYLAYER
 10
79.7948640658
 20
155.1480580758
 11
78.2392226705
 21
156.0461877358
  0
LINE
  5
23B
100
AcDbEntity
  8
0
100
AcDbLine
 62
7
  6
BYLAYER
 10
44.4040223222
 20
175.5805078396
 11
42.8483809268
 21
176.4786374995
  0
LINE
  5
23C
100
AcDbEntity
  8
0
100
AcDbLine
 62
7
  6
BYLAYER
 10
166.9216447438
 20
107.067785931
 11
163.0325412555
 21
109.3131100808
  0
LINE
  5
23D
100
AcDbEntity
  8
0
100
AcDbLine
 62
7
  6
BYLAYER
 10
44.2312394602
 20
178.568100314
 11
45.7868808555
 21
177.669970654
  0
LINE
  5
23E
100
AcDbEntity
  8
0
100
AcDbLine
 62
7
  6
BYLAYER
 10
79.6220812038
 20
158.1356505502
 11
81.1777225991
 21
157.2375208903
  0
LINE
  5
23F
100
AcDbEntity
  8
0
100
AcDbLine
 62
7
  6
BYLAYER
 10
52.5820542957
 20
214.0280671083
 11
52.8927390462
 21
213.3414160667
  0
LINE
  5
240
100
AcDbEntity
  8
0
100
AcDbLine
 62
7
  6
BYLAYER
 10
58.3374839299
 20
210.1979622569
 11
58.0267991794
 21
210.8846132985
  0
LINE
  5
241
100
AcDbEntity
  8
0
100
AcDbLine
 62
7
  6
BYLAYER
 10
67.7848162355
 20
213.0890251964
 11
67.7848162355
 21
220.7641479174
  0
LINE
  5
242
100
AcDbEntity
  8
0
100
AcDbLine
 62
7
  6
BYLAYER
 10
69.1990239099
 20
213.9055135041
 11
69.1990239099
 21
219.947673207
  0
LINE
  5
243
100
AcDbEntity
  8
0
100
AcDbLine
 62
7
  6
BYLAYER
 10
70.5689362135
 20
194.1717978982
 11
70.5689362135
 21
193.7740858568
  0
LINE
  5
244
100
AcDbEntity
  8
0
100
AcDbLine
 62
7
  6
BYLAYER
 10
71.6034151233
 20
148.7084797388
 11
71.6034151233
 21
156.8735039101
  0
LINE
  5
245
100
AcDbEntity
  8
0
100
AcDbLine
 62
7
  6
BYLAYER
 10
74.3611103734
 20
241.0548467134
 11
74.3611103734
 21
238.1970882535
  0
LINE
  5
246
100
AcDbEntity
  8
0
100
AcDbLine
 62
7
  6
BYLAYER
 10
74.3964658596
 20
238.1766762158
 11
74.3964658596
 21
241.0344346757
  0
LINE
  5
247
100
AcDbEntity
  8
0
100
AcDbLine
 62
7
  6
BYLAYER
 10
73.1625059352
 20
238.8890871934
 11
71.0316366966
 21
215.2678890415
  0
LINE
  5
248
100
AcDbEntity
  8
0
100
AcDbLine
 62
7
  6
BYLAYER
 10
73.2943878171
 20
213.961518627
 11
75.4252570557
 21
237.5827167789
  0
LINE
  5
249
100
AcDbEntity
  8
0
100
AcDbLine
 62
7
  6
BYLAYER
 10
79.7032708928
 20
235.1128602141
 11
77.5724016542
 21
211.4916620622
  0
LINE
  5
24A
100
AcDbEntity
  8
0
100
AcDbLine
 62
7
  6
BYLAYER
 10
67.8425374538
 20
228.7920151708
 11
64.2492676097
 21
222.80535169
  0
LINE
  5
24B
100
AcDbEntity
  8
0
100
AcDbLine
 62
7
  6
BYLAYER
 10
167.2751642788
 20
110.1295701698
 11
171.1642677671
 21
107.8842460199
  0
LINE
  5
24C
100
AcDbEntity
  8
0
100
AcDbLine
 62
7
  6
BYLAYER
 10
167.2751642788
 20
111.7625750041
 11
171.1642677671
 21
109.5172508542
  0
LINE
  5
24D
100
AcDbEntity
  8
0
100
AcDbLine
 62
7
  6
BYLAYER
 10
167.5933406921
 20
114.7631578073
 11
164.411346929
 21
116.6002412026
  0
LINE
  5
24E
100
AcDbEntity
  8
0
100
AcDbLine
 62
7
  6
BYLAYER
 10
174.1694472994
 20
112.8852583249
 11
169.2550347096
 21
115.7225315689
  0
LINE
  5
24F
100
AcDbEntity
  8
0
100
AcDbLine
 62
7
  6
BYLAYER
 10
36.4951876404
 20
194.5334760161
 11
51.2735646155
 21
186.0013691134
  0
LINE
  5
250
100
AcDbEntity
  8
0
100
AcDbLine
 62
7
  6
BYLAYER
 10
63.2315243591
 20
216.3885735745
 11
63.5422091096
 21
215.7019225329
  0
LINE
  5
251
100
AcDbEntity
  8
0
100
AcDbLine
 62
7
  6
BYLAYER
 10
73.7246350776
 20
201.8216685481
 11
74.0353198281
 21
201.1350175065
  0
LINE
  5
252
100
AcDbEntity
  8
0
100
AcDbLine
 62
7
  6
BYLAYER
 10
86.9122402835
 20
230.950853953
 11
86.9122402835
 21
220.1498536719
  0
LINE
  5
253
100
AcDbEntity
  8
0
100
AcDbLine
 62
7
  6
BYLAYER
 10
87.9728960393
 20
195.2286221788
 11
87.9728960393
 21
193.5956173445
  0
LINE
  5
254
100
AcDbEntity
  8
0
100
AcDbLine
 62
7
  6
BYLAYER
 10
79.8351527747
 20
210.1852916477
 11
81.9660220133
 21
233.8064897996
  0
LINE
  5
255
100
AcDbEntity
  8
0
100
AcDbLine
 62
7
  6
BYLAYER
 10
163.881027883
 20
132.2158814843
 11
132.7681999765
 21
150.1784746832
  0
LINE
  5
256
100
AcDbEntity
  8
0
100
AcDbLine
 62
7
  6
BYLAYER
 10
99.3037043629
 20
169.4987731505
 11
97.3773582329
 21
170.610924447
  0
LINE
  5
257
100
AcDbEntity
  8
0
100
AcDbLine
 62
7
  6
BYLAYER
 10
63.9128626192
 20
189.9312229142
 11
61.9865164893
 21
191.0433742107
  0
LINE
  5
258
100
AcDbEntity
  8
0
100
AcDbLine
 62
7
  6
BYLAYER
 10
166.4619651319
 20
132.5628937742
 11
165.4720115167
 21
133.1344308305
  0
LINE
  5
259
100
AcDbEntity
  8
0
100
AcDbLine
 62
7
  6
BYLAYER
 10
160.6283231473
 20
138.9928034579
 11
155.2986081588
 21
142.0698462292
  0
LINE
  5
25A
100
AcDbEntity
  8
0
100
AcDbLine
 62
7
  6
BYLAYER
 10
141.3506197007
 20
150.1225389439
 11
136.0209047122
 21
153.1995817152
  0
LINE
  5
25B
100
AcDbEntity
  8
0
100
AcDbLine
 62
7
  6
BYLAYER
 10
103.5464360292
 20
171.9483007984
 11
100.6300629686
 21
173.6320314789
  0
LINE
  5
25C
100
AcDbEntity
  8
0
100
AcDbLine
 62
7
  6
BYLAYER
 10
68.1555942856
 20
192.3807505622
 11
65.239221225
 21
194.0644812427
  0
LINE
  5
25D
100
AcDbEntity
  8
0
100
AcDbLine
 62
7
  6
BYLAYER
 10
87.9728960393
 20
193.5956173445
 11
88.2835807898
 21
192.9089663029
  0
LINE
  5
25E
100
AcDbEntity
  8
0
100
AcDbLine
 62
7
  6
BYLAYER
 10
93.7283256735
 20
189.7655124931
 11
93.417640923
 21
190.4521635347
  0
LINE
  5
25F
100
AcDbEntity
  8
0
100
AcDbLine
 62
7
  6
BYLAYER
 10
93.417640923
 20
192.085168369
 11
93.417640923
 21
190.4521635347
  0
LINE
  5
260
100
AcDbEntity
  8
0
100
AcDbLine
 62
7
  6
BYLAYER
 10
94.6903456933
 20
252.7918661372
 11
94.6903456933
 21
255.1971208128
  0
LINE
  5
261
100
AcDbEntity
  8
0
100
AcDbLine
 62
7
  6
BYLAYER
 10
94.7257011795
 20
252.7714540995
 11
94.7257011795
 21
255.176708775
  0
LINE
  5
262
100
AcDbEntity
  8
0
100
AcDbLine
 62
7
  6
BYLAYER
 10
97.3773582329
 20
170.610924447
 11
97.3773582329
 21
185.7162191639
  0
LINE
  5
263
100
AcDbEntity
  8
0
100
AcDbLine
 62
7
  6
BYLAYER
 10
98.9330508532
 20
193.6364679349
 11
98.9330508532
 21
195.2694727692
  0
LINE
  5
264
100
AcDbEntity
  8
0
100
AcDbLine
 62
7
  6
BYLAYER
 10
99.6401093534
 20
202.3729019262
 11
99.6401093534
 21
184.4098487494
  0
LINE
  5
265
100
AcDbEntity
  8
0
100
AcDbLine
 62
7
  6
BYLAYER
 10
100.6300629686
 20
173.6320314789
 11
100.6300629686
 21
176.8163909058
  0
LINE
  5
266
100
AcDbEntity
  8
0
100
AcDbLine
 62
7
  6
BYLAYER
 10
100.6300629686
 20
181.3888044417
 11
100.6300629686
 21
187.267621845
  0
LINE
  5
267
100
AcDbEntity
  8
0
100
AcDbLine
 62
7
  6
BYLAYER
 10
204.397506037
 20
319.2021927737
 11
184.0682707171
 21
307.4651733499
  0
LINE
  5
268
100
AcDbEntity
  8
0
100
AcDbLine
 62
7
  6
BYLAYER
 10
184.1036262034
 20
307.4447613122
 11
204.4328615233
 21
319.181780736
  0
LINE
  5
269
100
AcDbEntity
  8
0
100
AcDbLine
 62
7
  6
BYLAYER
 10
94.6903456933
 20
252.7918661372
 11
74.3611103734
 21
241.0548467134
  0
LINE
  5
26A
100
AcDbEntity
  8
0
100
AcDbLine
 62
7
  6
BYLAYER
 10
74.3964658596
 20
241.0344346757
 11
94.7257011795
 21
252.7714540995
  0
LINE
  5
26B
100
AcDbEntity
  8
0
100
AcDbLine
 62
7
  6
BYLAYER
 10
74.3611103734
 20
238.1970882535
 11
74.3964658596
 21
238.2175006311
  0
LINE
  5
26C
100
AcDbEntity
  8
0
100
AcDbLine
 62
7
  6
BYLAYER
 10
187.0387197672
 20
158.2417875503
 11
184.6424435549
 21
158.3892471244
  0
LINE
  5
26D
100
AcDbEntity
  8
0
100
AcDbLine
 62
7
  6
BYLAYER
 10
65.239221225
 20
197.2488406695
 11
70.5689362135
 21
194.1717978982
  0
LINE
  5
26E
100
AcDbEntity
  8
0
100
AcDbLine
 62
7
  6
BYLAYER
 10
100.6300629686
 20
176.8163909058
 11
105.9597779571
 21
173.7393481344
  0
LINE
  5
26F
100
AcDbEntity
  8
0
100
AcDbLine
 62
7
  6
BYLAYER
 10
136.0209047122
 20
156.383941142
 11
141.3506197007
 21
153.3068983707
  0
LINE
  5
270
100
AcDbEntity
  8
0
100
AcDbLine
 62
7
  6
BYLAYER
 10
155.2986081588
 20
145.254205656
 11
160.6283231473
 21
142.1771628847
  0
LINE
  5
271
100
AcDbEntity
  8
0
100
AcDbLine
 62
7
  6
BYLAYER
 10
160.6283231473
 20
146.7495764206
 11
136.0209047122
 21
160.9563546779
  0
LINE
  5
272
100
AcDbEntity
  8
0
100
AcDbLine
 62
7
  6
BYLAYER
 10
110.2640945008
 20
175.8267195743
 11
100.6300629686
 21
181.3888044417
  0
LINE
  5
273
100
AcDbEntity
  8
0
100
AcDbLine
 62
7
  6
BYLAYER
 10
74.8732527572
 20
196.2591693381
 11
65.239221225
 21
201.8212542054
  0
LINE
  5
274
100
AcDbEntity
  8
0
100
AcDbLine
 62
7
  6
BYLAYER
 10
163.881027883
 20
147.3211762012
 11
161.6182767625
 21
148.6275466157
  0
LINE
  5
275
100
AcDbEntity
  8
0
100
AcDbLine
 62
7
  6
BYLAYER
 10
135.030951097
 20
163.9773989857
 11
132.7681999765
 21
165.2837694001
  0
LINE
  5
276
100
AcDbEntity
  8
0
100
AcDbLine
 62
7
  6
BYLAYER
 10
99.6401093534
 20
184.4098487494
 11
97.3773582329
 21
185.7162191639
  0
LINE
  5
277
100
AcDbEntity
  8
0
100
AcDbLine
 62
7
  6
BYLAYER
 10
64.2492676097
 20
204.8422985131
 11
61.9865164893
 21
206.1486689276
  0
LINE
  5
278
100
AcDbEntity
  8
0
100
AcDbLine
 62
7
  6
BYLAYER
 10
149.5654419398
 20
156.9874014195
 11
147.3026908194
 21
158.293771834
  0
LINE
  5
279
100
AcDbEntity
  8
0
100
AcDbLine
 62
7
  6
BYLAYER
 10
120.7153651538
 20
173.643624204
 11
118.4526140334
 21
174.9499946184
  0
LINE
  5
27A
100
AcDbEntity
  8
0
100
AcDbLine
 62
7
  6
BYLAYER
 10
113.5990432366
 20
177.7521416314
 11
111.9118490758
 21
178.7262215977
  0
LINE
  5
27B
100
AcDbEntity
  8
0
100
AcDbLine
 62
7
  6
BYLAYER
 10
85.3245234102
 20
194.0760739677
 11
83.0617722898
 21
195.3824443822
  0
LINE
  5
27C
100
AcDbEntity
  8
0
100
AcDbLine
 62
7
  6
BYLAYER
 10
78.208201493
 20
198.1845913952
 11
76.5210073322
 21
199.1586713615
  0
LINE
  5
27D
100
AcDbEntity
  8
0
100
AcDbLine
 62
7
  6
BYLAYER
 10
49.9336816666
 20
214.5085237314
 11
47.6709305462
 21
215.8148941459
  0
LINE
  5
27E
100
AcDbEntity
  8
0
100
AcDbLine
 62
7
  6
BYLAYER
 10
52.8927227768
 20
213.3413878866
 11
58.3374676604
 21
210.1979340768
  0
LINE
  5
27F
100
AcDbEntity
  8
0
100
AcDbLine
 62
7
  6
BYLAYER
 10
88.2835645204
 20
192.9089381228
 11
93.728309404
 21
189.765484313
  0
LINE
  5
280
100
AcDbEntity
  8
0
100
AcDbLine
 62
7
  6
BYLAYER
 10
123.674406264
 20
172.4764883591
 11
129.1191511477
 21
169.3330345493
  0
LINE
  5
281
100
AcDbEntity
  8
0
100
AcDbLine
 62
7
  6
BYLAYER
 10
52.5820542957
 20
214.0280671083
 11
58.0267991794
 21
210.8846132985
  0
LINE
  5
282
100
AcDbEntity
  8
0
100
AcDbLine
 62
7
  6
BYLAYER
 10
87.9728960393
 20
193.5956173445
 11
93.417640923
 21
190.4521635347
  0
LINE
  5
283
100
AcDbEntity
  8
0
100
AcDbLine
 62
7
  6
BYLAYER
 10
123.3637377829
 20
173.1631675808
 11
128.8084826666
 21
170.019713771
  0
LINE
  5
284
100
AcDbEntity
  8
0
100
AcDbLine
 62
7
  6
BYLAYER
 10
65.239221225
 20
207.7000716088
 11
73.3088770534
 21
203.0411590426
  0
LINE
  5
285
100
AcDbEntity
  8
0
100
AcDbLine
 62
7
  6
BYLAYER
 10
100.6300629686
 20
187.267621845
 11
108.699718797
 21
182.6087092789
  0
LINE
  5
286
100
AcDbEntity
  8
0
100
AcDbLine
 62
7
  6
BYLAYER
 10
136.0209047122
 20
166.8351720813
 11
144.0905605406
 21
162.1762595151
  0
LINE
  5
287
100
AcDbEntity
  8
0
100
AcDbLine
 62
7
  6
BYLAYER
 10
128.8084826666
 20
171.6527186053
 11
123.3637377829
 21
174.7961724151
  0
LINE
  5
288
100
AcDbEntity
  8
0
100
AcDbLine
 62
7
  6
BYLAYER
 10
93.417640923
 20
192.085168369
 11
87.9728960393
 21
195.2286221788
  0
LINE
  5
289
100
AcDbEntity
  8
0
100
AcDbLine
 62
7
  6
BYLAYER
 10
58.0267991794
 20
212.5176181327
 11
52.5820542957
 21
215.6610719425
  0
LINE
  5
28A
100
AcDbEntity
  8
0
100
AcDbLine
 62
7
  6
BYLAYER
 10
47.6709305461
 20
215.8148941459
 11
61.9865164893
 21
206.1486689276
  0
LINE
  5
28B
100
AcDbEntity
  8
0
100
AcDbLine
 62
7
  6
BYLAYER
 10
64.2492676097
 20
204.8422985131
 11
49.9336816666
 21
214.5085237315
  0
LINE
  5
28C
100
AcDbEntity
  8
0
100
AcDbLine
 62
7
  6
BYLAYER
 10
76.5210073322
 20
199.1586713615
 11
78.0763496207
 21
198.1084671356
  0
LINE
  5
28D
100
AcDbEntity
  8
0
100
AcDbLine
 62
7
  6
BYLAYER
 10
83.0617722897
 20
195.3824443822
 11
97.3773582329
 21
185.7162191639
  0
LINE
  5
28E
100
AcDbEntity
  8
0
100
AcDbLine
 62
7
  6
BYLAYER
 10
99.6401093534
 20
184.4098487494
 11
85.3245234102
 21
194.0760739677
  0
LINE
  5
28F
100
AcDbEntity
  8
0
100
AcDbLine
 62
7
  6
BYLAYER
 10
111.9118490757
 20
178.7262215978
 11
113.4671913643
 21
177.6760173719
  0
LINE
  5
290
100
AcDbEntity
  8
0
100
AcDbLine
 62
7
  6
BYLAYER
 10
118.4526140334
 20
174.9499946184
 11
132.7681999765
 21
165.2837694001
  0
LINE
  5
291
100
AcDbEntity
  8
0
100
AcDbLine
 62
7
  6
BYLAYER
 10
135.030951097
 20
163.9773989857
 11
120.7153651538
 21
173.643624204
  0
LINE
  5
292
100
AcDbEntity
  8
0
100
AcDbLine
 62
7
  6
BYLAYER
 10
147.3026908193
 20
158.293771834
 11
161.6182767625
 21
148.6275466157
  0
LINE
  5
293
100
AcDbEntity
  8
0
100
AcDbLine
 62
7
  6
BYLAYER
 10
163.881027883
 20
147.3211762012
 11
149.5654419398
 21
156.9874014196
  0
LINE
  5
294
100
AcDbEntity
  8
0
100
AcDbLine
 62
7
  6
BYLAYER
 10
98.6223661027
 20
195.9561238108
 11
98.9330508532
 21
195.2694727692
  0
LINE
  5
295
100
AcDbEntity
  8
0
100
AcDbLine
 62
7
  6
BYLAYER
 10
109.1154768212
 20
181.3892187844
 11
109.4261615717
 21
180.7025677428
  0
LINE
  5
296
100
AcDbEntity
  8
0
100
AcDbLine
 62
7
  6
BYLAYER
 10
103.1756579791
 20
192.6565754326
 11
103.1756579791
 21
200.3316981536
  0
LINE
  5
297
100
AcDbEntity
  8
0
100
AcDbLine
 62
7
  6
BYLAYER
 10
104.5898656535
 20
193.4730637404
 11
104.5898656535
 21
199.5152234433
  0
LINE
  5
298
100
AcDbEntity
  8
0
100
AcDbLine
 62
7
  6
BYLAYER
 10
105.9597779571
 20
173.7393481344
 11
105.9597779571
 21
173.3416360931
  0
LINE
  5
299
100
AcDbEntity
  8
0
100
AcDbLine
 62
7
  6
BYLAYER
 10
106.9942568669
 20
128.2760299751
 11
106.9942568669
 21
136.4410541464
  0
LINE
  5
29A
100
AcDbEntity
  8
0
100
AcDbLine
 62
7
  6
BYLAYER
 10
109.751952117
 20
220.6223969497
 11
109.751952117
 21
217.7646384897
  0
LINE
  5
29B
100
AcDbEntity
  8
0
100
AcDbLine
 62
7
  6
BYLAYER
 10
109.7873076032
 20
217.744226452
 11
109.7873076032
 21
220.601984912
  0
LINE
  5
29C
100
AcDbEntity
  8
0
100
AcDbLine
 62
7
  6
BYLAYER
 10
108.5533476788
 20
218.4566374297
 11
106.4224784402
 21
194.8354392777
  0
LINE
  5
29D
100
AcDbEntity
  8
0
100
AcDbLine
 62
7
  6
BYLAYER
 10
108.6852295607
 20
193.5290688633
 11
110.8160987993
 21
217.1502670152
  0
LINE
  5
29E
100
AcDbEntity
  8
0
100
AcDbLine
 62
7
  6
BYLAYER
 10
57.0368084702
 20
219.4577637376
 11
53.6427100515
 21
217.498191799
  0
LINE
  5
29F
100
AcDbEntity
  8
0
100
AcDbLine
 62
7
  6
BYLAYER
 10
62.4815533538
 20
216.3143099278
 11
59.0874549352
 21
214.3547379892
  0
LINE
  5
2A0
100
AcDbEntity
  8
0
100
AcDbLine
 62
7
  6
BYLAYER
 10
129.8691384224
 20
169.4073263761
 11
129.1191674171
 21
169.3330627294
  0
LINE
  5
2A1
100
AcDbEntity
  8
0
100
AcDbLine
 62
7
  6
BYLAYER
 10
187.0387197672
 20
164.7738068873
 11
189.4349959796
 21
164.6263473132
  0
LINE
  5
2A2
100
AcDbEntity
  8
0
100
AcDbLine
 62
7
  6
BYLAYER
 10
186.606557079
 20
166.2593103313
 11
184.2102808667
 21
166.4067699054
  0
LINE
  5
2A3
100
AcDbEntity
  8
0
100
AcDbLine
 62
7
  6
BYLAYER
 10
53.6427100515
 20
217.498191799
 11
59.0874549352
 21
214.3547379892
  0
LINE
  5
2A4
100
AcDbEntity
  8
0
100
AcDbLine
 62
7
  6
BYLAYER
 10
89.0335517951
 20
197.0657420353
 11
94.4782966788
 21
193.9222882255
  0
LINE
  5
2A5
100
AcDbEntity
  8
0
100
AcDbLine
 62
7
  6
BYLAYER
 10
124.4243935388
 20
176.6332922716
 11
129.8691384224
 21
173.4898384618
  0
LINE
  5
2A6
100
AcDbEntity
  8
0
100
AcDbLine
 62
7
  6
BYLAYER
 10
142.0432332452
 20
170.2168780438
 11
138.5664997227
 21
172.2241256689
  0
LINE
  5
2A7
100
AcDbEntity
  8
0
100
AcDbLine
 62
7
  6
BYLAYER
 10
106.6523915016
 20
190.6493278075
 11
103.1756579791
 21
192.6565754326
  0
LINE
  5
2A8
100
AcDbEntity
  8
0
100
AcDbLine
 62
7
  6
BYLAYER
 10
71.261549758
 20
211.0817775713
 11
67.7848162355
 21
213.0890251964
  0
LINE
  5
2A9
100
AcDbEntity
  8
0
100
AcDbLine
 62
7
  6
BYLAYER
 10
133.263236841
 20
175.4494104003
 11
127.8184919574
 21
178.5928642101
  0
LINE
  5
2AA
100
AcDbEntity
  8
0
100
AcDbLine
 62
7
  6
BYLAYER
 10
97.8723950974
 20
195.8818601641
 11
92.4276502138
 21
199.0253139739
  0
LINE
  5
2AB
100
AcDbEntity
  8
0
100
AcDbLine
 62
7
  6
BYLAYER
 10
62.4815533538
 20
216.3143099278
 11
57.0368084702
 21
219.4577637376
  0
LINE
  5
2AC
100
AcDbEntity
  8
0
100
AcDbLine
 62
7
  6
BYLAYER
 10
57.7867957449
 20
219.5320555645
 11
63.2315406285
 21
216.3886017547
  0
LINE
  5
2AD
100
AcDbEntity
  8
0
100
AcDbLine
 62
7
  6
BYLAYER
 10
93.1776374885
 20
199.0996058007
 11
98.6223823721
 21
195.9561519909
  0
LINE
  5
2AE
100
AcDbEntity
  8
0
100
AcDbLine
 62
7
  6
BYLAYER
 10
128.5684792321
 20
178.667156037
 11
134.0132241157
 21
175.5237022272
  0
LINE
  5
2AF
100
AcDbEntity
  8
0
100
AcDbLine
 62
7
  6
BYLAYER
 10
141.9506092937
 20
171.9033163155
 11
139.9807073971
 21
173.0406139766
  0
LINE
  5
2B0
100
AcDbEntity
  8
0
100
AcDbLine
 62
7
  6
BYLAYER
 10
106.5597675501
 20
192.3357660792
 11
104.5898656535
 21
193.4730637404
  0
LINE
  5
2B1
100
AcDbEntity
  8
0
100
AcDbLine
 62
7
  6
BYLAYER
 10
71.1689258065
 20
212.768215843
 11
69.1990239099
 21
213.9055135041
  0
LINE
  5
2B2
100
AcDbEntity
  8
0
100
AcDbLine
 62
7
  6
BYLAYER
 10
42.1815599106
 20
231.9241118259
 11
44.4443110311
 21
230.6177414114
  0
LINE
  5
2B3
100
AcDbEntity
  8
0
100
AcDbLine
 62
7
  6
BYLAYER
 10
71.0316366966
 20
215.2678890414
 11
73.2943878171
 21
213.961518627
  0
LINE
  5
2B4
100
AcDbEntity
  8
0
100
AcDbLine
 62
7
  6
BYLAYER
 10
77.5724016542
 20
211.4916620621
 11
79.8351527747
 21
210.1852916476
  0
LINE
  5
2B5
100
AcDbEntity
  8
0
100
AcDbLine
 62
7
  6
BYLAYER
 10
106.4224784402
 20
194.8354392777
 11
108.6852295607
 21
193.5290688632
  0
LINE
  5
2B6
100
AcDbEntity
  8
0
100
AcDbLine
 62
7
  6
BYLAYER
 10
112.9632433978
 20
191.0592122984
 11
115.2259945183
 21
189.7528418839
  0
LINE
  5
2B7
100
AcDbEntity
  8
0
100
AcDbLine
 62
7
  6
BYLAYER
 10
141.8133201838
 20
174.4029895139
 11
144.0760713043
 21
173.0966190995
  0
LINE
  5
2B8
100
AcDbEntity
  8
0
100
AcDbLine
 62
7
  6
BYLAYER
 10
123.3637377829
 20
173.1631675808
 11
123.6744225334
 21
172.4765165392
  0
LINE
  5
2B9
100
AcDbEntity
  8
0
100
AcDbLine
 62
7
  6
BYLAYER
 10
129.1191674171
 20
169.3330627294
 11
128.8084826666
 21
170.019713771
  0
LINE
  5
2BA
100
AcDbEntity
  8
0
100
AcDbLine
 62
7
  6
BYLAYER
 10
114.0653123141
 20
119.3761338568
 11
114.0653123141
 21
124.1936465651
  0
LINE
  5
2BB
100
AcDbEntity
  8
0
100
AcDbLine
 62
7
  6
BYLAYER
 10
122.3030820271
 20
210.5184041892
 11
122.3030820271
 21
199.7174039082
  0
LINE
  5
2BC
100
AcDbEntity
  8
0
100
AcDbLine
 62
7
  6
BYLAYER
 10
123.3637377829
 20
174.7961724151
 11
123.3637377829
 21
173.1631675808
  0
LINE
  5
2BD
100
AcDbEntity
  8
0
100
AcDbLine
 62
7
  6
BYLAYER
 10
115.0941126364
 20
214.6804104503
 11
112.9632433978
 21
191.0592122984
  0
LINE
  5
2BE
100
AcDbEntity
  8
0
100
AcDbLine
 62
7
  6
BYLAYER
 10
115.2259945183
 20
189.752841884
 11
117.3568637569
 21
213.3740400359
  0
LINE
  5
2BF
100
AcDbEntity
  8
0
100
AcDbLine
 62
7
  6
BYLAYER
 10
103.2333791974
 20
208.3595654071
 11
99.6401093534
 21
202.3729019262
  0
LINE
  5
2C0
100
AcDbEntity
  8
0
100
AcDbLine
 62
7
  6
BYLAYER
 10
59.0874549352
 20
210.2722259036
 11
62.4815533538
 21
212.2317978422
  0
LINE
  5
2C1
100
AcDbEntity
  8
0
100
AcDbLine
 62
7
  6
BYLAYER
 10
69.1990239099
 20
213.9055135041
 11
67.7848162355
 21
213.0890251964
  0
LINE
  5
2C2
100
AcDbEntity
  8
0
100
AcDbLine
 62
7
  6
BYLAYER
 10
133.263236841
 20
175.4494104003
 11
134.0132078463
 21
175.5236740471
  0
LINE
  5
2C3
100
AcDbEntity
  8
0
100
AcDbLine
 62
7
  6
BYLAYER
 10
128.5684629627
 20
178.6671278569
 11
127.8184919574
 21
178.5928642101
  0
LINE
  5
2C4
100
AcDbEntity
  8
0
100
AcDbLine
 62
7
  6
BYLAYER
 10
64.2492676097
 20
222.80535169
 11
71.3421811304
 21
218.7103488008
  0
LINE
  5
2C5
100
AcDbEntity
  8
0
100
AcDbLine
 62
7
  6
BYLAYER
 10
99.6401093534
 20
202.3729019262
 11
106.733022874
 21
198.2778990371
  0
LINE
  5
2C6
100
AcDbEntity
  8
0
100
AcDbLine
 62
7
  6
BYLAYER
 10
135.030951097
 20
181.9404521625
 11
142.1238646177
 21
177.8454492733
  0
LINE
  5
2C7
100
AcDbEntity
  8
0
100
AcDbLine
 62
7
  6
BYLAYER
 10
184.6424435549
 20
158.3892471244
 11
181.8140046543
 21
160.0222101425
  0
LINE
  5
2C8
100
AcDbEntity
  8
0
100
AcDbLine
 62
7
  6
BYLAYER
 10
52.971184785
 20
237.3778004009
 11
72.0333826819
 21
226.3724842873
  0
LINE
  5
2C9
100
AcDbEntity
  8
0
100
AcDbLine
 62
7
  6
BYLAYER
 10
88.3620265286
 20
216.9453506372
 11
107.4242244255
 21
205.9400345236
  0
LINE
  5
2CA
100
AcDbEntity
  8
0
100
AcDbLine
 62
7
  6
BYLAYER
 10
123.7528682722
 20
196.5129008734
 11
142.8150661691
 21
185.5075847598
  0
LINE
  5
2CB
100
AcDbEntity
  8
0
100
AcDbLine
 62
7
  6
BYLAYER
 10
184.6424435549
 20
161.8593823972
 11
181.8140046543
 21
163.4923454153
  0
LINE
  5
2CC
100
AcDbEntity
  8
0
100
AcDbLine
 62
7
  6
BYLAYER
 10
51.5213985399
 20
240.5823034356
 11
72.2363813272
 21
228.6227731078
  0
LINE
  5
2CD
100
AcDbEntity
  8
0
100
AcDbLine
 62
7
  6
BYLAYER
 10
86.9122402835
 20
220.1498536719
 11
107.6272230708
 21
208.1903233441
  0
LINE
  5
2CE
100
AcDbEntity
  8
0
100
AcDbLine
 62
7
  6
BYLAYER
 10
122.3030820271
 20
199.7174039082
 11
143.0180648144
 21
187.7578735804
  0
LINE
  5
2CF
100
AcDbEntity
  8
0
100
AcDbLine
 62
7
  6
BYLAYER
 10
134.0132078463
 20
175.5236740471
 11
134.3238925968
 21
174.8370230055
  0
LINE
  5
2D0
100
AcDbEntity
  8
0
100
AcDbLine
 62
7
  6
BYLAYER
 10
144.5063185648
 20
160.9567690206
 11
144.8170033153
 21
160.270117979
  0
LINE
  5
2D1
100
AcDbEntity
  8
0
100
AcDbLine
 62
7
  6
BYLAYER
 10
128.8084826666
 20
171.6527186053
 11
128.8084826666
 21
170.019713771
  0
LINE
  5
2D2
100
AcDbEntity
  8
0
100
AcDbLine
 62
7
  6
BYLAYER
 10
130.0811874369
 20
232.3594163735
 11
130.0811874369
 21
234.764671049
  0
LINE
  5
2D3
100
AcDbEntity
  8
0
100
AcDbLine
 62
7
  6
BYLAYER
 10
130.1165429231
 20
232.3390043358
 11
130.1165429231
 21
234.7442590113
  0
LINE
  5
2D4
100
AcDbEntity
  8
0
100
AcDbLine
 62
7
  6
BYLAYER
 10
132.7681999765
 20
150.1784746832
 11
132.7681999765
 21
165.2837694001
  0
LINE
  5
2D5
100
AcDbEntity
  8
0
100
AcDbLine
 62
7
  6
BYLAYER
 10
134.3238925968
 20
173.2040181712
 11
134.3238925968
 21
174.8370230055
  0
LINE
  5
2D6
100
AcDbEntity
  8
0
100
AcDbLine
 62
7
  6
BYLAYER
 10
135.030951097
 20
181.9404521625
 11
135.030951097
 21
163.9773989857
  0
LINE
  5
2D7
100
AcDbEntity
  8
0
100
AcDbLine
 62
7
  6
BYLAYER
 10
70.3304992245
 20
204.7606873829
 11
65.239221225
 21
201.8212542054
  0
LINE
  5
2D8
100
AcDbEntity
  8
0
100
AcDbLine
 62
7
  6
BYLAYER
 10
239.7883477806
 20
298.76974301
 11
219.4591124607
 21
287.0327235862
  0
LINE
  5
2D9
100
AcDbEntity
  8
0
100
AcDbLine
 62
7
  6
BYLAYER
 10
219.494467947
 20
287.0123115485
 11
239.8237032669
 21
298.7493309723
  0
LINE
  5
2DA
100
AcDbEntity
  8
0
100
AcDbLine
 62
7
  6
BYLAYER
 10
130.0811874369
 20
232.3594163735
 11
109.751952117
 21
220.6223969497
  0
LINE
  5
2DB
100
AcDbEntity
  8
0
100
AcDbLine
 62
7
  6
BYLAYER
 10
109.7873076032
 20
220.601984912
 11
130.1165429231
 21
232.3390043358
  0
LINE
  5
2DC
100
AcDbEntity
  8
0
100
AcDbLine
 62
7
  6
BYLAYER
 10
67.9969968081
 20
195.6566742138
 11
65.239221225
 21
194.0644812427
  0
LINE
  5
2DD
100
AcDbEntity
  8
0
100
AcDbLine
 62
7
  6
BYLAYER
 10
61.9865164893
 20
192.1864578416
 11
36.2125733797
 21
177.3059536738
  0
LINE
  5
2DE
100
AcDbEntity
  8
0
100
AcDbLine
 62
7
  6
BYLAYER
 10
109.751952117
 20
217.7646384897
 11
109.7873076032
 21
217.7850508674
  0
LINE
  5
2DF
100
AcDbEntity
  8
0
100
AcDbLine
 62
7
  6
BYLAYER
 10
94.4782966788
 20
189.8397761399
 11
93.7283256735
 21
189.7655124931
  0
LINE
  5
2E0
100
AcDbEntity
  8
0
100
AcDbLine
 62
7
  6
BYLAYER
 10
238.9401414187
 20
188.2069084445
 11
236.5438652064
 21
188.3543680186
  0
LINE
  5
2E1
100
AcDbEntity
  8
0
100
AcDbLine
 62
7
  6
BYLAYER
 10
187.0387197672
 20
164.7738068873
 11
184.2102808667
 21
166.4067699054
  0
LINE
  5
2E2
100
AcDbEntity
  8
0
100
AcDbLine
 62
7
  6
BYLAYER
 10
189.4349959796
 20
164.6263473132
 11
186.606557079
 21
166.2593103313
  0
LINE
  5
2E3
100
AcDbEntity
  8
0
100
AcDbLine
 62
7
  6
BYLAYER
 10
223.1717022971
 20
145.2181434673
 11
219.6360925752
 21
147.259382513
  0
LINE
  5
2E4
100
AcDbEntity
  8
0
100
AcDbLine
 62
7
  6
BYLAYER
 10
36.4951876404
 20
256.9959109265
 11
44.0498299628
 21
252.6343348201
  0
LINE
  5
2E5
100
AcDbEntity
  8
0
100
AcDbLine
 62
7
  6
BYLAYER
 10
145.1427938606
 20
197.332188726
 11
109.7873076032
 21
217.744226452
  0
LINE
  5
2E6
100
AcDbEntity
  8
0
100
AcDbLine
 62
7
  6
BYLAYER
 10
109.751952117
 20
217.7646384897
 11
74.3964658596
 21
238.1766762158
  0
LINE
  5
2E7
100
AcDbEntity
  8
0
100
AcDbLine
 62
7
  6
BYLAYER
 10
74.3611103734
 20
238.1970882535
 11
39.005624116
 21
258.6091259795
  0
LINE
  5
2E8
100
AcDbEntity
  8
0
100
AcDbLine
 62
7
  6
BYLAYER
 10
209.1958482852
 20
160.7295270387
 11
204.069330902
 21
163.6893766068
  0
LINE
  5
2E9
100
AcDbEntity
  8
0
100
AcDbLine
 62
7
  6
BYLAYER
 10
205.1610125094
 20
164.2138159569
 11
210.1609916924
 21
161.3269940927
  0
LINE
  5
2EA
100
AcDbEntity
  8
0
100
AcDbLine
 62
7
  6
BYLAYER
 10
136.0209047122
 20
153.1995817152
 11
136.0209047122
 21
156.383941142
  0
LINE
  5
2EB
100
AcDbEntity
  8
0
100
AcDbLine
 62
7
  6
BYLAYER
 10
136.0209047122
 20
160.9563546779
 11
136.0209047122
 21
166.8351720813
  0
LINE
  5
2EC
100
AcDbEntity
  8
0
100
AcDbLine
 62
7
  6
BYLAYER
 10
138.5664997227
 20
172.2241256689
 11
138.5664997227
 21
179.8992483899
  0
LINE
  5
2ED
100
AcDbEntity
  8
0
100
AcDbLine
 62
7
  6
BYLAYER
 10
139.9807073971
 20
173.0406139766
 11
139.9807073971
 21
179.0827736795
  0
LINE
  5
2EE
100
AcDbEntity
  8
0
100
AcDbLine
 62
7
  6
BYLAYER
 10
140.0869920038
 20
109.1703626635
 11
140.0869920038
 21
117.3353868348
  0
LINE
  5
2EF
100
AcDbEntity
  8
0
100
AcDbLine
 62
7
  6
BYLAYER
 10
141.3506197007
 20
153.3068983707
 11
141.3506197007
 21
150.1225389439
  0
LINE
  5
2F0
100
AcDbEntity
  8
0
100
AcDbLine
 62
7
  6
BYLAYER
 10
143.0568110451
 20
102.6382629214
 11
143.0568110451
 21
110.8849782516
  0
LINE
  5
2F1
100
AcDbEntity
  8
0
100
AcDbLine
 62
7
  6
BYLAYER
 10
145.1427938606
 20
200.189947186
 11
145.1427938606
 21
197.332188726
  0
LINE
  5
2F2
100
AcDbEntity
  8
0
100
AcDbLine
 62
7
  6
BYLAYER
 10
143.9441894224
 20
198.0241876659
 11
141.8133201838
 21
174.402989514
  0
LINE
  5
2F3
100
AcDbEntity
  8
0
100
AcDbLine
 62
7
  6
BYLAYER
 10
44.2312394602
 20
178.568100314
 11
79.923918075
 21
199.1751549128
  0
LINE
  5
2F4
100
AcDbEntity
  8
0
100
AcDbLine
 62
7
  6
BYLAYER
 10
45.7868808555
 20
177.669970654
 11
80.92964687
 21
197.9595349602
  0
LINE
  5
2F5
100
AcDbEntity
  8
0
100
AcDbLine
 62
7
  6
BYLAYER
 10
92.4276502138
 20
199.0253139739
 11
89.0335517951
 21
197.0657420353
  0
LINE
  5
2F6
100
AcDbEntity
  8
0
100
AcDbLine
 62
7
  6
BYLAYER
 10
97.8723950974
 20
195.8818601641
 11
98.6223661027
 21
195.9561238108
  0
LINE
  5
2F7
100
AcDbEntity
  8
0
100
AcDbLine
 62
7
  6
BYLAYER
 10
93.1776212191
 20
199.0995776206
 11
92.4276502138
 21
199.0253139739
  0
LINE
  5
2F8
100
AcDbEntity
  8
0
100
AcDbLine
 62
7
  6
BYLAYER
 10
238.9401414187
 20
194.7389277815
 11
241.3364176311
 21
194.5914682074
  0
LINE
  5
2F9
100
AcDbEntity
  8
0
100
AcDbLine
 62
7
  6
BYLAYER
 10
238.5079787305
 20
196.2244312255
 11
236.1117025182
 21
196.3718907996
  0
LINE
  5
2FA
100
AcDbEntity
  8
0
100
AcDbLine
 62
7
  6
BYLAYER
 10
42.6466167732
 20
263.5689999823
 11
42.0106175896
 21
263.9361859752
  0
LINE
  5
2FB
100
AcDbEntity
  8
0
100
AcDbLine
 62
7
  6
BYLAYER
 10
215.1609708754
 20
169.9872601486
 11
210.1609916924
 21
172.8740820128
  0
LINE
  5
2FC
100
AcDbEntity
  8
0
100
AcDbLine
 62
7
  6
BYLAYER
 10
210.0737717051
 20
174.0791176108
 11
215.1958233048
 21
171.1218463057
  0
LINE
  5
2FD
100
AcDbEntity
  8
0
100
AcDbLine
 62
7
  6
BYLAYER
 10
48.2331313571
 20
267.5287345293
 11
48.8691305407
 21
267.1615485363
  0
LINE
  5
2FE
100
AcDbEntity
  8
0
100
AcDbLine
 62
7
  6
BYLAYER
 10
148.7127844598
 20
327.8772110759
 11
148.7127844598
 21
327.2112195881
  0
LINE
  5
2FF
100
AcDbEntity
  8
0
100
AcDbLine
 62
7
  6
BYLAYER
 10
152.991619958
 20
110.0070981176
 11
152.991619958
 21
108.3740932833
  0
LINE
  5
300
100
AcDbEntity
  8
0
100
AcDbLine
 62
7
  6
BYLAYER
 10
155.2986081588
 20
142.0698462292
 11
155.2986081588
 21
145.254205656
  0
LINE
  5
301
100
AcDbEntity
  8
0
100
AcDbLine
 62
7
  6
BYLAYER
 10
144.0760713043
 20
173.0966190995
 11
146.3238767443
 21
198.0140831765
  0
LINE
  5
302
100
AcDbEntity
  8
0
100
AcDbLine
 62
7
  6
BYLAYER
 10
138.624220941
 20
187.9271156433
 11
135.030951097
 21
181.9404521625
  0
LINE
  5
303
100
AcDbEntity
  8
0
100
AcDbLine
 62
7
  6
BYLAYER
 10
97.8723950974
 20
195.8818601641
 11
94.4782966788
 21
193.9222882255
  0
LINE
  5
304
100
AcDbEntity
  8
0
100
AcDbLine
 62
7
  6
BYLAYER
 10
94.4782966788
 20
189.8397761399
 11
97.8723950974
 21
191.7993480784
  0
LINE
  5
305
100
AcDbEntity
  8
0
100
AcDbLine
 62
7
  6
BYLAYER
 10
104.5898656535
 20
193.4730637404
 11
103.1756579791
 21
192.6565754326
  0
LINE
  5
306
100
AcDbEntity
  8
0
100
AcDbLine
 62
7
  6
BYLAYER
 10
59.0874549352
 20
210.2722259036
 11
58.3374839299
 21
210.1979622569
  0
LINE
  5
307
100
AcDbEntity
  8
0
100
AcDbLine
 62
7
  6
BYLAYER
 10
58.2736115756
 20
272.5911957828
 11
57.6376123921
 21
272.9583817758
  0
LINE
  5
308
100
AcDbEntity
  8
0
100
AcDbLine
 62
7
  6
BYLAYER
 10
251.0669486752
 20
161.3233753375
 11
255.981361265
 21
158.4861020936
  0
LINE
  5
309
100
AcDbEntity
  8
0
100
AcDbLine
 62
7
  6
BYLAYER
 10
251.0669486752
 20
162.9563801718
 11
255.981361265
 21
160.1191069279
  0
LINE
  5
30A
100
AcDbEntity
  8
0
100
AcDbLine
 62
7
  6
BYLAYER
 10
165.4720291805
 20
214.3322212853
 11
130.1165429231
 21
234.7442590113
  0
LINE
  5
30B
100
AcDbEntity
  8
0
100
AcDbLine
 62
7
  6
BYLAYER
 10
130.0811874369
 20
234.764671049
 11
94.7257011795
 21
255.176708775
  0
LINE
  5
30C
100
AcDbEntity
  8
0
100
AcDbLine
 62
7
  6
BYLAYER
 10
94.6903456933
 20
255.1971208128
 11
59.3348594359
 21
275.6091585388
  0
LINE
  5
30D
100
AcDbEntity
  8
0
100
AcDbLine
 62
7
  6
BYLAYER
 10
160.6283231473
 20
149.2959869183
 11
160.6283231473
 21
146.7495764206
  0
LINE
  5
30E
100
AcDbEntity
  8
0
100
AcDbLine
 62
7
  6
BYLAYER
 10
160.6283231473
 20
142.1771628847
 11
160.6283231473
 21
138.9928034579
  0
LINE
  5
30F
100
AcDbEntity
  8
0
100
AcDbLine
 62
7
  6
BYLAYER
 10
161.0880263109
 20
103.6997366441
 11
161.0880263109
 21
105.3327414783
  0
LINE
  5
310
100
AcDbEntity
  8
0
100
AcDbLine
 62
7
  6
BYLAYER
 10
163.881027883
 20
132.2158814843
 11
163.881027883
 21
147.3211762012
  0
LINE
  5
311
100
AcDbEntity
  8
0
100
AcDbLine
 62
7
  6
BYLAYER
 10
163.9164534356
 20
105.332748277
 11
163.9164534356
 21
103.6997434428
  0
LINE
  5
312
100
AcDbEntity
  8
0
100
AcDbLine
 62
7
  6
BYLAYER
 10
164.411346929
 20
116.6002412026
 11
164.411346929
 21
123.2139516985
  0
LINE
  5
313
100
AcDbEntity
  8
0
100
AcDbLine
 62
7
  6
BYLAYER
 10
165.4720115167
 20
133.1344308305
 11
165.4720115167
 21
209.0691979517
  0
LINE
  5
314
100
AcDbEntity
  8
0
100
AcDbLine
 62
7
  6
BYLAYER
 10
165.4720291805
 20
211.9269666098
 11
165.4720291805
 21
214.3322212853
  0
LINE
  5
315
100
AcDbEntity
  8
0
100
AcDbLine
 62
7
  6
BYLAYER
 10
166.4619651319
 20
124.3978696029
 11
166.4619651319
 21
132.5628937742
  0
LINE
  5
316
100
AcDbEntity
  8
0
100
AcDbLine
 62
7
  6
BYLAYER
 10
166.9216447438
 20
107.067785931
 11
166.9216447438
 21
105.4347810967
  0
LINE
  5
317
100
AcDbEntity
  8
0
100
AcDbLine
 62
7
  6
BYLAYER
 10
167.2751642788
 20
111.7625750041
 11
167.2751642788
 21
110.1295701698
  0
LINE
  5
318
100
AcDbEntity
  8
0
100
AcDbLine
 62
7
  6
BYLAYER
 10
167.5933406921
 20
210.2939406114
 11
167.5933406921
 21
114.7631578073
  0
LINE
  5
319
100
AcDbEntity
  8
0
100
AcDbLine
 62
7
  6
BYLAYER
 10
105.7213409681
 20
184.3282376192
 11
100.6300629686
 21
181.3888044417
  0
LINE
  5
31A
100
AcDbEntity
  8
0
100
AcDbLine
 62
7
  6
BYLAYER
 10
275.1791895242
 20
278.3372932462
 11
254.8499542043
 21
266.6002738224
  0
LINE
  5
31B
100
AcDbEntity
  8
0
100
AcDbLine
 62
7
  6
BYLAYER
 10
165.4720291805
 20
211.9269666098
 11
145.1427938606
 21
200.189947186
  0
LINE
  5
31C
100
AcDbEntity
  8
0
100
AcDbLine
 62
7
  6
BYLAYER
 10
103.3878385517
 20
175.2242244501
 11
100.6300629686
 21
173.6320314789
  0
LINE
  5
31D
100
AcDbEntity
  8
0
100
AcDbLine
 62
7
  6
BYLAYER
 10
97.3773582329
 20
171.7540080778
 11
71.6034151233
 21
156.8735039101
  0
LINE
  5
31E
100
AcDbEntity
  8
0
100
AcDbLine
 62
7
  6
BYLAYER
 10
62.4815533538
 20
216.3143099278
 11
63.2315243591
 21
216.3885735745
  0
LINE
  5
31F
100
AcDbEntity
  8
0
100
AcDbLine
 62
7
  6
BYLAYER
 10
57.7867794755
 20
219.5320273843
 11
57.0368084702
 21
219.4577637376
  0
LINE
  5
320
100
AcDbEntity
  8
0
100
AcDbLine
 62
7
  6
BYLAYER
 10
261.8149796979
 20
161.8541513805
 11
257.9258762096
 21
164.0994755304
  0
LINE
  5
321
100
AcDbEntity
  8
0
100
AcDbLine
 62
7
  6
BYLAYER
 10
262.1684992329
 20
164.9159356194
 11
266.0576027212
 21
162.6706114695
  0
LINE
  5
322
100
AcDbEntity
  8
0
100
AcDbLine
 62
7
  6
BYLAYER
 10
262.1684992329
 20
166.5489404536
 11
266.0576027212
 21
164.3036163038
  0
LINE
  5
323
100
AcDbEntity
  8
0
100
AcDbLine
 62
7
  6
BYLAYER
 10
269.0627822535
 20
167.6716237745
 11
260.9663759005
 21
172.3459804138
  0
LINE
  5
324
100
AcDbEntity
  8
0
100
AcDbLine
 62
7
  6
BYLAYER
 10
185.8719984358
 20
160.8341943649
 11
186.2137466317
 21
160.078869482
  0
LINE
  5
325
100
AcDbEntity
  8
0
100
AcDbLine
 62
7
  6
BYLAYER
 10
188.2054410986
 20
162.1814000727
 11
187.8636929028
 21
162.9367249556
  0
LINE
  5
326
100
AcDbEntity
  8
0
100
AcDbLine
 62
7
  6
BYLAYER
 10
171.1642677671
 20
109.5172508542
 11
171.1642677671
 21
107.8842460199
  0
LINE
  5
327
100
AcDbEntity
  8
0
100
AcDbLine
 62
7
  6
BYLAYER
 10
174.1694590752
 20
109.6192836739
 11
174.1694590752
 21
111.2522885082
  0
LINE
  5
328
100
AcDbEntity
  8
0
100
AcDbLine
 62
7
  6
BYLAYER
 10
174.7552396249
 20
110.4357651829
 11
174.7552396249
 21
112.0687700172
  0
LINE
  5
329
100
AcDbEntity
  8
0
100
AcDbLine
 62
7
  6
BYLAYER
 10
275.1791895242
 20
272.408288623
 11
252.7286426927
 21
259.4465367375
  0
LINE
  5
32A
100
AcDbEntity
  8
0
100
AcDbLine
 62
7
  6
BYLAYER
 10
145.1427938606
 20
197.332188726
 11
167.5933406921
 21
210.2939406114
  0
LINE
  5
32B
100
AcDbEntity
  8
0
100
AcDbLine
 62
7
  6
BYLAYER
 10
79.6220812038
 20
158.1356505502
 11
115.3147598186
 21
178.7427051491
  0
LINE
  5
32C
100
AcDbEntity
  8
0
100
AcDbLine
 62
7
  6
BYLAYER
 10
81.1777225991
 20
157.2375208903
 11
116.3204886136
 21
177.5270851965
  0
LINE
  5
32D
100
AcDbEntity
  8
0
100
AcDbLine
 62
7
  6
BYLAYER
 10
127.8184919574
 20
178.5928642101
 11
124.4243935388
 21
176.6332922716
  0
LINE
  5
32E
100
AcDbEntity
  8
0
100
AcDbLine
 62
7
  6
BYLAYER
 10
236.5438652064
 20
188.3543680186
 11
233.7154263058
 21
189.9873310367
  0
LINE
  5
32F
100
AcDbEntity
  8
0
100
AcDbLine
 62
7
  6
BYLAYER
 10
236.5438652064
 20
191.8245032914
 11
233.7154263058
 21
193.4574663095
  0
LINE
  5
330
100
AcDbEntity
  8
0
100
AcDbLine
 62
7
  6
BYLAYER
 10
238.9401414187
 20
194.7389277815
 11
236.1117025182
 21
196.3718907996
  0
LINE
  5
331
100
AcDbEntity
  8
0
100
AcDbLine
 62
7
  6
BYLAYER
 10
241.3364176311
 20
194.5914682074
 11
238.5079787305
 21
196.2244312255
  0
LINE
  5
332
100
AcDbEntity
  8
0
100
AcDbLine
 62
7
  6
BYLAYER
 10
181.8140046543
 20
160.0222101425
 11
181.8140046543
 21
163.4923454153
  0
LINE
  5
333
100
AcDbEntity
  8
0
100
AcDbLine
 62
7
  6
BYLAYER
 10
184.0682707171
 20
306.7991818621
 11
184.0682707171
 21
307.4651733499
  0
LINE
  5
334
100
AcDbEntity
  8
0
100
AcDbLine
 62
7
  6
BYLAYER
 10
184.1036262034
 20
307.4447613122
 11
184.1036262034
 21
306.7787698244
  0
LINE
  5
335
100
AcDbEntity
  8
0
100
AcDbLine
 62
7
  6
BYLAYER
 10
184.6424435549
 20
158.3892471244
 11
184.6424435549
 21
161.8593823972
  0
LINE
  5
336
100
AcDbEntity
  8
0
100
AcDbLine
 62
7
  6
BYLAYER
 10
189.4349959796
 20
164.6263473132
 11
189.4349959796
 21
161.1562120404
  0
LINE
  5
337
100
AcDbEntity
  8
0
100
AcDbLine
 62
7
  6
BYLAYER
 10
133.263236841
 20
175.4494104003
 11
129.8691384224
 21
173.4898384618
  0
LINE
  5
338
100
AcDbEntity
  8
0
100
AcDbLine
 62
7
  6
BYLAYER
 10
38.8541178318
 20
119.6149019345
 11
75.9249360522
 21
141.0176210561
  0
LINE
  5
339
100
AcDbEntity
  8
0
100
AcDbLine
 62
7
  6
BYLAYER
 10
129.8691384224
 20
169.4073263761
 11
133.263236841
 21
171.3668983147
  0
LINE
  5
33A
100
AcDbEntity
  8
0
100
AcDbLine
 62
7
  6
BYLAYER
 10
139.9807073971
 20
173.0406139766
 11
138.5664997227
 21
172.2241256689
  0
LINE
  5
33B
100
AcDbEntity
  8
0
100
AcDbLine
 62
7
  6
BYLAYER
 10
197.1502810877
 20
134.2772706905
 11
197.1502810877
 21
130.1947586048
  0
LINE
  5
33C
100
AcDbEntity
  8
0
100
AcDbLine
 62
7
  6
BYLAYER
 10
141.1121827117
 20
163.8957878555
 11
136.0209047122
 21
160.9563546779
  0
LINE
  5
33D
100
AcDbEntity
  8
0
100
AcDbLine
 62
7
  6
BYLAYER
 10
138.7786802953
 20
154.7917746864
 11
136.0209047122
 21
153.1995817152
  0
LINE
  5
33E
100
AcDbEntity
  8
0
100
AcDbLine
 62
7
  6
BYLAYER
 10
132.7681999765
 20
151.3215583141
 11
106.9942568669
 21
136.4410541464
  0
LINE
  5
33F
100
AcDbEntity
  8
0
100
AcDbLine
 62
7
  6
BYLAYER
 10
277.9722402605
 20
196.9429968397
 11
257.8114888462
 21
208.582548774
  0
LINE
  5
340
100
AcDbEntity
  8
0
100
AcDbLine
 62
7
  6
BYLAYER
 10
204.397506037
 20
319.1613683583
 11
204.397506037
 21
319.2021927737
  0
LINE
  5
341
100
AcDbEntity
  8
0
100
AcDbLine
 62
7
  6
BYLAYER
 10
184.2102808667
 20
166.4067699054
 11
181.8140046543
 21
163.4923454153
  0
LINE
  5
342
100
AcDbEntity
  8
0
100
AcDbLine
 62
7
  6
BYLAYER
 10
184.6424435549
 20
161.8593823972
 11
187.0387197672
 21
164.7738068873
  0
LINE
  5
343
100
AcDbEntity
  8
0
100
AcDbLine
 62
7
  6
BYLAYER
 10
219.4591124607
 20
286.3667320984
 11
219.4591124607
 21
287.0327235862
  0
LINE
  5
344
100
AcDbEntity
  8
0
100
AcDbLine
 62
7
  6
BYLAYER
 10
219.494467947
 20
287.0123115485
 11
219.494467947
 21
286.3463200607
  0
LINE
  5
345
100
AcDbEntity
  8
0
100
AcDbLine
 62
7
  6
BYLAYER
 10
223.1717022971
 20
145.2181434673
 11
223.1717022971
 21
149.3006555529
  0
LINE
  5
346
100
AcDbEntity
  8
0
100
AcDbLine
 62
7
  6
BYLAYER
 10
210.1609916924
 20
172.8740820128
 11
205.1610125094
 21
164.2138159569
  0
LINE
  5
347
100
AcDbEntity
  8
0
100
AcDbLine
 62
7
  6
BYLAYER
 10
189.4349959796
 20
161.1562120404
 11
187.0387197672
 21
158.2417875503
  0
LINE
  5
348
100
AcDbEntity
  8
0
100
AcDbLine
 62
7
  6
BYLAYER
 10
276.8863372037
 20
216.1768077312
 11
260.7720772388
 21
206.8732909372
  0
LINE
  5
349
100
AcDbEntity
  8
0
100
AcDbLine
 62
7
  6
BYLAYER
 10
74.2449595755
 20
99.1824521707
 11
114.0653123141
 21
122.1726063109
  0
LINE
  5
34A
100
AcDbEntity
  8
0
100
AcDbLine
 62
7
  6
BYLAYER
 10
158.0563837419
 20
143.6620392004
 11
155.2986081588
 21
142.0698462292
  0
LINE
  5
34B
100
AcDbEntity
  8
0
100
AcDbLine
 62
7
  6
BYLAYER
 10
237.7734200873
 20
190.7993152591
 11
238.1151682832
 21
190.0439903762
  0
LINE
  5
34C
100
AcDbEntity
  8
0
100
AcDbLine
 62
7
  6
BYLAYER
 10
240.1068627501
 20
192.1465209669
 11
239.7651145543
 21
192.9018458498
  0
LINE
  5
34D
100
AcDbEntity
  8
0
100
AcDbLine
 62
7
  6
BYLAYER
 10
233.7154263058
 20
189.9873310367
 11
233.7154263058
 21
193.4574663095
  0
LINE
  5
34E
100
AcDbEntity
  8
0
100
AcDbLine
 62
7
  6
BYLAYER
 10
236.5438652064
 20
188.3543680186
 11
236.5438652064
 21
191.8245032914
  0
LINE
  5
34F
100
AcDbEntity
  8
0
100
AcDbLine
 62
7
  6
BYLAYER
 10
210.1609916924
 20
161.3269940927
 11
215.1609708754
 21
169.9872601486
  0
LINE
  5
350
100
AcDbEntity
  8
0
100
AcDbLine
 62
7
  6
BYLAYER
 10
236.1117025182
 20
196.3718907996
 11
233.7154263058
 21
193.4574663095
  0
LINE
  5
351
100
AcDbEntity
  8
0
100
AcDbLine
 62
7
  6
BYLAYER
 10
236.5438652064
 20
191.8245032914
 11
238.9401414187
 21
194.7389277815
  0
LINE
  5
352
100
AcDbEntity
  8
0
100
AcDbLine
 62
7
  6
BYLAYER
 10
163.881027883
 20
132.2158814843
 11
165.4720115167
 21
133.1344308305
  0
LINE
  5
353
100
AcDbEntity
  8
0
100
AcDbLine
 62
7
  6
BYLAYER
 10
140.0869920038
 20
117.3353868348
 11
166.4619651319
 21
132.5628937742
  0
LINE
  5
354
100
AcDbEntity
  8
0
100
AcDbLine
 62
7
  6
BYLAYER
 10
252.7286426927
 20
182.3686859855
 11
277.9722402605
 21
196.9429968397
  0
LINE
  5
355
100
AcDbEntity
  8
0
100
AcDbLine
 62
7
  6
BYLAYER
 10
239.7883477806
 20
298.7289185946
 11
239.7883477806
 21
298.76974301
  0
LINE
  5
356
100
AcDbEntity
  8
0
100
AcDbLine
 62
7
  6
BYLAYER
 10
241.3364176311
 20
194.5914682074
 11
241.3364176311
 21
191.1213329346
  0
LINE
  5
357
100
AcDbEntity
  8
0
100
AcDbLine
 62
7
  6
BYLAYER
 10
241.3364176311
 20
191.1213329346
 11
238.9401414187
 21
188.2069084445
  0
LINE
  5
358
100
AcDbEntity
  8
0
100
AcDbLine
 62
7
  6
BYLAYER
 10
277.9722402605
 20
188.7779726685
 11
252.7286426927
 21
174.2036618142
  0
LINE
  5
359
100
AcDbEntity
  8
0
100
AcDbLine
 62
7
  6
BYLAYER
 10
166.4619651319
 20
124.3978696029
 11
140.0869920038
 21
109.1703626635
  0
LINE
  5
35A
100
AcDbEntity
  8
0
100
AcDbLine
 62
7
  6
BYLAYER
 10
148.7127844598
 20
327.2112195881
 11
184.0682707171
 21
306.7991818621
  0
LINE
  5
35B
100
AcDbEntity
  8
0
100
AcDbLine
 62
7
  6
BYLAYER
 10
184.1036262034
 20
306.7787698244
 11
219.4591124607
 21
286.3667320984
  0
LINE
  5
35C
100
AcDbEntity
  8
0
100
AcDbLine
 62
7
  6
BYLAYER
 10
219.494467947
 20
286.3463200607
 11
254.8499542043
 21
265.9342823346
  0
LINE
  5
35D
100
AcDbEntity
  8
0
100
AcDbLine
 62
7
  6
BYLAYER
 10
251.0669486752
 20
162.9563801718
 11
251.0669486752
 21
161.3233753375
  0
LINE
  5
35E
100
AcDbEntity
  8
0
100
AcDbLine
 62
7
  6
BYLAYER
 10
252.7286426927
 20
259.4465367375
 11
252.7286426927
 21
163.9157539334
  0
LINE
  5
35F
100
AcDbEntity
  8
0
100
AcDbLine
 62
7
  6
BYLAYER
 10
254.8499542043
 20
265.9342823346
 11
254.8499542043
 21
266.6002738224
  0
LINE
  5
360
100
AcDbEntity
  8
0
100
AcDbLine
 62
7
  6
BYLAYER
 10
255.981361265
 20
158.4861020936
 11
255.981361265
 21
160.1191069279
  0
LINE
  5
361
100
AcDbEntity
  8
0
100
AcDbLine
 62
7
  6
BYLAYER
 10
258.8097883897
 20
160.1191137266
 11
258.8097883897
 21
158.4861088923
  0
LINE
  5
362
100
AcDbEntity
  8
0
100
AcDbLine
 62
7
  6
BYLAYER
 10
266.5138830941
 20
224.5072123623
 11
252.7286426927
 21
199.2813596114
  0
LINE
  5
363
100
AcDbEntity
  8
0
100
AcDbLine
 62
7
  6
BYLAYER
 10
260.9663759005
 20
172.3459804138
 11
252.7286426927
 21
167.5899513184
  0
LINE
  5
364
100
AcDbEntity
  8
0
100
AcDbLine
 62
7
  6
BYLAYER
 10
152.991619958
 20
110.0070981176
 11
164.411346929
 21
116.6002412026
  0
LINE
  5
365
100
AcDbEntity
  8
0
100
AcDbLine
 62
7
  6
BYLAYER
 10
223.1717022971
 20
149.3006555529
 11
197.1502810877
 21
134.2772706905
  0
LINE
  5
366
100
AcDbEntity
  8
0
100
AcDbLine
 62
7
  6
BYLAYER
 10
152.991619958
 20
108.3740932833
 11
143.0568110451
 21
102.6382629214
  0
LINE
  5
367
100
AcDbEntity
  8
0
100
AcDbLine
 62
7
  6
BYLAYER
 10
262.3806197893
 20
171.5294847955
 11
270.9011848134
 21
176.4488059414
  0
LINE
  5
368
100
AcDbEntity
  8
0
100
AcDbLine
 62
7
  6
BYLAYER
 10
167.5933406921
 20
114.7631578073
 11
169.2550347096
 21
115.7225315689
  0
LINE
  5
369
100
AcDbEntity
  8
0
100
AcDbLine
 62
7
  6
BYLAYER
 10
251.0669486752
 20
162.9563801718
 11
252.7286426927
 21
163.9157539334
  0
LINE
  5
36A
100
AcDbEntity
  8
0
100
AcDbLine
 62
7
  6
BYLAYER
 10
251.0669486752
 20
161.3233753375
 11
223.1717022971
 21
145.2181434673
  0
LINE
  5
36B
100
AcDbEntity
  8
0
100
AcDbLine
 62
7
  6
BYLAYER
 10
197.1502810877
 20
130.1947586048
 11
170.6692785984
 21
114.9060359506
  0
LINE
  5
36C
100
AcDbEntity
  8
0
100
AcDbLine
 62
7
  6
BYLAYER
 10
163.9164534356
 20
105.332748277
 11
166.9216447438
 21
107.067785931
  0
LINE
  5
36D
100
AcDbEntity
  8
0
100
AcDbLine
 62
7
  6
BYLAYER
 10
171.1642677671
 20
109.5172508542
 11
174.1694590752
 21
111.2522885082
  0
LINE
  5
36E
100
AcDbEntity
  8
0
100
AcDbLine
 62
7
  6
BYLAYER
 10
258.8097883897
 20
160.1191137266
 11
261.8149796979
 21
161.8541513805
  0
LINE
  5
36F
100
AcDbEntity
  8
0
100
AcDbLine
 62
7
  6
BYLAYER
 10
266.0576027212
 20
164.3036163038
 11
269.0627940293
 21
166.0386539577
  0
LINE
  5
370
100
AcDbEntity
  8
0
100
AcDbLine
 62
7
  6
BYLAYER
 10
163.9164534356
 20
103.6997434428
 11
166.9216447438
 21
105.4347810967
  0
LINE
  5
371
100
AcDbEntity
  8
0
100
AcDbLine
 62
7
  6
BYLAYER
 10
171.1642677671
 20
107.8842460199
 11
174.1694590752
 21
109.6192836739
  0
LINE
  5
372
100
AcDbEntity
  8
0
100
AcDbLine
 62
7
  6
BYLAYER
 10
258.8097883897
 20
158.4861088923
 11
261.8149796979
 21
160.2211465463
  0
LINE
  5
373
100
AcDbEntity
  8
0
100
AcDbLine
 62
7
  6
BYLAYER
 10
266.0576027212
 20
162.6706114695
 11
269.0627940293
 21
164.4056491235
  0
LINE
  5
374
100
AcDbEntity
  8
0
100
AcDbLine
 62
7
  6
BYLAYER
 10
270.953557213
 20
266.3257148087
 11
269.9970211026
 21
266.8779586962
  0
LINE
  5
375
100
AcDbEntity
  8
0
100
AcDbLine
 62
7
  6
BYLAYER
 10
261.8149796979
 20
161.8541513805
 11
261.8149796979
 21
160.2211465463
  0
LINE
  5
376
100
AcDbEntity
  8
0
100
AcDbLine
 62
7
  6
BYLAYER
 10
262.1684992329
 20
166.5489404536
 11
262.1684992329
 21
164.9159356194
  0
LINE
  5
377
100
AcDbEntity
  8
0
100
AcDbLine
 62
7
  6
BYLAYER
 10
266.0576027212
 20
164.3036163038
 11
266.0576027212
 21
162.6706114695
  0
LINE
  5
378
100
AcDbEntity
  8
0
100
AcDbLine
 62
7
  6
BYLAYER
 10
269.0627940293
 20
164.4056491235
 11
269.0627940293
 21
166.0386539577
  0
LINE
  5
379
100
AcDbEntity
  8
0
100
AcDbLine
 62
7
  6
BYLAYER
 10
269.648574579
 20
165.2221306325
 11
269.648574579
 21
166.8551354668
  0
LINE
  5
37A
100
AcDbEntity
  8
0
100
AcDbLine
 62
7
  6
BYLAYER
 10
270.9011848134
 20
184.6955212715
 11
270.9011848134
 21
176.4488059414
  0
LINE
  5
37B
100
AcDbEntity
  8
0
100
AcDbLine
 62
7
  6
BYLAYER
 10
269.7554482896
 20
269.276908853
 11
272.0032537296
 21
246.9549714345
  0
LINE
  5
37C
100
AcDbEntity
  8
0
100
AcDbLine
 62
7
  6
BYLAYER
 10
275.1791895242
 20
272.408288623
 11
275.1791895242
 21
278.3372932462
  0
LINE
  5
37D
100
AcDbEntity
  8
0
100
AcDbLine
 62
7
  6
BYLAYER
 10
277.9722402605
 20
196.9429968397
 11
277.9722402605
 21
188.7779726685
  0
LINE
  5
37E
100
AcDbEntity
  8
0
100
AcDbLine
 62
7
  6
BYLAYER
 10
270.9533979697
 20
266.3254394584
 11
271.3364327133
 21
265.7339741867
  0
ARC
  5
37F
100
AcDbEntity
  8
0
100
AcDbCircle
 62
7
  6
BYLAYER
 10
8.126768363
 20
92.2491942679
 40
163.7295243376
100
AcDbArc
 50
51.6335028153
 51
52.2377300357
  0
ARC
  5
380
100
AcDbEntity
  8
0
100
AcDbCircle
 62
7
  6
BYLAYER
 10
43.5176101073
 20
71.816744505
 40
163.7295243365
100
AcDbArc
 50
51.6335028153
 51
52.2377300357
  0
ARC
  5
381
100
AcDbEntity
  8
0
100
AcDbCircle
 62
7
  6
BYLAYER
 10
-27.2640733798
 20
112.6816440326
 40
163.7295243363
100
AcDbArc
 50
51.6335028153
 51
52.2377300357
  0
ARC
  5
382
100
AcDbEntity
  8
0
100
AcDbCircle
 62
7
  6
BYLAYER
 10
252.3903158994
 20
198.1871958785
 40
5.3493526662
100
AcDbArc
 50
60.0377648632
 51
63.6199972701
  0
SPLINE
  5
383
100
AcDbEntity
  8
0
100
AcDbSpline
 62
7
  6
BYLAYER
 70
0
 71
3
 72
9
 73
5
 74
0
 42
0.0000001
 43
0.0000001
 44
0.0000000001
 40
0.0
 40
0.0
 40
0.0
 40
0.0
 40
0.4820548494
 40
1.0
 40
1.0
 40
1.0
 40
1.0
 10
219.494467947
 20
286.3463200607
 30
0.0
 10
204.1210624786
 20
280.0422917313
 30
0.0
 10
173.1891490257
 20
264.5623784922
 30
0.0
 10
144.4355965456
 20
245.4066990955
 30
0.0
 10
130.1165429231
 20
234.7442590113
 30
0.0
  0
SPLINE
  5
384
100
AcDbEntity
  8
0
100
AcDbSpline
 62
7
  6
BYLAYER
 70
0
 71
3
 72
11
 73
7
 74
0
 42
0.0000001
 43
0.0000001
 44
0.0000000001
 40
0.0
 40
0.0
 40
0.0
 40
0.0
 40
0.2246585258
 40
0.4609088119
 40
0.7176732845
 40
1.0
 40
1.0
 40
1.0
 40
1.0
 10
214.485903555
 20
174.5916746384
 30
0.0
 10
214.2456163684
 20
174.7304255681
 30
0.0
 10
213.7077484144
 20
174.9432202803
 30
0.0
 10
212.816414739
 20
175.0323155389
 30
0.0
 10
211.8605493019
 20
174.9001903012
 30
0.0
 10
211.2276718987
 20
174.6807015458
 30
0.0
 10
210.9079465719
 20
174.5415476252
 30
0.0
  0
SPLINE
  5
385
100
AcDbEntity
  8
0
100
AcDbSpline
 62
7
  6
BYLAYER
 70
0
 71
3
 72
9
 73
5
 74
0
 42
0.0000001
 43
0.0000001
 44
0.0000000001
 40
0.0
 40
0.0
 40
0.0
 40
0.0
 40
0.2392587652
 40
1.0
 40
1.0
 40
1.0
 40
1.0
 10
210.9079465719
 20
174.5415476252
 30
0.0
 10
210.7902934227
 20
174.4903414941
 30
0.0
 10
210.3046855992
 20
174.2622989126
 30
0.0
 10
209.8445316608
 20
173.9816787448
 30
0.0
 10
209.5104452645
 20
173.7475084974
 30
0.0
  0
SPLINE
  5
386
100
AcDbEntity
  8
0
100
AcDbSpline
 62
7
  6
BYLAYER
 70
0
 71
3
 72
11
 73
7
 74
0
 42
0.0000001
 43
0.0000001
 44
0.0000000001
 40
0.0
 40
0.0
 40
0.0
 40
0.0
 40
0.2403736257
 40
0.4998916922
 40
0.759441111
 40
1.0
 40
1.0
 40
1.0
 40
1.0
 10
209.5104452645
 20
173.7475084974
 30
0.0
 10
208.7793096659
 20
173.2350356581
 30
0.0
 10
207.4035853298
 20
171.9583560936
 30
0.0
 10
205.7586729511
 20
169.6467754214
 30
0.0
 10
204.577460836
 20
167.0664516682
 30
0.0
 10
204.1587969354
 20
165.2360944861
 30
0.0
 10
204.0798807041
 20
164.3460443692
 30
0.0
  0
SPLINE
  5
387
100
AcDbEntity
  8
0
100
AcDbSpline
 62
7
  6
BYLAYER
 70
0
 71
3
 72
9
 73
5
 74
0
 42
0.0000001
 43
0.0000001
 44
0.0000000001
 40
0.0
 40
0.0
 40
0.0
 40
0.0
 40
0.255017062
 40
1.0
 40
1.0
 40
1.0
 40
1.0
 10
204.0798807041
 20
164.3460443692
 30
0.0
 10
204.0740416029
 20
164.2801885549
 30
0.0
 10
204.0538312831
 20
164.0217208002
 30
0.0
 10
204.0445435005
 20
163.762365858
 30
0.0
 10
204.0445435005
 20
163.5692261217
 30
0.0
  0
SPLINE
  5
388
100
AcDbEntity
  8
0
100
AcDbSpline
 62
7
  6
BYLAYER
 70
0
 71
3
 72
13
 73
9
 74
0
 42
0.0000001
 43
0.0000001
 44
0.0000000001
 40
0.0
 40
0.0
 40
0.0
 40
0.0
 40
0.0871392705
 40
0.1868475657
 40
0.3045112729
 40
0.4386449747
 40
0.7300488254
 40
1.0
 40
1.0
 40
1.0
 40
1.0
 10
239.7651147144
 20
192.9018461272
 30
0.0
 10
239.6826766048
 20
192.9493778915
 30
0.0
 10
239.4756356378
 20
193.0025583035
 30
0.0
 10
239.1423949219
 20
192.9357817748
 30
0.0
 10
238.8018334672
 20
192.749911341
 30
0.0
 10
238.3551255167
 20
192.3537425438
 30
0.0
 10
237.9355299651
 20
191.7051283285
 30
0.0
 10
237.7734200873
 20
191.0941122021
 30
0.0
 10
237.7734200873
 20
190.7993152591
 30
0.0
  0
SPLINE
  5
389
100
AcDbEntity
  8
0
100
AcDbSpline
 62
7
  6
BYLAYER
 70
0
 71
3
 72
9
 73
5
 74
0
 42
0.0000001
 43
0.0000001
 44
0.0000000001
 40
0.0
 40
0.0
 40
0.0
 40
0.0
 40
0.5508359905
 40
1.0
 40
1.0
 40
1.0
 40
1.0
 10
269.0627940293
 20
164.4056491235
 30
0.0
 10
269.2282145751
 20
164.50115415
 30
0.0
 10
269.5124587605
 20
164.7187139141
 30
0.0
 10
269.6484627215
 20
165.066376057
 30
0.0
 10
269.6484626731
 20
165.2221306317
 30
0.0
  0
SPLINE
  5
38A
100
AcDbEntity
  8
0
100
AcDbSpline
 62
7
  6
BYLAYER
 70
0
 71
3
 72
13
 73
9
 74
0
 42
0.0000001
 43
0.0000001
 44
0.0000000001
 40
0.0
 40
0.0
 40
0.0
 40
0.0
 40
0.0871392705
 40
0.1868475657
 40
0.3045112729
 40
0.4386449747
 40
0.7300488254
 40
1.0
 40
1.0
 40
1.0
 40
1.0
 10
187.8636930629
 20
162.936725233
 30
0.0
 10
187.7812549533
 20
162.9842569974
 30
0.0
 10
187.5742139863
 20
163.0374374093
 30
0.0
 10
187.2409732704
 20
162.9706608806
 30
0.0
 10
186.9004118157
 20
162.7847904469
 30
0.0
 10
186.4537038652
 20
162.3886216496
 30
0.0
 10
186.0341083136
 20
161.7400074343
 30
0.0
 10
185.8719984358
 20
161.1289913079
 30
0.0
 10
185.8719984358
 20
160.8341943649
 30
0.0
  0
SPLINE
  5
38B
100
AcDbEntity
  8
0
100
AcDbSpline
 62
7
  6
BYLAYER
 70
0
 71
3
 72
11
 73
7
 74
0
 42
0.0000001
 43
0.0000001
 44
0.0000000001
 40
0.0
 40
0.0
 40
0.0
 40
0.0
 40
0.2372531816
 40
0.5000006935
 40
0.7627478297
 40
1.0
 40
1.0
 40
1.0
 40
1.0
 10
255.981361265
 20
158.4861020936
 30
0.0
 10
256.1821509056
 20
158.3701787631
 30
0.0
 10
256.6490547312
 20
158.200992563
 30
0.0
 10
257.3955774606
 20
158.1201074823
 30
0.0
 10
258.142098806
 20
158.20099613
 30
0.0
 10
258.609000441
 20
158.370184608
 30
0.0
 10
258.8097883897
 20
158.4861088923
 30
0.0
  0
SPLINE
  5
38C
100
AcDbEntity
  8
0
100
AcDbSpline
 62
7
  6
BYLAYER
 70
0
 71
3
 72
9
 73
5
 74
0
 42
0.0000001
 43
0.0000001
 44
0.0000000001
 40
0.0
 40
0.0
 40
0.0
 40
0.0
 40
0.5508366897
 40
1.0
 40
1.0
 40
1.0
 40
1.0
 10
269.0627822535
 20
167.6716237745
 30
0.0
 10
269.2282058092
 20
167.5761186007
 30
0.0
 10
269.5124553312
 20
167.358558195
 30
0.0
 10
269.6484627078
 20
167.0108917876
 30
0.0
 10
269.6484626731
 20
166.8551354675
 30
0.0
  0
SPLINE
  5
38D
100
AcDbEntity
  8
0
100
AcDbSpline
 62
7
  6
BYLAYER
 70
0
 71
3
 72
9
 73
5
 74
0
 42
0.0000001
 43
0.0000001
 44
0.0000000001
 40
0.0
 40
0.0
 40
0.0
 40
0.0
 40
0.2557696416
 40
1.0
 40
1.0
 40
1.0
 40
1.0
 10
204.0445435005
 20
163.5692261217
 30
0.0
 10
204.0445435005
 20
163.4978457261
 30
0.0
 10
204.0482506014
 20
163.2187849081
 30
0.0
 10
204.0670199946
 20
162.9398642601
 30
0.0
 10
204.0904656561
 20
162.7334913986
 30
0.0
  0
SPLINE
  5
38E
100
AcDbEntity
  8
0
100
AcDbSpline
 62
7
  6
BYLAYER
 70
0
 71
3
 72
11
 73
7
 74
0
 42
0.0000001
 43
0.0000001
 44
0.0000000001
 40
0.0
 40
0.0
 40
0.0
 40
0.0
 40
0.282518643
 40
0.5392251323
 40
0.775381461
 40
1.0
 40
1.0
 40
1.0
 40
1.0
 10
204.0904656561
 20
162.7334913986
 30
0.0
 10
204.1298588197
 20
162.3867458024
 30
0.0
 10
204.256073338
 20
161.7286346249
 30
0.0
 10
204.6197043292
 20
160.8345940427
 30
0.0
 10
205.1427058936
 20
160.1075195301
 30
0.0
 10
205.5958049646
 20
159.748145282
 30
0.0
 10
205.8360798298
 20
159.6094014671
 30
0.0
  0
SPLINE
  5
38F
100
AcDbEntity
  8
0
100
AcDbSpline
 62
7
  6
BYLAYER
 70
0
 71
3
 72
9
 73
5
 74
0
 42
0.0000001
 43
0.0000001
 44
0.0000000001
 40
0.0
 40
0.0
 40
0.0
 40
0.0
 40
0.5508359905
 40
1.0
 40
1.0
 40
1.0
 40
1.0
 10
174.1694590752
 20
109.6192836739
 30
0.0
 10
174.334879621
 20
109.7147887005
 30
0.0
 10
174.6191238064
 20
109.9323484645
 30
0.0
 10
174.7551277674
 20
110.2800106075
 30
0.0
 10
174.755127719
 20
110.4357651821
 30
0.0
  0
SPLINE
  5
390
100
AcDbEntity
  8
0
100
AcDbSpline
 62
7
  6
BYLAYER
 70
0
 71
3
 72
11
 73
7
 74
0
 42
0.0000001
 43
0.0000001
 44
0.0000000001
 40
0.0
 40
0.0
 40
0.0
 40
0.0
 40
0.2177643494
 40
0.4508943819
 40
0.7103680107
 40
1.0
 40
1.0
 40
1.0
 40
1.0
 10
128.3230328748
 20
132.7669366708
 30
0.0
 10
128.3231145712
 20
132.5612763254
 30
0.0
 10
128.3987948155
 20
132.13256117
 30
0.0
 10
128.7239753673
 20
131.5351983146
 30
0.0
 10
129.2378313282
 20
130.9953545659
 30
0.0
 10
129.6676707702
 20
130.6991822475
 30
0.0
 10
129.9045589703
 20
130.5624178754
 30
0.0
  0
SPLINE
  5
391
100
AcDbEntity
  8
0
100
AcDbSpline
 62
7
  6
BYLAYER
 70
0
 71
3
 72
11
 73
7
 74
0
 42
0.0000001
 43
0.0000001
 44
0.0000000001
 40
0.0
 40
0.0
 40
0.0
 40
0.0
 40
0.2372531816
 40
0.5000006935
 40
0.7627478297
 40
1.0
 40
1.0
 40
1.0
 40
1.0
 10
161.0880263109
 20
103.6997366441
 30
0.0
 10
161.2888159515
 20
103.5838133136
 30
0.0
 10
161.7557197771
 20
103.4146271135
 30
0.0
 10
162.5022425065
 20
103.3337420327
 30
0.0
 10
163.2487638519
 20
103.4146306804
 30
0.0
 10
163.7156654869
 20
103.5838191585
 30
0.0
 10
163.9164534356
 20
103.6997434428
 30
0.0
  0
SPLINE
  5
392
100
AcDbEntity
  8
0
100
AcDbSpline
 62
7
  6
BYLAYER
 70
0
 71
3
 72
9
 73
5
 74
0
 42
0.0000001
 43
0.0000001
 44
0.0000000001
 40
0.0
 40
0.0
 40
0.0
 40
0.0
 40
0.5508366897
 40
1.0
 40
1.0
 40
1.0
 40
1.0
 10
174.1694472994
 20
112.8852583249
 30
0.0
 10
174.3348708551
 20
112.7897531511
 30
0.0
 10
174.6191203771
 20
112.5721927454
 30
0.0
 10
174.7551277537
 20
112.224526338
 30
0.0
 10
174.755127719
 20
112.068770018
 30
0.0
  0
SPLINE
  5
393
100
AcDbEntity
  8
0
100
AcDbSpline
 62
7
  6
BYLAYER
 70
0
 71
3
 72
9
 73
5
 74
0
 42
0.0000001
 43
0.0000001
 44
0.0000000001
 40
0.0
 40
0.0
 40
0.0
 40
0.0
 40
0.5508423954
 40
1.0
 40
1.0
 40
1.0
 40
1.0
 10
74.2449595755
 20
99.1824521707
 30
0.0
 10
74.079537963
 20
99.0869465283
 30
0.0
 10
73.7490297549
 20
98.9496000856
 30
0.0
 10
73.3798813068
 20
99.0055545093
 30
0.0
 10
73.2450397901
 20
99.0835051973
 30
0.0
  0
SPLINE
  5
394
100
AcDbEntity
  8
0
100
AcDbSpline
 62
7
  6
BYLAYER
 70
0
 71
3
 72
11
 73
7
 74
0
 42
0.0000001
 43
0.0000001
 44
0.0000000001
 40
0.0
 40
0.0
 40
0.0
 40
0.0
 40
0.2949831699
 40
0.5567864454
 40
0.7877326628
 40
1.0
 40
1.0
 40
1.0
 40
1.0
 10
71.282422607
 20
101.0671659253
 30
0.0
 10
71.2723795827
 20
100.9477697789
 30
0.0
 10
71.2718753783
 20
100.7200514297
 30
0.0
 10
71.3392896211
 20
100.4041458985
 30
0.0
 10
71.4758414771
 20
100.1471172196
 30
0.0
 10
71.6147537738
 20
100.0247862424
 30
0.0
 10
71.6893984139
 20
99.9816348919
 30
0.0
  0
SPLINE
  5
395
100
AcDbEntity
  8
0
100
AcDbSpline
 62
7
  6
BYLAYER
 70
0
 71
3
 72
9
 73
5
 74
0
 42
0.0000001
 43
0.0000001
 44
0.0000000001
 40
0.0
 40
0.0
 40
0.0
 40
0.0
 40
0.4880693247
 40
1.0
 40
1.0
 40
1.0
 40
1.0
 10
79.6220812038
 20
158.1356505502
 30
0.0
 10
79.2616578053
 20
157.9275612462
 30
0.0
 10
78.6566149252
 20
157.281569027
 30
0.0
 10
78.3113402506
 20
156.476716569
 30
0.0
 10
78.2392226705
 20
156.0461877359
 30
0.0
  0
SPLINE
  5
396
100
AcDbEntity
  8
0
100
AcDbSpline
 62
7
  6
BYLAYER
 70
0
 71
3
 72
9
 73
5
 74
0
 42
0.0000001
 43
0.0000001
 44
0.0000000001
 40
0.0
 40
0.0
 40
0.0
 40
0.0
 40
0.2542045023
 40
1.0
 40
1.0
 40
1.0
 40
1.0
 10
78.2392226705
 20
156.0461877359
 30
0.0
 10
77.4633227242
 20
151.4142062137
 30
0.0
 10
74.5890690531
 20
133.163562775
 30
0.0
 10
72.437352577
 20
114.7975109001
 30
0.0
 10
71.282422607
 20
101.0671659253
 30
0.0
  0
SPLINE
  5
397
100
AcDbEntity
  8
0
100
AcDbSpline
 62
7
  6
BYLAYER
 70
0
 71
3
 72
9
 73
5
 74
0
 42
0.0000001
 43
0.0000001
 44
0.0000000001
 40
0.0
 40
0.0
 40
0.0
 40
0.0
 40
0.5508423954
 40
1.0
 40
1.0
 40
1.0
 40
1.0
 10
38.8541178318
 20
119.6149019345
 30
0.0
 10
38.6886962194
 20
119.5193962921
 30
0.0
 10
38.3581880113
 20
119.3820498494
 30
0.0
 10
37.9890395632
 20
119.438004273
 30
0.0
 10
37.8541980465
 20
119.515954961
 30
0.0
  0
SPLINE
  5
398
100
AcDbEntity
  8
0
100
AcDbSpline
 62
7
  6
BYLAYER
 70
0
 71
3
 72
11
 73
7
 74
0
 42
0.0000001
 43
0.0000001
 44
0.0000000001
 40
0.0
 40
0.0
 40
0.0
 40
0.0
 40
0.2949831699
 40
0.5567864454
 40
0.7877326628
 40
1.0
 40
1.0
 40
1.0
 40
1.0
 10
35.8915808634
 20
121.499615689
 30
0.0
 10
35.8815378391
 20
121.3802195426
 30
0.0
 10
35.8810336347
 20
121.1525011934
 30
0.0
 10
35.9484478775
 20
120.8365956622
 30
0.0
 10
36.0849997335
 20
120.5795669834
 30
0.0
 10
36.2239120302
 20
120.4572360062
 30
0.0
 10
36.2985566703
 20
120.4140846557
 30
0.0
  0
SPLINE
  5
399
100
AcDbEntity
  8
0
100
AcDbSpline
 62
7
  6
BYLAYER
 70
0
 71
3
 72
9
 73
5
 74
0
 42
0.0000001
 43
0.0000001
 44
0.0000000001
 40
0.0
 40
0.0
 40
0.0
 40
0.0
 40
0.4880693247
 40
1.0
 40
1.0
 40
1.0
 40
1.0
 10
44.2312394602
 20
178.568100314
 30
0.0
 10
43.8708160617
 20
178.3600110099
 30
0.0
 10
43.2657731816
 20
177.7140187907
 30
0.0
 10
42.920498507
 20
176.9091663327
 30
0.0
 10
42.8483809269
 20
176.4786374997
 30
0.0
  0
SPLINE
  5
39A
100
AcDbEntity
  8
0
100
AcDbSpline
 62
7
  6
BYLAYER
 70
0
 71
3
 72
9
 73
5
 74
0
 42
0.0000001
 43
0.0000001
 44
0.0000000001
 40
0.0
 40
0.0
 40
0.0
 40
0.0
 40
0.2542045023
 40
1.0
 40
1.0
 40
1.0
 40
1.0
 10
42.8483809269
 20
176.4786374997
 30
0.0
 10
42.0724809806
 20
171.8466559775
 30
0.0
 10
39.1982273095
 20
153.5960125387
 30
0.0
 10
37.0465108334
 20
135.2299606638
 30
0.0
 10
35.8915808634
 20
121.499615689
 30
0.0
  0
SPLINE
  5
39B
100
AcDbEntity
  8
0
100
AcDbSpline
 62
7
  6
BYLAYER
 70
0
 71
3
 72
11
 73
7
 74
0
 42
0.0000001
 43
0.0000001
 44
0.0000000001
 40
0.0
 40
0.0
 40
0.0
 40
0.0
 40
0.2253712256
 40
0.4875908894
 40
0.7566884557
 40
1.0
 40
1.0
 40
1.0
 40
1.0
 10
162.6898098496
 20
109.8927833182
 30
0.0
 10
162.9676043044
 20
110.1237131522
 30
0.0
 10
163.6889161589
 20
110.4757109184
 30
0.0
 10
164.8950125948
 20
110.6814324846
 30
0.0
 10
166.1446802814
 20
110.5945349035
 30
0.0
 10
166.9374107909
 20
110.3245678255
 30
0.0
 10
167.2751642788
 20
110.1295701698
 30
0.0
  0
SPLINE
  5
39C
100
AcDbEntity
  8
0
100
AcDbSpline
 62
7
  6
BYLAYER
 70
0
 71
3
 72
9
 73
5
 74
0
 42
0.0000001
 43
0.0000001
 44
0.0000000001
 40
0.0
 40
0.0
 40
0.0
 40
0.0
 40
0.4820548494
 40
1.0
 40
1.0
 40
1.0
 40
1.0
 10
148.7127844598
 20
327.2112195881
 30
0.0
 10
133.3393789914
 20
320.9071912588
 30
0.0
 10
102.4074655385
 20
305.4272780197
 30
0.0
 10
73.6539130584
 20
286.271598623
 30
0.0
 10
59.3348594359
 20
275.6091585388
 30
0.0
  0
SPLINE
  5
39D
100
AcDbEntity
  8
0
100
AcDbSpline
 62
7
  6
BYLAYER
 70
0
 71
3
 72
11
 73
7
 74
0
 42
0.0000001
 43
0.0000001
 44
0.0000000001
 40
0.0
 40
0.0
 40
0.0
 40
0.0
 40
0.2176891325
 40
0.4508844275
 40
0.7106194794
 40
1.0
 40
1.0
 40
1.0
 40
1.0
 10
162.1539815778
 20
110.5378424153
 30
0.0
 10
162.1538951049
 20
110.4236291769
 30
0.0
 10
162.1960759443
 20
110.185472512
 30
0.0
 10
162.3766079669
 20
109.8534027738
 30
0.0
 10
162.662418141
 20
109.5537447501
 30
0.0
 10
162.9010544412
 20
109.3890223111
 30
0.0
 10
163.0325412555
 20
109.3131100808
 30
0.0
  0
SPLINE
  5
39E
100
AcDbEntity
  8
0
100
AcDbSpline
 62
7
  6
BYLAYER
 70
0
 71
3
 72
11
 73
7
 74
0
 42
0.0000001
 43
0.0000001
 44
0.0000000001
 40
0.0
 40
0.0
 40
0.0
 40
0.0
 40
0.2253712256
 40
0.4875908894
 40
0.7566884557
 40
1.0
 40
1.0
 40
1.0
 40
1.0
 10
257.5831448037
 20
164.6791487677
 30
0.0
 10
257.8609392585
 20
164.9100786018
 30
0.0
 10
258.582251113
 20
165.2620763679
 30
0.0
 10
259.7883475489
 20
165.4677979342
 30
0.0
 10
261.0380152355
 20
165.380900353
 30
0.0
 10
261.830745745
 20
165.110933275
 30
0.0
 10
262.1684992329
 20
164.9159356194
 30
0.0
  0
SPLINE
  5
39F
100
AcDbEntity
  8
0
100
AcDbSpline
 62
7
  6
BYLAYER
 70
0
 71
3
 72
11
 73
7
 74
0
 42
0.0000001
 43
0.0000001
 44
0.0000000001
 40
0.0
 40
0.0
 40
0.0
 40
0.0
 40
0.2176891325
 40
0.4508844275
 40
0.7106194794
 40
1.0
 40
1.0
 40
1.0
 40
1.0
 10
257.0473165319
 20
165.3242078649
 30
0.0
 10
257.047230059
 20
165.2099946264
 30
0.0
 10
257.0894108984
 20
164.9718379616
 30
0.0
 10
257.269942921
 20
164.6397682234
 30
0.0
 10
257.5557530951
 20
164.3401101996
 30
0.0
 10
257.7943893953
 20
164.1753877606
 30
0.0
 10
257.9258762096
 20
164.0994755304
 30
0.0
  0
SPLINE
  5
3A0
100
AcDbEntity
  8
0
100
AcDbSpline
 62
7
  6
BYLAYER
 70
0
 71
3
 72
11
 73
7
 74
0
 42
0.0000001
 43
0.0000001
 44
0.0000000001
 40
0.0
 40
0.0
 40
0.0
 40
0.0
 40
0.2436855668
 40
0.513225062
 40
0.7753822438
 40
1.0
 40
1.0
 40
1.0
 40
1.0
 10
215.2874945122
 20
170.0603081683
 30
0.0
 10
215.2874945122
 20
169.1116340527
 30
0.0
 10
214.8895612149
 20
167.11332272
 30
0.0
 10
213.5474022558
 20
164.3792551323
 30
0.0
 10
211.6421661011
 20
162.1003512588
 30
0.0
 10
210.0196464018
 20
161.022795857
 30
0.0
 10
209.1958482852
 20
160.7295270387
 30
0.0
  0
SPLINE
  5
3A1
100
AcDbEntity
  8
0
100
AcDbSpline
 62
7
  6
BYLAYER
 70
0
 71
3
 72
9
 73
5
 74
0
 42
0.0000001
 43
0.0000001
 44
0.0000000001
 40
0.0
 40
0.0
 40
0.0
 40
0.0
 40
0.2404952745
 40
1.0
 40
1.0
 40
1.0
 40
1.0
 10
215.1958233048
 20
171.1218463057
 30
0.0
 10
215.2112604549
 20
171.0377692671
 30
0.0
 10
215.2665313405
 20
170.6865505614
 30
0.0
 10
215.2874945122
 20
170.330269173
 30
0.0
 10
215.2874945122
 20
170.0603081683
 30
0.0
  0
SPLINE
  5
3A2
100
AcDbEntity
  8
0
100
AcDbSpline
 62
7
  6
BYLAYER
 70
0
 71
3
 72
9
 73
5
 74
0
 42
0.0000001
 43
0.0000001
 44
0.0000000001
 40
0.0
 40
0.0
 40
0.0
 40
0.0
 40
0.2443000366
 40
1.0
 40
1.0
 40
1.0
 40
1.0
 10
271.3364327133
 20
265.7339741867
 30
0.0
 10
272.1225194871
 20
261.9488685605
 30
0.0
 10
275.1079910206
 20
246.4074449208
 30
0.0
 10
277.1839449456
 20
230.6947675824
 30
0.0
 10
278.2932327769
 20
218.7879252045
 30
0.0
  0
SPLINE
  5
3A3
100
AcDbEntity
  8
0
100
AcDbSpline
 62
7
  6
BYLAYER
 70
0
 71
3
 72
11
 73
7
 74
0
 42
0.0000001
 43
0.0000001
 44
0.0000000001
 40
0.0
 40
0.0
 40
0.0
 40
0.0
 40
0.2306823751
 40
0.493204684
 40
0.7594703394
 40
1.0
 40
1.0
 40
1.0
 40
1.0
 10
278.2932327769
 20
218.7879252045
 30
0.0
 10
278.3152839012
 20
218.5512334692
 30
0.0
 10
278.2548877561
 20
218.0354967303
 30
0.0
 10
277.9615240666
 20
217.3030201359
 30
0.0
 10
277.5040323889
 20
216.6476126009
 30
0.0
 10
277.1009942738
 20
216.3007393087
 30
0.0
 10
276.8863372037
 20
216.1768077312
 30
0.0
  0
SPLINE
  5
3A4
100
AcDbEntity
  8
0
100
AcDbSpline
 62
7
  6
BYLAYER
 70
0
 71
3
 72
12
 73
8
 74
0
 42
0.0000001
 43
0.0000001
 44
0.0000000001
 40
0.0
 40
0.0
 40
0.0
 40
0.0
 40
0.3070828916
 40
0.5773238678
 40
0.8038859047
 40
0.9042576955
 40
1.0
 40
1.0
 40
1.0
 40
1.0
 10
252.7875750751
 20
197.6296659325
 30
0.0
 10
253.3162739082
 20
197.7206930896
 30
0.0
 10
254.2986902192
 20
197.9849053681
 30
0.0
 10
255.5507139024
 20
198.6496939062
 30
0.0
 10
256.2970946414
 20
199.4215531959
 30
0.0
 10
256.5944575265
 20
200.1055478739
 30
0.0
 10
256.6435306961
 20
200.449851288
 30
0.0
 10
256.6434642526
 20
200.6171143153
 30
0.0
  0
SPLINE
  5
3A5
100
AcDbEntity
  8
0
100
AcDbSpline
 62
7
  6
BYLAYER
 70
0
 71
3
 72
11
 73
7
 74
0
 42
0.0000001
 43
0.0000001
 44
0.0000000001
 40
0.0
 40
0.0
 40
0.0
 40
0.0
 40
0.2226830199
 40
0.4674064361
 40
0.7288776784
 40
1.0
 40
1.0
 40
1.0
 40
1.0
 10
272.0032537296
 20
246.9549714345
 30
0.0
 10
272.1773997049
 20
245.2256066542
 30
0.0
 10
272.1502762181
 20
241.5522950495
 30
0.0
 10
271.1720689079
 20
235.9281444687
 30
0.0
 10
269.3025350113
 20
230.137621265
 30
0.0
 10
267.5286843838
 20
226.3642150087
 30
0.0
 10
266.5138830941
 20
224.5072123623
 30
0.0
  0
SPLINE
  5
3A6
100
AcDbEntity
  8
0
100
AcDbSpline
 62
7
  6
BYLAYER
 70
0
 71
3
 72
11
 73
7
 74
0
 42
0.0000001
 43
0.0000001
 44
0.0000000001
 40
0.0
 40
0.0
 40
0.0
 40
0.0
 40
0.2372446848
 40
0.5000016179
 40
0.7627576706
 40
1.0
 40
1.0
 40
1.0
 40
1.0
 10
98.9330508532
 20
193.6364679349
 30
0.0
 10
98.9330508532
 20
193.4625861055
 30
0.0
 10
98.8678150987
 20
193.0958899048
 30
0.0
 10
98.6405087886
 20
192.5806194877
 30
0.0
 10
98.3079280711
 20
192.1261309032
 30
0.0
 10
98.0229799086
 20
191.8862877408
 30
0.0
 10
97.8723950974
 20
191.7993480784
 30
0.0
  0
SPLINE
  5
3A7
100
AcDbEntity
  8
0
100
AcDbSpline
 62
7
  6
BYLAYER
 70
0
 71
3
 72
12
 73
8
 74
0
 42
0.0000001
 43
0.0000001
 44
0.0000000001
 40
0.0
 40
0.0
 40
0.0
 40
0.0
 40
0.2937805881
 40
0.5554025047
 40
0.7872834528
 40
0.8952409611
 40
1.0
 40
1.0
 40
1.0
 40
1.0
 10
77.5724016542
 20
211.4916620622
 30
0.0
 10
77.4158231312
 20
209.7559514644
 30
0.0
 10
77.3760878466
 20
206.4400079769
 30
0.0
 10
78.2648287727
 20
201.8176265589
 30
0.0
 10
79.847886402
 20
198.5536653226
 30
0.0
 10
81.5650565844
 20
196.5363139426
 30
0.0
 10
82.5467383539
 20
195.7302075851
 30
0.0
 10
83.0617722897
 20
195.3824443822
 30
0.0
  0
SPLINE
  5
3A8
100
AcDbEntity
  8
0
100
AcDbSpline
 62
7
  6
BYLAYER
 70
0
 71
3
 72
12
 73
8
 74
0
 42
0.0000001
 43
0.0000001
 44
0.0000000001
 40
0.0
 40
0.0
 40
0.0
 40
0.0
 40
0.2937805881
 40
0.5554025047
 40
0.7872834528
 40
0.8952409611
 40
1.0
 40
1.0
 40
1.0
 40
1.0
 10
106.4224784402
 20
194.8354392777
 30
0.0
 10
106.2658999172
 20
193.09972868
 30
0.0
 10
106.2261646326
 20
189.7837851924
 30
0.0
 10
107.1149055587
 20
185.1614037745
 30
0.0
 10
108.697963188
 20
181.8974425382
 30
0.0
 10
110.4151333704
 20
179.8800911582
 30
0.0
 10
111.3968151399
 20
179.0739848007
 30
0.0
 10
111.9118490757
 20
178.7262215978
 30
0.0
  0
SPLINE
  5
3A9
100
AcDbEntity
  8
0
100
AcDbSpline
 62
7
  6
BYLAYER
 70
0
 71
3
 72
9
 73
5
 74
0
 42
0.0000001
 43
0.0000001
 44
0.0000000001
 40
0.0
 40
0.0
 40
0.0
 40
0.0
 40
0.5222515739
 40
1.0
 40
1.0
 40
1.0
 40
1.0
 10
275.1791895242
 20
278.3372932462
 30
0.0
 10
269.5742889648
 20
282.7416021364
 30
0.0
 10
258.2977360574
 20
290.514976867
 30
0.0
 10
245.9416190165
 20
296.4925643917
 30
0.0
 10
239.8237032669
 20
298.7493309723
 30
0.0
  0
SPLINE
  5
3AA
100
AcDbEntity
  8
0
100
AcDbSpline
 62
7
  6
BYLAYER
 70
0
 71
3
 72
12
 73
8
 74
0
 42
0.0000001
 43
0.0000001
 44
0.0000000001
 40
0.0
 40
0.0
 40
0.0
 40
0.0
 40
0.2937805881
 40
0.5554025047
 40
0.7872834528
 40
0.8952409611
 40
1.0
 40
1.0
 40
1.0
 40
1.0
 10
141.8133201838
 20
174.402989514
 30
0.0
 10
141.6567416608
 20
172.6672789162
 30
0.0
 10
141.6170063762
 20
169.3513354287
 30
0.0
 10
142.5057473023
 20
164.7289540107
 30
0.0
 10
144.0888049316
 20
161.4649927745
 30
0.0
 10
145.805975114
 20
159.4476413944
 30
0.0
 10
146.7876568835
 20
158.6415350369
 30
0.0
 10
147.3026908193
 20
158.293771834
 30
0.0
  0
SPLINE
  5
3AB
100
AcDbEntity
  8
0
100
AcDbSpline
 62
7
  6
BYLAYER
 70
0
 71
3
 72
9
 73
5
 74
0
 42
0.0000001
 43
0.0000001
 44
0.0000000001
 40
0.0
 40
0.0
 40
0.0
 40
0.0
 40
0.5222515739
 40
1.0
 40
1.0
 40
1.0
 40
1.0
 10
239.7883477806
 20
298.76974301
 30
0.0
 10
234.1834472212
 20
303.1740519001
 30
0.0
 10
222.9068943138
 20
310.9474266308
 30
0.0
 10
210.5507772729
 20
316.9250141554
 30
0.0
 10
204.4328615233
 20
319.181780736
 30
0.0
  0
SPLINE
  5
3AC
100
AcDbEntity
  8
0
100
AcDbSpline
 62
7
  6
BYLAYER
 70
0
 71
3
 72
15
 73
11
 74
0
 42
0.0000001
 43
0.0000001
 44
0.0000000001
 40
0.0
 40
0.0
 40
0.0
 40
0.0
 40
0.1288285209
 40
0.2705736297
 40
0.4178862126
 40
0.5623851892
 40
0.6962029038
 40
0.813594138
 40
0.9130657578
 40
1.0
 40
1.0
 40
1.0
 40
1.0
 10
129.9045589703
 20
130.5624178754
 30
0.0
 10
130.304286295
 20
130.3316404178
 30
0.0
 10
131.2093438898
 20
129.9582268315
 30
0.0
 10
132.6843531723
 20
129.6631021718
 30
0.0
 10
134.2445685595
 20
129.6199605464
 30
0.0
 10
135.762089847
 20
129.8331030326
 30
0.0
 10
137.1158218471
 20
130.2853749354
 30
0.0
 10
138.2002010081
 20
130.9461001163
 30
0.0
 10
138.934759078
 20
131.7814932444
 30
0.0
 10
139.1229302339
 20
132.4554707155
 30
0.0
 10
139.1228065077
 20
132.7669359419
 30
0.0
  0
SPLINE
  5
3AD
100
AcDbEntity
  8
0
100
AcDbSpline
 62
7
  6
BYLAYER
 70
0
 71
3
 72
12
 73
8
 74
0
 42
0.0000001
 43
0.0000001
 44
0.0000000001
 40
0.0
 40
0.0
 40
0.0
 40
0.0
 40
0.2937805881
 40
0.5554025047
 40
0.7872834528
 40
0.8952409611
 40
1.0
 40
1.0
 40
1.0
 40
1.0
 10
112.9632433978
 20
191.0592122984
 30
0.0
 10
112.8066648748
 20
189.3235017007
 30
0.0
 10
112.7669295902
 20
186.0075582131
 30
0.0
 10
113.6556705163
 20
181.3851767951
 30
0.0
 10
115.2387281456
 20
178.1212155589
 30
0.0
 10
116.955898328
 20
176.1038641789
 30
0.0
 10
117.9375800975
 20
175.2977578214
 30
0.0
 10
118.4526140334
 20
174.9499946184
 30
0.0
  0
SPLINE
  5
3AE
100
AcDbEntity
  8
0
100
AcDbSpline
 62
7
  6
BYLAYER
 70
0
 71
3
 72
11
 73
7
 74
0
 42
0.0000001
 43
0.0000001
 44
0.0000000001
 40
0.0
 40
0.0
 40
0.0
 40
0.0
 40
0.2372446848
 40
0.5000016179
 40
0.7627576706
 40
1.0
 40
1.0
 40
1.0
 40
1.0
 10
134.3238925968
 20
173.2040181712
 30
0.0
 10
134.3238925968
 20
173.0301363418
 30
0.0
 10
134.2586568423
 20
172.663440141
 30
0.0
 10
134.0313505322
 20
172.1481697239
 30
0.0
 10
133.6987698147
 20
171.6936811395
 30
0.0
 10
133.4138216522
 20
171.453837977
 30
0.0
 10
133.263236841
 20
171.3668983147
 30
0.0
  0
SPLINE
  5
3AF
100
AcDbEntity
  8
0
100
AcDbSpline
 62
7
  6
BYLAYER
 70
0
 71
3
 72
9
 73
5
 74
0
 42
0.0000001
 43
0.0000001
 44
0.0000000001
 40
0.0
 40
0.0
 40
0.0
 40
0.0
 40
0.4820548494
 40
1.0
 40
1.0
 40
1.0
 40
1.0
 10
184.1036262034
 20
306.7787698244
 30
0.0
 10
168.730220735
 20
300.4747414951
 30
0.0
 10
137.7983072821
 20
284.994828256
 30
0.0
 10
109.044754802
 20
265.8391488593
 30
0.0
 10
94.7257011795
 20
255.176708775
 30
0.0
  0
SPLINE
  5
3B0
100
AcDbEntity
  8
0
100
AcDbSpline
 62
7
  6
BYLAYER
 70
0
 71
3
 72
12
 73
8
 74
0
 42
0.0000001
 43
0.0000001
 44
0.0000000001
 40
0.0
 40
0.0
 40
0.0
 40
0.0
 40
0.2937805881
 40
0.5554025047
 40
0.7872834528
 40
0.8952409611
 40
1.0
 40
1.0
 40
1.0
 40
1.0
 10
71.0316366966
 20
215.2678890415
 30
0.0
 10
70.8750581735
 20
213.5321784437
 30
0.0
 10
70.835322889
 20
210.2162349562
 30
0.0
 10
71.7240638151
 20
205.5938535382
 30
0.0
 10
73.3071214444
 20
202.3298923019
 30
0.0
 10
75.0242916268
 20
200.3125409219
 30
0.0
 10
76.0059733963
 20
199.5064345644
 30
0.0
 10
76.5210073322
 20
199.1586713615
 30
0.0
  0
SPLINE
  5
3B1
100
AcDbEntity
  8
0
100
AcDbSpline
 62
7
  6
BYLAYER
 70
0
 71
3
 72
9
 73
5
 74
0
 42
0.0000001
 43
0.0000001
 44
0.0000000001
 40
0.0
 40
0.0
 40
0.0
 40
0.0
 40
0.5222515739
 40
1.0
 40
1.0
 40
1.0
 40
1.0
 10
204.397506037
 20
319.2021927737
 30
0.0
 10
198.7926054775
 20
323.6065016638
 30
0.0
 10
187.5160525702
 20
331.3798763945
 30
0.0
 10
175.1599355293
 20
337.3574639191
 30
0.0
 10
169.0420197797
 20
339.6142304997
 30
0.0
  0
SPLINE
  5
3B2
100
AcDbEntity
  8
0
100
AcDbSpline
 62
7
  6
BYLAYER
 70
0
 71
3
 72
12
 73
8
 74
0
 42
0.0000001
 43
0.0000001
 44
0.0000000001
 40
0.0
 40
0.0
 40
0.0
 40
0.0
 40
0.2937805881
 40
0.5554025047
 40
0.7872834528
 40
0.8952409611
 40
1.0
 40
1.0
 40
1.0
 40
1.0
 10
42.1815599106
 20
231.9241118259
 30
0.0
 10
42.0249813875
 20
230.1884012282
 30
0.0
 10
41.985246103
 20
226.8724577406
 30
0.0
 10
42.8739870291
 20
222.2500763226
 30
0.0
 10
44.4570446584
 20
218.9861150864
 30
0.0
 10
46.1742148408
 20
216.9687637063
 30
0.0
 10
47.1558966103
 20
216.1626573488
 30
0.0
 10
47.6709305461
 20
215.8148941459
 30
0.0
  0
SPLINE
  5
3B3
100
AcDbEntity
  8
0
100
AcDbSpline
 62
7
  6
BYLAYER
 70
0
 71
3
 72
11
 73
7
 74
0
 42
0.0000001
 43
0.0000001
 44
0.0000000001
 40
0.0
 40
0.0
 40
0.0
 40
0.0
 40
0.2372446848
 40
0.5000016179
 40
0.7627576706
 40
1.0
 40
1.0
 40
1.0
 40
1.0
 10
63.5422091096
 20
214.0689176987
 30
0.0
 10
63.5422091096
 20
213.8950358693
 30
0.0
 10
63.4769733551
 20
213.5283396685
 30
0.0
 10
63.249667045
 20
213.0130692514
 30
0.0
 10
62.9170863275
 20
212.558580667
 30
0.0
 10
62.632138165
 20
212.3187375045
 30
0.0
 10
62.4815533538
 20
212.2317978422
 30
0.0
  0
SPLINE
  5
3B4
100
AcDbEntity
  8
0
100
AcDbSpline
 62
7
  6
BYLAYER
 70
0
 71
3
 72
13
 73
9
 74
0
 42
0.0000001
 43
0.0000001
 44
0.0000000001
 40
0.0
 40
0.0
 40
0.0
 40
0.0
 40
0.0871392705
 40
0.1868475657
 40
0.3045112729
 40
0.4386449747
 40
0.7300488254
 40
1.0
 40
1.0
 40
1.0
 40
1.0
 10
238.1151681231
 20
190.0439900988
 30
0.0
 10
238.1976062326
 20
189.9964583344
 30
0.0
 10
238.4046471997
 20
189.9432779225
 30
0.0
 10
238.7378879156
 20
190.0100544512
 30
0.0
 10
239.0784493703
 20
190.1959248849
 30
0.0
 10
239.5251573208
 20
190.5920936822
 30
0.0
 10
239.9447528724
 20
191.2407078975
 30
0.0
 10
240.1068627501
 20
191.8517240239
 30
0.0
 10
240.1068627501
 20
192.1465209669
 30
0.0
  0
SPLINE
  5
3B5
100
AcDbEntity
  8
0
100
AcDbSpline
 62
7
  6
BYLAYER
 70
0
 71
3
 72
9
 73
5
 74
0
 42
0.0000001
 43
0.0000001
 44
0.0000000001
 40
0.0
 40
0.0
 40
0.0
 40
0.0
 40
0.2557696416
 40
1.0
 40
1.0
 40
1.0
 40
1.0
 10
216.2774398843
 20
170.6318499837
 30
0.0
 10
216.2774398843
 20
170.7032303793
 30
0.0
 10
216.2737327834
 20
170.9822911973
 30
0.0
 10
216.2549633902
 20
171.2612118453
 30
0.0
 10
216.2315177287
 20
171.4675847069
 30
0.0
  0
SPLINE
  5
3B6
100
AcDbEntity
  8
0
100
AcDbSpline
 62
7
  6
BYLAYER
 70
0
 71
3
 72
11
 73
7
 74
0
 42
0.0000001
 43
0.0000001
 44
0.0000000001
 40
0.0
 40
0.0
 40
0.0
 40
0.0
 40
0.282518643
 40
0.5392251323
 40
0.775381461
 40
1.0
 40
1.0
 40
1.0
 40
1.0
 10
216.2315177287
 20
171.4675847069
 30
0.0
 10
216.1921245651
 20
171.8143303031
 30
0.0
 10
216.0659100468
 20
172.4724414806
 30
0.0
 10
215.7022790556
 20
173.3664820628
 30
0.0
 10
215.1792774912
 20
174.0935565754
 30
0.0
 10
214.7261784203
 20
174.4529308235
 30
0.0
 10
214.485903555
 20
174.5916746384
 30
0.0
  0
SPLINE
  5
3B7
100
AcDbEntity
  8
0
100
AcDbSpline
 62
7
  6
BYLAYER
 70
0
 71
3
 72
9
 73
5
 74
0
 42
0.0000001
 43
0.0000001
 44
0.0000000001
 40
0.0
 40
0.0
 40
0.0
 40
0.0
 40
0.2447349784
 40
1.0
 40
1.0
 40
1.0
 40
1.0
 10
129.1176847909
 20
131.1288417108
 30
0.0
 10
129.1412703616
 20
131.1510898065
 30
0.0
 10
129.2389155519
 20
131.2406412633
 30
0.0
 10
129.3414722448
 20
131.3248046417
 30
0.0
 10
129.4211042398
 20
131.3853903052
 30
0.0
  0
SPLINE
  5
3B8
100
AcDbEntity
  8
0
100
AcDbSpline
 62
7
  6
BYLAYER
 70
0
 71
3
 72
11
 73
7
 74
0
 42
0.0000001
 43
0.0000001
 44
0.0000000001
 40
0.0
 40
0.0
 40
0.0
 40
0.0
 40
0.2282924585
 40
0.4907092217
 40
0.7582580785
 40
1.0
 40
1.0
 40
1.0
 40
1.0
 10
129.4211042398
 20
131.3853903052
 30
0.0
 10
129.9351538449
 20
131.7764898418
 30
0.0
 10
131.2285161164
 20
132.36633077
 30
0.0
 10
133.3661794758
 20
132.6998344746
 30
0.0
 10
135.5614019492
 20
132.5268999572
 30
0.0
 10
136.948943654
 20
132.0474231189
 30
0.0
 10
137.5412804122
 20
131.7054450687
 30
0.0
  0
SPLINE
  5
3B9
100
AcDbEntity
  8
0
100
AcDbSpline
 62
7
  6
BYLAYER
 70
0
 71
3
 72
9
 73
5
 74
0
 42
0.0000001
 43
0.0000001
 44
0.0000000001
 40
0.0
 40
0.0
 40
0.0
 40
0.0
 40
0.2478463994
 40
1.0
 40
1.0
 40
1.0
 40
1.0
 10
113.7225450223
 20
177.7436573057
 30
0.0
 10
113.6022913042
 20
177.8349076428
 30
0.0
 10
113.1253400354
 20
178.2138493952
 30
0.0
 10
112.6822352358
 20
178.6351534565
 30
0.0
 10
112.3707404335
 20
178.9710684963
 30
0.0
  0
SPLINE
  5
3BA
100
AcDbEntity
  8
0
100
AcDbSpline
 62
7
  6
BYLAYER
 70
0
 71
3
 72
11
 73
7
 74
0
 42
0.0000001
 43
0.0000001
 44
0.0000000001
 40
0.0
 40
0.0
 40
0.0
 40
0.0
 40
0.214935401
 40
0.4508616161
 40
0.7123592019
 40
1.0
 40
1.0
 40
1.0
 40
1.0
 10
112.3707404335
 20
178.9710684963
 30
0.0
 10
111.6194543095
 20
179.7812531489
 30
0.0
 10
110.3009039446
 20
181.7294774095
 30
0.0
 10
109.0581016275
 20
185.2047028015
 30
0.0
 10
108.4853049692
 20
189.2219252364
 30
0.0
 10
108.5523784933
 20
192.0563828196
 30
0.0
 10
108.6852295607
 20
193.5290688633
 30
0.0
  0
SPLINE
  5
3BB
100
AcDbEntity
  8
0
100
AcDbSpline
 62
7
  6
BYLAYER
 70
0
 71
3
 72
11
 73
7
 74
0
 42
0.0000001
 43
0.0000001
 44
0.0000000001
 40
0.0
 40
0.0
 40
0.0
 40
0.0
 40
0.2122675143
 40
0.4432137828
 40
0.7050168075
 40
1.0
 40
1.0
 40
1.0
 40
1.0
 10
37.8541980465
 20
119.515954961
 30
0.0
 10
37.779553367
 20
119.5591063899
 30
0.0
 10
37.6406410264
 20
119.681437464
 30
0.0
 10
37.5040892634
 20
119.9384661721
 30
0.0
 10
37.4366748637
 20
120.2543716009
 30
0.0
 10
37.4371792335
 20
120.4820898716
 30
0.0
 10
37.4472222587
 20
120.6014860291
 30
0.0
  0
SPLINE
  5
3BC
100
AcDbEntity
  8
0
100
AcDbSpline
 62
7
  6
BYLAYER
 70
0
 71
3
 72
11
 73
7
 74
0
 42
0.0000001
 43
0.0000001
 44
0.0000000001
 40
0.0
 40
0.0
 40
0.0
 40
0.0
 40
0.2122675143
 40
0.4432137828
 40
0.7050168075
 40
1.0
 40
1.0
 40
1.0
 40
1.0
 10
73.2450397901
 20
99.0835051973
 30
0.0
 10
73.1703951107
 20
99.1266566262
 30
0.0
 10
73.03148277
 20
99.2489877002
 30
0.0
 10
72.894931007
 20
99.5060164084
 30
0.0
 10
72.8275166073
 20
99.8219218372
 30
0.0
 10
72.8280209771
 20
100.0496401078
 30
0.0
 10
72.8380640023
 20
100.1690362653
 30
0.0
  0
SPLINE
  5
3BD
100
AcDbEntity
  8
0
100
AcDbSpline
 62
7
  6
BYLAYER
 70
0
 71
3
 72
11
 73
7
 74
0
 42
0.0000001
 43
0.0000001
 44
0.0000000001
 40
0.0
 40
0.0
 40
0.0
 40
0.0
 40
0.2177643494
 40
0.4508943819
 40
0.7103680107
 40
1.0
 40
1.0
 40
1.0
 40
1.0
 10
256.6434642526
 20
200.6171143153
 30
0.0
 10
256.6433825563
 20
200.8227746607
 30
0.0
 10
256.5677023119
 20
201.2514898161
 30
0.0
 10
256.2425217601
 20
201.8488526715
 30
0.0
 10
255.7286657993
 20
202.3886964202
 30
0.0
 10
255.2988263572
 20
202.6848687386
 30
0.0
 10
255.0619381572
 20
202.8216331107
 30
0.0
  0
SPLINE
  5
3BE
100
AcDbEntity
  8
0
100
AcDbSpline
 62
7
  6
BYLAYER
 70
0
 71
3
 72
11
 73
7
 74
0
 42
0.0000001
 43
0.0000001
 44
0.0000000001
 40
0.0
 40
0.0
 40
0.0
 40
0.0
 40
0.2372423294
 40
0.4999983821
 40
0.7627553152
 40
1.0
 40
1.0
 40
1.0
 40
1.0
 10
89.0335517951
 20
197.0657420353
 30
0.0
 10
88.882966984
 20
196.978802373
 30
0.0
 10
88.5980188215
 20
196.7389592105
 30
0.0
 10
88.2654381039
 20
196.2844706261
 30
0.0
 10
88.0381317938
 20
195.769200209
 30
0.0
 10
87.9728960393
 20
195.4025040082
 30
0.0
 10
87.9728960393
 20
195.2286221788
 30
0.0
  0
SPLINE
  5
3BF
100
AcDbEntity
  8
0
100
AcDbSpline
 62
7
  6
BYLAYER
 70
0
 71
3
 72
9
 73
5
 74
0
 42
0.0000001
 43
0.0000001
 44
0.0000000001
 40
0.0
 40
0.0
 40
0.0
 40
0.0
 40
0.2476227745
 40
1.0
 40
1.0
 40
1.0
 40
1.0
 10
85.3245234102
 20
194.0760739677
 30
0.0
 10
85.1615730498
 20
194.1861019393
 30
0.0
 10
84.5166784852
 20
194.6497228746
 30
0.0
 10
83.9268711958
 20
195.1892383061
 30
0.0
 10
83.5206636475
 20
195.6272912807
 30
0.0
  0
SPLINE
  5
3C0
100
AcDbEntity
  8
0
100
AcDbSpline
 62
7
  6
BYLAYER
 70
0
 71
3
 72
11
 73
7
 74
0
 42
0.0000001
 43
0.0000001
 44
0.0000000001
 40
0.0
 40
0.0
 40
0.0
 40
0.0
 40
0.214935401
 40
0.4508616161
 40
0.7123592019
 40
1.0
 40
1.0
 40
1.0
 40
1.0
 10
83.5206636475
 20
195.6272912807
 30
0.0
 10
82.7693775235
 20
196.4374759334
 30
0.0
 10
81.4508271586
 20
198.3857001939
 30
0.0
 10
80.2080248415
 20
201.8609255859
 30
0.0
 10
79.6352281832
 20
205.8781480208
 30
0.0
 10
79.7023017073
 20
208.712605604
 30
0.0
 10
79.8351527747
 20
210.1852916477
 30
0.0
  0
SPLINE
  5
3C1
100
AcDbEntity
  8
0
100
AcDbSpline
 62
7
  6
BYLAYER
 70
0
 71
3
 72
11
 73
7
 74
0
 42
0.0000001
 43
0.0000001
 44
0.0000000001
 40
0.0
 40
0.0
 40
0.0
 40
0.0
 40
0.2897535679
 40
0.5490176997
 40
0.7821447452
 40
1.0
 40
1.0
 40
1.0
 40
1.0
 10
86.9122402835
 20
220.1498536719
 30
0.0
 10
86.9122402835
 20
219.7951111871
 30
0.0
 10
86.9658362907
 20
219.1206315924
 30
0.0
 10
87.2392423053
 20
218.194065217
 30
0.0
 10
87.6988361002
 20
217.4418779699
 30
0.0
 10
88.1311055827
 20
217.0788202476
 30
0.0
 10
88.3620679427
 20
216.9454226434
 30
0.0
  0
SPLINE
  5
3C2
100
AcDbEntity
  8
0
100
AcDbSpline
 62
7
  6
BYLAYER
 70
0
 71
3
 72
15
 73
11
 74
0
 42
0.0000001
 43
0.0000001
 44
0.0000000001
 40
0.0
 40
0.0
 40
0.0
 40
0.0
 40
0.128797199
 40
0.2706060152
 40
0.4178812454
 40
0.5623776954
 40
0.6961941591
 40
0.8135928083
 40
0.9130671863
 40
1.0
 40
1.0
 40
1.0
 40
1.0
 10
262.1684992329
 20
166.5489404536
 30
0.0
 10
261.9464854038
 20
166.6771172978
 30
0.0
 10
261.4435800424
 20
166.8844659014
 30
0.0
 10
260.6241902169
 20
167.0486266446
 30
0.0
 10
259.7573547007
 20
167.0723719676
 30
0.0
 10
258.9143798105
 20
166.9540827356
 30
0.0
 10
258.1622928543
 20
166.7028085415
 30
0.0
 10
257.5598713042
 20
166.335801049
 30
0.0
 10
257.1515963306
 20
165.8716884891
 30
0.0
 10
257.0474475369
 20
165.4972389506
 30
0.0
 10
257.0473165319
 20
165.3242078649
 30
0.0
  0
SPLINE
  5
3C3
100
AcDbEntity
  8
0
100
AcDbSpline
 62
7
  6
BYLAYER
 70
0
 71
3
 72
15
 73
11
 74
0
 42
0.0000001
 43
0.0000001
 44
0.0000000001
 40
0.0
 40
0.0
 40
0.0
 40
0.0
 40
0.128797199
 40
0.2706060152
 40
0.4178812454
 40
0.5623776954
 40
0.6961941591
 40
0.8135928083
 40
0.9130671863
 40
1.0
 40
1.0
 40
1.0
 40
1.0
 10
167.2751642788
 20
111.7625750041
 30
0.0
 10
167.0531504497
 20
111.8907518483
 30
0.0
 10
166.5502450883
 20
112.0981004518
 30
0.0
 10
165.7308552628
 20
112.262261195
 30
0.0
 10
164.8640197466
 20
112.2860065181
 30
0.0
 10
164.0210448564
 20
112.1677172861
 30
0.0
 10
163.2689579002
 20
111.916443092
 30
0.0
 10
162.6665363501
 20
111.5494355995
 30
0.0
 10
162.2582613765
 20
111.0853230396
 30
0.0
 10
162.1541125828
 20
110.7108735011
 30
0.0
 10
162.1539815778
 20
110.5378424153
 30
0.0
  0
SPLINE
  5
3C4
100
AcDbEntity
  8
0
100
AcDbSpline
 62
7
  6
BYLAYER
 70
0
 71
3
 72
11
 73
7
 74
0
 42
0.0000001
 43
0.0000001
 44
0.0000000001
 40
0.0
 40
0.0
 40
0.0
 40
0.0
 40
0.2372524156
 40
0.4999996414
 40
0.7627470637
 40
1.0
 40
1.0
 40
1.0
 40
1.0
 10
163.9164534356
 20
105.332748277
 30
0.0
 10
163.7156652793
 20
105.2168238729
 30
0.0
 10
163.24876329
 20
105.0476353545
 30
0.0
 10
162.5022416863
 20
104.966746867
 30
0.0
 10
161.7557192152
 20
105.0476321079
 30
0.0
 10
161.2888157439
 20
105.2168182677
 30
0.0
 10
161.0880263109
 20
105.3327414783
 30
0.0
  0
SPLINE
  5
3C5
100
AcDbEntity
  8
0
100
AcDbSpline
 62
7
  6
BYLAYER
 70
0
 71
3
 72
9
 73
5
 74
0
 42
0.0000001
 43
0.0000001
 44
0.0000000001
 40
0.0
 40
0.0
 40
0.0
 40
0.0
 40
0.4491641734
 40
1.0
 40
1.0
 40
1.0
 40
1.0
 10
174.755127719
 20
112.068770018
 30
0.0
 10
174.7551276844
 20
111.9130153866
 30
0.0
 10
174.6191238037
 20
111.5653532474
 30
0.0
 10
174.3348795716
 20
111.3477935062
 30
0.0
 10
174.1694590752
 20
111.2522885082
 30
0.0
  0
SPLINE
  5
3C6
100
AcDbEntity
  8
0
100
AcDbSpline
 62
7
  6
BYLAYER
 70
0
 71
3
 72
9
 73
5
 74
0
 42
0.0000001
 43
0.0000001
 44
0.0000000001
 40
0.0
 40
0.0
 40
0.0
 40
0.0
 40
0.260431142
 40
1.0
 40
1.0
 40
1.0
 40
1.0
 10
255.0619381572
 20
199.5556234422
 30
0.0
 10
255.1282882895
 20
199.517317042
 30
0.0
 10
255.3796138795
 20
199.364440582
 30
0.0
 10
255.6169231555
 20
199.1877728176
 30
0.0
 10
255.7792070601
 20
199.0428603092
 30
0.0
  0
SPLINE
  5
3C7
100
AcDbEntity
  8
0
100
AcDbSpline
 62
7
  6
BYLAYER
 70
0
 71
3
 72
9
 73
5
 74
0
 42
0.0000001
 43
0.0000001
 44
0.0000000001
 40
0.0
 40
0.0
 40
0.0
 40
0.0
 40
0.2642318061
 40
1.0
 40
1.0
 40
1.0
 40
1.0
 10
253.2652506469
 20
200.2420109577
 30
0.0
 10
253.4305493785
 20
200.2034888246
 30
0.0
 10
254.0510402815
 20
200.0380296664
 30
0.0
 10
254.6526372234
 20
199.7919281005
 30
0.0
 10
255.0619381572
 20
199.5556234422
 30
0.0
  0
SPLINE
  5
3C8
100
AcDbEntity
  8
0
100
AcDbSpline
 62
7
  6
BYLAYER
 70
0
 71
3
 72
9
 73
5
 74
0
 42
0.0000001
 43
0.0000001
 44
0.0000000001
 40
0.0
 40
0.0
 40
0.0
 40
0.0
 40
0.4777484261
 40
1.0
 40
1.0
 40
1.0
 40
1.0
 10
219.494467947
 20
287.0123115484
 30
0.0
 10
225.6123836966
 20
284.7555449679
 30
0.0
 10
237.9685007375
 20
278.7779574432
 30
0.0
 10
249.2450536449
 20
271.0045827125
 30
0.0
 10
254.8499542043
 20
266.6002738224
 30
0.0
  0
SPLINE
  5
3C9
100
AcDbEntity
  8
0
100
AcDbSpline
 62
7
  6
BYLAYER
 70
0
 71
3
 72
9
 73
5
 74
0
 42
0.0000001
 43
0.0000001
 44
0.0000000001
 40
0.0
 40
0.0
 40
0.0
 40
0.0
 40
0.5228549525
 40
1.0
 40
1.0
 40
1.0
 40
1.0
 10
165.4720291805
 20
211.9269666098
 30
0.0
 10
159.8755762877
 20
216.3572105032
 30
0.0
 10
148.6127372134
 20
224.1583189512
 30
0.0
 10
136.239243171
 20
230.1161089322
 30
0.0
 10
130.1165429231
 20
232.3390043358
 30
0.0
  0
SPLINE
  5
3CA
100
AcDbEntity
  8
0
100
AcDbSpline
 62
7
  6
BYLAYER
 70
0
 71
3
 72
9
 73
5
 74
0
 42
0.0000001
 43
0.0000001
 44
0.0000000001
 40
0.0
 40
0.0
 40
0.0
 40
0.0
 40
0.4491641734
 40
1.0
 40
1.0
 40
1.0
 40
1.0
 10
269.6484626731
 20
166.8551354675
 30
0.0
 10
269.6484626385
 20
166.6993808362
 30
0.0
 10
269.5124587578
 20
166.3517186969
 30
0.0
 10
269.2282145257
 20
166.1341589558
 30
0.0
 10
269.0627940293
 20
166.0386539577
 30
0.0
  0
SPLINE
  5
3CB
100
AcDbEntity
  8
0
100
AcDbSpline
 62
7
  6
BYLAYER
 70
0
 71
3
 72
9
 73
5
 74
0
 42
0.0000001
 43
0.0000001
 44
0.0000000001
 40
0.0
 40
0.0
 40
0.0
 40
0.0
 40
0.477864114
 40
1.0
 40
1.0
 40
1.0
 40
1.0
 10
109.7873076032
 20
220.601984912
 30
0.0
 10
115.6613918194
 20
218.4693515516
 30
0.0
 10
127.5323746703
 20
212.8118336489
 30
0.0
 10
138.3852266305
 20
205.4359276554
 30
0.0
 10
143.7833757182
 20
201.2545032384
 30
0.0
  0
SPLINE
  5
3CC
100
AcDbEntity
  8
0
100
AcDbSpline
 62
7
  6
BYLAYER
 70
0
 71
3
 72
11
 73
7
 74
0
 42
0.0000001
 43
0.0000001
 44
0.0000000001
 40
0.0
 40
0.0
 40
0.0
 40
0.0
 40
0.2372524156
 40
0.4999996414
 40
0.7627470637
 40
1.0
 40
1.0
 40
1.0
 40
1.0
 10
258.8097883897
 20
160.1191137266
 30
0.0
 10
258.6090002334
 20
160.0031893224
 30
0.0
 10
258.1420982441
 20
159.834000804
 30
0.0
 10
257.3955766404
 20
159.7531123165
 30
0.0
 10
256.6490541693
 20
159.8339975575
 30
0.0
 10
256.182150698
 20
160.0031837172
 30
0.0
 10
255.981361265
 20
160.1191069279
 30
0.0
  0
SPLINE
  5
3CD
100
AcDbEntity
  8
0
100
AcDbSpline
 62
7
  6
BYLAYER
 70
0
 71
3
 72
9
 73
5
 74
0
 42
0.0000001
 43
0.0000001
 44
0.0000000001
 40
0.0
 40
0.0
 40
0.0
 40
0.0
 40
0.477864114
 40
1.0
 40
1.0
 40
1.0
 40
1.0
 10
74.3964658596
 20
241.0344346757
 30
0.0
 10
80.2705500758
 20
238.9018013153
 30
0.0
 10
92.1415329267
 20
233.2442834126
 30
0.0
 10
102.9943848869
 20
225.8683774191
 30
0.0
 10
108.3925339745
 20
221.6869530021
 30
0.0
  0
SPLINE
  5
3CE
100
AcDbEntity
  8
0
100
AcDbSpline
 62
7
  6
BYLAYER
 70
0
 71
3
 72
9
 73
5
 74
0
 42
0.0000001
 43
0.0000001
 44
0.0000000001
 40
0.0
 40
0.0
 40
0.0
 40
0.0
 40
0.5228549525
 40
1.0
 40
1.0
 40
1.0
 40
1.0
 10
130.0811874369
 20
232.3594163735
 30
0.0
 10
124.4847345441
 20
236.789660267
 30
0.0
 10
113.2218954697
 20
244.590768715
 30
0.0
 10
100.8484014274
 20
250.5485586959
 30
0.0
 10
94.7257011795
 20
252.7714540995
 30
0.0
  0
SPLINE
  5
3CF
100
AcDbEntity
  8
0
100
AcDbSpline
 62
7
  6
BYLAYER
 70
0
 71
3
 72
9
 73
5
 74
0
 42
0.0000001
 43
0.0000001
 44
0.0000000001
 40
0.0
 40
0.0
 40
0.0
 40
0.0
 40
0.4777484261
 40
1.0
 40
1.0
 40
1.0
 40
1.0
 10
184.1036262034
 20
307.4447613122
 30
0.0
 10
190.221541953
 20
305.1879947316
 30
0.0
 10
202.5776589939
 20
299.210407207
 30
0.0
 10
213.8542119013
 20
291.4370324763
 30
0.0
 10
219.4591124607
 20
287.0327235862
 30
0.0
  0
SPLINE
  5
3D0
100
AcDbEntity
  8
0
100
AcDbSpline
 62
7
  6
BYLAYER
 70
0
 71
3
 72
11
 73
7
 74
0
 42
0.0000001
 43
0.0000001
 44
0.0000000001
 40
0.0
 40
0.0
 40
0.0
 40
0.0
 40
0.2897535679
 40
0.5490176997
 40
0.7821447452
 40
1.0
 40
1.0
 40
1.0
 40
1.0
 10
122.3030820271
 20
199.7174039082
 30
0.0
 10
122.3030820271
 20
199.3626614233
 30
0.0
 10
122.3566780343
 20
198.6881818287
 30
0.0
 10
122.6300840489
 20
197.7616154533
 30
0.0
 10
123.0896778438
 20
197.0094282062
 30
0.0
 10
123.5219473263
 20
196.6463704839
 30
0.0
 10
123.7529096863
 20
196.5129728797
 30
0.0
  0
SPLINE
  5
3D1
100
AcDbEntity
  8
0
100
AcDbSpline
 62
7
  6
BYLAYER
 70
0
 71
3
 72
9
 73
5
 74
0
 42
0.0000001
 43
0.0000001
 44
0.0000000001
 40
0.0
 40
0.0
 40
0.0
 40
0.0
 40
0.2476227745
 40
1.0
 40
1.0
 40
1.0
 40
1.0
 10
120.7153651538
 20
173.643624204
 30
0.0
 10
120.5524147934
 20
173.7536521756
 30
0.0
 10
119.9075202288
 20
174.2172731108
 30
0.0
 10
119.3177129394
 20
174.7567885423
 30
0.0
 10
118.9115053911
 20
175.194841517
 30
0.0
  0
SPLINE
  5
3D2
100
AcDbEntity
  8
0
100
AcDbSpline
 62
7
  6
BYLAYER
 70
0
 71
3
 72
11
 73
7
 74
0
 42
0.0000001
 43
0.0000001
 44
0.0000000001
 40
0.0
 40
0.0
 40
0.0
 40
0.0
 40
0.214935401
 40
0.4508616161
 40
0.7123592019
 40
1.0
 40
1.0
 40
1.0
 40
1.0
 10
118.9115053911
 20
175.194841517
 30
0.0
 10
118.1602192671
 20
176.0050261696
 30
0.0
 10
116.8416689022
 20
177.9532504302
 30
0.0
 10
115.5988665851
 20
181.4284758222
 30
0.0
 10
115.0260699268
 20
185.4456982571
 30
0.0
 10
115.0931434509
 20
188.2801558403
 30
0.0
 10
115.2259945183
 20
189.752841884
 30
0.0
  0
SPLINE
  5
3D3
100
AcDbEntity
  8
0
100
AcDbSpline
 62
7
  6
BYLAYER
 70
0
 71
3
 72
11
 73
7
 74
0
 42
0.0000001
 43
0.0000001
 44
0.0000000001
 40
0.0
 40
0.0
 40
0.0
 40
0.0
 40
0.2372423294
 40
0.4999983821
 40
0.7627553152
 40
1.0
 40
1.0
 40
1.0
 40
1.0
 10
124.4243935388
 20
176.6332922716
 30
0.0
 10
124.2738087276
 20
176.5463526092
 30
0.0
 10
123.9888605651
 20
176.3065094468
 30
0.0
 10
123.6562798475
 20
175.8520208623
 30
0.0
 10
123.4289735374
 20
175.3367504452
 30
0.0
 10
123.3637377829
 20
174.9700542445
 30
0.0
 10
123.3637377829
 20
174.7961724151
 30
0.0
  0
SPLINE
  5
3D4
100
AcDbEntity
  8
0
100
AcDbSpline
 62
7
  6
BYLAYER
 70
0
 71
3
 72
11
 73
7
 74
0
 42
0.0000001
 43
0.0000001
 44
0.0000000001
 40
0.0
 40
0.0
 40
0.0
 40
0.0
 40
0.2436855668
 40
0.513225062
 40
0.7753822438
 40
1.0
 40
1.0
 40
1.0
 40
1.0
 10
205.0344888726
 20
164.1407679372
 30
0.0
 10
205.0344888726
 20
165.0894420527
 30
0.0
 10
205.4324221699
 20
167.0877533854
 30
0.0
 10
206.774581129
 20
169.8218209732
 30
0.0
 10
208.6798172837
 20
172.1007248467
 30
0.0
 10
210.3023369831
 20
173.1782802484
 30
0.0
 10
211.1261350996
 20
173.4715490668
 30
0.0
  0
SPLINE
  5
3D5
100
AcDbEntity
  8
0
100
AcDbSpline
 62
7
  6
BYLAYER
 70
0
 71
3
 72
9
 73
5
 74
0
 42
0.0000001
 43
0.0000001
 44
0.0000000001
 40
0.0
 40
0.0
 40
0.0
 40
0.0
 40
0.2404952745
 40
1.0
 40
1.0
 40
1.0
 40
1.0
 10
205.12616008
 20
163.0792297997
 30
0.0
 10
205.1107229299
 20
163.1633068384
 30
0.0
 10
205.0554520443
 20
163.514525544
 30
0.0
 10
205.0344888726
 20
163.8708069325
 30
0.0
 10
205.0344888726
 20
164.1407679372
 30
0.0
  0
SPLINE
  5
3D6
100
AcDbEntity
  8
0
100
AcDbSpline
 62
7
  6
BYLAYER
 70
0
 71
3
 72
9
 73
5
 74
0
 42
0.0000001
 43
0.0000001
 44
0.0000000001
 40
0.0
 40
0.0
 40
0.0
 40
0.0
 40
0.2476227745
 40
1.0
 40
1.0
 40
1.0
 40
1.0
 10
149.5654419398
 20
156.9874014196
 30
0.0
 10
149.4024915794
 20
157.0974293911
 30
0.0
 10
148.7575970148
 20
157.5610503264
 30
0.0
 10
148.1677897254
 20
158.1005657579
 30
0.0
 10
147.7615821771
 20
158.5386187325
 30
0.0
  0
SPLINE
  5
3D7
100
AcDbEntity
  8
0
100
AcDbSpline
 62
7
  6
BYLAYER
 70
0
 71
3
 72
11
 73
7
 74
0
 42
0.0000001
 43
0.0000001
 44
0.0000000001
 40
0.0
 40
0.0
 40
0.0
 40
0.0
 40
0.214935401
 40
0.4508616161
 40
0.7123592019
 40
1.0
 40
1.0
 40
1.0
 40
1.0
 10
147.7615821771
 20
158.5386187325
 30
0.0
 10
147.0102960531
 20
159.3488033852
 30
0.0
 10
145.6917456882
 20
161.2970276458
 30
0.0
 10
144.4489433711
 20
164.7722530378
 30
0.0
 10
143.8761467128
 20
168.7894754727
 30
0.0
 10
143.9432202369
 20
171.6239330559
 30
0.0
 10
144.0760713043
 20
173.0966190995
 30
0.0
  0
SPLINE
  5
3D8
100
AcDbEntity
  8
0
100
AcDbSpline
 62
7
  6
BYLAYER
 70
0
 71
3
 72
15
 73
11
 74
0
 42
0.0000001
 43
0.0000001
 44
0.0000000001
 40
0.0
 40
0.0
 40
0.0
 40
0.0
 40
0.1288285209
 40
0.2705736297
 40
0.4178862126
 40
0.5623851892
 40
0.6962029038
 40
0.813594138
 40
0.9130657578
 40
1.0
 40
1.0
 40
1.0
 40
1.0
 10
137.5412804122
 20
134.9714547372
 30
0.0
 10
137.1415530875
 20
135.2022321949
 30
0.0
 10
136.2364954928
 20
135.5756457811
 30
0.0
 10
134.7614862102
 20
135.8707704408
 30
0.0
 10
133.201270823
 20
135.9139120663
 30
0.0
 10
131.6837495355
 20
135.7007695801
 30
0.0
 10
130.3300175355
 20
135.2484976773
 30
0.0
 10
129.2456383744
 20
134.5877724964
 30
0.0
 10
128.5110803045
 20
133.7523793683
 30
0.0
 10
128.3229091486
 20
133.0784018972
 30
0.0
 10
128.3230328748
 20
132.7669366708
 30
0.0
  0
SPLINE
  5
3D9
100
AcDbEntity
  8
0
100
AcDbSpline
 62
7
  6
BYLAYER
 70
0
 71
3
 72
9
 73
5
 74
0
 42
0.0000001
 43
0.0000001
 44
0.0000000001
 40
0.0
 40
0.0
 40
0.0
 40
0.0
 40
0.260431142
 40
1.0
 40
1.0
 40
1.0
 40
1.0
 10
137.5412804122
 20
131.7054450687
 30
0.0
 10
137.6076305445
 20
131.6671386686
 30
0.0
 10
137.8589561345
 20
131.5142622085
 30
0.0
 10
138.0962654106
 20
131.3375944442
 30
0.0
 10
138.2585493151
 20
131.1926819358
 30
0.0
  0
SPLINE
  5
3DA
100
AcDbEntity
  8
0
100
AcDbSpline
 62
7
  6
BYLAYER
 70
0
 71
3
 72
9
 73
5
 74
0
 42
0.0000001
 43
0.0000001
 44
0.0000000001
 40
0.0
 40
0.0
 40
0.0
 40
0.0
 40
0.2457639579
 40
1.0
 40
1.0
 40
1.0
 40
1.0
 10
72.8380640023
 20
100.1690362653
 30
0.0
 10
73.2186524729
 20
104.693649125
 30
0.0
 10
74.9661209458
 20
123.0869707641
 30
0.0
 10
77.4927263139
 20
141.4047145185
 30
0.0
 10
79.7948640658
 20
155.148058076
 30
0.0
  0
SPLINE
  5
3DB
100
AcDbEntity
  8
0
100
AcDbSpline
 62
7
  6
BYLAYER
 70
0
 71
3
 72
9
 73
5
 74
0
 42
0.0000001
 43
0.0000001
 44
0.0000000001
 40
0.0
 40
0.0
 40
0.0
 40
0.0
 40
0.5119306753
 40
1.0
 40
1.0
 40
1.0
 40
1.0
 10
79.7948640658
 20
155.148058076
 30
0.0
 10
79.8669816459
 20
155.578586909
 30
0.0
 10
80.2122563206
 20
156.383439367
 30
0.0
 10
80.8172992006
 20
157.0294315862
 30
0.0
 10
81.1777225991
 20
157.2375208903
 30
0.0
  0
SPLINE
  5
3DC
100
AcDbEntity
  8
0
100
AcDbSpline
 62
7
  6
BYLAYER
 70
0
 71
3
 72
11
 73
7
 74
0
 42
0.0000001
 43
0.0000001
 44
0.0000000001
 40
0.0
 40
0.0
 40
0.0
 40
0.0
 40
0.2372446848
 40
0.5000016179
 40
0.7627576706
 40
1.0
 40
1.0
 40
1.0
 40
1.0
 10
128.8084826666
 20
171.6527186053
 30
0.0
 10
128.8084826666
 20
171.8266004347
 30
0.0
 10
128.8737184211
 20
172.1932966354
 30
0.0
 10
129.1010247312
 20
172.7085670525
 30
0.0
 10
129.4336054487
 20
173.1630556369
 30
0.0
 10
129.7185536112
 20
173.4028987994
 30
0.0
 10
129.8691384224
 20
173.4898384618
 30
0.0
  0
SPLINE
  5
3DD
100
AcDbEntity
  8
0
100
AcDbSpline
 62
7
  6
BYLAYER
 70
0
 71
3
 72
9
 73
5
 74
0
 42
0.0000001
 43
0.0000001
 44
0.0000000001
 40
0.0
 40
0.0
 40
0.0
 40
0.0
 40
0.5444124566
 40
1.0
 40
1.0
 40
1.0
 40
1.0
 10
270.0634239836
 20
266.2850864364
 30
0.0
 10
270.2133261546
 20
266.3580254689
 30
0.0
 10
270.512731101
 20
266.4575004691
 30
0.0
 10
270.8327263567
 20
266.3954427984
 30
0.0
 10
270.953531774
 20
266.3256711906
 30
0.0
  0
SPLINE
  5
3DE
100
AcDbEntity
  8
0
100
AcDbSpline
 62
7
  6
BYLAYER
 70
0
 71
3
 72
9
 73
5
 74
0
 42
0.0000001
 43
0.0000001
 44
0.0000000001
 40
0.0
 40
0.0
 40
0.0
 40
0.0
 40
0.5179451506
 40
1.0
 40
1.0
 40
1.0
 40
1.0
 10
130.0811874369
 20
234.764671049
 30
0.0
 10
144.4002410593
 20
245.4271111332
 30
0.0
 10
173.1537935395
 20
264.5827905299
 30
0.0
 10
204.0857069924
 20
280.062703769
 30
0.0
 10
219.4591124607
 20
286.3667320984
 30
0.0
  0
SPLINE
  5
3DF
100
AcDbEntity
  8
0
100
AcDbSpline
 62
7
  6
BYLAYER
 70
0
 71
3
 72
9
 73
5
 74
0
 42
0.0000001
 43
0.0000001
 44
0.0000000001
 40
0.0
 40
0.0
 40
0.0
 40
0.0
 40
0.5179451506
 40
1.0
 40
1.0
 40
1.0
 40
1.0
 10
94.6903456933
 20
255.1971208128
 30
0.0
 10
109.0093993157
 20
265.859560897
 30
0.0
 10
137.7629517958
 20
285.0152402937
 30
0.0
 10
168.6948652488
 20
300.4951535328
 30
0.0
 10
184.0682707171
 20
306.7991818621
 30
0.0
  0
SPLINE
  5
3E0
100
AcDbEntity
  8
0
100
AcDbSpline
 62
7
  6
BYLAYER
 70
0
 71
3
 72
13
 73
9
 74
0
 42
0.0000001
 43
0.0000001
 44
0.0000000001
 40
0.0
 40
0.0
 40
0.0
 40
0.0
 40
0.0871392705
 40
0.1868475657
 40
0.3045112729
 40
0.4386449747
 40
0.7300488254
 40
1.0
 40
1.0
 40
1.0
 40
1.0
 10
186.2137464716
 20
160.0788692046
 30
0.0
 10
186.2961845811
 20
160.0313374403
 30
0.0
 10
186.5032255482
 20
159.9781570283
 30
0.0
 10
186.8364662641
 20
160.044933557
 30
0.0
 10
187.1770277188
 20
160.2308039908
 30
0.0
 10
187.6237356693
 20
160.626972788
 30
0.0
 10
188.0433312209
 20
161.2755870033
 30
0.0
 10
188.2054410986
 20
161.8866031297
 30
0.0
 10
188.2054410986
 20
162.1814000727
 30
0.0
  0
SPLINE
  5
3E1
100
AcDbEntity
  8
0
100
AcDbSpline
 62
7
  6
BYLAYER
 70
0
 71
3
 72
9
 73
5
 74
0
 42
0.0000001
 43
0.0000001
 44
0.0000000001
 40
0.0
 40
0.0
 40
0.0
 40
0.0
 40
0.2457639579
 40
1.0
 40
1.0
 40
1.0
 40
1.0
 10
37.4472222587
 20
120.6014860291
 30
0.0
 10
37.8278107293
 20
125.1260988888
 30
0.0
 10
39.5752792022
 20
143.5194205279
 30
0.0
 10
42.1018845703
 20
161.8371642822
 30
0.0
 10
44.4040223222
 20
175.5805078397
 30
0.0
  0
SPLINE
  5
3E2
100
AcDbEntity
  8
0
100
AcDbSpline
 62
7
  6
BYLAYER
 70
0
 71
3
 72
9
 73
5
 74
0
 42
0.0000001
 43
0.0000001
 44
0.0000000001
 40
0.0
 40
0.0
 40
0.0
 40
0.0
 40
0.5119306753
 40
1.0
 40
1.0
 40
1.0
 40
1.0
 10
44.4040223222
 20
175.5805078397
 30
0.0
 10
44.4761399023
 20
176.0110366728
 30
0.0
 10
44.821414577
 20
176.8158891308
 30
0.0
 10
45.426457457
 20
177.46188135
 30
0.0
 10
45.7868808555
 20
177.669970654
 30
0.0
  0
SPLINE
  5
3E3
100
AcDbEntity
  8
0
100
AcDbSpline
 62
7
  6
BYLAYER
 70
0
 71
3
 72
11
 73
7
 74
0
 42
0.0000001
 43
0.0000001
 44
0.0000000001
 40
0.0
 40
0.0
 40
0.0
 40
0.0
 40
0.2372446848
 40
0.5000016179
 40
0.7627576706
 40
1.0
 40
1.0
 40
1.0
 40
1.0
 10
93.417640923
 20
192.085168369
 30
0.0
 10
93.417640923
 20
192.2590501984
 30
0.0
 10
93.4828766775
 20
192.6257463992
 30
0.0
 10
93.7101829876
 20
193.1410168162
 30
0.0
 10
94.0427637051
 20
193.5955054007
 30
0.0
 10
94.3277118676
 20
193.8353485632
 30
0.0
 10
94.4782966788
 20
193.9222882255
 30
0.0
  0
SPLINE
  5
3E4
100
AcDbEntity
  8
0
100
AcDbSpline
 62
7
  6
BYLAYER
 70
0
 71
3
 72
9
 73
5
 74
0
 42
0.0000001
 43
0.0000001
 44
0.0000000001
 40
0.0
 40
0.0
 40
0.0
 40
0.0
 40
0.5179451506
 40
1.0
 40
1.0
 40
1.0
 40
1.0
 10
165.4720291805
 20
214.3322212853
 30
0.0
 10
179.7910828029
 20
224.9946613695
 30
0.0
 10
208.5446352831
 20
244.1503407662
 30
0.0
 10
239.476548736
 20
259.6302540053
 30
0.0
 10
254.8499542043
 20
265.9342823346
 30
0.0
  0
SPLINE
  5
3E5
100
AcDbEntity
  8
0
100
AcDbSpline
 62
7
  6
BYLAYER
 70
0
 71
3
 72
16
 73
12
 74
0
 42
0.0000001
 43
0.0000001
 44
0.0000000001
 40
0.0
 40
0.0
 40
0.0
 40
0.0
 40
0.0428287179
 40
0.0872893925
 40
0.1856517973
 40
0.3010740139
 40
0.4326893602
 40
0.5756282771
 40
0.7228846354
 40
0.8666988504
 40
1.0
 40
1.0
 40
1.0
 40
1.0
 10
205.8360798298
 20
159.6094014671
 30
0.0
 10
206.0406468784
 20
159.4912766991
 30
0.0
 10
206.4895128534
 20
159.3020743738
 30
0.0
 10
207.5084548393
 20
159.1368993627
 30
0.0
 10
208.9487562738
 20
159.3812051879
 30
0.0
 10
210.6606340632
 20
160.2587072485
 30
0.0
 10
212.3239218277
 20
161.6451828742
 30
0.0
 10
213.8205141938
 20
163.4407241594
 30
0.0
 10
215.0415128126
 20
165.5119222952
 30
0.0
 10
215.8953990583
 20
167.7018084287
 30
0.0
 10
216.1919482873
 20
169.2135860134
 30
0.0
 10
216.2497695545
 20
169.9465339722
 30
0.0
  0
SPLINE
  5
3E6
100
AcDbEntity
  8
0
100
AcDbSpline
 62
7
  6
BYLAYER
 70
0
 71
3
 72
9
 73
5
 74
0
 42
0.0000001
 43
0.0000001
 44
0.0000000001
 40
0.0
 40
0.0
 40
0.0
 40
0.0
 40
0.2544844007
 40
1.0
 40
1.0
 40
1.0
 40
1.0
 10
216.2497695545
 20
169.9465339722
 30
0.0
 10
216.2543458483
 20
170.0045435139
 30
0.0
 10
216.2702051424
 20
170.2326527104
 30
0.0
 10
216.2774398843
 20
170.4613822399
 30
0.0
 10
216.2774398843
 20
170.6318499837
 30
0.0
  0
SPLINE
  5
3E7
100
AcDbEntity
  8
0
100
AcDbSpline
 62
7
  6
BYLAYER
 70
0
 71
3
 72
11
 73
7
 74
0
 42
0.0000001
 43
0.0000001
 44
0.0000000001
 40
0.0
 40
0.0
 40
0.0
 40
0.0
 40
0.2897535679
 40
0.5490176997
 40
0.7821447452
 40
1.0
 40
1.0
 40
1.0
 40
1.0
 10
51.5213985399
 20
240.5823034356
 30
0.0
 10
51.5213985399
 20
240.2275609508
 30
0.0
 10
51.5749945471
 20
239.5530813562
 30
0.0
 10
51.8484005617
 20
238.6265149808
 30
0.0
 10
52.3079943566
 20
237.8743277337
 30
0.0
 10
52.7402638391
 20
237.5112700113
 30
0.0
 10
52.9712261991
 20
237.3778724072
 30
0.0
  0
SPLINE
  5
3E8
100
AcDbEntity
  8
0
100
AcDbSpline
 62
7
  6
BYLAYER
 70
0
 71
3
 72
9
 73
5
 74
0
 42
0.0000001
 43
0.0000001
 44
0.0000000001
 40
0.0
 40
0.0
 40
0.0
 40
0.0
 40
0.2476227745
 40
1.0
 40
1.0
 40
1.0
 40
1.0
 10
49.9336816666
 20
214.5085237315
 30
0.0
 10
49.7707313062
 20
214.618551703
 30
0.0
 10
49.1258367416
 20
215.0821726383
 30
0.0
 10
48.5360294522
 20
215.6216880698
 30
0.0
 10
48.1298219039
 20
216.0597410445
 30
0.0
  0
SPLINE
  5
3E9
100
AcDbEntity
  8
0
100
AcDbSpline
 62
7
  6
BYLAYER
 70
0
 71
3
 72
11
 73
7
 74
0
 42
0.0000001
 43
0.0000001
 44
0.0000000001
 40
0.0
 40
0.0
 40
0.0
 40
0.0
 40
0.214935401
 40
0.4508616161
 40
0.7123592019
 40
1.0
 40
1.0
 40
1.0
 40
1.0
 10
48.1298219039
 20
216.0597410445
 30
0.0
 10
47.3785357799
 20
216.8699256971
 30
0.0
 10
46.059985415
 20
218.8181499577
 30
0.0
 10
44.8171830979
 20
222.2933753497
 30
0.0
 10
44.2443864396
 20
226.3105977846
 30
0.0
 10
44.3114599637
 20
229.1450553678
 30
0.0
 10
44.4443110311
 20
230.6177414114
 30
0.0
  0
SPLINE
  5
3EA
100
AcDbEntity
  8
0
100
AcDbSpline
 62
7
  6
BYLAYER
 70
0
 71
3
 72
11
 73
7
 74
0
 42
0.0000001
 43
0.0000001
 44
0.0000000001
 40
0.0
 40
0.0
 40
0.0
 40
0.0
 40
0.2372423294
 40
0.4999983821
 40
0.7627553152
 40
1.0
 40
1.0
 40
1.0
 40
1.0
 10
53.6427100515
 20
217.498191799
 30
0.0
 10
53.4921252403
 20
217.4112521367
 30
0.0
 10
53.2071770779
 20
217.1714089742
 30
0.0
 10
52.8745963603
 20
216.7169203898
 30
0.0
 10
52.6472900502
 20
216.2016499727
 30
0.0
 10
52.5820542957
 20
215.8349537719
 30
0.0
 10
52.5820542957
 20
215.6610719425
 30
0.0
  0
SPLINE
  5
3EB
100
AcDbEntity
  8
0
100
AcDbSpline
 62
7
  6
BYLAYER
 70
0
 71
3
 72
9
 73
5
 74
0
 42
0.0000001
 43
0.0000001
 44
0.0000000001
 40
0.0
 40
0.0
 40
0.0
 40
0.0
 40
0.4777484261
 40
1.0
 40
1.0
 40
1.0
 40
1.0
 10
148.7127844598
 20
327.8772110759
 30
0.0
 10
154.8307002094
 20
325.6204444953
 30
0.0
 10
167.1868172503
 20
319.6428569707
 30
0.0
 10
178.4633701576
 20
311.86948224
 30
0.0
 10
184.0682707171
 20
307.4651733499
 30
0.0
  0
SPLINE
  5
3EC
100
AcDbEntity
  8
0
100
AcDbSpline
 62
7
  6
BYLAYER
 70
0
 71
3
 72
9
 73
5
 74
0
 42
0.0000001
 43
0.0000001
 44
0.0000000001
 40
0.0
 40
0.0
 40
0.0
 40
0.0
 40
0.5228549525
 40
1.0
 40
1.0
 40
1.0
 40
1.0
 10
94.6903456933
 20
252.7918661372
 30
0.0
 10
89.0938928005
 20
257.2221100307
 30
0.0
 10
77.8310537261
 20
265.0232184787
 30
0.0
 10
65.4575596838
 20
270.9810084597
 30
0.0
 10
59.3348594359
 20
273.2039038633
 30
0.0
  0
SPLINE
  5
3ED
100
AcDbEntity
  8
0
100
AcDbSpline
 62
7
  6
BYLAYER
 70
0
 71
3
 72
9
 73
5
 74
0
 42
0.0000001
 43
0.0000001
 44
0.0000000001
 40
0.0
 40
0.0
 40
0.0
 40
0.0
 40
0.2478463994
 40
1.0
 40
1.0
 40
1.0
 40
1.0
 10
78.3317032787
 20
198.1761070695
 30
0.0
 10
78.2114495606
 20
198.2673574066
 30
0.0
 10
77.7344982918
 20
198.6462991589
 30
0.0
 10
77.2913934922
 20
199.0676032203
 30
0.0
 10
76.9798986899
 20
199.40351826
 30
0.0
  0
SPLINE
  5
3EE
100
AcDbEntity
  8
0
100
AcDbSpline
 62
7
  6
BYLAYER
 70
0
 71
3
 72
11
 73
7
 74
0
 42
0.0000001
 43
0.0000001
 44
0.0000000001
 40
0.0
 40
0.0
 40
0.0
 40
0.0
 40
0.214935401
 40
0.4508616161
 40
0.7123592019
 40
1.0
 40
1.0
 40
1.0
 40
1.0
 10
76.9798986899
 20
199.40351826
 30
0.0
 10
76.2286125659
 20
200.2137029126
 30
0.0
 10
74.910062201
 20
202.1619271732
 30
0.0
 10
73.6672598839
 20
205.6371525652
 30
0.0
 10
73.0944632255
 20
209.6543750001
 30
0.0
 10
73.1615367497
 20
212.4888325833
 30
0.0
 10
73.2943878171
 20
213.961518627
 30
0.0
  0
SPLINE
  5
3EF
100
AcDbEntity
  8
0
100
AcDbSpline
 62
7
  6
BYLAYER
 70
0
 71
3
 72
9
 73
5
 74
0
 42
0.0000001
 43
0.0000001
 44
0.0000000001
 40
0.0
 40
0.0
 40
0.0
 40
0.0
 40
0.477864114
 40
1.0
 40
1.0
 40
1.0
 40
1.0
 10
39.005624116
 20
261.4668844395
 30
0.0
 10
44.8797083322
 20
259.3342510791
 30
0.0
 10
56.750691183
 20
253.6767331764
 30
0.0
 10
67.6035431433
 20
246.3008271828
 30
0.0
 10
73.0016922309
 20
242.1194027659
 30
0.0
  0
SPLINE
  5
3F0
100
AcDbEntity
  8
0
100
AcDbSpline
 62
7
  6
BYLAYER
 70
0
 71
3
 72
11
 73
7
 74
0
 42
0.0000001
 43
0.0000001
 44
0.0000000001
 40
0.0
 40
0.0
 40
0.0
 40
0.0
 40
0.2177643494
 40
0.4508943819
 40
0.7103680107
 40
1.0
 40
1.0
 40
1.0
 40
1.0
 10
139.1228065077
 20
132.7669359419
 30
0.0
 10
139.1227248113
 20
132.9725962872
 30
0.0
 10
139.047044567
 20
133.4013114426
 30
0.0
 10
138.7218640152
 20
133.9986742981
 30
0.0
 10
138.2080080543
 20
134.5385180468
 30
0.0
 10
137.7781686123
 20
134.8346903652
 30
0.0
 10
137.5412804122
 20
134.9714547372
 30
0.0
  0
SPLINE
  5
3F1
100
AcDbEntity
  8
0
100
AcDbSpline
 62
7
  6
BYLAYER
 70
0
 71
3
 72
11
 73
7
 74
0
 42
0.0000001
 43
0.0000001
 44
0.0000000001
 40
0.0
 40
0.0
 40
0.0
 40
0.0
 40
0.2372446848
 40
0.5000016179
 40
0.7627576706
 40
1.0
 40
1.0
 40
1.0
 40
1.0
 10
58.0267991794
 20
212.5176181327
 30
0.0
 10
58.0267991794
 20
212.6914999621
 30
0.0
 10
58.0920349338
 20
213.0581961629
 30
0.0
 10
58.319341244
 20
213.57346658
 30
0.0
 10
58.6519219615
 20
214.0279551644
 30
0.0
 10
58.936870124
 20
214.2677983269
 30
0.0
 10
59.0874549352
 20
214.3547379892
 30
0.0
  0
ENDSEC
  0
SECTION
  2
OBJECTS
  0
DICTIONARY
  5
C
100
AcDbDictionary
280
0
281
1
  3
ACAD_GROUP
350
D
  3
ACAD_MLINESTYLE
350
17
  3
ACAD_LAYOUT
350
1A
  3
ACAD_PLOTSETTINGS
350
19
  3
ACAD_PLOTSTYLENAME
350
E
  0
DICTIONARY
  5
D
102
{ACAD_REACTORS
330
C
102
}
100
AcDbDictionary
280
0
281
1
  0
ACDBDICTIONARYWDFLT
  5
E
102
{ACAD_REACTORS
330
C
102
}
100
AcDbDictionary
281
1
  3
Normal
350
F
100
AcDbDictionaryWithDefault
340
F
  0
DICTIONARY
  5
17
102
{ACAD_REACTORS
330
C
102
}
100
AcDbDictionary
280
0
281
1
  3
Standard
350
18
  0
DICTIONARY
  5
19
102
{ACAD_REACTORS
330
C
102
}
100
AcDbDictionary
281
1
  0
DICTIONARY
  5
1A
102
{ACAD_REACTORS
330
C
102
}
100
AcDbDictionary
281
1
  3
Model
350
3F2
  3
Layout1
350
3F3
  0
ACDBPLACEHOLDER
  5
F
102
{ACAD_REACTORS
330
E
102
}
  0
MLINESTYLE
  5
18
102
{ACAD_REACTORS
330
17
102
}
100
AcDbMlineStyle
  2
STANDARD
 70
0
  3

 62
256
 51
90.0
 52
90.0
 71
2
 49
0.5
 62
256
  6
BYLAYER
 49
-0.5
 62
256
  6
BYLAYER
  0
LAYOUT
  5
3F2
102
{ACAD_REACTORS
330
1A
102
}
100
AcDbPlotSettings
  1

  2
none_device
  4

  6

 40
0.0
 41
0.0
 42
0.0
 43
0.0
 44
210.0
 45
297.0
 46
0.0
 47
0.0
 48
0.0
 49
0.0
140
0.0
141
0.0
142
1.0
143
1.0
 70
1024
 72
1
 73
0
 74
0
  7

 75
0
147
1.0
148
0.0
149
0.0
100
AcDbLayout
  1
Model
 70
0
 71
0
 10
0.0
 20
0.0
 11
210.0
 21
297.0
 12
0.0
 22
0.0
 32
0.0
 14
0.0
 24
0.0
 34
0.0
 15
0.0
 25
0.0
 35
0.0
146
0.0
 13
0.0
 23
0.0
 33
0.0
 16
1.0
 26
0.0
 36
0.0
 17
0.0
 27
1.0
 37
0.0
 76
0
330
210
345
0
346
0
  0
LAYOUT
  5
3F3
102
{ACAD_REACTORS
330
1A
102
}
100
AcDbPlotSettings
  1

  2
none_device
  4

  6

 40
0.0
 41
0.0
 42
0.0
 43
0.0
 44
210.0
 45
297.0
 46
0.0
 47
0.0
 48
0.0
 49
0.0
140
0.0
141
0.0
142
1.0
143
1.0
 70
0
 72
1
 73
0
 74
0
  7

 75
0
147
1.0
148
0.0
149
0.0
100
AcDbLayout
  1
Layout1
 70
0
 71
1
 10
0.0
 20
0.0
 11
210.0
 21
297.0
 12
0.0
 22
0.0
 32
0.0
 14
0.0
 24
0.0
 34
0.0
 15
0.0
 25
0.0
 35
0.0
146
0.0
 13
0.0
 23
0.0
 33
0.0
 16
1.0
 26
0.0
 36
0.0
 17
0.0
 27
1.0
 37
0.0
 76
0
330
211
345
0
346
0
  0
ENDSEC
  0
EOF
