999
DXF file: C:\Users\sesa63760\Dev\_Creo\CAD\MCADID0000664_3D-CAD\drw0001_6.dxf
999
Pro/ENGINEER 2019471 by Parametric Technology Corporation
  0
SECTION
  2
HEADER
  9
$ACADVER
  1
AC1024
  9
$DWGCODEPAGE
  3
ANSI_1252
  9
$EXTMAX
 10
149.6484559003
 20
211.6456733446
 30
0.0
  9
$EXTMIN
 10
0.0
 20
0.0
 30
0.0
  9
$LIMMIN
 10
0.0
 20
0.0
  9
$LIMMAX
 10
149.6484559003
 20
211.6456733446
  9
$VIEWCTR
 10
74.8242279501
 20
105.8228366723
  9
$VIEWSIZE
 40
211.6456733446
  9
$CLAYER
  8
0
  9
$LTSCALE
 40
13.7961624106
  9
$CELTYPE
  6
BYLAYER
  9
$DIMSCALE
 40
1.0
  9
$DIMASZ
 40
1.7815292369
  9
$DIMEXO
 40
1.0
  9
$DIMDLI
 40
9.5318940292
  9
$DIMEXE
 40
1.0
  9
$DIMCEN
 40
2.257553849
  9
$DIMLFAC
 40
1.0
  9
$DIMBLK
  1
_FILLED
  9
$DIMALT
 70
0
  9
$DIMALTF
 40
0.0393700787
  9
$DIMTXT
 40
2.4941409317
  9
$DIMTOL
 70
1
  9
$DIMLIM
 70
0
  9
$DIMTFAC
 40
1.0
  9
$DIMTP
 40
0.01
  9
$DIMTM
 40
0.01
  9
$DIMGAP
 40
0.625
  9
$DIMDSEP
 70
46
  9
$AUNITS
 70
0
  9
$PDMODE
 70
3
  9
$PDSIZE
 40
0.3125
  9
$HANDSEED
  5
2DF
  9
$TILEMODE
 70
1
  9
$MEASUREMENT
 70
1
  9
$INSUNITS
 70
4
  0
ENDSEC
  0
SECTION
  2
CLASSES
  0
CLASS
  1
ACDBDICTIONARYWDFLT
  2
AcDbDictionaryWithDefault
  3
AutoCAD 2000
 90
0
 91
1
280
0
281
0
  0
CLASS
  1
ACDBPLACEHOLDER
  2
AcDbPlaceHolder
  3
AutoCAD 2000
 90
0
 91
1
280
0
281
0
  0
CLASS
  1
LAYOUT
  2
AcDbLayout
  3
AutoCAD 2000
 90
0
 91
0
280
0
281
0
  0
ENDSEC
  0
SECTION
  2
TABLES
  0
TABLE
  2
VPORT
  5
8
100
AcDbSymbolTable
 70
2
  0
VPORT
  5
1F4
100
AcDbSymbolTableRecord
100
AcDbViewportTableRecord
  2
*ACTIVE
 70
0
 10
0.0
 20
0.0
 11
1.0
 21
1.0
 12
74.8242279501
 22
105.8228366723
 13
0.0
 23
0.0
 14
1.0
 24
1.0
 15
0.0
 25
0.0
 16
0.0
 26
0.0
 36
1.0
 17
0.0
 27
0.0
 37
0.0
 40
211.6456733446
 41
0.7070707071
 42
50.0
 43
0.0
 44
0.0
 50
0.0
 51
0.0
 71
0
 72
100
 73
1
 74
1
 75
0
 76
0
 77
0
 78
0
  0
ENDTAB
  0
TABLE
  2
LTYPE
  5
5
100
AcDbSymbolTable
 70
6
  0
LTYPE
  5
14
100
AcDbSymbolTableRecord
100
AcDbLinetypeTableRecord
  2
BYBLOCK
 70
0
  3

 72
65
 73
0
 40
0.0
  0
LTYPE
  5
15
100
AcDbSymbolTableRecord
100
AcDbLinetypeTableRecord
  2
BYLAYER
 70
0
  3

 72
65
 73
0
 40
0.0
  0
LTYPE
  5
16
100
AcDbSymbolTableRecord
100
AcDbLinetypeTableRecord
  2
CONTINUOUS
 70
64
  3
Solid line
 72
65
 73
0
 40
0.0
  0
LTYPE
  5
1F5
100
AcDbSymbolTableRecord
100
AcDbLinetypeTableRecord
  2
CENTER
 70
64
  3
____ _ ____ _ ____ _ ____ _ ____ _ ____ _ ____
 72
65
 73
4
 40
0.6
 49
0.375
 74
0
 49
-0.075
 74
0
 49
0.075
 74
0
 49
-0.075
 74
0
  0
LTYPE
  5
1F6
100
AcDbSymbolTableRecord
100
AcDbLinetypeTableRecord
  2
HIDDEN
 70
64
  3
- - - - - - - - - - - - - - - - - - - -
 72
65
 73
2
 40
0.2
 49
0.1
 74
0
 49
-0.1
 74
0
  0
LTYPE
  5
1F7
100
AcDbSymbolTableRecord
100
AcDbLinetypeTableRecord
  2
PHANTOM
 70
64
  3
_____ _ _ _____ _ _ _____ _ _ _____
 72
65
 73
6
 40
0.8
 49
0.45
 74
0
 49
-0.05
 74
0
 49
0.1
 74
0
 49
-0.05
 74
0
 49
0.1
 74
0
 49
-0.05
 74
0
  0
LTYPE
  5
1F8
100
AcDbSymbolTableRecord
100
AcDbLinetypeTableRecord
  2
DOT
 70
64
  3
. . . . . . . . . . . . . . . . . . . .
 72
65
 73
2
 40
0.2
 49
0.1
 74
0
 49
-0.1
 74
0
  0
LTYPE
  5
1F9
100
AcDbSymbolTableRecord
100
AcDbLinetypeTableRecord
  2
DASHED
 70
64
  3
- - - - - - - - - - - - - - - - - - - -
 72
65
 73
2
 40
0.2
 49
0.1
 74
0
 49
-0.1
 74
0
  0
ENDTAB
  0
TABLE
  2
LAYER
  5
2
100
AcDbSymbolTable
 70
36
  0
LAYER
  5
10
100
AcDbSymbolTableRecord
100
AcDbLayerTableRecord
  2
0
 70
0
 62
7
  6
CONTINUOUS
370
-3
390
F
  0
LAYER
  5
1FA
100
AcDbSymbolTableRecord
100
AcDbLayerTableRecord
  2
DEFAULT_1
 70
0
 62
7
  6
CENTER
370
-3
390
F
  0
LAYER
  5
1FB
100
AcDbSymbolTableRecord
100
AcDbLayerTableRecord
  2
DEFAULT_2
 70
0
 62
8
  6
HIDDEN
370
-3
390
F
  0
LAYER
  5
1FC
100
AcDbSymbolTableRecord
100
AcDbLayerTableRecord
  2
DEFAULT_3
 70
0
 62
7
  6
PHANTOM
370
-3
390
F
  0
LAYER
  5
1FD
100
AcDbSymbolTableRecord
100
AcDbLayerTableRecord
  2
00_COMPONENTS
 70
0
 62
7
  6
CONTINUOUS
370
-3
390
F
  0
LAYER
  5
1FE
100
AcDbSymbolTableRecord
100
AcDbLayerTableRecord
  2
01_1_DEFAULT_DATUMS
 70
0
 62
7
  6
CONTINUOUS
370
-3
390
F
  0
LAYER
  5
1FF
100
AcDbSymbolTableRecord
100
AcDbLayerTableRecord
  2
01_PLANES
 70
0
 62
7
  6
CONTINUOUS
370
-3
390
F
  0
LAYER
  5
200
100
AcDbSymbolTableRecord
100
AcDbLayerTableRecord
  2
02_COORD_SYS
 70
0
 62
7
  6
CONTINUOUS
370
-3
390
F
  0
LAYER
  5
201
100
AcDbSymbolTableRecord
100
AcDbLayerTableRecord
  2
03_AXES
 70
0
 62
7
  6
CONTINUOUS
370
-3
390
F
  0
LAYER
  5
202
100
AcDbSymbolTableRecord
100
AcDbLayerTableRecord
  2
04_POINTS
 70
0
 62
7
  6
CONTINUOUS
370
-3
390
F
  0
LAYER
  5
203
100
AcDbSymbolTableRecord
100
AcDbLayerTableRecord
  2
05_CURVES
 70
0
 62
7
  6
CONTINUOUS
370
-3
390
F
  0
LAYER
  5
204
100
AcDbSymbolTableRecord
100
AcDbLayerTableRecord
  2
06_SURFS
 70
0
 62
7
  6
CONTINUOUS
370
-3
390
F
  0
LAYER
  5
205
100
AcDbSymbolTableRecord
100
AcDbLayerTableRecord
  2
07_COSMETICS
 70
0
 62
7
  6
CONTINUOUS
370
-3
390
F
  0
LAYER
  5
206
100
AcDbSymbolTableRecord
100
AcDbLayerTableRecord
  2
10_NOTES
 70
0
 62
7
  6
CONTINUOUS
370
-3
390
F
  0
LAYER
  5
207
100
AcDbSymbolTableRecord
100
AcDbLayerTableRecord
  2
11_NOTES_PUB
 70
0
 62
7
  6
CONTINUOUS
370
-3
390
F
  0
LAYER
  5
208
100
AcDbSymbolTableRecord
100
AcDbLayerTableRecord
  2
13_REF_GTOL
 70
0
 62
7
  6
CONTINUOUS
370
-3
390
F
  0
LAYER
  5
209
100
AcDbSymbolTableRecord
100
AcDbLayerTableRecord
  2
16_MISC
 70
0
 62
7
  6
CONTINUOUS
370
-3
390
F
  0
LAYER
  5
20A
100
AcDbSymbolTableRecord
100
AcDbLayerTableRecord
  2
17_NO_PRINT
 70
0
 62
7
  6
CONTINUOUS
370
-3
390
F
  0
LAYER
  5
20B
100
AcDbSymbolTableRecord
100
AcDbLayerTableRecord
  2
18_DATUM_CAMS_JOINTS
 70
0
 62
7
  6
CONTINUOUS
370
-3
390
F
  0
LAYER
  5
20C
100
AcDbSymbolTableRecord
100
AcDbLayerTableRecord
  2
19_DATUM_FUNCTIONAL
 70
0
 62
7
  6
CONTINUOUS
370
-3
390
F
  0
LAYER
  5
20D
100
AcDbSymbolTableRecord
100
AcDbLayerTableRecord
  2
20_DATUM_KINEMATIC_SCHEME
 70
0
 62
7
  6
CONTINUOUS
370
-3
390
F
  0
ENDTAB
  0
TABLE
  2
STYLE
  5
3
100
AcDbSymbolTable
 70
1
  0
STYLE
  5
11
100
AcDbSymbolTableRecord
100
AcDbTextStyleTableRecord
  2
STANDARD
 70
0
 40
0.0
 41
0.8
 50
0.0
 71
0
 42
0.2
  3
txt
  4

  0
STYLE
  5
20E
100
AcDbSymbolTableRecord
100
AcDbTextStyleTableRecord
  2
TEXTSTYLE_1
 70
0
 40
0.0
 41
0.8
 50
0.0
 71
0
 42
0.2
  3
gdt
  4

  0
ENDTAB
  0
TABLE
  2
VIEW
  5
6
100
AcDbSymbolTable
 70
0
  0
ENDTAB
  0
TABLE
  2
UCS
  5
7
100
AcDbSymbolTable
 70
0
  0
ENDTAB
  0
TABLE
  2
APPID
  5
9
100
AcDbSymbolTable
 70
1
  0
APPID
  5
20F
100
AcDbSymbolTableRecord
100
AcDbRegAppTableRecord
  2
ACAD
 70
0
  0
ENDTAB
  0
TABLE
  2
BLOCK_RECORD
  5
1
100
AcDbSymbolTable
 70
0
  0
BLOCK_RECORD
  5
210
100
AcDbSymbolTableRecord
100
AcDbBlockTableRecord
  2
*Model_Space
  0
BLOCK_RECORD
  5
211
100
AcDbSymbolTableRecord
100
AcDbBlockTableRecord
  2
*Paper_Space
  0
BLOCK_RECORD
  5
212
100
AcDbSymbolTableRecord
100
AcDbBlockTableRecord
  2
_FILLED
  0
ENDTAB
  0
TABLE
  2
DIMSTYLE
  5
A
100
AcDbSymbolTable
 70
1
100
AcDbDimStyleTable
 71
0
  0
DIMSTYLE
105
213
100
AcDbSymbolTableRecord
100
AcDbDimStyleTableRecord
  2
STANDARD
 70
0
  3

  4

 40
1.0
 41
1.7815292369
 42
1.0
 43
0.38
 44
1.0
 45
0.0
 46
0.0
 47
0.01
 48
0.01
140
2.4941409317
141
0.09
142
0.0
143
25.4
144
1.0
145
0.0
146
1.0
147
0.625
 71
1
 72
0
 73
0
 74
0
 75
0
 76
0
 77
1
 78
8
 79
2
170
0
171
1
172
0
173
0
174
0
175
0
176
0
177
0
178
0
270
2
179
2
271
2
272
2
273
2
274
2
275
0
280
0
281
0
282
0
283
1
284
8
285
0
286
0
287
3
288
0
340
11
278
46
341
212
342
212
343
212
344
212
  0
ENDTAB
  0
ENDSEC
  0
SECTION
  2
BLOCKS
  0
BLOCK
  5
20
100
AcDbEntity
  8
0
100
AcDbBlockBegin
  2
*Model_Space
 70
0
 10
0.0
 20
0.0
 30
0.0
  3
*Model_Space
  1

  0
ENDBLK
  5
21
100
AcDbEntity
  8
0
100
AcDbBlockEnd
  0
BLOCK
  5
1C
100
AcDbEntity
  8
0
100
AcDbBlockBegin
  2
*Paper_Space
 70
0
 10
0.0
 20
0.0
 30
0.0
  3
*Paper_Space
  1

  0
ENDBLK
  5
1D
100
AcDbEntity
  8
0
100
AcDbBlockEnd
  0
BLOCK
  5
214
100
AcDbEntity
  8
0
100
AcDbBlockBegin
  2
_FILLED
 70
64
 10
0.0
 20
0.0
  3
_FILLED
  1

  0
SOLID
  5
215
100
AcDbEntity
  8
0
  6
BYBLOCK
 62
0
100
AcDbTrace
 10
0.0
 20
0.0
 11
-1.0
 21
0.25
 12
-1.0
 22
-0.25
 13
-1.0
 23
-0.25
  0
ENDBLK
  5
216
100
AcDbEntity
  8
0
  6
BYBLOCK
 62
0
100
AcDbBlockEnd
  0
ENDSEC
  0
SECTION
  2
ENTITIES
  0
LINE
  5
217
100
AcDbEntity
  8
0
100
AcDbLine
 62
7
  6
CONTINUOUS
 10
91.4794891085
 20
17.4860256435
 11
86.4794891089
 21
17.4860256435
  0
LINE
  5
218
100
AcDbEntity
  8
0
100
AcDbLine
 62
7
  6
CONTINUOUS
 10
82.4814128976
 20
17.5209321175
 11
83.9775653199
 21
17.5209321175
  0
LINE
  5
219
100
AcDbEntity
  8
0
100
AcDbLine
 62
7
  6
CONTINUOUS
 10
83.129489108
 20
17.9508566105
 11
86.4794891089
 21
17.9508566105
  0
LINE
  5
21A
100
AcDbEntity
  8
0
100
AcDbLine
 62
7
  6
CONTINUOUS
 10
92.2639126187
 20
20.8514823459
 11
71.5942224566
 21
20.8514823459
  0
LINE
  5
21B
100
AcDbEntity
  8
0
100
AcDbLine
 62
7
  6
CONTINUOUS
 10
85.4493620888
 20
21.0250076595
 11
93.1794891089
 21
21.0250076595
  0
LINE
  5
21C
100
AcDbEntity
  8
0
100
AcDbLine
 62
7
  6
CONTINUOUS
 10
66.5514891089
 20
21.3775715245
 11
59.4394891089
 21
21.3775715245
  0
LINE
  5
21D
100
AcDbEntity
  8
0
100
AcDbLine
 62
7
  6
CONTINUOUS
 10
66.5514891089
 20
22.0097947775
 11
59.4394891089
 21
22.0097947775
  0
LINE
  5
21E
100
AcDbEntity
  8
0
100
AcDbLine
 62
7
  6
CONTINUOUS
 10
66.5514891089
 20
22.6447887325
 11
59.4394891089
 21
22.6447887325
  0
LINE
  5
21F
100
AcDbEntity
  8
0
100
AcDbLine
 62
7
  6
CONTINUOUS
 10
81.6694891089
 20
22.7857207408
 11
91.2044660217
 21
22.7864469423
  0
LINE
  5
220
100
AcDbEntity
  8
0
100
AcDbLine
 62
7
  6
CONTINUOUS
 10
56.8694891089
 20
23.8082285605
 11
95.8694891089
 21
23.8082285605
  0
LINE
  5
221
100
AcDbEntity
  8
0
100
AcDbLine
 62
7
  6
CONTINUOUS
 10
72.1383578668
 20
22.7868097421
 11
81.6694891089
 21
22.785720741
  0
LINE
  5
222
100
AcDbEntity
  8
0
100
AcDbLine
 62
7
  6
CONTINUOUS
 10
64.57178892
 20
20.8819562646
 11
60.7617889213
 21
20.8864107078
  0
LINE
  5
223
100
AcDbEntity
  8
0
100
AcDbLine
 62
7
  6
CONTINUOUS
 10
82.6294891082
 20
18.4508518507
 11
83.129489108
 21
17.9508566105
  0
LINE
  5
224
100
AcDbEntity
  8
0
100
AcDbLine
 62
7
  6
CONTINUOUS
 10
82.0795513288
 20
20.2008974133
 11
82.6294891082
 21
19.2483863038
  0
LINE
  5
225
100
AcDbEntity
  8
0
100
AcDbLine
 62
7
  6
CONTINUOUS
 10
48.3694891089
 20
117.0695192433
 11
48.3694891089
 21
178.4920855309
  0
LINE
  5
226
100
AcDbEntity
  8
0
100
AcDbLine
 62
7
  6
CONTINUOUS
 10
48.8694891089
 20
23.8431350348
 11
48.8694891089
 21
182.021254125
  0
LINE
  5
227
100
AcDbEntity
  8
0
100
AcDbLine
 62
7
  6
CONTINUOUS
 10
48.8694891089
 20
182.0342640728
 11
48.8694891089
 21
182.326685775
  0
LINE
  5
228
100
AcDbEntity
  8
0
100
AcDbLine
 62
7
  6
CONTINUOUS
 10
48.8694891089
 20
182.3396957228
 11
48.8694891089
 21
182.4775643647
  0
LINE
  5
229
100
AcDbEntity
  8
0
100
AcDbLine
 62
7
  6
CONTINUOUS
 10
49.1629770708
 20
193.4895087774
 11
49.1629770708
 21
194.0761733622
  0
LINE
  5
22A
100
AcDbEntity
  8
0
100
AcDbLine
 62
7
  6
CONTINUOUS
 10
49.2194891089
 20
182.3396957227
 11
49.2194891089
 21
182.326685775
  0
LINE
  5
22B
100
AcDbEntity
  8
0
100
AcDbLine
 62
7
  6
CONTINUOUS
 10
49.2194891089
 20
182.0342640728
 11
49.2194891089
 21
182.021254125
  0
LINE
  5
22C
100
AcDbEntity
  8
0
100
AcDbLine
 62
7
  6
CONTINUOUS
 10
48.8852006622
 20
183.1774891468
 11
49.1480343687
 21
193.4898896243
  0
LINE
  5
22D
100
AcDbEntity
  8
0
100
AcDbLine
 62
7
  6
CONTINUOUS
 10
48.8852006622
 20
182.5886833451
 11
49.1629770708
 21
193.4895087774
  0
LINE
  5
22E
100
AcDbEntity
  8
0
100
AcDbLine
 62
7
  6
CONTINUOUS
 10
56.8694891089
 20
23.8082285605
 11
56.8694891089
 21
181.85371498
  0
LINE
  5
22F
100
AcDbEntity
  8
0
100
AcDbLine
 62
7
  6
CONTINUOUS
 10
56.8852006622
 20
182.5537768708
 11
57.0981565586
 21
193.4548851351
  0
LINE
  5
230
100
AcDbEntity
  8
0
100
AcDbLine
 62
7
  6
CONTINUOUS
 10
59.4394891089
 20
23.8082285605
 11
59.4394891089
 21
22.6503301355
  0
LINE
  5
231
100
AcDbEntity
  8
0
100
AcDbLine
 62
7
  6
CONTINUOUS
 10
59.4394891089
 20
21.3775715244
 11
59.4394891089
 21
22.6447887325
  0
LINE
  5
232
100
AcDbEntity
  8
0
100
AcDbLine
 62
7
  6
CONTINUOUS
 10
59.8204891089
 20
20.8917632914
 11
59.8204891089
 21
21.3775715245
  0
LINE
  5
233
100
AcDbEntity
  8
0
100
AcDbLine
 62
7
  6
CONTINUOUS
 10
60.7617889216
 20
20.8864107071
 11
60.7617889216
 21
21.3775715245
  0
LINE
  5
234
100
AcDbEntity
  8
0
100
AcDbLine
 62
7
  6
CONTINUOUS
 10
64.5717889215
 20
20.8819562639
 11
64.5717889215
 21
21.3775715245
  0
LINE
  5
235
100
AcDbEntity
  8
0
100
AcDbLine
 62
7
  6
CONTINUOUS
 10
66.2387552542
 20
182.5051397803
 11
66.4763856833
 21
193.4063179433
  0
LINE
  5
236
100
AcDbEntity
  8
0
100
AcDbLine
 62
7
  6
CONTINUOUS
 10
61.4401834356
 20
182.5537768708
 11
61.6810981744
 21
193.4548851351
  0
LINE
  5
237
100
AcDbEntity
  8
0
100
AcDbLine
 62
7
  6
CONTINUOUS
 10
64.3746081886
 20
182.5434090157
 11
64.6155662719
 21
193.4445160836
  0
LINE
  5
238
100
AcDbEntity
  8
0
100
AcDbLine
 62
7
  6
CONTINUOUS
 10
82.0794891093
 20
19.020917839
 11
82.4814128976
 21
17.5209321175
  0
LINE
  5
239
100
AcDbEntity
  8
0
100
AcDbLine
 62
7
  6
CONTINUOUS
 10
84.9765617475
 20
22.7895057597
 11
85.4493620888
 21
21.0250076595
  0
LINE
  5
23A
100
AcDbEntity
  8
0
100
AcDbLine
 62
7
  6
CONTINUOUS
 10
66.1704891089
 20
20.8873088482
 11
66.1704891089
 21
21.3775715245
  0
LINE
  5
23B
100
AcDbEntity
  8
0
100
AcDbLine
 62
7
  6
CONTINUOUS
 10
66.5514891089
 20
21.3775715244
 11
66.5514891089
 21
22.6447887325
  0
LINE
  5
23C
100
AcDbEntity
  8
0
100
AcDbLine
 62
7
  6
CONTINUOUS
 10
66.5514891089
 20
22.6503301355
 11
66.5514891089
 21
23.8082285605
  0
LINE
  5
23D
100
AcDbEntity
  8
0
100
AcDbLine
 62
7
  6
CONTINUOUS
 10
70.5059986348
 20
20.8562306031
 11
70.5059986348
 21
23.8082285605
  0
LINE
  5
23E
100
AcDbEntity
  8
0
100
AcDbLine
 62
7
  6
CONTINUOUS
 10
70.6194891089
 20
193.4469734054
 11
70.6194891089
 21
193.4819484106
  0
LINE
  5
23F
100
AcDbEntity
  8
0
100
AcDbLine
 62
7
  6
CONTINUOUS
 10
70.6194891089
 20
194.084016561
 11
70.6194891089
 21
194.1189915662
  0
LINE
  5
240
100
AcDbEntity
  8
0
100
AcDbLine
 62
7
  6
CONTINUOUS
 10
81.9203080717
 20
20.8514823459
 11
82.0794891093
 21
19.020917839
  0
LINE
  5
241
100
AcDbEntity
  8
0
100
AcDbLine
 62
7
  6
CONTINUOUS
 10
73.4885594981
 20
182.5156305144
 11
73.1952744842
 21
193.4158269116
  0
LINE
  5
242
100
AcDbEntity
  8
0
100
AcDbLine
 62
7
  6
CONTINUOUS
 10
72.1005211881
 20
182.5051404519
 11
71.9369649119
 21
193.4063172705
  0
LINE
  5
243
100
AcDbEntity
  8
0
100
AcDbLine
 62
7
  6
CONTINUOUS
 10
71.5942224569
 20
20.8514823455
 11
71.5942224569
 21
23.8082285605
  0
LINE
  5
244
100
AcDbEntity
  8
0
100
AcDbLine
 62
7
  6
CONTINUOUS
 10
71.6694891089
 20
22.7889098341
 11
71.6694891089
 21
23.8082285605
  0
LINE
  5
245
100
AcDbEntity
  8
0
100
AcDbLine
 62
7
  6
CONTINUOUS
 10
72.1383578668
 20
23.8082285605
 11
72.1383578668
 21
22.7868097421
  0
LINE
  5
246
100
AcDbEntity
  8
0
100
AcDbLine
 62
7
  6
CONTINUOUS
 10
78.5437037268
 20
193.4158269116
 11
78.2504187141
 21
182.5156305144
  0
LINE
  5
247
100
AcDbEntity
  8
0
100
AcDbLine
 62
7
  6
CONTINUOUS
 10
81.1194891089
 20
194.1189915662
 11
81.1194891089
 21
194.084016561
  0
LINE
  5
248
100
AcDbEntity
  8
0
100
AcDbLine
 62
7
  6
CONTINUOUS
 10
81.1194891089
 20
193.4819484106
 11
81.1194891089
 21
193.4469734054
  0
LINE
  5
249
100
AcDbEntity
  8
0
100
AcDbLine
 62
7
  6
CONTINUOUS
 10
81.6694891089
 20
22.785720741
 11
81.6694891089
 21
23.8082285605
  0
LINE
  5
24A
100
AcDbEntity
  8
0
100
AcDbLine
 62
7
  6
CONTINUOUS
 10
82.6294891082
 20
20.8514823459
 11
82.6294891082
 21
20.7508299577
  0
LINE
  5
24B
100
AcDbEntity
  8
0
100
AcDbLine
 62
7
  6
CONTINUOUS
 10
82.6294891082
 20
19.2483863038
 11
82.6294891082
 21
18.4508518507
  0
LINE
  5
24C
100
AcDbEntity
  8
0
100
AcDbLine
 62
7
  6
CONTINUOUS
 10
79.6384570233
 20
182.5051404519
 11
79.802013299
 21
193.4063172705
  0
LINE
  5
24D
100
AcDbEntity
  8
0
100
AcDbLine
 62
7
  6
CONTINUOUS
 10
87.3644386927
 20
182.543408492
 11
87.123437234
 21
193.4445167563
  0
LINE
  5
24E
100
AcDbEntity
  8
0
100
AcDbLine
 62
7
  6
CONTINUOUS
 10
85.5002290976
 20
182.5051404519
 11
85.2625672324
 21
193.4063172705
  0
LINE
  5
24F
100
AcDbEntity
  8
0
100
AcDbLine
 62
7
  6
CONTINUOUS
 10
86.4794891089
 20
17.4860256429
 11
86.4794891089
 21
20.8514823459
  0
LINE
  5
250
100
AcDbEntity
  8
0
100
AcDbLine
 62
7
  6
CONTINUOUS
 10
48.3694891089
 20
117.0694775217
 11
48.8694891089
 21
117.0694775217
  0
LINE
  5
251
100
AcDbEntity
  8
0
100
AcDbLine
 62
7
  6
CONTINUOUS
 10
90.2988814947
 20
182.5537768708
 11
90.0578800363
 21
193.4548851351
  0
LINE
  5
252
100
AcDbEntity
  8
0
100
AcDbLine
 62
7
  6
CONTINUOUS
 10
91.2044660217
 20
22.7864469423
 11
91.2044660217
 21
23.8082285605
  0
LINE
  5
253
100
AcDbEntity
  8
0
100
AcDbLine
 62
7
  6
CONTINUOUS
 10
91.4794891085
 20
17.4860256435
 11
91.4794891085
 21
20.8514823459
  0
LINE
  5
254
100
AcDbEntity
  8
0
100
AcDbLine
 62
7
  6
CONTINUOUS
 10
91.6694891089
 20
23.8082285605
 11
91.6694891089
 21
22.7885117078
  0
LINE
  5
255
100
AcDbEntity
  8
0
100
AcDbLine
 62
7
  6
CONTINUOUS
 10
92.2639126183
 20
21.0250076595
 11
92.2639126183
 21
20.8514823455
  0
LINE
  5
256
100
AcDbEntity
  8
0
100
AcDbLine
 62
7
  6
CONTINUOUS
 10
92.2794891089
 20
17.495624924
 11
92.2794891089
 21
20.8514823459
  0
LINE
  5
257
100
AcDbEntity
  8
0
100
AcDbLine
 62
7
  6
CONTINUOUS
 10
93.1794891089
 20
23.8082285605
 11
93.1794891089
 21
21.0250076586
  0
LINE
  5
258
100
AcDbEntity
  8
0
100
AcDbLine
 62
7
  6
CONTINUOUS
 10
93.3481976379
 20
23.8082285605
 11
93.3481976379
 21
20.8562134165
  0
LINE
  5
259
100
AcDbEntity
  8
0
100
AcDbLine
 62
7
  6
CONTINUOUS
 10
95.8694891089
 20
23.8082285605
 11
95.8694891089
 21
181.85371498
  0
LINE
  5
25A
100
AcDbEntity
  8
0
100
AcDbLine
 62
7
  6
CONTINUOUS
 10
95.853777556
 20
182.5537768708
 11
95.8962679791
 21
193.4548851351
  0
LINE
  5
25B
100
AcDbEntity
  8
0
100
AcDbLine
 62
7
  6
CONTINUOUS
 10
103.8537775561
 20
182.5886833451
 11
103.5760011471
 21
193.4883941862
  0
LINE
  5
25C
100
AcDbEntity
  8
0
100
AcDbLine
 62
7
  6
CONTINUOUS
 10
103.8537775561
 20
183.1774891468
 11
103.5909722385
 21
193.4887757566
  0
LINE
  5
25D
100
AcDbEntity
  8
0
100
AcDbLine
 62
7
  6
CONTINUOUS
 10
103.5760011471
 20
194.0761733623
 11
103.5760011471
 21
193.4883941862
  0
LINE
  5
25E
100
AcDbEntity
  8
0
100
AcDbLine
 62
7
  6
CONTINUOUS
 10
103.8694891089
 20
23.8431350348
 11
103.8694891089
 21
182.4775643646
  0
LINE
  5
25F
100
AcDbEntity
  8
0
100
AcDbLine
 62
7
  6
CONTINUOUS
 10
83.9775653199
 20
17.5209321175
 11
84.0927643371
 21
17.9508566105
  0
LINE
  5
260
100
AcDbEntity
  8
0
100
AcDbLine
 62
7
  6
CONTINUOUS
 10
82.6294891082
 20
20.7508299577
 11
82.0795513288
 21
20.2008974133
  0
LINE
  5
261
100
AcDbEntity
  8
0
100
AcDbLine
 62
7
  6
CONTINUOUS
 10
79.5654247816
 20
178.4659244676
 11
85.5095656737
 21
178.5697318463
  0
LINE
  5
262
100
AcDbEntity
  8
0
100
AcDbLine
 62
7
  6
CONTINUOUS
 10
79.5654251265
 20
178.4659342168
 11
78.1614880575
 21
178.4626313049
  0
LINE
  5
263
100
AcDbEntity
  8
0
100
AcDbLine
 62
7
  6
CONTINUOUS
 10
48.3694891089
 20
178.4921272525
 11
48.8694891089
 21
178.4921272525
  0
LINE
  5
264
100
AcDbEntity
  8
0
100
AcDbLine
 62
7
  6
CONTINUOUS
 10
73.5790373682
 20
178.4624483799
 11
72.6652931582
 21
178.4645896258
  0
LINE
  5
265
100
AcDbEntity
  8
0
100
AcDbLine
 62
7
  6
CONTINUOUS
 10
72.6652931582
 20
178.4645896257
 11
72.17552196
 21
178.4694390532
  0
LINE
  5
266
100
AcDbEntity
  8
0
100
AcDbLine
 62
7
  6
CONTINUOUS
 10
66.1736647861
 20
178.5742103166
 11
72.1753580269
 21
178.4694419143
  0
LINE
  5
267
100
AcDbEntity
  8
0
100
AcDbLine
 62
7
  6
CONTINUOUS
 10
66.1737271794
 20
178.5742092267
 11
65.9934053508
 21
178.5810600582
  0
LINE
  5
268
100
AcDbEntity
  8
0
100
AcDbLine
 62
7
  6
CONTINUOUS
 10
65.9934053509
 20
178.5810600582
 11
63.7972262918
 21
178.7096561411
  0
LINE
  5
269
100
AcDbEntity
  8
0
100
AcDbLine
 62
7
  6
CONTINUOUS
 10
85.5002290976
 20
181.8051471154
 11
87.8661898015
 21
181.85371498
  0
LINE
  5
26A
100
AcDbEntity
  8
0
100
AcDbLine
 62
7
  6
CONTINUOUS
 10
87.3644386929
 20
182.5434084921
 11
85.5002290975
 21
182.5051404519
  0
LINE
  5
26B
100
AcDbEntity
  8
0
100
AcDbLine
 62
7
  6
CONTINUOUS
 10
64.3749658977
 20
182.5190487516
 11
63.9711148597
 21
182.5124708389
  0
LINE
  5
26C
100
AcDbEntity
  8
0
100
AcDbLine
 62
7
  6
CONTINUOUS
 10
72.1003533903
 20
181.8051458472
 11
73.4885594982
 21
181.8156371779
  0
LINE
  5
26D
100
AcDbEntity
  8
0
100
AcDbLine
 62
7
  6
CONTINUOUS
 10
73.4885594982
 20
182.5156305145
 11
72.1005211883
 21
182.5051404519
  0
LINE
  5
26E
100
AcDbEntity
  8
0
100
AcDbLine
 62
7
  6
CONTINUOUS
 10
72.1005211601
 20
181.8051501797
 11
66.238749143
 21
181.8051439539
  0
LINE
  5
26F
100
AcDbEntity
  8
0
100
AcDbLine
 62
7
  6
CONTINUOUS
 10
85.5002287615
 20
181.8051376129
 11
79.6384573701
 21
181.8051569195
  0
LINE
  5
270
100
AcDbEntity
  8
0
100
AcDbLine
 62
7
  6
CONTINUOUS
 10
56.8694891089
 20
181.85371498
 11
63.8727884089
 21
181.85371498
  0
LINE
  5
271
100
AcDbEntity
  8
0
100
AcDbLine
 62
7
  6
CONTINUOUS
 10
87.8661898015
 20
181.85371498
 11
95.8694891089
 21
181.85371498
  0
LINE
  5
272
100
AcDbEntity
  8
0
100
AcDbLine
 62
7
  6
CONTINUOUS
 10
48.8694891089
 20
182.021254125
 11
49.2194891089
 21
182.021254125
  0
LINE
  5
273
100
AcDbEntity
  8
0
100
AcDbLine
 62
7
  6
CONTINUOUS
 10
48.8694891089
 20
182.0342640728
 11
49.2194891089
 21
182.0342640728
  0
LINE
  5
274
100
AcDbEntity
  8
0
100
AcDbLine
 62
7
  6
CONTINUOUS
 10
48.8694891089
 20
182.3266857749
 11
49.2194891089
 21
182.3266857749
  0
LINE
  5
275
100
AcDbEntity
  8
0
100
AcDbLine
 62
7
  6
CONTINUOUS
 10
48.8694891089
 20
182.3396957227
 11
49.2194891089
 21
182.3396957227
  0
LINE
  5
276
100
AcDbEntity
  8
0
100
AcDbLine
 62
7
  6
CONTINUOUS
 10
85.5002290975
 20
182.5051404519
 11
79.6384570233
 21
182.5051404519
  0
LINE
  5
277
100
AcDbEntity
  8
0
100
AcDbLine
 62
7
  6
CONTINUOUS
 10
72.1005211883
 20
182.5051404519
 11
66.2387563949
 21
182.5051404519
  0
LINE
  5
278
100
AcDbEntity
  8
0
100
AcDbLine
 62
7
  6
CONTINUOUS
 10
95.8694891089
 20
182.5124708389
 11
87.7678636095
 21
182.5124708389
  0
LINE
  5
279
100
AcDbEntity
  8
0
100
AcDbLine
 62
7
  6
CONTINUOUS
 10
63.9711148597
 20
182.5124708389
 11
56.8694891089
 21
182.5124708389
  0
LINE
  5
27A
100
AcDbEntity
  8
0
100
AcDbLine
 62
7
  6
CONTINUOUS
 10
95.853777556
 20
182.5537768709
 11
90.2988814947
 21
182.5537768709
  0
LINE
  5
27B
100
AcDbEntity
  8
0
100
AcDbLine
 62
7
  6
CONTINUOUS
 10
61.4401834356
 20
182.5537768709
 11
56.8852006622
 21
182.5537768709
  0
LINE
  5
27C
100
AcDbEntity
  8
0
100
AcDbLine
 62
7
  6
CONTINUOUS
 10
78.250418714
 20
181.8156371779
 11
79.6384570233
 21
181.8051471154
  0
LINE
  5
27D
100
AcDbEntity
  8
0
100
AcDbLine
 62
7
  6
CONTINUOUS
 10
79.6384570233
 20
182.5051404519
 11
78.2504187139
 21
182.5156305145
  0
LINE
  5
27E
100
AcDbEntity
  8
0
100
AcDbLine
 62
7
  6
CONTINUOUS
 10
87.7678636095
 20
182.5124708389
 11
87.3640419145
 21
182.5190482725
  0
LINE
  5
27F
100
AcDbEntity
  8
0
100
AcDbLine
 62
7
  6
CONTINUOUS
 10
63.8727884089
 20
181.85371498
 11
66.2386853747
 21
181.8051484238
  0
LINE
  5
280
100
AcDbEntity
  8
0
100
AcDbLine
 62
7
  6
CONTINUOUS
 10
66.2387563949
 20
182.5051404519
 11
64.3745691168
 21
182.5434091229
  0
LINE
  5
281
100
AcDbEntity
  8
0
100
AcDbLine
 62
7
  6
CONTINUOUS
 10
87.123437234
 20
193.4445167563
 11
85.2625672325
 21
193.4063172705
  0
LINE
  5
282
100
AcDbEntity
  8
0
100
AcDbLine
 62
7
  6
CONTINUOUS
 10
64.7917577635
 20
194.1207818417
 11
67.1784956624
 21
194.1596477011
  0
LINE
  5
283
100
AcDbEntity
  8
0
100
AcDbLine
 62
7
  6
CONTINUOUS
 10
73.1952744842
 20
193.4158269116
 11
71.9369649118
 21
193.4063172705
  0
LINE
  5
284
100
AcDbEntity
  8
0
100
AcDbLine
 62
7
  6
CONTINUOUS
 10
85.2625672324
 20
193.4063172705
 11
79.8020132989
 21
193.4063172705
  0
LINE
  5
285
100
AcDbEntity
  8
0
100
AcDbLine
 62
7
  6
CONTINUOUS
 10
71.9369649119
 20
193.4063172705
 11
66.4763856712
 21
193.4063172705
  0
LINE
  5
286
100
AcDbEntity
  8
0
100
AcDbLine
 62
7
  6
CONTINUOUS
 10
81.119489109
 20
193.4469734054
 11
78.5437037268
 21
193.4469734054
  0
LINE
  5
287
100
AcDbEntity
  8
0
100
AcDbLine
 62
7
  6
CONTINUOUS
 10
73.1952744839
 20
193.4469734054
 11
70.6194891088
 21
193.4469734054
  0
LINE
  5
288
100
AcDbEntity
  8
0
100
AcDbLine
 62
7
  6
CONTINUOUS
 10
95.8962679791
 20
193.4548851351
 11
90.0578800363
 21
193.4548851351
  0
LINE
  5
289
100
AcDbEntity
  8
0
100
AcDbLine
 62
7
  6
CONTINUOUS
 10
61.6810981744
 20
193.4548851351
 11
57.0981565586
 21
193.4548851351
  0
LINE
  5
28A
100
AcDbEntity
  8
0
100
AcDbLine
 62
7
  6
CONTINUOUS
 10
70.6194891088
 20
193.4819484106
 11
81.119489109
 21
193.4819484106
  0
LINE
  5
28B
100
AcDbEntity
  8
0
100
AcDbLine
 62
7
  6
CONTINUOUS
 10
81.119489109
 20
194.084016561
 11
70.6194891088
 21
194.084016561
  0
LINE
  5
28C
100
AcDbEntity
  8
0
100
AcDbLine
 62
7
  6
CONTINUOUS
 10
57.1629770708
 20
194.1110798365
 11
61.8939802846
 21
194.1110798365
  0
LINE
  5
28D
100
AcDbEntity
  8
0
100
AcDbLine
 62
7
  6
CONTINUOUS
 10
89.8449979262
 20
194.1110798365
 11
95.5760011471
 21
194.1110798365
  0
LINE
  5
28E
100
AcDbEntity
  8
0
100
AcDbLine
 62
7
  6
CONTINUOUS
 10
70.6194891095
 20
194.1189915661
 11
81.1194891083
 21
194.1189915661
  0
LINE
  5
28F
100
AcDbEntity
  8
0
100
AcDbLine
 62
7
  6
CONTINUOUS
 10
67.1784956624
 20
194.1596477011
 11
84.5604825483
 21
194.1596477011
  0
LINE
  5
290
100
AcDbEntity
  8
0
100
AcDbLine
 62
7
  6
CONTINUOUS
 10
78.5437037269
 20
193.4158269115
 11
79.8020132989
 21
193.4063172704
  0
LINE
  5
291
100
AcDbEntity
  8
0
100
AcDbLine
 62
7
  6
CONTINUOUS
 10
84.5604825483
 20
194.1596477011
 11
86.9472204473
 21
194.1207818417
  0
LINE
  5
292
100
AcDbEntity
  8
0
100
AcDbLine
 62
7
  6
CONTINUOUS
 10
66.4763856833
 20
193.4063179433
 11
64.6155662719
 21
193.4445160836
  0
ARC
  5
293
100
AcDbEntity
  8
0
100
AcDbCircle
 62
7
  6
CONTINUOUS
 10
76.3902961304
 20
-642.5655392976
 40
836.15214987
100
AcDbArc
 50
89.8642874185
 51
90.0014257627
  0
ARC
  5
294
100
AcDbEntity
  8
0
100
AcDbCircle
 62
7
  6
CONTINUOUS
 10
76.4609711048
 20
969.1312630285
 40
775.5795180756
100
AcDbArc
 50
269.9932417861
 51
270.141973469
  0
ARC
  5
295
100
AcDbEntity
  8
0
100
AcDbCircle
 62
7
  6
CONTINUOUS
 10
-118.9142893045
 20
179.5975105779
 40
204.4264386357
100
AcDbArc
 50
359.7119373009
 51
0.6187564159
  0
ARC
  5
296
100
AcDbEntity
  8
0
100
AcDbCircle
 62
7
  6
CONTINUOUS
 10
-118.8660894027
 20
184.4762489871
 40
198.5225171669
100
AcDbArc
 50
358.2650892083
 51
359.2290702216
  0
ARC
  5
297
100
AcDbEntity
  8
0
100
AcDbCircle
 62
7
  6
CONTINUOUS
 10
-118.8367042901
 20
185.3652309751
 40
197.1190849973
100
AcDbArc
 50
357.9929453143
 51
358.9681986577
  0
ARC
  5
298
100
AcDbEntity
  8
0
100
AcDbCircle
 62
7
  6
CONTINUOUS
 10
-118.7460577487
 20
174.950825264
 40
192.3571514415
100
AcDbArc
 50
1.045737337
 51
2.0451971031
  0
ARC
  5
299
100
AcDbEntity
  8
0
100
AcDbCircle
 62
7
  6
CONTINUOUS
 10
-118.7337541736
 20
175.8550751834
 40
190.927012323
100
AcDbArc
 50
0.7845765736
 51
1.7858625026
  0
ARC
  5
29A
100
AcDbEntity
  8
0
100
AcDbCircle
 62
7
  6
CONTINUOUS
 10
-118.8772429689
 20
183.9180227645
 40
185.1280497181
100
AcDbArc
 50
358.3458993116
 51
359.3460652399
  0
ARC
  5
29B
100
AcDbEntity
  8
0
100
AcDbCircle
 62
7
  6
CONTINUOUS
 10
-118.8501967473
 20
184.6722134405
 40
182.744721505
100
AcDbArc
 50
358.1302332045
 51
359.1162838084
  0
ARC
  5
29C
100
AcDbEntity
  8
0
100
AcDbCircle
 62
7
  6
CONTINUOUS
 10
92.3717782313
 20
180.8148666021
 40
159.963355201
100
AcDbArc
 50
270.0043720227
 51
270.2359783376
  0
SPLINE
  5
29D
100
AcDbEntity
  8
0
100
AcDbSpline
 62
7
  6
CONTINUOUS
 70
0
 71
3
 72
14
 73
10
 74
0
 42
0.0000001
 43
0.0000001
 44
0.0000000001
 40
0.0
 40
0.0
 40
0.0
 40
0.0
 40
0.0165919871
 40
0.064182531
 40
0.1429749739
 40
0.2528520411
 40
0.3936593928
 40
0.56523252
 40
1.0
 40
1.0
 40
1.0
 40
1.0
 10
103.853777556
 20
182.5886833451
 30
0.0
 10
103.8537595591
 20
182.5875584661
 30
0.0
 10
103.8471256006
 20
182.5879998935
 30
0.0
 10
103.8396607784
 20
182.5860806335
 30
0.0
 10
103.8224284063
 20
182.5857728129
 30
0.0
 10
103.8006518733
 20
182.5845628165
 30
0.0
 10
103.7718261027
 20
182.5837128129
 30
0.0
 10
103.7212860245
 20
182.5822756643
 30
0.0
 10
103.6801354297
 20
182.5814400127
 30
0.0
 10
103.6506612717
 20
182.580879048
 30
0.0
  0
SPLINE
  5
29E
100
AcDbEntity
  8
0
100
AcDbSpline
 62
7
  6
CONTINUOUS
 70
0
 71
3
 72
11
 73
7
 74
0
 42
0.0000001
 43
0.0000001
 44
0.0000000001
 40
0.0
 40
0.0
 40
0.0
 40
0.0
 40
0.1317446395
 40
0.3607540004
 40
0.6613909735
 40
1.0
 40
1.0
 40
1.0
 40
1.0
 10
103.6506612717
 20
182.580879048
 30
0.0
 10
103.3083203068
 20
182.5743634693
 30
0.0
 10
102.3707104144
 20
182.5682444373
 30
0.0
 10
100.6518033114
 20
182.5597125127
 30
0.0
 10
98.3952100539
 20
182.5550536809
 30
0.0
 10
96.7338189331
 20
182.5537771389
 30
0.0
 10
95.853777556
 20
182.5537768708
 30
0.0
  0
SPLINE
  5
29F
100
AcDbEntity
  8
0
100
AcDbSpline
 62
7
  6
CONTINUOUS
 70
0
 71
3
 72
26
 73
22
 74
0
 42
0.0000001
 43
0.0000001
 44
0.0000000001
 40
0.0
 40
0.0
 40
0.0
 40
0.0
 40
0.0003212715
 40
0.0012339868
 40
0.0027458504
 40
0.0048564346
 40
0.0108679588
 40
0.0192553356
 40
0.0300042035
 40
0.0430975677
 40
0.0584996268
 40
0.0761656617
 40
0.1181104435
 40
0.1685596833
 40
0.2270145062
 40
0.292907641
 40
0.3656316644
 40
0.4444508116
 40
0.6172968055
 40
0.8049809374
 40
1.0
 40
1.0
 40
1.0
 40
1.0
 10
80.3641362526
 20
194.0186011872
 30
0.0
 10
80.3641341365
 20
194.0181733821
 30
0.0
 10
80.3616578349
 20
194.0182205189
 30
0.0
 10
80.3588222929
 20
194.0175224959
 30
0.0
 10
80.3523460111
 20
194.017309418
 30
0.0
 10
80.3398042982
 20
194.016574428
 30
0.0
 10
80.3176288602
 20
194.0159421151
 30
0.0
 10
80.2842486629
 20
194.0150864593
 30
0.0
 10
80.2413010062
 20
194.0142891969
 30
0.0
 10
80.1890624926
 20
194.0134728875
 30
0.0
 10
80.1275937271
 20
194.0126731187
 30
0.0
 10
80.027713569
 20
194.0115535303
 30
0.0
 10
79.8811604251
 20
194.0102370371
 30
0.0
 10
79.6802932581
 20
194.0087997641
 30
0.0
 10
79.4475342314
 20
194.0074487387
 30
0.0
 10
79.1851130413
 20
194.0061979899
 30
0.0
 10
78.8955735742
 20
194.0050634934
 30
0.0
 10
78.4636140067
 20
194.0036760172
 30
0.0
 10
77.8785708981
 20
194.0023454149
 30
0.0
 10
77.1387932907
 20
194.0013865112
 30
0.0
 10
76.6291795961
 20
194.0011712045
 30
0.0
 10
76.3694891089
 20
194.0011712045
 30
0.0
  0
SPLINE
  5
2A0
100
AcDbEntity
  8
0
100
AcDbSpline
 62
7
  6
CONTINUOUS
 70
0
 71
3
 72
22
 73
18
 74
0
 42
0.0000001
 43
0.0000001
 44
0.0000000001
 40
0.0
 40
0.0
 40
0.0
 40
0.0
 40
0.0011065164
 40
0.0043074788
 40
0.009616417
 40
0.0170283244
 40
0.026536069
 40
0.0381319365
 40
0.0675561483
 40
0.105223184
 40
0.1509691339
 40
0.2045961198
 40
0.2659060727
 40
0.4107012536
 40
0.5831027588
 40
0.780554843
 40
1.0
 40
1.0
 40
1.0
 40
1.0
 10
80.3641362526
 20
193.5691803308
 30
0.0
 10
80.3641329832
 20
193.5685193835
 30
0.0
 10
80.3601671942
 20
193.5688717593
 30
0.0
 10
80.3557819307
 20
193.5677162577
 30
0.0
 10
80.3455254395
 20
193.5676102057
 30
0.0
 10
80.332591391
 20
193.5669223927
 30
0.0
 10
80.3154370475
 20
193.5664695103
 30
0.0
 10
80.2853259149
 20
193.5656815811
 30
0.0
 10
80.2382919768
 20
193.5648053583
 30
0.0
 10
80.1709157856
 20
193.56378776
 30
0.0
 10
80.0890574248
 20
193.562796321
 30
0.0
 10
79.9930837513
 20
193.5618184962
 30
0.0
 10
79.8379428596
 20
193.5604742396
 30
0.0
 10
79.611855149
 20
193.5589275262
 30
0.0
 10
79.3044440703
 20
193.5572923363
 30
0.0
 10
78.9524413056
 20
193.5558279357
 30
0.0
 10
78.7034173451
 20
193.5550185867
 30
0.0
 10
78.5723367166
 20
193.5546403305
 30
0.0
  0
LINE
  5
2A1
100
AcDbEntity
  8
0
100
AcDbLine
 62
7
  6
CONTINUOUS
 10
78.5723367166
 20
193.5546403305
 11
78.3827811042
 21
193.5541259849
  0
SPLINE
  5
2A2
100
AcDbEntity
  8
0
100
AcDbSpline
 62
7
  6
CONTINUOUS
 70
0
 71
3
 72
26
 73
22
 74
0
 42
0.0000001
 43
0.0000001
 44
0.0000000001
 40
0.0
 40
0.0
 40
0.0
 40
0.0
 40
0.0003212715
 40
0.0012339868
 40
0.0027458504
 40
0.0048564346
 40
0.0108679588
 40
0.0192553356
 40
0.0300042035
 40
0.0430975677
 40
0.0584996268
 40
0.0761656617
 40
0.1181104435
 40
0.1685596833
 40
0.2270145063
 40
0.292907641
 40
0.3656316644
 40
0.4444508116
 40
0.6172968055
 40
0.8049809374
 40
1.0
 40
1.0
 40
1.0
 40
1.0
 10
61.7554161488
 20
194.0775058625
 30
0.0
 10
61.7554135605
 20
194.0769826062
 30
0.0
 10
61.7523847502
 20
194.0770402601
 30
0.0
 10
61.7489165461
 20
194.0761864952
 30
0.0
 10
61.7409952857
 20
194.0759258757
 30
0.0
 10
61.7256552839
 20
194.0750268958
 30
0.0
 10
61.6985320942
 20
194.0742535021
 30
0.0
 10
61.6577041555
 20
194.0732069337
 30
0.0
 10
61.6051740797
 20
194.0722317872
 30
0.0
 10
61.5412801845
 20
194.071233344
 30
0.0
 10
61.4660965969
 20
194.070255132
 30
0.0
 10
61.3439313223
 20
194.0688857426
 30
0.0
 10
61.1646794528
 20
194.0672755154
 30
0.0
 10
60.9189950939
 20
194.0655175601
 30
0.0
 10
60.6343032097
 20
194.0638650958
 30
0.0
 10
60.313330983
 20
194.0623352818
 30
0.0
 10
59.9591898885
 20
194.0609476581
 30
0.0
 10
59.4308521267
 20
194.0592506102
 30
0.0
 10
58.7152750454
 20
194.0576231258
 30
0.0
 10
57.8104393276
 20
194.0564502729
 30
0.0
 10
57.1871213623
 20
194.0561869273
 30
0.0
 10
56.8694891089
 20
194.0561869273
 30
0.0
  0
SPLINE
  5
2A3
100
AcDbEntity
  8
0
100
AcDbSpline
 62
7
  6
CONTINUOUS
 70
0
 71
3
 72
29
 73
25
 74
0
 42
0.0000001
 43
0.0000001
 44
0.0000000001
 40
0.0
 40
0.0
 40
0.0
 40
0.0
 40
0.1950715701
 40
0.3826536443
 40
0.4713337346
 40
0.5554886361
 40
0.6343257889
 40
0.7070526392
 40
0.7729206249
 40
0.8313571223
 40
0.8818335131
 40
0.9039214906
 40
0.9238212356
 40
0.9414738365
 40
0.9568489629
 40
0.9699234503
 40
0.980674181
 40
0.9890781371
 40
0.992392956
 40
0.9951125981
 40
0.9972343752
 40
0.9987558571
 40
0.9996755525
 40
1.0
 40
1.0
 40
1.0
 40
1.0
 10
56.8852006622
 20
182.5537768708
 30
0.0
 10
56.3649838115
 20
182.5537770293
 30
0.0
 10
55.3445230519
 20
182.5542125535
 30
0.0
 10
54.0875711307
 20
182.5558349644
 30
0.0
 10
53.1264129089
 20
182.5578090964
 30
0.0
 10
52.4552558828
 20
182.5595548141
 30
0.0
 10
51.8266439182
 20
182.5615727038
 30
0.0
 10
51.2468006909
 20
182.5638430352
 30
0.0
 10
50.7213634428
 20
182.5663484989
 30
0.0
 10
50.2552655806
 20
182.5690577702
 30
0.0
 10
49.9059212758
 20
182.5715525605
 30
0.0
 10
49.6593469575
 20
182.573673562
 30
0.0
 10
49.5003059487
 20
182.5752263662
 30
0.0
 10
49.3591669441
 20
182.5768087761
 30
0.0
 10
49.2362345174
 20
182.5784170195
 30
0.0
 10
49.1317000593
 20
182.5800367872
 30
0.0
 10
49.0457872937
 20
182.5816795463
 30
0.0
 10
48.9858349435
 20
182.5831025706
 30
0.0
 10
48.9474221677
 20
182.5843449674
 30
0.0
 10
48.9255335242
 20
182.5851116416
 30
0.0
 10
48.9089817438
 20
182.586102322
 30
0.0
 10
48.8959345929
 20
182.5865166412
 30
0.0
 10
48.8901995668
 20
182.5879324749
 30
0.0
 10
48.8852145034
 20
182.5878182194
 30
0.0
 10
48.8852006622
 20
182.5886833451
 30
0.0
  0
SPLINE
  5
2A4
100
AcDbEntity
  8
0
100
AcDbSpline
 62
7
  6
CONTINUOUS
 70
0
 71
3
 72
11
 73
7
 74
0
 42
0.0000001
 43
0.0000001
 44
0.0000000001
 40
0.0
 40
0.0
 40
0.0
 40
0.0
 40
0.1283446526
 40
0.356663527
 40
0.6587164557
 40
1.0
 40
1.0
 40
1.0
 40
1.0
 10
64.3745691168
 20
182.5434091229
 30
0.0
 10
64.2490565221
 20
182.5459844728
 30
0.0
 10
63.9001809303
 20
182.5482028307
 30
0.0
 10
63.2558825368
 20
182.5515318194
 30
0.0
 10
62.403278146
 20
182.553279128
 30
0.0
 10
61.7740064548
 20
182.5537766843
 30
0.0
 10
61.4401834356
 20
182.5537768709
 30
0.0
  0
SPLINE
  5
2A5
100
AcDbEntity
  8
0
100
AcDbSpline
 62
7
  6
CONTINUOUS
 70
0
 71
3
 72
26
 73
22
 74
0
 42
0.0000001
 43
0.0000001
 44
0.0000000001
 40
0.0
 40
0.0
 40
0.0
 40
0.0
 40
0.0003212715
 40
0.0012339868
 40
0.0027458504
 40
0.0048564346
 40
0.0108679588
 40
0.0192553356
 40
0.0300042035
 40
0.0430975677
 40
0.0584996268
 40
0.0761656617
 40
0.1181104435
 40
0.1685596833
 40
0.2270145063
 40
0.292907641
 40
0.3656316644
 40
0.4444508116
 40
0.6172968055
 40
0.8049809374
 40
1.0
 40
1.0
 40
1.0
 40
1.0
 10
100.7554161488
 20
194.0775058625
 30
0.0
 10
100.7554135605
 20
194.0769826062
 30
0.0
 10
100.7523847502
 20
194.0770402601
 30
0.0
 10
100.7489165461
 20
194.0761864952
 30
0.0
 10
100.7409952857
 20
194.0759258757
 30
0.0
 10
100.7256552839
 20
194.0750268958
 30
0.0
 10
100.6985320942
 20
194.0742535021
 30
0.0
 10
100.6577041555
 20
194.0732069337
 30
0.0
 10
100.6051740797
 20
194.0722317872
 30
0.0
 10
100.5412801845
 20
194.071233344
 30
0.0
 10
100.466096597
 20
194.070255132
 30
0.0
 10
100.3439313224
 20
194.0688857426
 30
0.0
 10
100.1646794528
 20
194.0672755154
 30
0.0
 10
99.9189950939
 20
194.0655175601
 30
0.0
 10
99.6343032097
 20
194.0638650958
 30
0.0
 10
99.313330983
 20
194.0623352818
 30
0.0
 10
98.9591898885
 20
194.0609476581
 30
0.0
 10
98.4308521268
 20
194.0592506102
 30
0.0
 10
97.7152750455
 20
194.0576231258
 30
0.0
 10
96.8104393276
 20
194.0564502729
 30
0.0
 10
96.1871213623
 20
194.0561869273
 30
0.0
 10
95.8694891089
 20
194.0561869273
 30
0.0
  0
SPLINE
  5
2A6
100
AcDbEntity
  8
0
100
AcDbSpline
 62
7
  6
CONTINUOUS
 70
0
 71
3
 72
39
 73
35
 74
0
 42
0.0000001
 43
0.0000001
 44
0.0000000001
 40
0.0
 40
0.0
 40
0.0
 40
0.0
 40
0.0006151995
 40
0.0024289151
 40
0.0054375041
 40
0.0096331023
 40
0.0150073704
 40
0.021551836
 40
0.0380917154
 40
0.0590720948
 40
0.0842937383
 40
0.1135301299
 40
0.1464808818
 40
0.1828330279
 40
0.222247452
 40
0.3086817221
 40
0.4024719943
 40
0.5000065992
 40
0.5975409473
 40
0.691330468
 40
0.7777635328
 40
0.8171771777
 40
0.853528423
 40
0.8864781924
 40
0.9157135801
 40
0.9409342327
 40
0.9619135141
 40
0.9784520117
 40
0.9849956376
 40
0.9903690274
 40
0.9945637969
 40
0.9975716954
 40
0.9993849475
 40
1.0
 40
1.0
 40
1.0
 40
1.0
 10
78.2504187137
 20
182.5252944787
 30
0.0
 10
78.2504128048
 20
182.5262710017
 30
0.0
 10
78.2443239792
 20
182.5250895695
 30
0.0
 10
78.2378514888
 20
182.526996977
 30
0.0
 10
78.2223273627
 20
182.5266339152
 30
0.0
 10
78.2029017574
 20
182.5274851341
 30
0.0
 10
78.177120863
 20
182.5278300005
 30
0.0
 10
78.1320499096
 20
182.5285975928
 30
0.0
 10
78.0620446944
 20
182.5293699319
 30
0.0
 10
77.9624821588
 20
182.5302860197
 30
0.0
 10
77.8427278938
 20
182.5311352396
 30
0.0
 10
77.7039845317
 20
182.5319424448
 30
0.0
 10
77.5475682883
 20
182.5326870586
 30
0.0
 10
77.3749967913
 20
182.5333641687
 30
0.0
 10
77.1175274514
 20
182.5341901749
 30
0.0
 10
76.768883043
 20
182.5349833815
 30
0.0
 10
76.3279806002
 20
182.5355551214
 30
0.0
 10
75.8694580769
 20
182.5357481437
 30
0.0
 10
75.4109367467
 20
182.5355550696
 30
0.0
 10
74.9700378174
 20
182.53498328
 30
0.0
 10
74.6213977521
 20
182.5341900337
 30
0.0
 10
74.3639329923
 20
182.5333639969
 30
0.0
 10
74.1913657217
 20
182.5326868671
 30
0.0
 10
74.0349540621
 20
182.5319422353
 30
0.0
 10
73.8962154251
 20
182.531135014
 30
0.0
 10
73.776466073
 20
182.5302857835
 30
0.0
 10
73.6769090368
 20
182.5293696925
 30
0.0
 10
73.6069091168
 20
182.5285973459
 30
0.0
 10
73.5618430402
 20
182.5278297512
 30
0.0
 10
73.5360662963
 20
182.5274848459
 30
0.0
 10
73.5166441946
 20
182.5266337338
 30
0.0
 10
73.501123958
 20
182.5269965079
 30
0.0
 10
73.494652168
 20
182.5250896386
 30
0.0
 10
73.4885657506
 20
182.5262704919
 30
0.0
 10
73.488559498
 20
182.5252942044
 30
0.0
  0
SPLINE
  5
2A7
100
AcDbEntity
  8
0
100
AcDbSpline
 62
7
  6
CONTINUOUS
 70
0
 71
3
 72
26
 73
22
 74
0
 42
0.0000001
 43
0.0000001
 44
0.0000000001
 40
0.0
 40
0.0
 40
0.0
 40
0.0
 40
0.0003212715
 40
0.0012339868
 40
0.0027458504
 40
0.0048564346
 40
0.0108679588
 40
0.0192553356
 40
0.0300042035
 40
0.0430975677
 40
0.0584996268
 40
0.0761656617
 40
0.1181104435
 40
0.1685596833
 40
0.2270145063
 40
0.292907641
 40
0.3656316644
 40
0.4444508116
 40
0.6172968055
 40
0.8049809374
 40
1.0
 40
1.0
 40
1.0
 40
1.0
 10
61.7554161488
 20
193.4884591091
 30
0.0
 10
61.7554135605
 20
193.4879358528
 30
0.0
 10
61.7523847502
 20
193.4879935066
 30
0.0
 10
61.7489165461
 20
193.4871397418
 30
0.0
 10
61.7409952857
 20
193.4868791222
 30
0.0
 10
61.7256552839
 20
193.4859801423
 30
0.0
 10
61.6985320942
 20
193.4852067487
 30
0.0
 10
61.6577041555
 20
193.4841601802
 30
0.0
 10
61.6051740797
 20
193.4831850338
 30
0.0
 10
61.5412801845
 20
193.4821865906
 30
0.0
 10
61.4660965969
 20
193.4812083786
 30
0.0
 10
61.3439313223
 20
193.4798389892
 30
0.0
 10
61.1646794528
 20
193.4782287619
 30
0.0
 10
60.9189950939
 20
193.4764708067
 30
0.0
 10
60.6343032097
 20
193.4748183424
 30
0.0
 10
60.313330983
 20
193.4732885283
 30
0.0
 10
59.9591898885
 20
193.4719009046
 30
0.0
 10
59.4308521267
 20
193.4702038568
 30
0.0
 10
58.7152750454
 20
193.4685763724
 30
0.0
 10
57.8104393276
 20
193.4674035194
 30
0.0
 10
57.1871213623
 20
193.4671401738
 30
0.0
 10
56.8694891089
 20
193.4671401738
 30
0.0
  0
SPLINE
  5
2A8
100
AcDbEntity
  8
0
100
AcDbSpline
 62
7
  6
CONTINUOUS
 70
0
 71
3
 72
26
 73
22
 74
0
 42
0.0000001
 43
0.0000001
 44
0.0000000001
 40
0.0
 40
0.0
 40
0.0
 40
0.0
 40
0.0003212715
 40
0.0012339868
 40
0.0027458504
 40
0.0048564346
 40
0.0108679588
 40
0.0192553356
 40
0.0300042035
 40
0.0430975677
 40
0.0584996268
 40
0.0761656617
 40
0.1181104435
 40
0.1685596833
 40
0.2270145063
 40
0.292907641
 40
0.3656316644
 40
0.4444508116
 40
0.6172968055
 40
0.8049809374
 40
1.0
 40
1.0
 40
1.0
 40
1.0
 10
85.1273188072
 20
194.1015040636
 30
0.0
 10
85.1273166841
 20
194.1010748468
 30
0.0
 10
85.1248322107
 20
194.1011221391
 30
0.0
 10
85.1219873112
 20
194.1004218126
 30
0.0
 10
85.1154896573
 20
194.1002080315
 30
0.0
 10
85.1029065561
 20
194.099470616
 30
0.0
 10
85.0806579379
 20
194.0988362164
 30
0.0
 10
85.0471675841
 20
194.0979777369
 30
0.0
 10
85.0040781977
 20
194.0971778435
 30
0.0
 10
84.9516672942
 20
194.0963588402
 30
0.0
 10
84.8899956784
 20
194.0955564322
 30
0.0
 10
84.7897859104
 20
194.094433149
 30
0.0
 10
84.642749133
 20
194.0931123113
 30
0.0
 10
84.4412190934
 20
194.0916702953
 30
0.0
 10
84.2076919492
 20
194.0903148114
 30
0.0
 10
83.9444047548
 20
194.0890599351
 30
0.0
 10
83.6539097915
 20
194.0879216947
 30
0.0
 10
83.2205247338
 20
194.0865296398
 30
0.0
 10
82.6335509509
 20
194.0851946463
 30
0.0
 10
81.8913320368
 20
194.0842325782
 30
0.0
 10
81.3800365891
 20
194.084016561
 30
0.0
 10
81.119489109
 20
194.084016561
 30
0.0
  0
SPLINE
  5
2A9
100
AcDbEntity
  8
0
100
AcDbSpline
 62
7
  6
CONTINUOUS
 70
0
 71
3
 72
26
 73
22
 74
0
 42
0.0000001
 43
0.0000001
 44
0.0000000001
 40
0.0
 40
0.0
 40
0.0
 40
0.0
 40
0.1950227232
 40
0.3827024834
 40
0.555543723
 40
0.6343622577
 40
0.7070843669
 40
0.7729766772
 40
0.8314332254
 40
0.8818820336
 40
0.9238298931
 40
0.9414979178
 40
0.9569009745
 40
0.9699936061
 40
0.9807425563
 40
0.9891311112
 40
0.9951439859
 40
0.9972550216
 40
0.998767034
 40
0.9996794821
 40
1.0
 40
1.0
 40
1.0
 40
1.0
 10
70.6194891088
 20
193.4469734054
 30
0.0
 10
70.3589367256
 20
193.4469734054
 30
0.0
 10
69.8476422036
 20
193.4471894243
 30
0.0
 10
69.1054305558
 20
193.4481514614
 30
0.0
 10
68.5184697556
 20
193.449486477
 30
0.0
 10
68.0850944044
 20
193.4508783947
 30
0.0
 10
67.7946039043
 20
193.4520166119
 30
0.0
 10
67.5313180521
 20
193.4532715096
 30
0.0
 10
67.2977902669
 20
193.4546268269
 30
0.0
 10
67.0962543837
 20
193.4560689944
 30
0.0
 10
66.949211392
 20
193.457389812
 30
0.0
 10
66.8489935376
 20
193.4585130665
 30
0.0
 10
66.7873188537
 20
193.4593154533
 30
0.0
 10
66.7349076376
 20
193.4601345479
 30
0.0
 10
66.69181712
 20
193.4609345929
 30
0.0
 10
66.6583243869
 20
193.4617928635
 30
0.0
 10
66.6360694503
 20
193.4624276972
 30
0.0
 10
66.6234868875
 20
193.4631645054
 30
0.0
 10
66.6169836699
 20
193.4633792968
 30
0.0
 10
66.6141486039
 20
193.4640774873
 30
0.0
 10
66.6116572924
 20
193.464032698
 30
0.0
 10
66.6116594106
 20
193.464460908
 30
0.0
  0
SPLINE
  5
2AA
100
AcDbEntity
  8
0
100
AcDbSpline
 62
7
  6
CONTINUOUS
 70
0
 71
3
 72
26
 73
22
 74
0
 42
0.0000001
 43
0.0000001
 44
0.0000000001
 40
0.0
 40
0.0
 40
0.0
 40
0.0
 40
0.1950227232
 40
0.3827024834
 40
0.555543723
 40
0.6343622577
 40
0.7070843669
 40
0.7729766772
 40
0.8314332254
 40
0.8818820336
 40
0.9238298931
 40
0.9414979178
 40
0.9569009745
 40
0.9699936061
 40
0.9807425563
 40
0.9891311112
 40
0.9951439859
 40
0.9972550216
 40
0.998767034
 40
0.9996794821
 40
1.0
 40
1.0
 40
1.0
 40
1.0
 10
70.6194891088
 20
194.084016561
 30
0.0
 10
70.3589367256
 20
194.084016561
 30
0.0
 10
69.8476422036
 20
194.0842325799
 30
0.0
 10
69.1054305558
 20
194.085194617
 30
0.0
 10
68.5184697556
 20
194.0865296325
 30
0.0
 10
68.0850944044
 20
194.0879215502
 30
0.0
 10
67.7946039043
 20
194.0890597674
 30
0.0
 10
67.5313180521
 20
194.0903146652
 30
0.0
 10
67.2977902669
 20
194.0916699825
 30
0.0
 10
67.0962543837
 20
194.09311215
 30
0.0
 10
66.949211392
 20
194.0944329676
 30
0.0
 10
66.8489935376
 20
194.095556222
 30
0.0
 10
66.7873188537
 20
194.0963586089
 30
0.0
 10
66.7349076376
 20
194.0971777035
 30
0.0
 10
66.69181712
 20
194.0979777484
 30
0.0
 10
66.6583243869
 20
194.0988360191
 30
0.0
 10
66.6360694503
 20
194.0994708528
 30
0.0
 10
66.6234868875
 20
194.100207661
 30
0.0
 10
66.6169836699
 20
194.1004224524
 30
0.0
 10
66.6141486039
 20
194.1011206429
 30
0.0
 10
66.6116572924
 20
194.1010758535
 30
0.0
 10
66.6116594106
 20
194.1015040636
 30
0.0
  0
SPLINE
  5
2AB
100
AcDbEntity
  8
0
100
AcDbSpline
 62
7
  6
CONTINUOUS
 70
0
 71
3
 72
26
 73
22
 74
0
 42
0.0000001
 43
0.0000001
 44
0.0000000001
 40
0.0
 40
0.0
 40
0.0
 40
0.0
 40
0.1950227232
 40
0.3827024834
 40
0.555543723
 40
0.6343622577
 40
0.7070843669
 40
0.7729766772
 40
0.8314332254
 40
0.8818820336
 40
0.9238298931
 40
0.9414979178
 40
0.9569009745
 40
0.9699936061
 40
0.9807425563
 40
0.9891311112
 40
0.9951439859
 40
0.9972550216
 40
0.998767034
 40
0.9996794821
 40
1.0
 40
1.0
 40
1.0
 40
1.0
 10
95.8694891089
 20
194.0561869273
 30
0.0
 10
95.5518508783
 20
194.0561869273
 30
0.0
 10
94.9285340413
 20
194.056450275
 30
0.0
 10
94.0237071818
 20
194.05762309
 30
0.0
 10
93.3081459277
 20
194.0592506014
 30
0.0
 10
92.7798199991
 20
194.060947482
 30
0.0
 10
92.4256843456
 20
194.0623350774
 30
0.0
 10
92.1047137552
 20
194.0638649176
 30
0.0
 10
91.8200210896
 20
194.0655171787
 30
0.0
 10
91.5743296069
 20
194.0672753187
 30
0.0
 10
91.3950701613
 20
194.0688855214
 30
0.0
 10
91.2728950288
 20
194.0702548758
 30
0.0
 10
91.1977077008
 20
194.071233062
 30
0.0
 10
91.1338134246
 20
194.0722316165
 30
0.0
 10
91.0812819697
 20
194.0732069477
 30
0.0
 10
91.0404511304
 20
194.0742532616
 30
0.0
 10
91.0133202379
 20
194.0750271844
 30
0.0
 10
90.9979808926
 20
194.075925424
 30
0.0
 10
90.9900528495
 20
194.0761872753
 30
0.0
 10
90.9865966333
 20
194.0770384361
 30
0.0
 10
90.9835594868
 20
194.0769838336
 30
0.0
 10
90.983562069
 20
194.0775058625
 30
0.0
  0
SPLINE
  5
2AC
100
AcDbEntity
  8
0
100
AcDbSpline
 62
7
  6
CONTINUOUS
 70
0
 71
3
 72
26
 73
22
 74
0
 42
0.0000001
 43
0.0000001
 44
0.0000000001
 40
0.0
 40
0.0
 40
0.0
 40
0.0
 40
0.1950227232
 40
0.3827024834
 40
0.555543723
 40
0.6343622577
 40
0.7070843669
 40
0.7729766772
 40
0.8314332254
 40
0.8818820336
 40
0.9238298931
 40
0.9414979178
 40
0.9569009745
 40
0.9699936061
 40
0.9807425563
 40
0.9891311112
 40
0.9951439859
 40
0.9972550216
 40
0.998767034
 40
0.9996794821
 40
1.0
 40
1.0
 40
1.0
 40
1.0
 10
56.8694891089
 20
194.0561869273
 30
0.0
 10
56.5518508783
 20
194.0561869273
 30
0.0
 10
55.9285340413
 20
194.056450275
 30
0.0
 10
55.0237071818
 20
194.05762309
 30
0.0
 10
54.3081459277
 20
194.0592506014
 30
0.0
 10
53.7798199991
 20
194.060947482
 30
0.0
 10
53.4256843456
 20
194.0623350774
 30
0.0
 10
53.1047137552
 20
194.0638649176
 30
0.0
 10
52.8200210896
 20
194.0655171787
 30
0.0
 10
52.5743296068
 20
194.0672753187
 30
0.0
 10
52.3950701613
 20
194.0688855214
 30
0.0
 10
52.2728950288
 20
194.0702548758
 30
0.0
 10
52.1977077008
 20
194.071233062
 30
0.0
 10
52.1338134246
 20
194.0722316165
 30
0.0
 10
52.0812819696
 20
194.0732069477
 30
0.0
 10
52.0404511304
 20
194.0742532616
 30
0.0
 10
52.0133202379
 20
194.0750271844
 30
0.0
 10
51.9979808926
 20
194.075925424
 30
0.0
 10
51.9900528495
 20
194.0761872753
 30
0.0
 10
51.9865966333
 20
194.0770384361
 30
0.0
 10
51.9835594868
 20
194.0769838336
 30
0.0
 10
51.983562069
 20
194.0775058625
 30
0.0
  0
SPLINE
  5
2AD
100
AcDbEntity
  8
0
100
AcDbSpline
 62
7
  6
CONTINUOUS
 70
0
 71
3
 72
9
 73
5
 74
0
 42
0.0000001
 43
0.0000001
 44
0.0000000001
 40
0.0
 40
0.0
 40
0.0
 40
0.0
 40
0.2889216243
 40
1.0
 40
1.0
 40
1.0
 40
1.0
 10
76.3694891089
 20
193.5517503481
 30
0.0
 10
76.0572917795
 20
193.5517503481
 30
0.0
 10
74.9767322929
 20
193.55240695
 30
0.0
 10
73.8961664735
 20
193.5543401841
 30
0.0
 10
73.1278172857
 20
193.5589954425
 30
0.0
  0
SPLINE
  5
2AE
100
AcDbEntity
  8
0
100
AcDbSpline
 62
7
  6
CONTINUOUS
 70
0
 71
3
 72
18
 73
14
 74
0
 42
0.0000001
 43
0.0000001
 44
0.0000000001
 40
0.0
 40
0.0
 40
0.0
 40
0.0
 40
0.2284685468
 40
0.4293093922
 40
0.6013652423
 40
0.7436596035
 40
0.8552245629
 40
0.8992425179
 40
0.9353541066
 40
0.9635185342
 40
0.983696394
 40
0.9958533574
 40
1.0
 40
1.0
 40
1.0
 40
1.0
 10
73.1278172857
 20
193.5589954425
 30
0.0
 10
73.0704614543
 20
193.5593429488
 30
0.0
 10
72.962684944
 20
193.5600449239
 30
0.0
 10
72.8117206464
 20
193.5612185249
 30
0.0
 10
72.6823775132
 20
193.5624248637
 30
0.0
 10
72.5754879014
 20
193.5636868515
 30
0.0
 10
72.5006470568
 20
193.5647621001
 30
0.0
 10
72.4526342553
 20
193.565771572
 30
0.0
 10
72.4252383229
 20
193.5662946222
 30
0.0
 10
72.4046069959
 20
193.5672812338
 30
0.0
 10
72.3881568412
 20
193.5671435687
 30
0.0
 10
72.3812651194
 20
193.5690792472
 30
0.0
 10
72.3748368159
 20
193.5681393315
 30
0.0
 10
72.3748419652
 20
193.5691803308
 30
0.0
  0
SPLINE
  5
2AF
100
AcDbEntity
  8
0
100
AcDbSpline
 62
7
  6
CONTINUOUS
 70
0
 71
3
 72
26
 73
22
 74
0
 42
0.0000001
 43
0.0000001
 44
0.0000000001
 40
0.0
 40
0.0
 40
0.0
 40
0.0
 40
0.1950227232
 40
0.3827024834
 40
0.555543723
 40
0.6343622577
 40
0.7070843669
 40
0.7729766772
 40
0.8314332254
 40
0.8818820336
 40
0.9238298931
 40
0.9414979178
 40
0.9569009745
 40
0.9699936061
 40
0.9807425563
 40
0.9891311112
 40
0.9951439859
 40
0.9972550216
 40
0.998767034
 40
0.9996794821
 40
1.0
 40
1.0
 40
1.0
 40
1.0
 10
76.3694891089
 20
194.0011712045
 30
0.0
 10
76.1097937347
 20
194.0011712045
 30
0.0
 10
75.6001809628
 20
194.0013865129
 30
0.0
 10
74.8604105977
 20
194.0023453856
 30
0.0
 10
74.2753804291
 20
194.00367601
 30
0.0
 10
73.8434305362
 20
194.0050633494
 30
0.0
 10
73.5538955176
 20
194.0061978228
 30
0.0
 10
73.2914756653
 20
194.007448593
 30
0.0
 10
73.0587159998
 20
194.0087994523
 30
0.0
 10
72.8578430084
 20
194.0102368763
 30
0.0
 10
72.7112836705
 20
194.0115533494
 30
0.0
 10
72.6113954528
 20
194.0126729093
 30
0.0
 10
72.5499236292
 20
194.0134726569
 30
0.0
 10
72.4976848041
 20
194.0142890573
 30
0.0
 10
72.4547360198
 20
194.0150864708
 30
0.0
 10
72.4213534511
 20
194.0159419184
 30
0.0
 10
72.3991717154
 20
194.016574664
 30
0.0
 10
72.3866305392
 20
194.0173090487
 30
0.0
 10
72.380148712
 20
194.0175231336
 30
0.0
 10
72.3773229711
 20
194.0182190277
 30
0.0
 10
72.374839854
 20
194.0181743856
 30
0.0
 10
72.3748419652
 20
194.0186011871
 30
0.0
  0
SPLINE
  5
2B0
100
AcDbEntity
  8
0
100
AcDbSpline
 62
7
  6
CONTINUOUS
 70
0
 71
3
 72
26
 73
22
 74
0
 42
0.0000001
 43
0.0000001
 44
0.0000000001
 40
0.0
 40
0.0
 40
0.0
 40
0.0
 40
0.0003212715
 40
0.0012339868
 40
0.0027458504
 40
0.0048564346
 40
0.0108679588
 40
0.0192553356
 40
0.0300042035
 40
0.0430975677
 40
0.0584996268
 40
0.0761656617
 40
0.1181104435
 40
0.1685596833
 40
0.2270145063
 40
0.292907641
 40
0.3656316644
 40
0.4444508116
 40
0.6172968055
 40
0.8049809374
 40
1.0
 40
1.0
 40
1.0
 40
1.0
 10
85.1273188072
 20
193.464460908
 30
0.0
 10
85.1273166841
 20
193.4640316912
 30
0.0
 10
85.1248322107
 20
193.4640789835
 30
0.0
 10
85.1219873112
 20
193.463378657
 30
0.0
 10
85.1154896573
 20
193.4631648759
 30
0.0
 10
85.1029065561
 20
193.4624274604
 30
0.0
 10
85.0806579379
 20
193.4617930608
 30
0.0
 10
85.0471675841
 20
193.4609345814
 30
0.0
 10
85.0040781977
 20
193.460134688
 30
0.0
 10
84.9516672942
 20
193.4593156847
 30
0.0
 10
84.8899956784
 20
193.4585132766
 30
0.0
 10
84.7897859104
 20
193.4573899935
 30
0.0
 10
84.642749133
 20
193.4560691558
 30
0.0
 10
84.4412190934
 20
193.4546271397
 30
0.0
 10
84.2076919492
 20
193.4532716558
 30
0.0
 10
83.9444047548
 20
193.4520167795
 30
0.0
 10
83.6539097915
 20
193.4508785391
 30
0.0
 10
83.2205247338
 20
193.4494864842
 30
0.0
 10
82.6335509509
 20
193.4481514908
 30
0.0
 10
81.8913320368
 20
193.4471894226
 30
0.0
 10
81.3800365891
 20
193.4469734054
 30
0.0
 10
81.119489109
 20
193.4469734054
 30
0.0
  0
SPLINE
  5
2B1
100
AcDbEntity
  8
0
100
AcDbSpline
 62
7
  6
CONTINUOUS
 70
0
 71
3
 72
29
 73
25
 74
0
 42
0.0000001
 43
0.0000001
 44
0.0000000001
 40
0.0
 40
0.0
 40
0.0
 40
0.0
 40
0.1950715701
 40
0.3826536443
 40
0.4713337346
 40
0.5554886361
 40
0.6343257889
 40
0.7070526392
 40
0.7729206249
 40
0.8313571223
 40
0.8818335131
 40
0.9039214906
 40
0.9238212356
 40
0.9414738365
 40
0.9568489629
 40
0.9699234503
 40
0.980674181
 40
0.9890781371
 40
0.992392956
 40
0.9951125981
 40
0.9972343752
 40
0.9987558571
 40
0.9996755525
 40
1.0
 40
1.0
 40
1.0
 40
1.0
 10
57.0981565586
 20
193.4548851351
 30
0.0
 10
56.5821547983
 20
193.4548852923
 30
0.0
 10
55.5699623873
 20
193.4553172877
 30
0.0
 10
54.3231949995
 20
193.4569265528
 30
0.0
 10
53.3698246237
 20
193.4588846893
 30
0.0
 10
52.7041056903
 20
193.4606162622
 30
0.0
 10
52.0805870945
 20
193.4626178018
 30
0.0
 10
51.505442084
 20
193.4648697378
 30
0.0
 10
50.9842622249
 20
193.4673549008
 30
0.0
 10
50.5219409504
 20
193.47004222
 30
0.0
 10
50.1754272303
 20
193.4725167961
 30
0.0
 10
49.9308507962
 20
193.474620612
 30
0.0
 10
49.7730984273
 20
193.4761608346
 30
0.0
 10
49.6331030105
 20
193.4777304228
 30
0.0
 10
49.5111666517
 20
193.4793256353
 30
0.0
 10
49.4074791907
 20
193.4809322788
 30
0.0
 10
49.3222625388
 20
193.4825617273
 30
0.0
 10
49.2627959564
 20
193.4839732214
 30
0.0
 10
49.2246944225
 20
193.4852055516
 30
0.0
 10
49.2029831332
 20
193.4859660138
 30
0.0
 10
49.1865654647
 20
193.4869486672
 30
0.0
 10
49.1736240291
 20
193.4873596294
 30
0.0
 10
49.1679354714
 20
193.4887639912
 30
0.0
 10
49.1629907998
 20
193.4886506614
 30
0.0
 10
49.1629770708
 20
193.4895087774
 30
0.0
  0
SPLINE
  5
2B2
100
AcDbEntity
  8
0
100
AcDbSpline
 62
7
  6
CONTINUOUS
 70
0
 71
3
 72
26
 73
22
 74
0
 42
0.0000001
 43
0.0000001
 44
0.0000000001
 40
0.0
 40
0.0
 40
0.0
 40
0.0
 40
0.0003212715
 40
0.0012339868
 40
0.0027458504
 40
0.0048564346
 40
0.0108679588
 40
0.0192553356
 40
0.0300042035
 40
0.0430975677
 40
0.0584996268
 40
0.0761656617
 40
0.1181104435
 40
0.1685596833
 40
0.2270145063
 40
0.292907641
 40
0.3656316644
 40
0.4444508116
 40
0.6172968055
 40
0.8049809374
 40
1.0
 40
1.0
 40
1.0
 40
1.0
 10
51.983562069
 20
193.4884591091
 30
0.0
 10
51.9835646573
 20
193.4889823653
 30
0.0
 10
51.9865934676
 20
193.4889247115
 30
0.0
 10
51.9900616717
 20
193.4897784764
 30
0.0
 10
51.9979829321
 20
193.4900390959
 30
0.0
 10
52.0133229339
 20
193.4909380758
 30
0.0
 10
52.0404461236
 20
193.4917114695
 30
0.0
 10
52.0812740623
 20
193.4927580379
 30
0.0
 10
52.1338041381
 20
193.4937331843
 30
0.0
 10
52.1976980333
 20
193.4947316275
 30
0.0
 10
52.2728816209
 20
193.4957098395
 30
0.0
 10
52.3950468955
 20
193.4970792289
 30
0.0
 10
52.574298765
 20
193.4986894562
 30
0.0
 10
52.8199831239
 20
193.5004474114
 30
0.0
 10
53.1046750082
 20
193.5020998757
 30
0.0
 10
53.4256472348
 20
193.5036296898
 30
0.0
 10
53.7797883293
 20
193.5050173135
 30
0.0
 10
54.3081260911
 20
193.5067143613
 30
0.0
 10
55.0237031724
 20
193.5083418458
 30
0.0
 10
55.9285388902
 20
193.5095146987
 30
0.0
 10
56.5518568555
 20
193.5097780443
 30
0.0
 10
56.8694891089
 20
193.5097780443
 30
0.0
  0
SPLINE
  5
2B3
100
AcDbEntity
  8
0
100
AcDbSpline
 62
7
  6
CONTINUOUS
 70
0
 71
3
 72
26
 73
22
 74
0
 42
0.0000001
 43
0.0000001
 44
0.0000000001
 40
0.0
 40
0.0
 40
0.0
 40
0.0
 40
0.0003212715
 40
0.0012339868
 40
0.0027458504
 40
0.0048564346
 40
0.0108679588
 40
0.0192553356
 40
0.0300042035
 40
0.0430975677
 40
0.0584996268
 40
0.0761656617
 40
0.1181104435
 40
0.1685596833
 40
0.2270145063
 40
0.292907641
 40
0.3656316644
 40
0.4444508116
 40
0.6172968055
 40
0.8049809374
 40
1.0
 40
1.0
 40
1.0
 40
1.0
 10
90.983562069
 20
193.4884591091
 30
0.0
 10
90.9835646573
 20
193.4889823653
 30
0.0
 10
90.9865934677
 20
193.4889247115
 30
0.0
 10
90.9900616718
 20
193.4897784764
 30
0.0
 10
90.9979829321
 20
193.4900390959
 30
0.0
 10
91.0133229339
 20
193.4909380758
 30
0.0
 10
91.0404461236
 20
193.4917114695
 30
0.0
 10
91.0812740623
 20
193.4927580379
 30
0.0
 10
91.1338041381
 20
193.4937331843
 30
0.0
 10
91.1976980334
 20
193.4947316275
 30
0.0
 10
91.2728816209
 20
193.4957098395
 30
0.0
 10
91.3950468955
 20
193.4970792289
 30
0.0
 10
91.574298765
 20
193.4986894562
 30
0.0
 10
91.8199831239
 20
193.5004474114
 30
0.0
 10
92.1046750082
 20
193.5020998757
 30
0.0
 10
92.4256472349
 20
193.5036296898
 30
0.0
 10
92.7797883293
 20
193.5050173135
 30
0.0
 10
93.3081260911
 20
193.5067143613
 30
0.0
 10
94.0237031724
 20
193.5083418458
 30
0.0
 10
94.9285388902
 20
193.5095146987
 30
0.0
 10
95.5518568556
 20
193.5097780443
 30
0.0
 10
95.8694891089
 20
193.5097780443
 30
0.0
  0
SPLINE
  5
2B4
100
AcDbEntity
  8
0
100
AcDbSpline
 62
7
  6
CONTINUOUS
 70
0
 71
3
 72
29
 73
25
 74
0
 42
0.0000001
 43
0.0000001
 44
0.0000000001
 40
0.0
 40
0.0
 40
0.0
 40
0.0
 40
0.0003244475
 40
0.0012441429
 40
0.0027656248
 40
0.0048874019
 40
0.007607044
 40
0.0109218629
 40
0.019325819
 40
0.0300765497
 40
0.0431510371
 40
0.0585261635
 40
0.0761787644
 40
0.0960785094
 40
0.1181664869
 40
0.1686428777
 40
0.2270793751
 40
0.2929473608
 40
0.3656742111
 40
0.4445113639
 40
0.5286662654
 40
0.6173463557
 40
0.8049284299
 40
1.0
 40
1.0
 40
1.0
 40
1.0
 10
103.5760011471
 20
193.4883941861
 30
0.0
 10
103.57598786
 20
193.4875636943
 30
0.0
 10
103.5712023654
 20
193.4876733758
 30
0.0
 10
103.5656969316
 20
193.4863142227
 30
0.0
 10
103.5531721019
 20
193.48591649
 30
0.0
 10
103.5372829448
 20
193.4849654698
 30
0.0
 10
103.5162705771
 20
193.4842294882
 30
0.0
 10
103.4793955935
 20
193.4830368287
 30
0.0
 10
103.421843337
 20
193.4816707729
 30
0.0
 10
103.3393699476
 20
193.4800937789
 30
0.0
 10
103.2390203544
 20
193.4785388559
 30
0.0
 10
103.1210093252
 20
193.4769949959
 30
0.0
 10
102.9855205883
 20
193.4754759352
 30
0.0
 10
102.8328465245
 20
193.473985295
 30
0.0
 10
102.5961434031
 20
193.4719492043
 30
0.0
 10
102.2607845226
 20
193.4695542888
 30
0.0
 10
101.8133461211
 20
193.4669534787
 30
0.0
 10
101.3089438884
 20
193.4645483172
 30
0.0
 10
100.7523137302
 20
193.4623688747
 30
0.0
 10
100.1488672109
 20
193.4604317679
 30
0.0
 10
99.5045788516
 20
193.4587559371
 30
0.0
 10
98.5818990172
 20
193.4568608363
 30
0.0
 10
97.3752670972
 20
193.455303376
 30
0.0
 10
96.3956588044
 20
193.4548852872
 30
0.0
 10
95.8962679791
 20
193.4548851351
 30
0.0
  0
SPLINE
  5
2B5
100
AcDbEntity
  8
0
100
AcDbSpline
 62
7
  6
CONTINUOUS
 70
0
 71
3
 72
26
 73
22
 74
0
 42
0.0000001
 43
0.0000001
 44
0.0000000001
 40
0.0
 40
0.0
 40
0.0
 40
0.0
 40
0.0003212715
 40
0.0012339868
 40
0.0027458504
 40
0.0048564346
 40
0.0108679588
 40
0.0192553356
 40
0.0300042035
 40
0.0430975677
 40
0.0584996268
 40
0.0761656617
 40
0.1181104435
 40
0.1685596833
 40
0.2270145063
 40
0.292907641
 40
0.3656316644
 40
0.4444508116
 40
0.6172968055
 40
0.8049809374
 40
1.0
 40
1.0
 40
1.0
 40
1.0
 10
51.983562069
 20
194.0775058625
 30
0.0
 10
51.9835646573
 20
194.0780291188
 30
0.0
 10
51.9865934676
 20
194.0779714649
 30
0.0
 10
51.9900616717
 20
194.0788252298
 30
0.0
 10
51.9979829321
 20
194.0790858493
 30
0.0
 10
52.0133229339
 20
194.0799848292
 30
0.0
 10
52.0404461236
 20
194.0807582229
 30
0.0
 10
52.0812740623
 20
194.0818047913
 30
0.0
 10
52.1338041381
 20
194.0827799378
 30
0.0
 10
52.1976980333
 20
194.083778381
 30
0.0
 10
52.2728816209
 20
194.084756593
 30
0.0
 10
52.3950468955
 20
194.0861259824
 30
0.0
 10
52.574298765
 20
194.0877362096
 30
0.0
 10
52.8199831239
 20
194.0894941649
 30
0.0
 10
53.1046750082
 20
194.0911466292
 30
0.0
 10
53.4256472348
 20
194.0926764432
 30
0.0
 10
53.7797883293
 20
194.0940640669
 30
0.0
 10
54.3081260911
 20
194.0957611148
 30
0.0
 10
55.0237031724
 20
194.0973885992
 30
0.0
 10
55.9285388902
 20
194.0985614521
 30
0.0
 10
56.5518568555
 20
194.0988247977
 30
0.0
 10
56.8694891089
 20
194.0988247977
 30
0.0
  0
SPLINE
  5
2B6
100
AcDbEntity
  8
0
100
AcDbSpline
 62
7
  6
CONTINUOUS
 70
0
 71
3
 72
25
 73
21
 74
0
 42
0.0000001
 43
0.0000001
 44
0.0000000001
 40
0.0
 40
0.0
 40
0.0
 40
0.0
 40
0.195020997
 40
0.3826970085
 40
0.5555342076
 40
0.6343521628
 40
0.7070746224
 40
0.7729685401
 40
0.8314277037
 40
0.8818789672
 40
0.9238278931
 40
0.941496323
 40
0.9569000133
 40
0.9699936705
 40
0.980743498
 40
0.9891328257
 40
0.9951466276
 40
0.9972582639
 40
0.9987710081
 40
1.0
 40
1.0
 40
1.0
 40
1.0
 10
75.8694891054
 20
193.4368591809
 30
0.0
 10
76.0433394689
 20
193.4368591809
 30
0.0
 10
76.3844925702
 20
193.4367150424
 30
0.0
 10
76.8797200405
 20
193.436073121
 30
0.0
 10
77.2713583925
 20
193.4351823621
 30
0.0
 10
77.5605215178
 20
193.4342536957
 30
0.0
 10
77.754350627
 20
193.4334941915
 30
0.0
 10
77.9300306188
 20
193.4326568316
 30
0.0
 10
78.0858561
 20
193.4317521975
 30
0.0
 10
78.2203362445
 20
193.430790809
 30
0.0
 10
78.3184503848
 20
193.4299080611
 30
0.0
 10
78.3853267059
 20
193.4291615358
 30
0.0
 10
78.426469439
 20
193.4286191252
 30
0.0
 10
78.46147555
 20
193.4280924989
 30
0.0
 10
78.4901385963
 20
193.4275017096
 30
0.0
 10
78.5127236405
 20
193.4270736242
 30
0.0
 10
78.5270861415
 20
193.4263475587
 30
0.0
 10
78.5361433789
 20
193.4262635458
 30
0.0
 10
78.5396208595
 20
193.4253901246
 30
0.0
 10
78.5436970975
 20
193.426286221
 30
0.0
 10
78.5437037267
 20
193.4251906632
 30
0.0
  0
SPLINE
  5
2B7
100
AcDbEntity
  8
0
100
AcDbSpline
 62
7
  6
CONTINUOUS
 70
0
 71
3
 72
25
 73
21
 74
0
 42
0.0000001
 43
0.0000001
 44
0.0000000001
 40
0.0
 40
0.0
 40
0.0
 40
0.0
 40
0.0012290418
 40
0.0027417952
 40
0.0048534321
 40
0.0108672162
 40
0.0192565118
 40
0.0300063059
 40
0.0430999386
 40
0.0585036097
 40
0.0761720251
 40
0.1181209369
 40
0.1685721932
 40
0.2270313299
 40
0.292925232
 40
0.3656476851
 40
0.4444656291
 40
0.6173028418
 40
0.8049789468
 40
1.0
 40
1.0
 40
1.0
 40
1.0
 10
73.1952744839
 20
193.4251906632
 30
0.0
 10
73.1952815006
 20
193.4262862631
 30
0.0
 10
73.1993572353
 20
193.4253901087
 30
0.0
 10
73.2028350769
 20
193.4262635469
 30
0.0
 10
73.2118921255
 20
193.4263475567
 30
0.0
 10
73.2262547184
 20
193.4270736241
 30
0.0
 10
73.2488396229
 20
193.4275017089
 30
0.0
 10
73.2775026142
 20
193.4280924983
 30
0.0
 10
73.3125086474
 20
193.4286191239
 30
0.0
 10
73.3536513317
 20
193.4291615343
 30
0.0
 10
73.4205276087
 20
193.4299080595
 30
0.0
 10
73.5186417179
 20
193.4307908071
 30
0.0
 10
73.6531218189
 20
193.4317521954
 30
0.0
 10
73.8089472559
 20
193.43265683
 30
0.0
 10
73.9846272039
 20
193.4334941898
 30
0.0
 10
74.1784562832
 20
193.4342536941
 30
0.0
 10
74.4676194046
 20
193.4351823612
 30
0.0
 10
74.8592578418
 20
193.4360731205
 30
0.0
 10
75.3544854574
 20
193.4367150421
 30
0.0
 10
75.6956386918
 20
193.4368591809
 30
0.0
 10
75.8694891054
 20
193.4368591809
 30
0.0
  0
SPLINE
  5
2B8
100
AcDbEntity
  8
0
100
AcDbSpline
 62
7
  6
CONTINUOUS
 70
0
 71
3
 72
26
 73
22
 74
0
 42
0.0000001
 43
0.0000001
 44
0.0000000001
 40
0.0
 40
0.0
 40
0.0
 40
0.0
 40
0.1950227232
 40
0.3827024834
 40
0.555543723
 40
0.6343622577
 40
0.7070843669
 40
0.7729766771
 40
0.8314332254
 40
0.8818820336
 40
0.9238298931
 40
0.9414979178
 40
0.9569009745
 40
0.9699936061
 40
0.9807425563
 40
0.9891311112
 40
0.9951439859
 40
0.9972550216
 40
0.998767034
 40
0.9996794821
 40
1.0
 40
1.0
 40
1.0
 40
1.0
 10
81.119489109
 20
193.4819484106
 30
0.0
 10
81.3800414921
 20
193.4819484106
 30
0.0
 10
81.8913360142
 20
193.4817323917
 30
0.0
 10
82.633547662
 20
193.4807703546
 30
0.0
 10
83.2205084622
 20
193.479435339
 30
0.0
 10
83.6538838134
 20
193.4780434213
 30
0.0
 10
83.9443743135
 20
193.4769052041
 30
0.0
 10
84.2076601657
 20
193.4756503064
 30
0.0
 10
84.4411879509
 20
193.4742949891
 30
0.0
 10
84.6427238341
 20
193.4728528216
 30
0.0
 10
84.7897668258
 20
193.471532004
 30
0.0
 10
84.8899846801
 20
193.4704087495
 30
0.0
 10
84.9516593641
 20
193.4696063627
 30
0.0
 10
85.0040705802
 20
193.4687872681
 30
0.0
 10
85.0471610978
 20
193.4679872231
 30
0.0
 10
85.0806538309
 20
193.4671289524
 30
0.0
 10
85.1029087675
 20
193.4664941188
 30
0.0
 10
85.1154913303
 20
193.4657573106
 30
0.0
 10
85.1219945479
 20
193.4655425191
 30
0.0
 10
85.1248296139
 20
193.4648443286
 30
0.0
 10
85.1273209254
 20
193.464889118
 30
0.0
 10
85.1273188072
 20
193.464460908
 30
0.0
  0
SPLINE
  5
2B9
100
AcDbEntity
  8
0
100
AcDbSpline
 62
7
  6
CONTINUOUS
 70
0
 71
3
 72
26
 73
22
 74
0
 42
0.0000001
 43
0.0000001
 44
0.0000000001
 40
0.0
 40
0.0
 40
0.0
 40
0.0
 40
0.0003212715
 40
0.0012339868
 40
0.0027458504
 40
0.0048564346
 40
0.0108679588
 40
0.0192553356
 40
0.0300042035
 40
0.0430975677
 40
0.0584996268
 40
0.0761656617
 40
0.1181104435
 40
0.1685596833
 40
0.2270145063
 40
0.292907641
 40
0.3656316644
 40
0.4444508116
 40
0.6172968055
 40
0.8049809374
 40
1.0
 40
1.0
 40
1.0
 40
1.0
 10
90.983562069
 20
194.0775058625
 30
0.0
 10
90.9835646573
 20
194.0780291188
 30
0.0
 10
90.9865934677
 20
194.0779714649
 30
0.0
 10
90.9900616718
 20
194.0788252298
 30
0.0
 10
90.9979829321
 20
194.0790858493
 30
0.0
 10
91.0133229339
 20
194.0799848292
 30
0.0
 10
91.0404461236
 20
194.0807582229
 30
0.0
 10
91.0812740623
 20
194.0818047913
 30
0.0
 10
91.1338041381
 20
194.0827799378
 30
0.0
 10
91.1976980334
 20
194.083778381
 30
0.0
 10
91.2728816209
 20
194.084756593
 30
0.0
 10
91.3950468955
 20
194.0861259824
 30
0.0
 10
91.574298765
 20
194.0877362096
 30
0.0
 10
91.8199831239
 20
194.0894941649
 30
0.0
 10
92.1046750082
 20
194.0911466292
 30
0.0
 10
92.4256472349
 20
194.0926764432
 30
0.0
 10
92.7797883293
 20
194.0940640669
 30
0.0
 10
93.3081260911
 20
194.0957611148
 30
0.0
 10
94.0237031724
 20
194.0973885992
 30
0.0
 10
94.9285388902
 20
194.0985614521
 30
0.0
 10
95.5518568556
 20
194.0988247977
 30
0.0
 10
95.8694891089
 20
194.0988247977
 30
0.0
  0
SPLINE
  5
2BA
100
AcDbEntity
  8
0
100
AcDbSpline
 62
7
  6
CONTINUOUS
 70
0
 71
3
 72
26
 73
22
 74
0
 42
0.0000001
 43
0.0000001
 44
0.0000000001
 40
0.0
 40
0.0
 40
0.0
 40
0.0
 40
0.1950227232
 40
0.3827024834
 40
0.555543723
 40
0.6343622577
 40
0.7070843669
 40
0.7729766771
 40
0.8314332254
 40
0.8818820336
 40
0.9238298931
 40
0.9414979178
 40
0.9569009744
 40
0.9699936061
 40
0.9807425563
 40
0.9891311112
 40
0.9951439859
 40
0.9972550216
 40
0.998767034
 40
0.9996794821
 40
1.0
 40
1.0
 40
1.0
 40
1.0
 10
81.1194891083
 20
194.1189915661
 30
0.0
 10
81.3800414914
 20
194.1189915661
 30
0.0
 10
81.8913360135
 20
194.1187755472
 30
0.0
 10
82.6335476615
 20
194.1178135101
 30
0.0
 10
83.2205084618
 20
194.1164784946
 30
0.0
 10
83.6538838131
 20
194.1150865769
 30
0.0
 10
83.9443743132
 20
194.1139483597
 30
0.0
 10
84.2076601655
 20
194.1126934619
 30
0.0
 10
84.4411879507
 20
194.1113381447
 30
0.0
 10
84.6427238339
 20
194.1098959771
 30
0.0
 10
84.7897668257
 20
194.1085751596
 30
0.0
 10
84.8899846801
 20
194.1074519051
 30
0.0
 10
84.9516593641
 20
194.1066495183
 30
0.0
 10
85.0040705802
 20
194.1058304237
 30
0.0
 10
85.0471610978
 20
194.1050303787
 30
0.0
 10
85.0806538309
 20
194.104172108
 30
0.0
 10
85.1029087675
 20
194.1035372744
 30
0.0
 10
85.1154913303
 20
194.1028004662
 30
0.0
 10
85.1219945479
 20
194.1025856747
 30
0.0
 10
85.1248296139
 20
194.1018874842
 30
0.0
 10
85.1273209254
 20
194.1019322736
 30
0.0
 10
85.1273188072
 20
194.1015040636
 30
0.0
  0
SPLINE
  5
2BB
100
AcDbEntity
  8
0
100
AcDbSpline
 62
7
  6
CONTINUOUS
 70
0
 71
3
 72
9
 73
5
 74
0
 42
0.0000001
 43
0.0000001
 44
0.0000000001
 40
0.0
 40
0.0
 40
0.0
 40
0.0
 40
0.1964526945
 40
1.0
 40
1.0
 40
1.0
 40
1.0
 10
73.1227389105
 20
193.5793343284
 30
0.0
 10
73.3353466142
 20
193.5806284418
 30
0.0
 10
74.4175905284
 20
193.5854424124
 30
0.0
 10
75.4998471187
 20
193.5866103135
 30
0.0
 10
76.3694891089
 20
193.5866103135
 30
0.0
  0
SPLINE
  5
2BC
100
AcDbEntity
  8
0
100
AcDbSpline
 62
7
  6
CONTINUOUS
 70
0
 71
3
 72
26
 73
22
 74
0
 42
0.0000001
 43
0.0000001
 44
0.0000000001
 40
0.0
 40
0.0
 40
0.0
 40
0.0
 40
0.1950227232
 40
0.3827024834
 40
0.555543723
 40
0.6343622577
 40
0.7070843669
 40
0.7729766771
 40
0.8314332254
 40
0.8818820336
 40
0.9238298931
 40
0.9414979178
 40
0.9569009745
 40
0.9699936061
 40
0.9807425563
 40
0.9891311112
 40
0.9951439859
 40
0.9972550216
 40
0.998767034
 40
0.9996794821
 40
1.0
 40
1.0
 40
1.0
 40
1.0
 10
56.8694891089
 20
193.5097780443
 30
0.0
 10
57.1871273395
 20
193.5097780443
 30
0.0
 10
57.8104441765
 20
193.5095146966
 30
0.0
 10
58.715271036
 20
193.5083418815
 30
0.0
 10
59.4308322901
 20
193.5067143701
 30
0.0
 10
59.9591582187
 20
193.5050174896
 30
0.0
 10
60.3132938722
 20
193.5036298941
 30
0.0
 10
60.6342644626
 20
193.502100054
 30
0.0
 10
60.9189571282
 20
193.5004477928
 30
0.0
 10
61.1646486109
 20
193.4986896529
 30
0.0
 10
61.3439080565
 20
193.4970794502
 30
0.0
 10
61.466083189
 20
193.4957100957
 30
0.0
 10
61.541270517
 20
193.4947319096
 30
0.0
 10
61.6051647932
 20
193.4937333551
 30
0.0
 10
61.6576962482
 20
193.4927580239
 30
0.0
 10
61.6985270874
 20
193.49171171
 30
0.0
 10
61.7256579799
 20
193.4909377872
 30
0.0
 10
61.7409973252
 20
193.4900395476
 30
0.0
 10
61.7489253683
 20
193.4897776963
 30
0.0
 10
61.7523815845
 20
193.4889265354
 30
0.0
 10
61.755418731
 20
193.488981138
 30
0.0
 10
61.7554161488
 20
193.4884591091
 30
0.0
  0
SPLINE
  5
2BD
100
AcDbEntity
  8
0
100
AcDbSpline
 62
7
  6
CONTINUOUS
 70
0
 71
3
 72
26
 73
22
 74
0
 42
0.0000001
 43
0.0000001
 44
0.0000000001
 40
0.0
 40
0.0
 40
0.0
 40
0.0
 40
0.1950227232
 40
0.3827024834
 40
0.555543723
 40
0.6343622577
 40
0.7070843669
 40
0.7729766771
 40
0.8314332254
 40
0.8818820336
 40
0.9238298931
 40
0.9414979178
 40
0.9569009745
 40
0.9699936061
 40
0.9807425563
 40
0.9891311112
 40
0.9951439859
 40
0.9972550216
 40
0.998767034
 40
0.9996794821
 40
1.0
 40
1.0
 40
1.0
 40
1.0
 10
95.8694891089
 20
193.5097780443
 30
0.0
 10
96.1871273395
 20
193.5097780443
 30
0.0
 10
96.8104441765
 20
193.5095146966
 30
0.0
 10
97.715271036
 20
193.5083418815
 30
0.0
 10
98.4308322901
 20
193.5067143701
 30
0.0
 10
98.9591582187
 20
193.5050174896
 30
0.0
 10
99.3132938722
 20
193.5036298941
 30
0.0
 10
99.6342644626
 20
193.502100054
 30
0.0
 10
99.9189571282
 20
193.5004477928
 30
0.0
 10
100.164648611
 20
193.4986896529
 30
0.0
 10
100.3439080565
 20
193.4970794502
 30
0.0
 10
100.466083189
 20
193.4957100957
 30
0.0
 10
100.541270517
 20
193.4947319096
 30
0.0
 10
100.6051647932
 20
193.4937333551
 30
0.0
 10
100.6576962482
 20
193.4927580239
 30
0.0
 10
100.6985270874
 20
193.49171171
 30
0.0
 10
100.7256579799
 20
193.4909377872
 30
0.0
 10
100.7409973252
 20
193.4900395476
 30
0.0
 10
100.7489253683
 20
193.4897776963
 30
0.0
 10
100.7523815845
 20
193.4889265354
 30
0.0
 10
100.755418731
 20
193.488981138
 30
0.0
 10
100.7554161488
 20
193.4884591091
 30
0.0
  0
SPLINE
  5
2BE
100
AcDbEntity
  8
0
100
AcDbSpline
 62
7
  6
CONTINUOUS
 70
0
 71
3
 72
26
 73
22
 74
0
 42
0.0000001
 43
0.0000001
 44
0.0000000001
 40
0.0
 40
0.0
 40
0.0
 40
0.0
 40
0.1950227232
 40
0.3827024834
 40
0.555543723
 40
0.6343622577
 40
0.7070843669
 40
0.7729766771
 40
0.8314332254
 40
0.8818820336
 40
0.9238298931
 40
0.9414979178
 40
0.9569009745
 40
0.9699936061
 40
0.9807425563
 40
0.9891311112
 40
0.9951439859
 40
0.9972550216
 40
0.998767034
 40
0.9996794821
 40
1.0
 40
1.0
 40
1.0
 40
1.0
 10
95.8694891089
 20
194.0988247977
 30
0.0
 10
96.1871273395
 20
194.0988247977
 30
0.0
 10
96.8104441765
 20
194.09856145
 30
0.0
 10
97.715271036
 20
194.097388635
 30
0.0
 10
98.4308322901
 20
194.0957611236
 30
0.0
 10
98.9591582187
 20
194.094064243
 30
0.0
 10
99.3132938722
 20
194.0926766476
 30
0.0
 10
99.6342644626
 20
194.0911468074
 30
0.0
 10
99.9189571282
 20
194.0894945463
 30
0.0
 10
100.164648611
 20
194.0877364063
 30
0.0
 10
100.3439080565
 20
194.0861262036
 30
0.0
 10
100.466083189
 20
194.0847568492
 30
0.0
 10
100.541270517
 20
194.083778663
 30
0.0
 10
100.6051647932
 20
194.0827801085
 30
0.0
 10
100.6576962482
 20
194.0818047773
 30
0.0
 10
100.6985270874
 20
194.0807584634
 30
0.0
 10
100.7256579799
 20
194.0799845406
 30
0.0
 10
100.7409973252
 20
194.079086301
 30
0.0
 10
100.7489253683
 20
194.0788244497
 30
0.0
 10
100.7523815845
 20
194.0779732889
 30
0.0
 10
100.755418731
 20
194.0780278914
 30
0.0
 10
100.7554161488
 20
194.0775058625
 30
0.0
  0
SPLINE
  5
2BF
100
AcDbEntity
  8
0
100
AcDbSpline
 62
7
  6
CONTINUOUS
 70
0
 71
3
 72
26
 73
22
 74
0
 42
0.0000001
 43
0.0000001
 44
0.0000000001
 40
0.0
 40
0.0
 40
0.0
 40
0.0
 40
0.1950227232
 40
0.3827024834
 40
0.555543723
 40
0.6343622577
 40
0.7070843669
 40
0.7729766771
 40
0.8314332254
 40
0.8818820336
 40
0.9238298931
 40
0.9414979178
 40
0.9569009745
 40
0.9699936061
 40
0.9807425563
 40
0.9891311112
 40
0.9951439859
 40
0.9972550216
 40
0.998767034
 40
0.9996794821
 40
1.0
 40
1.0
 40
1.0
 40
1.0
 10
56.8694891089
 20
194.0988247977
 30
0.0
 10
57.1871273395
 20
194.0988247977
 30
0.0
 10
57.8104441765
 20
194.09856145
 30
0.0
 10
58.715271036
 20
194.097388635
 30
0.0
 10
59.4308322901
 20
194.0957611236
 30
0.0
 10
59.9591582187
 20
194.094064243
 30
0.0
 10
60.3132938722
 20
194.0926766476
 30
0.0
 10
60.6342644626
 20
194.0911468074
 30
0.0
 10
60.9189571282
 20
194.0894945463
 30
0.0
 10
61.1646486109
 20
194.0877364063
 30
0.0
 10
61.3439080565
 20
194.0861262036
 30
0.0
 10
61.466083189
 20
194.0847568492
 30
0.0
 10
61.541270517
 20
194.083778663
 30
0.0
 10
61.6051647932
 20
194.0827801085
 30
0.0
 10
61.6576962482
 20
194.0818047773
 30
0.0
 10
61.6985270874
 20
194.0807584634
 30
0.0
 10
61.7256579799
 20
194.0799845406
 30
0.0
 10
61.7409973252
 20
194.079086301
 30
0.0
 10
61.7489253683
 20
194.0788244497
 30
0.0
 10
61.7523815845
 20
194.0779732889
 30
0.0
 10
61.755418731
 20
194.0780278914
 30
0.0
 10
61.7554161488
 20
194.0775058625
 30
0.0
  0
SPLINE
  5
2C0
100
AcDbEntity
  8
0
100
AcDbSpline
 62
7
  6
CONTINUOUS
 70
0
 71
3
 72
11
 73
7
 74
0
 42
0.0000001
 43
0.0000001
 44
0.0000000001
 40
0.0
 40
0.0
 40
0.0
 40
0.0
 40
0.1283335048
 40
0.3566441322
 40
0.6587065402
 40
1.0
 40
1.0
 40
1.0
 40
1.0
 10
64.6156054993
 20
193.4445159744
 30
0.0
 10
64.4900986018
 20
193.4470911264
 30
0.0
 10
64.1412275331
 20
193.4493105709
 30
0.0
 10
63.4969121223
 20
193.4526396801
 30
0.0
 10
62.6442614832
 20
193.4543873472
 30
0.0
 10
62.0149447321
 20
193.4548849444
 30
0.0
 10
61.6810981745
 20
193.4548851351
 30
0.0
  0
LINE
  5
2C1
100
AcDbEntity
  8
0
100
AcDbLine
 62
7
  6
CONTINUOUS
 10
78.3708305015
 20
193.5842649934
 11
78.5753863805
 21
193.5837115239
  0
SPLINE
  5
2C2
100
AcDbEntity
  8
0
100
AcDbSpline
 62
7
  6
CONTINUOUS
 70
0
 71
3
 72
26
 73
22
 74
0
 42
0.0000001
 43
0.0000001
 44
0.0000000001
 40
0.0
 40
0.0
 40
0.0
 40
0.0
 40
0.1950227232
 40
0.3827024834
 40
0.555543723
 40
0.6343622577
 40
0.7070843669
 40
0.7729766771
 40
0.8314332254
 40
0.8818820336
 40
0.9238298931
 40
0.9414979178
 40
0.9569009744
 40
0.9699936061
 40
0.9807425563
 40
0.9891311111
 40
0.9951439859
 40
0.9972550216
 40
0.998767034
 40
0.9996794821
 40
1.0
 40
1.0
 40
1.0
 40
1.0
 10
76.3694891089
 20
194.0360311698
 30
0.0
 10
76.629184483
 20
194.0360311698
 30
0.0
 10
77.138797255
 20
194.0358158614
 30
0.0
 10
77.87856762
 20
194.0348569887
 30
0.0
 10
78.4635977886
 20
194.0335263643
 30
0.0
 10
78.8955476815
 20
194.0321390249
 30
0.0
 10
79.1850827002
 20
194.0310045515
 30
0.0
 10
79.4475025525
 20
194.0297537814
 30
0.0
 10
79.680262218
 20
194.028402922
 30
0.0
 10
79.8811352093
 20
194.026965498
 30
0.0
 10
80.0276945472
 20
194.0256490249
 30
0.0
 10
80.127582765
 20
194.024529465
 30
0.0
 10
80.1890545886
 20
194.0237297174
 30
0.0
 10
80.2412934137
 20
194.022913317
 30
0.0
 10
80.2842421979
 20
194.0221159035
 30
0.0
 10
80.3176247667
 20
194.0212604559
 30
0.0
 10
80.3398065024
 20
194.0206277103
 30
0.0
 10
80.3523476786
 20
194.0198933256
 30
0.0
 10
80.3588295058
 20
194.0196792407
 30
0.0
 10
80.3616552467
 20
194.0189833467
 30
0.0
 10
80.3641383637
 20
194.0190279887
 30
0.0
 10
80.3641362526
 20
194.0186011872
 30
0.0
  0
SPLINE
  5
2C3
100
AcDbEntity
  8
0
100
AcDbSpline
 62
7
  6
CONTINUOUS
 70
0
 71
3
 72
22
 73
18
 74
0
 42
0.0000001
 43
0.0000001
 44
0.0000000001
 40
0.0
 40
0.0
 40
0.0
 40
0.0
 40
0.00127246
 40
0.0049047132
 40
0.0109179323
 40
0.0193004478
 40
0.0300367955
 40
0.0431104722
 40
0.0761752805
 40
0.1181424172
 40
0.168576642
 40
0.2270329582
 40
0.2929348026
 40
0.4443670714
 40
0.6171800498
 40
0.8049913042
 40
1.0
 40
1.0
 40
1.0
 40
1.0
 10
73.5788610872
 20
178.4817267187
 30
0.0
 10
73.578852207
 20
178.4826965905
 30
0.0
 10
73.5845491074
 20
178.4825070364
 30
0.0
 10
73.5909632411
 20
178.4839730503
 30
0.0
 10
73.6057500951
 20
178.4842041004
 30
0.0
 10
73.6244319295
 20
178.4849921735
 30
0.0
 10
73.6491447824
 20
178.4854250404
 30
0.0
 10
73.6924079192
 20
178.4860513083
 30
0.0
 10
73.7596198489
 20
178.4864249075
 30
0.0
 10
73.8552308779
 20
178.4864898105
 30
0.0
 10
73.9702278097
 20
178.4861251858
 30
0.0
 10
74.1034556014
 20
178.4853493496
 30
0.0
 10
74.3136671732
 20
178.483683792
 30
0.0
 10
74.6110340563
 20
178.4805626829
 30
0.0
 10
75.0013092005
 20
178.4755369153
 30
0.0
 10
75.4247850927
 20
178.4692474189
 30
0.0
 10
75.7165435993
 20
178.464407359
 30
0.0
 10
75.8651633063
 20
178.4618157223
 30
0.0
  0
SPLINE
  5
2C4
100
AcDbEntity
  8
0
100
AcDbSpline
 62
7
  6
CONTINUOUS
 70
0
 71
3
 72
22
 73
18
 74
0
 42
0.0000001
 43
0.0000001
 44
0.0000000001
 40
0.0
 40
0.0
 40
0.0
 40
0.0
 40
0.1947452263
 40
0.3824463097
 40
0.5552650276
 40
0.7067762979
 40
0.7727315987
 40
0.8312435152
 40
0.8817309053
 40
0.9237454612
 40
0.9568487415
 40
0.9699373936
 40
0.9806856284
 40
0.9890768096
 40
0.9950953364
 40
0.9987293921
 40
1.0
 40
1.0
 40
1.0
 40
1.0
 10
75.8651633063
 20
178.461815719
 30
0.0
 10
76.0142546641
 20
178.4644216325
 30
0.0
 10
76.3070490199
 20
178.469289987
 30
0.0
 10
76.7321619685
 20
178.4756193658
 30
0.0
 10
77.1241859631
 20
178.4806823804
 30
0.0
 10
77.4230060224
 20
178.4838307121
 30
0.0
 10
77.6343140812
 20
178.4855144394
 30
0.0
 10
77.7682697259
 20
178.4863011024
 30
0.0
 10
77.8839074213
 20
178.486674124
 30
0.0
 10
77.9800579113
 20
178.4866150316
 30
0.0
 10
78.0476522996
 20
178.486244555
 30
0.0
 10
78.0911605848
 20
178.4856189984
 30
0.0
 10
78.1160147229
 20
178.4851864767
 30
0.0
 10
78.1347958318
 20
178.4843968841
 30
0.0
 10
78.1496735897
 20
178.4841667313
 30
0.0
 10
78.156101256
 20
178.48269628
 30
0.0
 10
78.1618427882
 20
178.4828867936
 30
0.0
 10
78.1618257644
 20
178.481914053
 30
0.0
  0
LINE
  5
2C5
100
AcDbEntity
  8
0
100
AcDbLine
 62
7
  6
CONTINUOUS
 10
85.5095653783
 20
178.5697234962
 11
87.8857312383
 21
178.7088294445
  0
SPLINE
  5
2C6
100
AcDbEntity
  8
0
100
AcDbSpline
 62
7
  6
CONTINUOUS
 70
0
 71
3
 72
18
 73
14
 74
0
 42
0.0000001
 43
0.0000001
 44
0.0000000001
 40
0.0
 40
0.0
 40
0.0
 40
0.0
 40
0.0041464252
 40
0.0164023068
 40
0.0368041049
 40
0.0653478569
 40
0.101959811
 40
0.1465362715
 40
0.2591657144
 40
0.4023990417
 40
0.5750112965
 40
0.7749369428
 40
1.0
 40
1.0
 40
1.0
 40
1.0
 10
92.2793457433
 20
17.495624924
 30
0.0
 10
92.2793457099
 20
17.4945192369
 30
0.0
 10
92.2724344429
 20
17.495798884
 30
0.0
 10
92.2650818845
 20
17.4936512014
 30
0.0
 10
92.2473782389
 20
17.494024596
 30
0.0
 10
92.2251852291
 20
17.4930436228
 30
0.0
 10
92.1956921251
 20
17.492628705
 30
0.0
 10
92.1441275331
 20
17.4917261379
 30
0.0
 10
92.0639449462
 20
17.4908064483
 30
0.0
 10
91.9497240212
 20
17.4897187717
 30
0.0
 10
91.8121808474
 20
17.4887063082
 30
0.0
 10
91.6528310775
 20
17.4877385325
 30
0.0
 10
91.5395038674
 20
17.4871732615
 30
0.0
 10
91.4794891085
 20
17.4868983054
 30
0.0
  0
SPLINE
  5
2C7
100
AcDbEntity
  8
0
100
AcDbSpline
 62
7
  6
CONTINUOUS
 70
0
 71
3
 72
21
 73
17
 74
0
 42
0.0000001
 43
0.0000001
 44
0.0000000001
 40
0.0
 40
0.0
 40
0.0
 40
0.0
 40
0.2073024026
 40
0.4003626991
 40
0.5731249312
 40
0.7211407816
 40
0.7846326447
 40
0.8405695127
 40
0.8885911202
 40
0.9283372693
 40
0.9594907106
 40
0.9818945172
 40
0.9897782843
 40
0.9954306454
 40
0.9988384904
 40
1.0
 40
1.0
 40
1.0
 40
1.0
 10
60.7617889213
 20
20.8864107078
 30
0.0
 10
60.6967404005
 20
20.886486759
 30
0.0
 10
60.5711124096
 20
20.8866807519
 30
0.0
 10
60.3912742506
 20
20.8871080639
 30
0.0
 10
60.2300403437
 20
20.887655887
 30
0.0
 10
60.1094620512
 20
20.8882180676
 30
0.0
 10
60.0255450933
 20
20.8887338096
 30
0.0
 10
59.9729985749
 20
20.8891158039
 30
0.0
 10
59.9279208661
 20
20.8895244026
 30
0.0
 10
59.8905707088
 20
20.8899120118
 30
0.0
 10
59.8613912379
 20
20.8903919447
 30
0.0
 10
59.8419171544
 20
20.8906419782
 30
0.0
 10
59.8309122518
 20
20.8911370208
 30
0.0
 10
59.8251560801
 20
20.8910699699
 30
0.0
 10
59.8227427628
 20
20.8917559205
 30
0.0
 10
59.8204891089
 20
20.8913988266
 30
0.0
 10
59.8204891089
 20
20.8917632919
 30
0.0
  0
LINE
  5
2C8
100
AcDbEntity
  8
0
100
AcDbLine
 62
7
  6
CONTINUOUS
 10
64.9004891089
 20
20.8817674459
 11
64.57178892
 21
20.8819562646
  0
SPLINE
  5
2C9
100
AcDbEntity
  8
0
100
AcDbSpline
 62
7
  6
CONTINUOUS
 70
0
 71
3
 72
21
 73
17
 74
0
 42
0.0000001
 43
0.0000001
 44
0.0000000001
 40
0.0
 40
0.0
 40
0.0
 40
0.0
 40
0.001235484
 40
0.0048771153
 40
0.0109113228
 40
0.0193161762
 40
0.0431460462
 40
0.0761815952
 40
0.1181826819
 40
0.1686713897
 40
0.2271042818
 40
0.2929378688
 40
0.4443703557
 40
0.617307154
 40
0.8053122193
 40
1.0
 40
1.0
 40
1.0
 40
1.0
 10
66.1704891089
 20
20.8873088487
 30
0.0
 10
66.1704891089
 20
20.8867858043
 30
0.0
 10
66.1672200005
 20
20.8874227906
 30
0.0
 10
66.1637634072
 20
20.8864006985
 30
0.0
 10
66.1554626765
 20
20.8865937851
 30
0.0
 10
66.1396578981
 20
20.8859349563
 30
0.0
 10
66.1117399238
 20
20.8856883639
 30
0.0
 10
66.0700252953
 20
20.8850989388
 30
0.0
 10
66.0168331231
 20
20.884658794
 30
0.0
 10
65.952960015
 20
20.8841891482
 30
0.0
 10
65.8789721107
 20
20.8837639243
 30
0.0
 10
65.762258287
 20
20.8832062568
 30
0.0
 10
65.5970646317
 20
20.8826354533
 30
0.0
 10
65.3801510864
 20
20.8821398038
 30
0.0
 10
65.1449242347
 20
20.881837219
 30
0.0
 10
64.9829105418
 20
20.8817674459
 30
0.0
 10
64.9004891089
 20
20.8817674459
 30
0.0
  0
SPLINE
  5
2CA
100
AcDbEntity
  8
0
100
AcDbSpline
 62
7
  6
CONTINUOUS
 70
0
 71
3
 72
16
 73
12
 74
0
 42
0.0000001
 43
0.0000001
 44
0.0000000001
 40
0.0
 40
0.0
 40
0.0
 40
0.0
 40
0.0042175637
 40
0.0166489761
 40
0.0372479103
 40
0.0659395027
 40
0.1472873718
 40
0.2600606064
 40
0.4034394376
 40
0.5757924046
 40
1.0
 40
1.0
 40
1.0
 40
1.0
 10
93.3481976379
 20
20.8562134168
 30
0.0
 10
93.3481976379
 20
20.8557668583
 30
0.0
 10
93.3454065786
 20
20.8563106967
 30
0.0
 10
93.3424554508
 20
20.8554380674
 30
0.0
 10
93.3353685548
 20
20.8556029185
 30
0.0
 10
93.3218749444
 20
20.8550404323
 30
0.0
 10
93.2980394866
 20
20.8548298916
 30
0.0
 10
93.2624248342
 20
20.8543267102
 30
0.0
 10
93.2170113317
 20
20.8539506599
 30
0.0
 10
93.1386891165
 20
20.8533766799
 30
0.0
 10
93.0755162346
 20
20.8530640949
 30
0.0
 10
93.0306012763
 20
20.852868117
 30
0.0
  0
LINE
  5
2CB
100
AcDbEntity
  8
0
100
AcDbLine
 62
7
  6
CONTINUOUS
 10
92.3839844257
 20
20.8515118669
 11
92.2639126187
 21
20.8514823459
  0
SPLINE
  5
2CC
100
AcDbEntity
  8
0
100
AcDbSpline
 62
7
  6
CONTINUOUS
 70
0
 71
3
 72
21
 73
17
 74
0
 42
0.0000001
 43
0.0000001
 44
0.0000000001
 40
0.0
 40
0.0
 40
0.0
 40
0.0
 40
0.1946877807
 40
0.3826928461
 40
0.5556296444
 40
0.7070621313
 40
0.7728957182
 40
0.8313286103
 40
0.8818173181
 40
0.9238184048
 40
0.9568539538
 40
0.9806838238
 40
0.9890886772
 40
0.9951228847
 40
0.998764516
 40
1.0
 40
1.0
 40
1.0
 40
1.0
 10
71.5942224566
 20
20.8514823459
 30
0.0
 10
71.5235980733
 20
20.8514823459
 30
0.0
 10
71.3847735379
 20
20.8515421323
 30
0.0
 10
71.1832149052
 20
20.8518014078
 30
0.0
 10
70.9973483797
 20
20.8522261146
 30
0.0
 10
70.8557990326
 20
20.8527152185
 30
0.0
 10
70.7557905575
 20
20.8531930666
 30
0.0
 10
70.6923926047
 20
20.8535574278
 30
0.0
 10
70.6376617088
 20
20.8539598529
 30
0.0
 10
70.5920829774
 20
20.8543369994
 30
0.0
 10
70.5563389991
 20
20.8548420595
 30
0.0
 10
70.5324169482
 20
20.855053357
 30
0.0
 10
70.5188743212
 20
20.855617887
 30
0.0
 10
70.5117616811
 20
20.855452437
 30
0.0
 10
70.5087998329
 20
20.8563282363
 30
0.0
 10
70.5059986348
 20
20.8557824223
 30
0.0
 10
70.5059986348
 20
20.856230603
 30
0.0
  0
SPLINE
  5
2CD
100
AcDbEntity
  8
0
100
AcDbSpline
 62
7
  6
CONTINUOUS
 70
0
 71
3
 72
18
 73
14
 74
0
 42
0.0000001
 43
0.0000001
 44
0.0000000001
 40
0.0
 40
0.0
 40
0.0
 40
0.0
 40
0.0048722923
 40
0.019314842
 40
0.043150626
 40
0.07619417
 40
0.1182047663
 40
0.1687037329
 40
0.2929913863
 40
0.4444411313
 40
0.6173839481
 40
0.8053713266
 40
1.0
 40
1.0
 40
1.0
 40
1.0
 10
91.6694891089
 20
22.7885117081
 30
0.0
 10
91.6694891089
 20
22.7877423823
 30
0.0
 10
91.6646004393
 20
22.7891357069
 30
0.0
 10
91.6595508025
 20
22.7874962157
 30
0.0
 10
91.6472978276
 20
22.7881408007
 30
0.0
 10
91.6321173994
 20
22.7875961257
 30
0.0
 10
91.6121285576
 20
22.7875558178
 30
0.0
 10
91.5779736169
 20
22.7872484075
 30
0.0
 10
91.5264143588
 20
22.7870273863
 30
0.0
 10
91.4555885204
 20
22.7867642217
 30
0.0
 10
91.3746784612
 20
22.7865858926
 30
0.0
 10
91.2869588076
 20
22.7864748674
 30
0.0
 10
91.2265439829
 20
22.7864486239
 30
0.0
 10
91.1958124809
 20
22.7864462834
 30
0.0
  0
SPLINE
  5
2CE
100
AcDbEntity
  8
0
100
AcDbSpline
 62
7
  6
CONTINUOUS
 70
0
 71
3
 72
18
 73
14
 74
0
 42
0.0000001
 43
0.0000001
 44
0.0000000001
 40
0.0
 40
0.0
 40
0.0
 40
0.0
 40
0.1960763193
 40
0.3846498926
 40
0.5575763772
 40
0.7086354091
 40
0.8323662613
 40
0.8825805968
 40
0.9243304188
 40
0.9571558634
 40
0.9808262411
 40
0.9951639301
 40
1.0
 40
1.0
 40
1.0
 40
1.0
 10
72.1383578669
 20
22.7868097421
 30
0.0
 10
72.1077119955
 20
22.7868132436
 30
0.0
 10
72.0475924301
 20
22.7868450985
 30
0.0
 10
71.9604477381
 20
22.7869677865
 30
0.0
 10
71.8803308323
 20
22.7871531007
 30
0.0
 10
71.8103744469
 20
22.787419815
 30
0.0
 10
71.7595312271
 20
22.7876441206
 30
0.0
 10
71.7258948564
 20
22.7879519457
 30
0.0
 10
71.7062292305
 20
22.7879956701
 30
0.0
 10
71.6913007516
 20
22.7885334959
 30
0.0
 10
71.6792554817
 20
22.7879060581
 30
0.0
 10
71.6742920253
 20
22.789514907
 30
0.0
 10
71.6694891089
 20
22.7881539778
 30
0.0
 10
71.6694891089
 20
22.7889098344
 30
0.0
  0
SPLINE
  5
2CF
100
AcDbEntity
  8
0
100
AcDbSpline
 62
7
  6
CONTINUOUS
 70
0
 71
3
 72
11
 73
7
 74
0
 42
0.0000001
 43
0.0000001
 44
0.0000000001
 40
0.0
 40
0.0
 40
0.0
 40
0.0
 40
0.249999836
 40
0.4375017941
 40
0.6250023263
 40
1.0
 40
1.0
 40
1.0
 40
1.0
 10
87.8857312929
 20
178.7088294454
 30
0.0
 10
87.8860958449
 20
178.9709122636
 30
0.0
 10
87.8816726049
 20
179.4295515409
 30
0.0
 10
87.8808954108
 20
180.0847601536
 30
0.0
 10
87.8846300357
 20
180.8710271873
 30
0.0
 10
87.8716219014
 20
181.460630085
 30
0.0
 10
87.8661898015
 20
181.85371498
 30
0.0
  0
SPLINE
  5
2D0
100
AcDbEntity
  8
0
100
AcDbSpline
 62
7
  6
CONTINUOUS
 70
0
 71
3
 72
37
 73
33
 74
0
 42
0.0000001
 43
0.0000001
 44
0.0000000001
 40
0.0
 40
0.0
 40
0.0
 40
0.0
 40
0.0006171789
 40
0.0024362966
 40
0.0054510628
 40
0.0096509488
 40
0.0150249496
 40
0.0215619299
 40
0.0380800583
 40
0.0590857833
 40
0.0843399576
 40
0.1135735179
 40
0.1465173762
 40
0.2222947716
 40
0.3086952639
 40
0.4024772914
 40
0.5000000001
 40
0.5975227088
 40
0.6913047363
 40
0.7777052285
 40
0.8534826239
 40
0.8864264822
 40
0.9156600425
 40
0.9409142168
 40
0.9619199418
 40
0.9784380701
 40
0.9849750505
 40
0.9903490512
 40
0.9945489372
 40
0.9975637034
 40
0.9993828211
 40
1.0
 40
1.0
 40
1.0
 40
1.0
 10
73.4885593203
 20
181.8253065283
 30
0.0
 10
73.488559316
 20
181.8262862112
 30
0.0
 10
73.4946811927
 20
181.8251002586
 30
0.0
 10
73.501155901
 20
181.8270117942
 30
0.0
 10
73.5167148962
 20
181.8266470521
 30
0.0
 10
73.5361531922
 20
181.8274978367
 30
0.0
 10
73.5619296431
 20
181.8278422075
 30
0.0
 10
73.6069534135
 20
181.8286091469
 30
0.0
 10
73.6769527016
 20
181.8293829743
 30
0.0
 10
73.7765724381
 20
181.8302971114
 30
0.0
 10
73.896414146
 20
181.8311459134
 30
0.0
 10
74.0351937137
 20
181.8319543035
 30
0.0
 10
74.2541760297
 20
181.8329964079
 30
0.0
 10
74.5639012809
 20
181.8340683179
 30
0.0
 10
74.9702001731
 20
181.8349969042
 30
0.0
 10
75.4110169484
 20
181.8355659386
 30
0.0
 10
75.8694890632
 20
181.8357612741
 30
0.0
 10
76.3279611779
 20
181.8355659623
 30
0.0
 10
76.7687779532
 20
181.8349969507
 30
0.0
 10
77.1750768454
 20
181.8340683855
 30
0.0
 10
77.4848020967
 20
181.8329964916
 30
0.0
 10
77.7037844127
 20
181.8319543985
 30
0.0
 10
77.8425639803
 20
181.8311460155
 30
0.0
 10
77.9624056882
 20
181.8302972197
 30
0.0
 10
78.0620254247
 20
181.8293830878
 30
0.0
 10
78.1320247128
 20
181.828609264
 30
0.0
 10
78.1770484832
 20
181.827842327
 30
0.0
 10
78.2028249341
 20
181.8274979575
 30
0.0
 10
78.2222632301
 20
181.8266471739
 30
0.0
 10
78.2378222253
 20
181.8270119168
 30
0.0
 10
78.2442969336
 20
181.8251003816
 30
0.0
 10
78.2504188102
 20
181.8262863344
 30
0.0
 10
78.2504188059
 20
181.8253066515
 30
0.0
  0
ELLIPSE
  5
2D1
100
AcDbEntity
  8
0
100
AcDbEllipse
 62
7
  6
CONTINUOUS
 10
90.3009612325
 20
182.5406763613
 30
0.0
 11
3.0021842814
 21
-0.0000073775
 31
0.0
 40
0.0043636587
 41
1.5714890791
 42
2.9320621561
  0
ELLIPSE
  5
2D2
100
AcDbEntity
  8
0
100
AcDbEllipse
 62
7
  6
CONTINUOUS
 10
57.1698077267
 20
194.076143558
 30
0.0
 11
8.0068308227
 21
-0.0000226747
 31
0.0
 40
0.0043633084
 41
1.5716494428
 42
3.1413885789
  0
ELLIPSE
  5
2D3
100
AcDbEntity
  8
0
100
AcDbEllipse
 62
7
  6
CONTINUOUS
 10
61.8920357906
 20
194.1241801543
 30
0.0
 11
3.002071455
 21
-0.0000070228
 31
0.0
 40
0.0043637589
 41
-1.5701485991
 42
-0.261871927
  0
ELLIPSE
  5
2D4
100
AcDbEntity
  8
0
100
AcDbEllipse
 62
7
  6
CONTINUOUS
 10
89.8469424202
 20
194.1241801543
 30
0.0
 11
3.002071455
 21
0.0000070228
 31
0.0
 40
0.0043637589
 41
-2.8797207266
 42
-1.5714440545
  0
ELLIPSE
  5
2D5
100
AcDbEntity
  8
0
100
AcDbEllipse
 62
7
  6
CONTINUOUS
 10
95.5691704911
 20
194.076143558
 30
0.0
 11
8.0068308227
 21
0.0000226747
 31
0.0
 40
0.0043633084
 41
0.0002040747
 42
1.5699432108
  0
ELLIPSE
  5
2D6
100
AcDbEntity
  8
0
100
AcDbEllipse
 62
7
  6
CONTINUOUS
 10
90.0599597741
 20
193.4417846254
 30
0.0
 11
3.0021842814
 21
-0.0000073775
 31
0.0
 40
0.0043636587
 41
1.5714890791
 42
2.9320621569
  0
ELLIPSE
  5
2D7
100
AcDbEntity
  8
0
100
AcDbEllipse
 62
7
  6
CONTINUOUS
 10
56.8700095349
 20
182.4775617615
 30
0.0
 11
8.0005204483
 21
-0.0
 31
0.0
 40
0.0043633508
 41
7.854046683
 42
9.4247033924
  0
ELLIPSE
  5
2D8
100
AcDbEntity
  8
0
100
AcDbEllipse
 62
7
  6
CONTINUOUS
 10
95.8689686829
 20
182.4775617615
 30
0.0
 11
8.0005204483
 21
-0.0
 31
0.0
 40
0.0043633508
 41
6.2832598755
 42
7.853916585
  0
ELLIPSE
  5
2D9
100
AcDbEntity
  8
0
100
AcDbEllipse
 62
7
  6
CONTINUOUS
 10
56.870009535
 20
23.8431376384
 30
0.0
 11
8.0005204483
 21
-0.0
 31
0.0
 40
0.0043633508
 41
3.1416672219
 42
4.7123239314
  0
ELLIPSE
  5
2DA
100
AcDbEntity
  8
0
100
AcDbEllipse
 62
7
  6
CONTINUOUS
 10
95.8689686829
 20
23.8431376384
 30
0.0
 11
8.0005204483
 21
-0.0
 31
0.0
 40
0.0043633508
 41
4.7124540294
 42
6.2831107388
  0
ELLIPSE
  5
2DB
100
AcDbEntity
  8
0
100
AcDbEllipse
 62
7
  6
CONTINUOUS
 10
56.870009535
 20
181.8886240574
 30
0.0
 11
8.0005204483
 21
0.0
 31
0.0
 40
0.0043633508
 41
-3.1415180852
 42
-1.5708613758
  0
ELLIPSE
  5
2DC
100
AcDbEntity
  8
0
100
AcDbEllipse
 62
7
  6
CONTINUOUS
 10
95.8689686829
 20
181.8886240574
 30
0.0
 11
8.0005204483
 21
0.0
 31
0.0
 40
0.0043633508
 41
-1.5707312778
 42
-0.0000745683
  0
ENDSEC
  0
SECTION
  2
OBJECTS
  0
DICTIONARY
  5
C
100
AcDbDictionary
280
0
281
1
  3
ACAD_GROUP
350
D
  3
ACAD_MLINESTYLE
350
17
  3
ACAD_LAYOUT
350
1A
  3
ACAD_PLOTSETTINGS
350
19
  3
ACAD_PLOTSTYLENAME
350
E
  0
DICTIONARY
  5
D
102
{ACAD_REACTORS
330
C
102
}
100
AcDbDictionary
280
0
281
1
  0
ACDBDICTIONARYWDFLT
  5
E
102
{ACAD_REACTORS
330
C
102
}
100
AcDbDictionary
281
1
  3
Normal
350
F
100
AcDbDictionaryWithDefault
340
F
  0
DICTIONARY
  5
17
102
{ACAD_REACTORS
330
C
102
}
100
AcDbDictionary
280
0
281
1
  3
Standard
350
18
  0
DICTIONARY
  5
19
102
{ACAD_REACTORS
330
C
102
}
100
AcDbDictionary
281
1
  0
DICTIONARY
  5
1A
102
{ACAD_REACTORS
330
C
102
}
100
AcDbDictionary
281
1
  3
Model
350
2DD
  3
Layout1
350
2DE
  0
ACDBPLACEHOLDER
  5
F
102
{ACAD_REACTORS
330
E
102
}
  0
MLINESTYLE
  5
18
102
{ACAD_REACTORS
330
17
102
}
100
AcDbMlineStyle
  2
STANDARD
 70
0
  3

 62
256
 51
90.0
 52
90.0
 71
2
 49
0.5
 62
256
  6
BYLAYER
 49
-0.5
 62
256
  6
BYLAYER
  0
LAYOUT
  5
2DD
102
{ACAD_REACTORS
330
1A
102
}
100
AcDbPlotSettings
  1

  2
none_device
  4

  6

 40
0.0
 41
0.0
 42
0.0
 43
0.0
 44
210.0
 45
297.0
 46
0.0
 47
0.0
 48
0.0
 49
0.0
140
0.0
141
0.0
142
1.0
143
1.0
 70
1024
 72
1
 73
0
 74
0
  7

 75
0
147
1.0
148
0.0
149
0.0
100
AcDbLayout
  1
Model
 70
0
 71
0
 10
0.0
 20
0.0
 11
210.0
 21
297.0
 12
0.0
 22
0.0
 32
0.0
 14
0.0
 24
0.0
 34
0.0
 15
0.0
 25
0.0
 35
0.0
146
0.0
 13
0.0
 23
0.0
 33
0.0
 16
1.0
 26
0.0
 36
0.0
 17
0.0
 27
1.0
 37
0.0
 76
0
330
210
345
0
346
0
  0
LAYOUT
  5
2DE
102
{ACAD_REACTORS
330
1A
102
}
100
AcDbPlotSettings
  1

  2
none_device
  4

  6

 40
0.0
 41
0.0
 42
0.0
 43
0.0
 44
210.0
 45
297.0
 46
0.0
 47
0.0
 48
0.0
 49
0.0
140
0.0
141
0.0
142
1.0
143
1.0
 70
0
 72
1
 73
0
 74
0
  7

 75
0
147
1.0
148
0.0
149
0.0
100
AcDbLayout
  1
Layout1
 70
0
 71
1
 10
0.0
 20
0.0
 11
210.0
 21
297.0
 12
0.0
 22
0.0
 32
0.0
 14
0.0
 24
0.0
 34
0.0
 15
0.0
 25
0.0
 35
0.0
146
0.0
 13
0.0
 23
0.0
 33
0.0
 16
1.0
 26
0.0
 36
0.0
 17
0.0
 27
1.0
 37
0.0
 76
0
330
211
345
0
346
0
  0
ENDSEC
  0
EOF
