999
DXF file: C:\2D\Gen2D\CAD\LC1G500EHES207N\drw0001_3.dxf
999
Pro/ENGINEER 2019471 by Parametric Technology Corporation
  0
SECTION
  2
HEADER
  9
$ACADVER
  1
AC1024
  9
$DWGCODEPAGE
  3
ANSI_1252
  9
$EXTMAX
 10
188.7497588053
 20
266.9460874533
 30
0.0
  9
$EXTMIN
 10
0.0
 20
0.0
 30
0.0
  9
$LIMMIN
 10
0.0
 20
0.0
  9
$LIMMAX
 10
188.7497588053
 20
266.9460874533
  9
$VIEWCTR
 10
94.3748794027
 20
133.4730437266
  9
$VIEWSIZE
 40
266.9460874533
  9
$CLAYER
  8
0
  9
$LTSCALE
 40
17.4009301451
  9
$CELTYPE
  6
BYLAYER
  9
$DIMSCALE
 40
1.0
  9
$DIMASZ
 40
2.2470209382
  9
$DIMEXO
 40
1.0
  9
$DIMDLI
 40
12.0224608275
  9
$DIMEXE
 40
1.0
  9
$DIMCEN
 40
2.8474249328
  9
$DIMLFAC
 40
1.0
  9
$DIMBLK
  1
_FILLED
  9
$DIMALT
 70
0
  9
$DIMALTF
 40
0.0393700787
  9
$DIMTXT
 40
3.1458293134
  9
$DIMTOL
 70
1
  9
$DIMLIM
 70
0
  9
$DIMTFAC
 40
1.0
  9
$DIMTP
 40
0.01
  9
$DIMTM
 40
0.01
  9
$DIMGAP
 40
0.625
  9
$DIMDSEP
 70
46
  9
$AUNITS
 70
0
  9
$PDMODE
 70
3
  9
$PDSIZE
 40
0.3125
  9
$HANDSEED
  5
520
  9
$TILEMODE
 70
1
  9
$MEASUREMENT
 70
1
  9
$INSUNITS
 70
4
  0
ENDSEC
  0
SECTION
  2
CLASSES
  0
CLASS
  1
ACDBDICTIONARYWDFLT
  2
AcDbDictionaryWithDefault
  3
AutoCAD 2000
 90
0
 91
1
280
0
281
0
  0
CLASS
  1
ACDBPLACEHOLDER
  2
AcDbPlaceHolder
  3
AutoCAD 2000
 90
0
 91
1
280
0
281
0
  0
CLASS
  1
LAYOUT
  2
AcDbLayout
  3
AutoCAD 2000
 90
0
 91
0
280
0
281
0
  0
ENDSEC
  0
SECTION
  2
TABLES
  0
TABLE
  2
VPORT
  5
8
100
AcDbSymbolTable
 70
2
  0
VPORT
  5
1F4
100
AcDbSymbolTableRecord
100
AcDbViewportTableRecord
  2
*ACTIVE
 70
0
 10
0.0
 20
0.0
 11
1.0
 21
1.0
 12
94.3748794027
 22
133.4730437266
 13
0.0
 23
0.0
 14
1.0
 24
1.0
 15
0.0
 25
0.0
 16
0.0
 26
0.0
 36
1.0
 17
0.0
 27
0.0
 37
0.0
 40
266.9460874533
 41
0.7070707071
 42
50.0
 43
0.0
 44
0.0
 50
0.0
 51
0.0
 71
0
 72
100
 73
1
 74
1
 75
0
 76
0
 77
0
 78
0
  0
ENDTAB
  0
TABLE
  2
LTYPE
  5
5
100
AcDbSymbolTable
 70
6
  0
LTYPE
  5
14
100
AcDbSymbolTableRecord
100
AcDbLinetypeTableRecord
  2
BYBLOCK
 70
0
  3

 72
65
 73
0
 40
0.0
  0
LTYPE
  5
15
100
AcDbSymbolTableRecord
100
AcDbLinetypeTableRecord
  2
BYLAYER
 70
0
  3

 72
65
 73
0
 40
0.0
  0
LTYPE
  5
16
100
AcDbSymbolTableRecord
100
AcDbLinetypeTableRecord
  2
CONTINUOUS
 70
64
  3
Solid line
 72
65
 73
0
 40
0.0
  0
LTYPE
  5
1F5
100
AcDbSymbolTableRecord
100
AcDbLinetypeTableRecord
  2
CENTER
 70
64
  3
____ _ ____ _ ____ _ ____ _ ____ _ ____ _ ____
 72
65
 73
4
 40
0.6
 49
0.375
 74
0
 49
-0.075
 74
0
 49
0.075
 74
0
 49
-0.075
 74
0
  0
LTYPE
  5
1F6
100
AcDbSymbolTableRecord
100
AcDbLinetypeTableRecord
  2
HIDDEN
 70
64
  3
- - - - - - - - - - - - - - - - - - - -
 72
65
 73
2
 40
0.2
 49
0.1
 74
0
 49
-0.1
 74
0
  0
LTYPE
  5
1F7
100
AcDbSymbolTableRecord
100
AcDbLinetypeTableRecord
  2
PHANTOM
 70
64
  3
_____ _ _ _____ _ _ _____ _ _ _____
 72
65
 73
6
 40
0.8
 49
0.45
 74
0
 49
-0.05
 74
0
 49
0.1
 74
0
 49
-0.05
 74
0
 49
0.1
 74
0
 49
-0.05
 74
0
  0
LTYPE
  5
1F8
100
AcDbSymbolTableRecord
100
AcDbLinetypeTableRecord
  2
DOT
 70
64
  3
. . . . . . . . . . . . . . . . . . . .
 72
65
 73
2
 40
0.2
 49
0.1
 74
0
 49
-0.1
 74
0
  0
LTYPE
  5
1F9
100
AcDbSymbolTableRecord
100
AcDbLinetypeTableRecord
  2
DASHED
 70
64
  3
- - - - - - - - - - - - - - - - - - - -
 72
65
 73
2
 40
0.2
 49
0.1
 74
0
 49
-0.1
 74
0
  0
ENDTAB
  0
TABLE
  2
LAYER
  5
2
100
AcDbSymbolTable
 70
36
  0
LAYER
  5
10
100
AcDbSymbolTableRecord
100
AcDbLayerTableRecord
  2
0
 70
0
 62
7
  6
CONTINUOUS
370
-3
390
F
  0
LAYER
  5
1FA
100
AcDbSymbolTableRecord
100
AcDbLayerTableRecord
  2
DEFAULT_1
 70
0
 62
7
  6
CENTER
370
-3
390
F
  0
LAYER
  5
1FB
100
AcDbSymbolTableRecord
100
AcDbLayerTableRecord
  2
DEFAULT_2
 70
0
 62
8
  6
HIDDEN
370
-3
390
F
  0
LAYER
  5
1FC
100
AcDbSymbolTableRecord
100
AcDbLayerTableRecord
  2
DEFAULT_3
 70
0
 62
7
  6
PHANTOM
370
-3
390
F
  0
LAYER
  5
1FD
100
AcDbSymbolTableRecord
100
AcDbLayerTableRecord
  2
00_COMPONENTS
 70
0
 62
7
  6
CONTINUOUS
370
-3
390
F
  0
LAYER
  5
1FE
100
AcDbSymbolTableRecord
100
AcDbLayerTableRecord
  2
01_1_DEFAULT_DATUMS
 70
0
 62
7
  6
CONTINUOUS
370
-3
390
F
  0
LAYER
  5
1FF
100
AcDbSymbolTableRecord
100
AcDbLayerTableRecord
  2
01_PLANES
 70
0
 62
7
  6
CONTINUOUS
370
-3
390
F
  0
LAYER
  5
200
100
AcDbSymbolTableRecord
100
AcDbLayerTableRecord
  2
02_COORD_SYS
 70
0
 62
7
  6
CONTINUOUS
370
-3
390
F
  0
LAYER
  5
201
100
AcDbSymbolTableRecord
100
AcDbLayerTableRecord
  2
03_AXES
 70
0
 62
7
  6
CONTINUOUS
370
-3
390
F
  0
LAYER
  5
202
100
AcDbSymbolTableRecord
100
AcDbLayerTableRecord
  2
04_POINTS
 70
0
 62
7
  6
CONTINUOUS
370
-3
390
F
  0
LAYER
  5
203
100
AcDbSymbolTableRecord
100
AcDbLayerTableRecord
  2
05_CURVES
 70
0
 62
7
  6
CONTINUOUS
370
-3
390
F
  0
LAYER
  5
204
100
AcDbSymbolTableRecord
100
AcDbLayerTableRecord
  2
06_SURFS
 70
0
 62
7
  6
CONTINUOUS
370
-3
390
F
  0
LAYER
  5
205
100
AcDbSymbolTableRecord
100
AcDbLayerTableRecord
  2
07_COSMETICS
 70
0
 62
7
  6
CONTINUOUS
370
-3
390
F
  0
LAYER
  5
206
100
AcDbSymbolTableRecord
100
AcDbLayerTableRecord
  2
10_NOTES
 70
0
 62
7
  6
CONTINUOUS
370
-3
390
F
  0
LAYER
  5
207
100
AcDbSymbolTableRecord
100
AcDbLayerTableRecord
  2
11_NOTES_PUB
 70
0
 62
7
  6
CONTINUOUS
370
-3
390
F
  0
LAYER
  5
208
100
AcDbSymbolTableRecord
100
AcDbLayerTableRecord
  2
13_REF_GTOL
 70
0
 62
7
  6
CONTINUOUS
370
-3
390
F
  0
LAYER
  5
209
100
AcDbSymbolTableRecord
100
AcDbLayerTableRecord
  2
16_MISC
 70
0
 62
7
  6
CONTINUOUS
370
-3
390
F
  0
LAYER
  5
20A
100
AcDbSymbolTableRecord
100
AcDbLayerTableRecord
  2
17_NO_PRINT
 70
0
 62
7
  6
CONTINUOUS
370
-3
390
F
  0
LAYER
  5
20B
100
AcDbSymbolTableRecord
100
AcDbLayerTableRecord
  2
18_DATUM_CAMS_JOINTS
 70
0
 62
7
  6
CONTINUOUS
370
-3
390
F
  0
LAYER
  5
20C
100
AcDbSymbolTableRecord
100
AcDbLayerTableRecord
  2
19_DATUM_FUNCTIONAL
 70
0
 62
7
  6
CONTINUOUS
370
-3
390
F
  0
LAYER
  5
20D
100
AcDbSymbolTableRecord
100
AcDbLayerTableRecord
  2
20_DATUM_KINEMATIC_SCHEME
 70
0
 62
7
  6
CONTINUOUS
370
-3
390
F
  0
LAYER
  5
20E
100
AcDbSymbolTableRecord
100
AcDbLayerTableRecord
  2
INTFCLR_9
 70
0
 62
7
  6
CONTINUOUS
370
-3
390
F
  0
LAYER
  5
20F
100
AcDbSymbolTableRecord
100
AcDbLayerTableRecord
  2
INTF_BLANK
 70
0
 62
7
  6
CONTINUOUS
370
-3
390
F
  0
LAYER
  5
210
100
AcDbSymbolTableRecord
100
AcDbLayerTableRecord
  2
_BLACK_HOLE
 70
0
 62
7
  6
CONTINUOUS
370
-3
390
F
  0
ENDTAB
  0
TABLE
  2
STYLE
  5
3
100
AcDbSymbolTable
 70
1
  0
STYLE
  5
11
100
AcDbSymbolTableRecord
100
AcDbTextStyleTableRecord
  2
STANDARD
 70
0
 40
0.0
 41
0.8
 50
0.0
 71
0
 42
0.2
  3
txt
  4

  0
STYLE
  5
211
100
AcDbSymbolTableRecord
100
AcDbTextStyleTableRecord
  2
TEXTSTYLE_1
 70
0
 40
0.0
 41
0.8
 50
0.0
 71
0
 42
0.2
  3
gdt
  4

  0
ENDTAB
  0
TABLE
  2
VIEW
  5
6
100
AcDbSymbolTable
 70
0
  0
ENDTAB
  0
TABLE
  2
UCS
  5
7
100
AcDbSymbolTable
 70
0
  0
ENDTAB
  0
TABLE
  2
APPID
  5
9
100
AcDbSymbolTable
 70
1
  0
APPID
  5
212
100
AcDbSymbolTableRecord
100
AcDbRegAppTableRecord
  2
ACAD
 70
0
  0
ENDTAB
  0
TABLE
  2
BLOCK_RECORD
  5
1
100
AcDbSymbolTable
 70
0
  0
BLOCK_RECORD
  5
213
100
AcDbSymbolTableRecord
100
AcDbBlockTableRecord
  2
*Model_Space
  0
BLOCK_RECORD
  5
214
100
AcDbSymbolTableRecord
100
AcDbBlockTableRecord
  2
*Paper_Space
  0
BLOCK_RECORD
  5
215
100
AcDbSymbolTableRecord
100
AcDbBlockTableRecord
  2
_FILLED
  0
ENDTAB
  0
TABLE
  2
DIMSTYLE
  5
A
100
AcDbSymbolTable
 70
1
100
AcDbDimStyleTable
 71
0
  0
DIMSTYLE
105
216
100
AcDbSymbolTableRecord
100
AcDbDimStyleTableRecord
  2
STANDARD
 70
0
  3

  4

 40
1.0
 41
2.2470209382
 42
1.0
 43
0.38
 44
1.0
 45
0.0
 46
0.0
 47
0.01
 48
0.01
140
3.1458293134
141
0.09
142
0.0
143
25.4
144
1.0
145
0.0
146
1.0
147
0.625
 71
1
 72
0
 73
0
 74
0
 75
0
 76
0
 77
1
 78
8
 79
2
170
0
171
1
172
0
173
0
174
0
175
0
176
0
177
0
178
0
270
2
179
2
271
2
272
2
273
2
274
2
275
0
280
0
281
0
282
0
283
1
284
8
285
0
286
0
287
3
288
0
340
11
278
46
341
215
342
215
343
215
344
215
  0
ENDTAB
  0
ENDSEC
  0
SECTION
  2
BLOCKS
  0
BLOCK
  5
20
100
AcDbEntity
  8
0
100
AcDbBlockBegin
  2
*Model_Space
 70
0
 10
0.0
 20
0.0
 30
0.0
  3
*Model_Space
  1

  0
ENDBLK
  5
21
100
AcDbEntity
  8
0
100
AcDbBlockEnd
  0
BLOCK
  5
1C
100
AcDbEntity
  8
0
100
AcDbBlockBegin
  2
*Paper_Space
 70
0
 10
0.0
 20
0.0
 30
0.0
  3
*Paper_Space
  1

  0
ENDBLK
  5
1D
100
AcDbEntity
  8
0
100
AcDbBlockEnd
  0
BLOCK
  5
217
100
AcDbEntity
  8
0
100
AcDbBlockBegin
  2
_FILLED
 70
64
 10
0.0
 20
0.0
  3
_FILLED
  1

  0
SOLID
  5
218
100
AcDbEntity
  8
0
  6
BYBLOCK
 62
0
100
AcDbTrace
 10
0.0
 20
0.0
 11
-1.0
 21
0.25
 12
-1.0
 22
-0.25
 13
-1.0
 23
-0.25
  0
ENDBLK
  5
219
100
AcDbEntity
  8
0
  6
BYBLOCK
 62
0
100
AcDbBlockEnd
  0
ENDSEC
  0
SECTION
  2
ENTITIES
  0
LINE
  5
21A
100
AcDbEntity
  8
0
100
AcDbLine
 62
7
  6
CONTINUOUS
 10
164.4350539536
 20
23.5016150192
 11
164.943174988
 21
23.5167607498
  0
LINE
  5
21B
100
AcDbEntity
  8
0
100
AcDbLine
 62
7
  6
CONTINUOUS
 10
27.4389329599
 20
21.4016145299
 11
166.4389329599
 21
21.4016145299
  0
LINE
  5
21C
100
AcDbEntity
  8
0
100
AcDbLine
 62
7
  6
CONTINUOUS
 10
124.3263922215
 20
21.901616701
 11
122.0284033417
 21
21.901537866
  0
LINE
  5
21D
100
AcDbEntity
  8
0
100
AcDbLine
 62
7
  6
CONTINUOUS
 10
116.8496378115
 20
21.9016060253
 11
114.5515682259
 21
21.9015569996
  0
LINE
  5
21E
100
AcDbEntity
  8
0
100
AcDbLine
 62
7
  6
CONTINUOUS
 10
26.9389329599
 20
22.9016145299
 11
28.8631035782
 21
22.9016145273
  0
LINE
  5
21F
100
AcDbEntity
  8
0
100
AcDbLine
 62
7
  6
CONTINUOUS
 10
30.0428055224
 20
22.9016145299
 11
73.9364391788
 21
22.9016145299
  0
LINE
  5
220
100
AcDbEntity
  8
0
100
AcDbLine
 62
7
  6
CONTINUOUS
 10
74.9414267409
 20
22.9016145299
 11
117.8778079296
 21
22.9016145299
  0
LINE
  5
221
100
AcDbEntity
  8
0
100
AcDbLine
 62
7
  6
CONTINUOUS
 10
121.0016651911
 20
22.9016145299
 11
163.8350604347
 21
22.9016145299
  0
LINE
  5
222
100
AcDbEntity
  8
0
100
AcDbLine
 62
7
  6
CONTINUOUS
 10
165.014762341
 20
22.9016145299
 11
166.9389329599
 21
22.9016145299
  0
LINE
  5
223
100
AcDbEntity
  8
0
100
AcDbLine
 62
7
  6
CONTINUOUS
 10
30.0428055272
 20
23.4016145579
 11
73.1927872197
 21
23.4016145299
  0
LINE
  5
224
100
AcDbEntity
  8
0
100
AcDbLine
 62
7
  6
CONTINUOUS
 10
75.6850787
 20
23.4016145299
 11
117.6889329599
 21
23.4016145299
  0
LINE
  5
225
100
AcDbEntity
  8
0
100
AcDbLine
 62
7
  6
CONTINUOUS
 10
121.1889329599
 20
23.4016145299
 11
163.8350604331
 21
23.4016145299
  0
LINE
  5
226
100
AcDbEntity
  8
0
100
AcDbLine
 62
7
  6
CONTINUOUS
 10
28.9338090162
 20
23.5016145299
 11
29.4428185698
 21
23.5016145299
  0
LINE
  5
227
100
AcDbEntity
  8
0
100
AcDbLine
 62
7
  6
CONTINUOUS
 10
157.5389329784
 20
23.9016145308
 11
126.3389329573
 21
23.90161453
  0
LINE
  5
228
100
AcDbEntity
  8
0
100
AcDbLine
 62
7
  6
CONTINUOUS
 10
112.5389329784
 20
23.9016145308
 11
81.3389329573
 21
23.90161453
  0
LINE
  5
229
100
AcDbEntity
  8
0
100
AcDbLine
 62
7
  6
CONTINUOUS
 10
67.5389329784
 20
23.9016145308
 11
36.3389329573
 21
23.90161453
  0
LINE
  5
22A
100
AcDbEntity
  8
0
100
AcDbLine
 62
7
  6
CONTINUOUS
 10
36.3389329595
 20
24.4016145299
 11
67.5389329583
 21
24.4016145299
  0
LINE
  5
22B
100
AcDbEntity
  8
0
100
AcDbLine
 62
7
  6
CONTINUOUS
 10
81.3389329595
 20
24.4016145299
 11
112.5389329583
 21
24.4016145299
  0
LINE
  5
22C
100
AcDbEntity
  8
0
100
AcDbLine
 62
7
  6
CONTINUOUS
 10
126.3389329595
 20
24.4016145299
 11
157.5389329583
 21
24.4016145299
  0
LINE
  5
22D
100
AcDbEntity
  8
0
100
AcDbLine
 62
7
  6
CONTINUOUS
 10
35.2389329599
 20
25.0016145299
 11
35.7389329599
 21
25.0016145299
  0
LINE
  5
22E
100
AcDbEntity
  8
0
100
AcDbLine
 62
7
  6
CONTINUOUS
 10
68.1389329599
 20
25.0016145299
 11
68.6389329599
 21
25.0016145299
  0
LINE
  5
22F
100
AcDbEntity
  8
0
100
AcDbLine
 62
7
  6
CONTINUOUS
 10
80.2389329599
 20
25.0016145299
 11
80.7389329599
 21
25.0016145299
  0
LINE
  5
230
100
AcDbEntity
  8
0
100
AcDbLine
 62
7
  6
CONTINUOUS
 10
113.1389329599
 20
25.0016145299
 11
113.6389329599
 21
25.0016145299
  0
LINE
  5
231
100
AcDbEntity
  8
0
100
AcDbLine
 62
7
  6
CONTINUOUS
 10
125.2389329599
 20
25.0016145299
 11
125.7389329599
 21
25.0016145299
  0
LINE
  5
232
100
AcDbEntity
  8
0
100
AcDbLine
 62
7
  6
CONTINUOUS
 10
158.1389329599
 20
25.0016145299
 11
158.6389329599
 21
25.0016145299
  0
LINE
  5
233
100
AcDbEntity
  8
0
100
AcDbLine
 62
7
  6
CONTINUOUS
 10
31.7851060802
 20
25.4016145299
 11
33.2927598396
 21
25.4016145299
  0
LINE
  5
234
100
AcDbEntity
  8
0
100
AcDbLine
 62
7
  6
CONTINUOUS
 10
160.5851060802
 20
25.4016145299
 11
162.0927598396
 21
25.4016145299
  0
LINE
  5
235
100
AcDbEntity
  8
0
100
AcDbLine
 62
7
  6
CONTINUOUS
 10
114.2889329599
 20
26.4016145299
 11
117.8991213044
 21
26.4016145299
  0
LINE
  5
236
100
AcDbEntity
  8
0
100
AcDbLine
 62
7
  6
CONTINUOUS
 10
120.9804929033
 20
26.4016145299
 11
124.5889329599
 21
26.4016145299
  0
LINE
  5
237
100
AcDbEntity
  8
0
100
AcDbLine
 62
7
  6
CONTINUOUS
 10
35.4389329518
 20
210.6116145218
 11
35.9389329551
 21
211.1116145251
  0
LINE
  5
238
100
AcDbEntity
  8
0
100
AcDbLine
 62
7
  6
CONTINUOUS
 10
162.059597742
 20
30.4016145299
 11
160.6182681778
 21
30.4016145299
  0
LINE
  5
239
100
AcDbEntity
  8
0
100
AcDbLine
 62
7
  6
CONTINUOUS
 10
33.2595977419
 20
30.4016145299
 11
31.8182681778
 21
30.4016145299
  0
LINE
  5
23A
100
AcDbEntity
  8
0
100
AcDbLine
 62
7
  6
CONTINUOUS
 10
161.9889329599
 20
32.4016145299
 11
160.6889329599
 21
32.4016145299
  0
LINE
  5
23B
100
AcDbEntity
  8
0
100
AcDbLine
 62
7
  6
CONTINUOUS
 10
33.1889329599
 20
32.4016145299
 11
31.8889329599
 21
32.4016145299
  0
LINE
  5
23C
100
AcDbEntity
  8
0
100
AcDbLine
 62
7
  6
CONTINUOUS
 10
124.1345734691
 20
34.5462682882
 11
120.3051199313
 21
34.5462682882
  0
LINE
  5
23D
100
AcDbEntity
  8
0
100
AcDbLine
 62
7
  6
CONTINUOUS
 10
118.5727459884
 20
34.5462682882
 11
114.8815855504
 21
34.5462682882
  0
LINE
  5
23E
100
AcDbEntity
  8
0
100
AcDbLine
 62
7
  6
CONTINUOUS
 10
114.2889329599
 20
36.4016145299
 11
118.5291617029
 21
36.4016145299
  0
LINE
  5
23F
100
AcDbEntity
  8
0
100
AcDbLine
 62
7
  6
CONTINUOUS
 10
120.3487042169
 20
36.4016145299
 11
124.5889329599
 21
36.4016145299
  0
LINE
  5
240
100
AcDbEntity
  8
0
100
AcDbLine
 62
7
  6
CONTINUOUS
 10
35.1389329599
 20
83.1016145302
 11
35.7389329599
 21
82.5016145302
  0
LINE
  5
241
100
AcDbEntity
  8
0
100
AcDbLine
 62
7
  6
CONTINUOUS
 10
26.9389329599
 20
21.9016145299
 11
26.9389329599
 21
183.5516145299
  0
LINE
  5
242
100
AcDbEntity
  8
0
100
AcDbLine
 62
7
  6
CONTINUOUS
 10
33.892751907
 20
26.0051415232
 11
33.8595748958
 21
29.8068504512
  0
LINE
  5
243
100
AcDbEntity
  8
0
100
AcDbLine
 62
7
  6
CONTINUOUS
 10
35.1949406737
 20
90.3021381333
 11
35.144677465
 21
99.9016145299
  0
LINE
  5
244
100
AcDbEntity
  8
0
100
AcDbLine
 62
7
  6
CONTINUOUS
 10
35.6420663012
 20
100.4016145299
 11
35.6949338113
 21
90.3047561155
  0
LINE
  5
245
100
AcDbEntity
  8
0
100
AcDbLine
 62
7
  6
CONTINUOUS
 10
28.8631035782
 20
22.9016145273
 11
28.8631035788
 21
124.9016145299
  0
LINE
  5
246
100
AcDbEntity
  8
0
100
AcDbLine
 62
7
  6
CONTINUOUS
 10
29.3430853019
 20
124.4016145299
 11
29.3430853019
 21
23.5016145299
  0
LINE
  5
247
100
AcDbEntity
  8
0
100
AcDbLine
 62
7
  6
CONTINUOUS
 10
29.442825584
 20
124.4016145299
 11
29.4428082507
 21
23.5017225384
  0
LINE
  5
248
100
AcDbEntity
  8
0
100
AcDbLine
 62
7
  6
CONTINUOUS
 10
30.0428055194
 20
22.9016145299
 11
30.0428055336
 21
124.9016145299
  0
LINE
  5
249
100
AcDbEntity
  8
0
100
AcDbLine
 62
7
  6
CONTINUOUS
 10
31.1623550342
 20
22.9016145299
 11
31.1623550342
 21
21.4016145299
  0
LINE
  5
24A
100
AcDbEntity
  8
0
100
AcDbLine
 62
7
  6
CONTINUOUS
 10
31.2889329599
 20
33.0016145299
 11
31.2889329599
 21
79.3016145299
  0
LINE
  5
24B
100
AcDbEntity
  8
0
100
AcDbLine
 62
7
  6
CONTINUOUS
 10
32.1389329599
 20
82.3816145472
 11
32.1389329599
 21
89.1016145479
  0
LINE
  5
24C
100
AcDbEntity
  8
0
100
AcDbLine
 62
7
  6
CONTINUOUS
 10
32.1389329598
 20
99.9016145299
 11
32.1389329598
 21
124.9016145299
  0
LINE
  5
24D
100
AcDbEntity
  8
0
100
AcDbLine
 62
7
  6
CONTINUOUS
 10
32.6389329598
 20
124.4016145299
 11
32.6389329598
 21
100.4016145299
  0
LINE
  5
24E
100
AcDbEntity
  8
0
100
AcDbLine
 62
7
  6
CONTINUOUS
 10
32.6389329599
 20
89.1016145478
 11
32.6389329599
 21
82.3816145478
  0
LINE
  5
24F
100
AcDbEntity
  8
0
100
AcDbLine
 62
7
  6
CONTINUOUS
 10
33.1189329599
 20
124.9016145299
 11
33.1189329599
 21
100.4016145299
  0
LINE
  5
250
100
AcDbEntity
  8
0
100
AcDbLine
 62
7
  6
CONTINUOUS
 10
33.1189329599
 20
81.9016145478
 11
33.1189329599
 21
81.4016145478
  0
LINE
  5
251
100
AcDbEntity
  8
0
100
AcDbLine
 62
7
  6
CONTINUOUS
 10
33.2389329599
 20
90.2016145478
 11
33.2389329599
 21
89.7016145478
  0
LINE
  5
252
100
AcDbEntity
  8
0
100
AcDbLine
 62
7
  6
CONTINUOUS
 10
33.7889329599
 20
79.3016145299
 11
33.7889329599
 21
33.0016145299
  0
LINE
  5
253
100
AcDbEntity
  8
0
100
AcDbLine
 62
7
  6
CONTINUOUS
 10
33.9155106205
 20
21.4016145299
 11
33.9155106205
 21
22.9016145299
  0
LINE
  5
254
100
AcDbEntity
  8
0
100
AcDbLine
 62
7
  6
CONTINUOUS
 10
35.0604223059
 20
100.4016145299
 11
35.0604223059
 21
124.4016145299
  0
LINE
  5
255
100
AcDbEntity
  8
0
100
AcDbLine
 62
7
  6
CONTINUOUS
 10
35.0949420529
 20
89.7016145478
 11
35.0949420529
 21
90.2016145478
  0
LINE
  5
256
100
AcDbEntity
  8
0
100
AcDbLine
 62
7
  6
CONTINUOUS
 10
35.1389329599
 20
81.9016145478
 11
35.1389329599
 21
83.1016145302
  0
LINE
  5
257
100
AcDbEntity
  8
0
100
AcDbLine
 62
7
  6
CONTINUOUS
 10
35.2389329608
 20
25.0016145113
 11
35.2389329599
 21
81.9016145478
  0
LINE
  5
258
100
AcDbEntity
  8
0
100
AcDbLine
 62
7
  6
CONTINUOUS
 10
35.4389329599
 20
210.6116145191
 11
35.4389329599
 21
183.5516145299
  0
LINE
  5
259
100
AcDbEntity
  8
0
100
AcDbLine
 62
7
  6
CONTINUOUS
 10
35.5137834288
 20
100.4016145299
 11
35.5137834288
 21
124.9016145299
  0
LINE
  5
25A
100
AcDbEntity
  8
0
100
AcDbLine
 62
7
  6
CONTINUOUS
 10
35.7389329599
 20
82.5016145302
 11
35.7389329599
 21
25.0016145315
  0
LINE
  5
25B
100
AcDbEntity
  8
0
100
AcDbLine
 62
7
  6
CONTINUOUS
 10
35.938932957
 20
183.5516145299
 11
35.9389329599
 21
211.1116145299
  0
LINE
  5
25C
100
AcDbEntity
  8
0
100
AcDbLine
 62
7
  6
CONTINUOUS
 10
31.218291024
 20
29.8068504512
 11
31.1851289264
 21
26.0068504512
  0
LINE
  5
25D
100
AcDbEntity
  8
0
100
AcDbLine
 62
7
  6
CONTINUOUS
 10
45.5389357478
 20
69.3016145299
 11
58.338930172
 21
69.3016145299
  0
LINE
  5
25E
100
AcDbEntity
  8
0
100
AcDbLine
 62
7
  6
CONTINUOUS
 10
90.5389357478
 20
69.3016145299
 11
103.338930172
 21
69.3016145299
  0
LINE
  5
25F
100
AcDbEntity
  8
0
100
AcDbLine
 62
7
  6
CONTINUOUS
 10
135.5389357478
 20
69.3016145299
 11
148.338930172
 21
69.3016145299
  0
LINE
  5
260
100
AcDbEntity
  8
0
100
AcDbLine
 62
7
  6
CONTINUOUS
 10
45.6715516965
 20
69.6766201764
 11
46.7882455508
 21
69.6766201764
  0
LINE
  5
261
100
AcDbEntity
  8
0
100
AcDbLine
 62
7
  6
CONTINUOUS
 10
57.089620369
 20
69.6766201764
 11
58.2063142233
 21
69.6766201764
  0
LINE
  5
262
100
AcDbEntity
  8
0
100
AcDbLine
 62
7
  6
CONTINUOUS
 10
90.6715516965
 20
69.6766201764
 11
91.7882455508
 21
69.6766201764
  0
LINE
  5
263
100
AcDbEntity
  8
0
100
AcDbLine
 62
7
  6
CONTINUOUS
 10
102.089620369
 20
69.6766201764
 11
103.2063142233
 21
69.6766201764
  0
LINE
  5
264
100
AcDbEntity
  8
0
100
AcDbLine
 62
7
  6
CONTINUOUS
 10
135.6715516965
 20
69.6766201764
 11
136.7882455508
 21
69.6766201764
  0
LINE
  5
265
100
AcDbEntity
  8
0
100
AcDbLine
 62
7
  6
CONTINUOUS
 10
147.089620369
 20
69.6766201763
 11
148.2063142233
 21
69.6766201764
  0
LINE
  5
266
100
AcDbEntity
  8
0
100
AcDbLine
 62
7
  6
CONTINUOUS
 10
45.0389331477
 20
69.8016145299
 11
45.6447787271
 21
69.8016145299
  0
LINE
  5
267
100
AcDbEntity
  8
0
100
AcDbLine
 62
7
  6
CONTINUOUS
 10
46.8334232217
 20
69.8016145299
 11
57.044442698
 21
69.8016145299
  0
LINE
  5
268
100
AcDbEntity
  8
0
100
AcDbLine
 62
7
  6
CONTINUOUS
 10
58.2330871927
 20
69.8016145299
 11
58.8389329599
 21
69.8016145299
  0
LINE
  5
269
100
AcDbEntity
  8
0
100
AcDbLine
 62
7
  6
CONTINUOUS
 10
90.0389331477
 20
69.8016145299
 11
90.6447787271
 21
69.8016145299
  0
LINE
  5
26A
100
AcDbEntity
  8
0
100
AcDbLine
 62
7
  6
CONTINUOUS
 10
91.8334232217
 20
69.8016145299
 11
102.044442698
 21
69.8016145299
  0
LINE
  5
26B
100
AcDbEntity
  8
0
100
AcDbLine
 62
7
  6
CONTINUOUS
 10
103.2330871927
 20
69.8016145299
 11
103.8389329599
 21
69.8016145299
  0
LINE
  5
26C
100
AcDbEntity
  8
0
100
AcDbLine
 62
7
  6
CONTINUOUS
 10
135.0389331477
 20
69.8016145299
 11
135.6447787271
 21
69.8016145299
  0
LINE
  5
26D
100
AcDbEntity
  8
0
100
AcDbLine
 62
7
  6
CONTINUOUS
 10
136.8334232218
 20
69.8016145299
 11
147.044442698
 21
69.8016145299
  0
LINE
  5
26E
100
AcDbEntity
  8
0
100
AcDbLine
 62
7
  6
CONTINUOUS
 10
148.2330871927
 20
69.8016145299
 11
148.8389329599
 21
69.8016145299
  0
LINE
  5
26F
100
AcDbEntity
  8
0
100
AcDbLine
 62
7
  6
CONTINUOUS
 10
42.9245221562
 20
82.5016145302
 11
45.6715516965
 21
69.6766201763
  0
LINE
  5
270
100
AcDbEntity
  8
0
100
AcDbLine
 62
7
  6
CONTINUOUS
 10
46.7882455507
 20
69.6766201764
 11
44.0412160104
 21
82.5016145302
  0
LINE
  5
271
100
AcDbEntity
  8
0
100
AcDbLine
 62
7
  6
CONTINUOUS
 10
36.3389329599
 20
24.4016145299
 11
36.3389329599
 21
23.9016145299
  0
LINE
  5
272
100
AcDbEntity
  8
0
100
AcDbLine
 62
7
  6
CONTINUOUS
 10
36.7389329599
 20
83.1016145302
 11
36.7389329599
 21
91.0607482002
  0
LINE
  5
273
100
AcDbEntity
  8
0
100
AcDbLine
 62
7
  6
CONTINUOUS
 10
36.9389329599
 20
105.4016145299
 11
36.9389329599
 21
100.4016145303
  0
LINE
  5
274
100
AcDbEntity
  8
0
100
AcDbLine
 62
7
  6
CONTINUOUS
 10
37.3389330893
 20
91.6607482002
 11
37.3389330893
 21
82.5016145302
  0
LINE
  5
275
100
AcDbEntity
  8
0
100
AcDbLine
 62
7
  6
CONTINUOUS
 10
37.4389329599
 20
183.5516145299
 11
37.4389329599
 21
229.8016145299
  0
LINE
  5
276
100
AcDbEntity
  8
0
100
AcDbLine
 62
7
  6
CONTINUOUS
 10
40.8303329599
 20
105.4016145299
 11
40.8303329599
 21
107.0016145299
  0
LINE
  5
277
100
AcDbEntity
  8
0
100
AcDbLine
 62
7
  6
CONTINUOUS
 10
42.7013286528
 20
113.5327145299
 11
42.7013286528
 21
107.7327145299
  0
LINE
  5
278
100
AcDbEntity
  8
0
100
AcDbLine
 62
7
  6
CONTINUOUS
 10
44.2657278791
 20
100.4016145303
 11
44.2657278791
 21
105.4016145299
  0
LINE
  5
279
100
AcDbEntity
  8
0
100
AcDbLine
 62
7
  6
CONTINUOUS
 10
44.7853431214
 20
105.4016145299
 11
44.7853431214
 21
100.4016145303
  0
LINE
  5
27A
100
AcDbEntity
  8
0
100
AcDbLine
 62
7
  6
CONTINUOUS
 10
45.0389329599
 20
69.8016145299
 11
45.0389329599
 21
72.6301128877
  0
LINE
  5
27B
100
AcDbEntity
  8
0
100
AcDbLine
 62
7
  6
CONTINUOUS
 10
31.8889329599
 20
79.9016145299
 11
33.1889329599
 21
79.9016145299
  0
LINE
  5
27C
100
AcDbEntity
  8
0
100
AcDbLine
 62
7
  6
CONTINUOUS
 10
160.6889329599
 20
79.9016145299
 11
161.9889329599
 21
79.9016145299
  0
LINE
  5
27D
100
AcDbEntity
  8
0
100
AcDbLine
 62
7
  6
CONTINUOUS
 10
160.6389329328
 20
81.4016145488
 11
158.1389329599
 21
81.4016145478
  0
LINE
  5
27E
100
AcDbEntity
  8
0
100
AcDbLine
 62
7
  6
CONTINUOUS
 10
125.7389329599
 20
81.4016145478
 11
124.4389329599
 21
81.4016145478
  0
LINE
  5
27F
100
AcDbEntity
  8
0
100
AcDbLine
 62
7
  6
CONTINUOUS
 10
114.4389329701
 20
81.4016145488
 11
113.1389329599
 21
81.4016145478
  0
LINE
  5
280
100
AcDbEntity
  8
0
100
AcDbLine
 62
7
  6
CONTINUOUS
 10
80.7389329599
 20
81.4016145478
 11
79.4389329599
 21
81.4016145478
  0
LINE
  5
281
100
AcDbEntity
  8
0
100
AcDbLine
 62
7
  6
CONTINUOUS
 10
69.4389329701
 20
81.4016145488
 11
68.1389329599
 21
81.4016145478
  0
LINE
  5
282
100
AcDbEntity
  8
0
100
AcDbLine
 62
7
  6
CONTINUOUS
 10
35.7389329599
 20
81.4016145478
 11
33.1189329598
 21
81.4016145478
  0
LINE
  5
283
100
AcDbEntity
  8
0
100
AcDbLine
 62
7
  6
CONTINUOUS
 10
33.1189329598
 20
81.9016145478
 11
35.2389329599
 21
81.9016145478
  0
LINE
  5
284
100
AcDbEntity
  8
0
100
AcDbLine
 62
7
  6
CONTINUOUS
 10
68.6389329599
 20
81.9016145478
 11
69.4389329583
 21
81.9016145478
  0
LINE
  5
285
100
AcDbEntity
  8
0
100
AcDbLine
 62
7
  6
CONTINUOUS
 10
79.4389329599
 20
81.9016145478
 11
80.2389329599
 21
81.9016145478
  0
LINE
  5
286
100
AcDbEntity
  8
0
100
AcDbLine
 62
7
  6
CONTINUOUS
 10
113.6389329599
 20
81.9016145478
 11
114.4389329583
 21
81.9016145478
  0
LINE
  5
287
100
AcDbEntity
  8
0
100
AcDbLine
 62
7
  6
CONTINUOUS
 10
124.4389329599
 20
81.9016145478
 11
125.2389329599
 21
81.9016145478
  0
LINE
  5
288
100
AcDbEntity
  8
0
100
AcDbLine
 62
7
  6
CONTINUOUS
 10
158.6389329599
 20
81.9016145478
 11
160.638932921
 21
81.9016145478
  0
LINE
  5
289
100
AcDbEntity
  8
0
100
AcDbLine
 62
7
  6
CONTINUOUS
 10
45.4580049088
 20
70.6736012084
 11
45.4580049088
 21
69.8016145299
  0
LINE
  5
28A
100
AcDbEntity
  8
0
100
AcDbLine
 62
7
  6
CONTINUOUS
 10
46.2389329599
 20
229.8016145299
 11
46.2389329599
 21
230.8016145299
  0
LINE
  5
28B
100
AcDbEntity
  8
0
100
AcDbLine
 62
7
  6
CONTINUOUS
 10
46.8334232217
 20
69.8016145299
 11
46.8334232217
 21
82.5016145302
  0
LINE
  5
28C
100
AcDbEntity
  8
0
100
AcDbLine
 62
7
  6
CONTINUOUS
 10
46.9389329599
 20
91.6607482002
 11
46.9389329599
 21
100.4016145303
  0
LINE
  5
28D
100
AcDbEntity
  8
0
100
AcDbLine
 62
7
  6
CONTINUOUS
 10
46.9389329599
 20
107.0016145299
 11
46.9389329599
 21
107.7327145299
  0
LINE
  5
28E
100
AcDbEntity
  8
0
100
AcDbLine
 62
7
  6
CONTINUOUS
 10
47.3201308064
 20
113.5327145299
 11
47.3201308064
 21
107.7327145299
  0
LINE
  5
28F
100
AcDbEntity
  8
0
100
AcDbLine
 62
7
  6
CONTINUOUS
 10
47.4389329599
 20
229.8016145299
 11
47.4389329599
 21
183.5516145299
  0
LINE
  5
290
100
AcDbEntity
  8
0
100
AcDbLine
 62
7
  6
CONTINUOUS
 10
48.3389329599
 20
100.4016145303
 11
48.3389329599
 21
105.4016145299
  0
LINE
  5
291
100
AcDbEntity
  8
0
100
AcDbLine
 62
7
  6
CONTINUOUS
 10
48.9389329599
 20
105.4016145299
 11
48.9389329599
 21
100.4016145303
  0
LINE
  5
292
100
AcDbEntity
  8
0
100
AcDbLine
 62
7
  6
CONTINUOUS
 10
49.2389329599
 20
105.4016145299
 11
49.2389329599
 21
100.4016145303
  0
LINE
  5
293
100
AcDbEntity
  8
0
100
AcDbLine
 62
7
  6
CONTINUOUS
 10
125.1954670103
 20
90.2016145478
 11
125.6954601564
 21
90.2042325297
  0
LINE
  5
294
100
AcDbEntity
  8
0
100
AcDbLine
 62
7
  6
CONTINUOUS
 10
80.1949406652
 20
90.3021381441
 11
80.6949338113
 21
90.304756126
  0
LINE
  5
295
100
AcDbEntity
  8
0
100
AcDbLine
 62
7
  6
CONTINUOUS
 10
35.1949406652
 20
90.3021381441
 11
35.6949338113
 21
90.304756126
  0
LINE
  5
296
100
AcDbEntity
  8
0
100
AcDbLine
 62
7
  6
CONTINUOUS
 10
32.1389329599
 20
82.3816145478
 11
32.6389329599
 21
82.3816145478
  0
LINE
  5
297
100
AcDbEntity
  8
0
100
AcDbLine
 62
7
  6
CONTINUOUS
 10
35.7389329599
 20
82.5016145302
 11
68.1389329599
 21
82.5016145302
  0
LINE
  5
298
100
AcDbEntity
  8
0
100
AcDbLine
 62
7
  6
CONTINUOUS
 10
70.0389329599
 20
82.5016145478
 11
70.5389329599
 21
82.5016145478
  0
LINE
  5
299
100
AcDbEntity
  8
0
100
AcDbLine
 62
7
  6
CONTINUOUS
 10
78.3389329599
 20
82.5016145478
 11
78.8389329599
 21
82.5016145478
  0
LINE
  5
29A
100
AcDbEntity
  8
0
100
AcDbLine
 62
7
  6
CONTINUOUS
 10
80.7389329599
 20
82.5016145302
 11
113.1389329599
 21
82.5016145302
  0
LINE
  5
29B
100
AcDbEntity
  8
0
100
AcDbLine
 62
7
  6
CONTINUOUS
 10
115.0389329599
 20
82.5016145478
 11
115.5389329599
 21
82.5016145478
  0
LINE
  5
29C
100
AcDbEntity
  8
0
100
AcDbLine
 62
7
  6
CONTINUOUS
 10
123.3389329599
 20
82.5016145478
 11
123.8389329599
 21
82.5016145478
  0
LINE
  5
29D
100
AcDbEntity
  8
0
100
AcDbLine
 62
7
  6
CONTINUOUS
 10
125.7389329599
 20
82.5016145302
 11
158.1389329599
 21
82.5016145302
  0
LINE
  5
29E
100
AcDbEntity
  8
0
100
AcDbLine
 62
7
  6
CONTINUOUS
 10
161.2389329226
 20
82.5016145478
 11
161.7389329226
 21
82.5016145478
  0
LINE
  5
29F
100
AcDbEntity
  8
0
100
AcDbLine
 62
7
  6
CONTINUOUS
 10
156.538932894
 20
83.0016145387
 11
127.3389330246
 21
83.0016145302
  0
LINE
  5
2A0
100
AcDbEntity
  8
0
100
AcDbLine
 62
7
  6
CONTINUOUS
 10
111.538932894
 20
83.0016145387
 11
82.3389330246
 21
83.0016145302
  0
LINE
  5
2A1
100
AcDbEntity
  8
0
100
AcDbLine
 62
7
  6
CONTINUOUS
 10
66.538932894
 20
83.0016145387
 11
37.3389330246
 21
83.0016145302
  0
LINE
  5
2A2
100
AcDbEntity
  8
0
100
AcDbLine
 62
7
  6
CONTINUOUS
 10
35.1389329599
 20
83.1016145302
 11
36.7389329599
 21
83.1016145302
  0
LINE
  5
2A3
100
AcDbEntity
  8
0
100
AcDbLine
 62
7
  6
CONTINUOUS
 10
67.1389329599
 20
83.1016145302
 11
68.7389329599
 21
83.1016145302
  0
LINE
  5
2A4
100
AcDbEntity
  8
0
100
AcDbLine
 62
7
  6
CONTINUOUS
 10
80.1389329599
 20
83.1016145302
 11
81.7389329599
 21
83.1016145302
  0
LINE
  5
2A5
100
AcDbEntity
  8
0
100
AcDbLine
 62
7
  6
CONTINUOUS
 10
112.1389329599
 20
83.1016145302
 11
113.7389329599
 21
83.1016145302
  0
LINE
  5
2A6
100
AcDbEntity
  8
0
100
AcDbLine
 62
7
  6
CONTINUOUS
 10
125.1389329599
 20
83.1016145302
 11
126.7389329599
 21
83.1016145302
  0
LINE
  5
2A7
100
AcDbEntity
  8
0
100
AcDbLine
 62
7
  6
CONTINUOUS
 10
157.1389329599
 20
83.1016145302
 11
158.7389329599
 21
83.1016145302
  0
LINE
  5
2A8
100
AcDbEntity
  8
0
100
AcDbLine
 62
7
  6
CONTINUOUS
 10
78.8389329599
 20
89.1016145478
 11
78.3389329599
 21
89.1016145478
  0
LINE
  5
2A9
100
AcDbEntity
  8
0
100
AcDbLine
 62
7
  6
CONTINUOUS
 10
32.6389329599
 20
89.1016145478
 11
32.1389329599
 21
89.1016145478
  0
LINE
  5
2AA
100
AcDbEntity
  8
0
100
AcDbLine
 62
7
  6
CONTINUOUS
 10
123.8389329599
 20
89.2216145478
 11
123.3389329599
 21
89.2216145478
  0
LINE
  5
2AB
100
AcDbEntity
  8
0
100
AcDbLine
 62
7
  6
CONTINUOUS
 10
125.20049381
 20
89.7016145478
 11
124.3189329599
 21
89.7016145478
  0
LINE
  5
2AC
100
AcDbEntity
  8
0
100
AcDbLine
 62
7
  6
CONTINUOUS
 10
80.0949420494
 20
89.7016145478
 11
79.4389329599
 21
89.7016145478
  0
LINE
  5
2AD
100
AcDbEntity
  8
0
100
AcDbLine
 62
7
  6
CONTINUOUS
 10
35.0949420529
 20
89.7016145478
 11
33.2389329599
 21
89.7016145478
  0
LINE
  5
2AE
100
AcDbEntity
  8
0
100
AcDbLine
 62
7
  6
CONTINUOUS
 10
33.2389329599
 20
90.2016145478
 11
35.0951150097
 21
90.2016145478
  0
LINE
  5
2AF
100
AcDbEntity
  8
0
100
AcDbLine
 62
7
  6
CONTINUOUS
 10
79.4389329599
 20
90.2016145478
 11
80.0951150062
 21
90.2016145478
  0
LINE
  5
2B0
100
AcDbEntity
  8
0
100
AcDbLine
 62
7
  6
CONTINUOUS
 10
124.3189329586
 20
90.2016145477
 11
125.1954670103
 21
90.2016145478
  0
LINE
  5
2B1
100
AcDbEntity
  8
0
100
AcDbLine
 62
7
  6
CONTINUOUS
 10
158.1868905099
 20
91.0607482002
 11
157.1389329599
 21
91.0607482002
  0
LINE
  5
2B2
100
AcDbEntity
  8
0
100
AcDbLine
 62
7
  6
CONTINUOUS
 10
126.7389329599
 20
91.0607482002
 11
125.6909754099
 21
91.0607482002
  0
LINE
  5
2B3
100
AcDbEntity
  8
0
100
AcDbLine
 62
7
  6
CONTINUOUS
 10
68.1868905099
 20
91.0607482002
 11
67.1389329599
 21
91.0607482002
  0
LINE
  5
2B4
100
AcDbEntity
  8
0
100
AcDbLine
 62
7
  6
CONTINUOUS
 10
36.7389329599
 20
91.0607482002
 11
35.6909754099
 21
91.0607482002
  0
LINE
  5
2B5
100
AcDbEntity
  8
0
100
AcDbLine
 62
7
  6
CONTINUOUS
 10
80.1389329599
 20
83.1016145302
 11
80.7389329599
 21
82.5016145302
  0
LINE
  5
2B6
100
AcDbEntity
  8
0
100
AcDbLine
 62
7
  6
CONTINUOUS
 10
68.2357996186
 20
100.4016145299
 11
68.7331884547
 21
99.9016145299
  0
LINE
  5
2B7
100
AcDbEntity
  8
0
100
AcDbLine
 62
7
  6
CONTINUOUS
 10
54.6389329599
 20
100.4016145303
 11
54.6389329599
 21
105.4016145299
  0
LINE
  5
2B8
100
AcDbEntity
  8
0
100
AcDbLine
 62
7
  6
CONTINUOUS
 10
54.9389329599
 20
100.4016145303
 11
54.9389329599
 21
105.4016145299
  0
LINE
  5
2B9
100
AcDbEntity
  8
0
100
AcDbLine
 62
7
  6
CONTINUOUS
 10
55.5389329599
 20
105.4016145299
 11
55.5389329599
 21
100.4016145303
  0
LINE
  5
2BA
100
AcDbEntity
  8
0
100
AcDbLine
 62
7
  6
CONTINUOUS
 10
56.5577351134
 20
113.5327145299
 11
56.5577351134
 21
107.7327145299
  0
LINE
  5
2BB
100
AcDbEntity
  8
0
100
AcDbLine
 62
7
  6
CONTINUOUS
 10
56.9389329599
 20
91.6607482002
 11
56.9389329599
 21
100.4016145303
  0
LINE
  5
2BC
100
AcDbEntity
  8
0
100
AcDbLine
 62
7
  6
CONTINUOUS
 10
56.9389329599
 20
107.0016145299
 11
56.9389329599
 21
107.7327145299
  0
LINE
  5
2BD
100
AcDbEntity
  8
0
100
AcDbLine
 62
7
  6
CONTINUOUS
 10
57.044442698
 20
82.5016145302
 11
57.044442698
 21
69.8016145299
  0
LINE
  5
2BE
100
AcDbEntity
  8
0
100
AcDbLine
 62
7
  6
CONTINUOUS
 10
58.4198612859
 20
69.8016145299
 11
58.4198612859
 21
70.673602492
  0
LINE
  5
2BF
100
AcDbEntity
  8
0
100
AcDbLine
 62
7
  6
CONTINUOUS
 10
58.8389329599
 20
69.8016145299
 11
58.8389329599
 21
72.6301128877
  0
LINE
  5
2C0
100
AcDbEntity
  8
0
100
AcDbLine
 62
7
  6
CONTINUOUS
 10
59.0925227984
 20
100.4016145303
 11
59.0925227984
 21
105.4016145299
  0
LINE
  5
2C1
100
AcDbEntity
  8
0
100
AcDbLine
 62
7
  6
CONTINUOUS
 10
59.6121380406
 20
105.4016145299
 11
59.6121380406
 21
100.4016145303
  0
LINE
  5
2C2
100
AcDbEntity
  8
0
100
AcDbLine
 62
7
  6
CONTINUOUS
 10
61.1765372669
 20
113.5327145299
 11
61.1765372669
 21
107.7327145299
  0
LINE
  5
2C3
100
AcDbEntity
  8
0
100
AcDbLine
 62
7
  6
CONTINUOUS
 10
161.7389329226
 20
91.1016145478
 11
161.2389329226
 21
91.1016145478
  0
LINE
  5
2C4
100
AcDbEntity
  8
0
100
AcDbLine
 62
7
  6
CONTINUOUS
 10
115.5389329599
 20
91.1016145478
 11
115.0389329599
 21
91.1016145478
  0
LINE
  5
2C5
100
AcDbEntity
  8
0
100
AcDbLine
 62
7
  6
CONTINUOUS
 10
113.1871044874
 20
91.1016145303
 11
112.1389329599
 21
91.1016145303
  0
LINE
  5
2C6
100
AcDbEntity
  8
0
100
AcDbLine
 62
7
  6
CONTINUOUS
 10
81.7389329599
 20
91.1016145303
 11
80.6907614323
 21
91.1016145303
  0
LINE
  5
2C7
100
AcDbEntity
  8
0
100
AcDbLine
 62
7
  6
CONTINUOUS
 10
70.5389329599
 20
91.1016145478
 11
70.0389329599
 21
91.1016145478
  0
LINE
  5
2C8
100
AcDbEntity
  8
0
100
AcDbLine
 62
7
  6
CONTINUOUS
 10
37.3389330258
 20
91.1607481916
 11
66.5389328952
 21
91.1607482002
  0
LINE
  5
2C9
100
AcDbEntity
  8
0
100
AcDbLine
 62
7
  6
CONTINUOUS
 10
127.3389330258
 20
91.1607481916
 11
156.5389328952
 21
91.1607482002
  0
LINE
  5
2CA
100
AcDbEntity
  8
0
100
AcDbLine
 62
7
  6
CONTINUOUS
 10
82.3389330258
 20
91.2016145218
 11
111.5389328952
 21
91.2016145303
  0
LINE
  5
2CB
100
AcDbEntity
  8
0
100
AcDbLine
 62
7
  6
CONTINUOUS
 10
69.2212877076
 20
91.6607481953
 11
68.692657003
 21
91.6607481953
  0
LINE
  5
2CC
100
AcDbEntity
  8
0
100
AcDbLine
 62
7
  6
CONTINUOUS
 10
35.6878337885
 20
91.6607482002
 11
68.1900321312
 21
91.6607482002
  0
LINE
  5
2CD
100
AcDbEntity
  8
0
100
AcDbLine
 62
7
  6
CONTINUOUS
 10
125.6878337885
 20
91.6607482002
 11
158.1900321313
 21
91.6607482002
  0
LINE
  5
2CE
100
AcDbEntity
  8
0
100
AcDbLine
 62
7
  6
CONTINUOUS
 10
160.6389329229
 20
91.7016145478
 11
158.6922164852
 21
91.7016145478
  0
LINE
  5
2CF
100
AcDbEntity
  8
0
100
AcDbLine
 62
7
  6
CONTINUOUS
 10
114.4389329602
 20
91.7016145478
 11
113.6922164852
 21
91.7016145478
  0
LINE
  5
2D0
100
AcDbEntity
  8
0
100
AcDbLine
 62
7
  6
CONTINUOUS
 10
80.6876198109
 20
91.7016145303
 11
113.1902461088
 21
91.7016145303
  0
LINE
  5
2D1
100
AcDbEntity
  8
0
100
AcDbLine
 62
7
  6
CONTINUOUS
 10
69.1418780091
 20
92.1607479813
 11
68.6926570029
 21
92.1607481953
  0
LINE
  5
2D2
100
AcDbEntity
  8
0
100
AcDbLine
 62
7
  6
CONTINUOUS
 10
113.6928709806
 20
92.2016145478
 11
114.4389329624
 21
92.2016145477
  0
LINE
  5
2D3
100
AcDbEntity
  8
0
100
AcDbLine
 62
7
  6
CONTINUOUS
 10
158.6928709806
 20
92.2016145478
 11
160.6389329251
 21
92.2016145477
  0
LINE
  5
2D4
100
AcDbEntity
  8
0
100
AcDbLine
 62
7
  6
CONTINUOUS
 10
122.0762987377
 20
94.9016145299
 11
116.8015671821
 21
94.9016145299
  0
LINE
  5
2D5
100
AcDbEntity
  8
0
100
AcDbLine
 62
7
  6
CONTINUOUS
 10
77.0762987377
 20
94.9016145299
 11
71.8015671821
 21
94.9016145299
  0
LINE
  5
2D6
100
AcDbEntity
  8
0
100
AcDbLine
 62
7
  6
CONTINUOUS
 10
161.7389329599
 20
99.9016145299
 11
158.7331884547
 21
99.9016145299
  0
LINE
  5
2D7
100
AcDbEntity
  8
0
100
AcDbLine
 62
7
  6
CONTINUOUS
 10
125.144677465
 20
99.9016145299
 11
123.3389329598
 21
99.9016145299
  0
LINE
  5
2D8
100
AcDbEntity
  8
0
100
AcDbLine
 62
7
  6
CONTINUOUS
 10
115.5389329599
 20
99.9016145299
 11
113.7331884547
 21
99.9016145299
  0
LINE
  5
2D9
100
AcDbEntity
  8
0
100
AcDbLine
 62
7
  6
CONTINUOUS
 10
80.144677465
 20
99.9016145299
 11
78.3389329598
 21
99.9016145299
  0
LINE
  5
2DA
100
AcDbEntity
  8
0
100
AcDbLine
 62
7
  6
CONTINUOUS
 10
70.5389329599
 20
99.9016145299
 11
68.7331884547
 21
99.9016145299
  0
LINE
  5
2DB
100
AcDbEntity
  8
0
100
AcDbLine
 62
7
  6
CONTINUOUS
 10
35.144677465
 20
99.9016145299
 11
32.1389329598
 21
99.9016145299
  0
LINE
  5
2DC
100
AcDbEntity
  8
0
100
AcDbLine
 62
7
  6
CONTINUOUS
 10
68.1926638569
 20
92.1633661772
 11
68.692657003
 21
92.1607481953
  0
LINE
  5
2DD
100
AcDbEntity
  8
0
100
AcDbLine
 62
7
  6
CONTINUOUS
 10
113.1928778345
 20
92.2042325297
 11
113.6928709807
 21
92.2016145478
  0
LINE
  5
2DE
100
AcDbEntity
  8
0
100
AcDbLine
 62
7
  6
CONTINUOUS
 10
158.1928778345
 20
92.2042325297
 11
158.6928709806
 21
92.2016145478
  0
LINE
  5
2DF
100
AcDbEntity
  8
0
100
AcDbLine
 62
7
  6
CONTINUOUS
 10
70.0389329599
 20
100.4016145299
 11
70.5389329599
 21
99.9016145299
  0
LINE
  5
2E0
100
AcDbEntity
  8
0
100
AcDbLine
 62
7
  6
CONTINUOUS
 10
63.0475329599
 20
105.4016145299
 11
63.0475329599
 21
107.0016145299
  0
LINE
  5
2E1
100
AcDbEntity
  8
0
100
AcDbLine
 62
7
  6
CONTINUOUS
 10
66.5389328304
 20
82.5016145302
 11
66.5389328304
 21
91.6607482002
  0
LINE
  5
2E2
100
AcDbEntity
  8
0
100
AcDbLine
 62
7
  6
CONTINUOUS
 10
66.9389329599
 20
105.4016145299
 11
66.9389329599
 21
100.4016145303
  0
LINE
  5
2E3
100
AcDbEntity
  8
0
100
AcDbLine
 62
7
  6
CONTINUOUS
 10
67.1389329599
 20
91.0607482002
 11
67.1389329599
 21
83.1016145302
  0
LINE
  5
2E4
100
AcDbEntity
  8
0
100
AcDbLine
 62
7
  6
CONTINUOUS
 10
67.5389329599
 20
23.9016145299
 11
67.5389329599
 21
24.4016145299
  0
LINE
  5
2E5
100
AcDbEntity
  8
0
100
AcDbLine
 62
7
  6
CONTINUOUS
 10
68.1389329599
 20
25.0016145295
 11
68.1389329599
 21
82.5016145302
  0
LINE
  5
2E6
100
AcDbEntity
  8
0
100
AcDbLine
 62
7
  6
CONTINUOUS
 10
68.1389329599
 20
229.8016145299
 11
68.1389329599
 21
230.8016145299
  0
LINE
  5
2E7
100
AcDbEntity
  8
0
100
AcDbLine
 62
7
  6
CONTINUOUS
 10
68.3640292394
 20
124.9016145299
 11
68.3640190173
 21
100.4016145299
  0
LINE
  5
2E8
100
AcDbEntity
  8
0
100
AcDbLine
 62
7
  6
CONTINUOUS
 10
68.6389329599
 20
81.9016145478
 11
68.6389329597
 21
25.0016145273
  0
LINE
  5
2E9
100
AcDbEntity
  8
0
100
AcDbLine
 62
7
  6
CONTINUOUS
 10
68.692657003
 20
92.1607481953
 11
68.692657003
 21
91.6607481953
  0
LINE
  5
2EA
100
AcDbEntity
  8
0
100
AcDbLine
 62
7
  6
CONTINUOUS
 10
68.7389329599
 20
83.1016145302
 11
68.7389329599
 21
81.9016145478
  0
LINE
  5
2EB
100
AcDbEntity
  8
0
100
AcDbLine
 62
7
  6
CONTINUOUS
 10
68.8409474494
 20
124.4016145299
 11
68.8409474494
 21
100.4016145299
  0
LINE
  5
2EC
100
AcDbEntity
  8
0
100
AcDbLine
 62
7
  6
CONTINUOUS
 10
69.4389329599
 20
81.4016145478
 11
69.4389329599
 21
81.9016145478
  0
LINE
  5
2ED
100
AcDbEntity
  8
0
100
AcDbLine
 62
7
  6
CONTINUOUS
 10
69.5589329592
 20
100.4016145299
 11
69.5589329598
 21
124.9016145299
  0
LINE
  5
2EE
100
AcDbEntity
  8
0
100
AcDbLine
 62
7
  6
CONTINUOUS
 10
70.0389329599
 20
82.5016145476
 11
70.0389329599
 21
91.1016145478
  0
LINE
  5
2EF
100
AcDbEntity
  8
0
100
AcDbLine
 62
7
  6
CONTINUOUS
 10
70.0389329599
 20
100.4016145299
 11
70.0389329599
 21
124.4016145299
  0
LINE
  5
2F0
100
AcDbEntity
  8
0
100
AcDbLine
 62
7
  6
CONTINUOUS
 10
70.5389329599
 20
124.9016145299
 11
70.5389329599
 21
99.9016145299
  0
LINE
  5
2F1
100
AcDbEntity
  8
0
100
AcDbLine
 62
7
  6
CONTINUOUS
 10
70.5389329597
 20
82.5016145453
 11
70.5389327472
 21
91.1016088733
  0
LINE
  5
2F2
100
AcDbEntity
  8
0
100
AcDbLine
 62
7
  6
CONTINUOUS
 10
68.1868905099
 20
91.0607482002
 11
68.2357996186
 21
100.4016145299
  0
LINE
  5
2F3
100
AcDbEntity
  8
0
100
AcDbLine
 62
7
  6
CONTINUOUS
 10
68.7331884547
 20
99.9016145299
 11
68.6926570029
 21
92.1607481953
  0
LINE
  5
2F4
100
AcDbEntity
  8
0
100
AcDbLine
 62
7
  6
CONTINUOUS
 10
59.8366499093
 20
82.5016145302
 11
57.089620369
 21
69.6766201764
  0
LINE
  5
2F5
100
AcDbEntity
  8
0
100
AcDbLine
 62
7
  6
CONTINUOUS
 10
32.6389329598
 20
100.4016145299
 11
70.0389329599
 21
100.4016145299
  0
LINE
  5
2F6
100
AcDbEntity
  8
0
100
AcDbLine
 62
7
  6
CONTINUOUS
 10
78.8389329598
 20
100.4016145299
 11
115.0389329599
 21
100.4016145299
  0
LINE
  5
2F7
100
AcDbEntity
  8
0
100
AcDbLine
 62
7
  6
CONTINUOUS
 10
123.8389329598
 20
100.4016145299
 11
161.2389329599
 21
100.4016145299
  0
LINE
  5
2F8
100
AcDbEntity
  8
0
100
AcDbLine
 62
7
  6
CONTINUOUS
 10
36.9389329599
 20
105.4016145299
 11
66.9389329599
 21
105.4016145299
  0
LINE
  5
2F9
100
AcDbEntity
  8
0
100
AcDbLine
 62
7
  6
CONTINUOUS
 10
81.9389329599
 20
105.4016145299
 11
111.9389329599
 21
105.4016145299
  0
LINE
  5
2FA
100
AcDbEntity
  8
0
100
AcDbLine
 62
7
  6
CONTINUOUS
 10
126.9389329599
 20
105.4016145299
 11
156.9389329599
 21
105.4016145299
  0
LINE
  5
2FB
100
AcDbEntity
  8
0
100
AcDbLine
 62
7
  6
CONTINUOUS
 10
153.0475329599
 20
107.0016145299
 11
130.8303329599
 21
107.0016145299
  0
LINE
  5
2FC
100
AcDbEntity
  8
0
100
AcDbLine
 62
7
  6
CONTINUOUS
 10
108.0475329599
 20
107.0016145299
 11
85.8303329599
 21
107.0016145299
  0
LINE
  5
2FD
100
AcDbEntity
  8
0
100
AcDbLine
 62
7
  6
CONTINUOUS
 10
63.0475329599
 20
107.0016145299
 11
40.8303329599
 21
107.0016145299
  0
LINE
  5
2FE
100
AcDbEntity
  8
0
100
AcDbLine
 62
7
  6
CONTINUOUS
 10
42.7013286528
 20
107.7327145299
 11
61.1765372669
 21
107.7327145299
  0
LINE
  5
2FF
100
AcDbEntity
  8
0
100
AcDbLine
 62
7
  6
CONTINUOUS
 10
87.7013286528
 20
107.7327145299
 11
106.1765372669
 21
107.7327145299
  0
LINE
  5
300
100
AcDbEntity
  8
0
100
AcDbLine
 62
7
  6
CONTINUOUS
 10
132.7013286529
 20
107.7327145299
 11
151.1765372669
 21
107.7327145299
  0
LINE
  5
301
100
AcDbEntity
  8
0
100
AcDbLine
 62
7
  6
CONTINUOUS
 10
80.1949406719
 20
90.3021381356
 11
80.144677465
 21
99.9016145299
  0
LINE
  5
302
100
AcDbEntity
  8
0
100
AcDbLine
 62
7
  6
CONTINUOUS
 10
80.6420663012
 20
100.4016145299
 11
80.6949338113
 21
90.3047561156
  0
LINE
  5
303
100
AcDbEntity
  8
0
100
AcDbLine
 62
7
  6
CONTINUOUS
 10
71.8015671821
 20
94.9016145299
 11
71.8015671821
 21
109.9016145299
  0
LINE
  5
304
100
AcDbEntity
  8
0
100
AcDbLine
 62
7
  6
CONTINUOUS
 10
72.0376818937
 20
109.9016145299
 11
72.0376818937
 21
124.4016145299
  0
LINE
  5
305
100
AcDbEntity
  8
0
100
AcDbLine
 62
7
  6
CONTINUOUS
 10
72.2091163705
 20
22.9016145299
 11
72.2091163705
 21
94.9016145299
  0
LINE
  5
306
100
AcDbEntity
  8
0
100
AcDbLine
 62
7
  6
CONTINUOUS
 10
72.6342010651
 20
124.9016145299
 11
72.6342010651
 21
109.9016145299
  0
LINE
  5
307
100
AcDbEntity
  8
0
100
AcDbLine
 62
7
  6
CONTINUOUS
 10
72.7086922245
 20
94.9016145299
 11
72.7086922245
 21
23.4016145299
  0
LINE
  5
308
100
AcDbEntity
  8
0
100
AcDbLine
 62
7
  6
CONTINUOUS
 10
72.933669853
 20
109.9016145299
 11
72.933669853
 21
124.9016145299
  0
LINE
  5
309
100
AcDbEntity
  8
0
100
AcDbLine
 62
7
  6
CONTINUOUS
 10
73.1927872197
 20
23.4016145299
 11
73.1927872197
 21
94.9016145299
  0
LINE
  5
30A
100
AcDbEntity
  8
0
100
AcDbLine
 62
7
  6
CONTINUOUS
 10
75.6850787
 20
94.9016145299
 11
75.6850787
 21
23.4016145299
  0
LINE
  5
30B
100
AcDbEntity
  8
0
100
AcDbLine
 62
7
  6
CONTINUOUS
 10
75.9441960667
 20
124.9016145299
 11
75.9441960667
 21
109.9016145299
  0
LINE
  5
30C
100
AcDbEntity
  8
0
100
AcDbLine
 62
7
  6
CONTINUOUS
 10
76.1691736952
 20
23.4016145299
 11
76.1691736952
 21
94.9016145299
  0
LINE
  5
30D
100
AcDbEntity
  8
0
100
AcDbLine
 62
7
  6
CONTINUOUS
 10
76.2433551918
 20
109.9016145299
 11
76.2433551918
 21
124.9016145299
  0
LINE
  5
30E
100
AcDbEntity
  8
0
100
AcDbLine
 62
7
  6
CONTINUOUS
 10
76.6687495493
 20
94.9016145299
 11
76.6687495493
 21
22.9016145299
  0
LINE
  5
30F
100
AcDbEntity
  8
0
100
AcDbLine
 62
7
  6
CONTINUOUS
 10
76.8401840262
 20
124.4016145299
 11
76.8401840262
 21
109.9016145299
  0
LINE
  5
310
100
AcDbEntity
  8
0
100
AcDbLine
 62
7
  6
CONTINUOUS
 10
77.0762987377
 20
109.9016145299
 11
77.0762987377
 21
94.9016145299
  0
LINE
  5
311
100
AcDbEntity
  8
0
100
AcDbLine
 62
7
  6
CONTINUOUS
 10
78.3389329599
 20
82.5016145478
 11
78.3389329599
 21
89.1016145478
  0
LINE
  5
312
100
AcDbEntity
  8
0
100
AcDbLine
 62
7
  6
CONTINUOUS
 10
78.3389329598
 20
99.9016145299
 11
78.3389329598
 21
124.9016145299
  0
LINE
  5
313
100
AcDbEntity
  8
0
100
AcDbLine
 62
7
  6
CONTINUOUS
 10
78.8389329598
 20
124.4016145299
 11
78.8389329598
 21
100.4016145299
  0
LINE
  5
314
100
AcDbEntity
  8
0
100
AcDbLine
 62
7
  6
CONTINUOUS
 10
78.8389329599
 20
89.1016145478
 11
78.8389329599
 21
82.5016145478
  0
LINE
  5
315
100
AcDbEntity
  8
0
100
AcDbLine
 62
7
  6
CONTINUOUS
 10
79.3189329599
 20
124.9016145299
 11
79.3189329599
 21
100.4016145299
  0
LINE
  5
316
100
AcDbEntity
  8
0
100
AcDbLine
 62
7
  6
CONTINUOUS
 10
79.4389329599
 20
90.2016145478
 11
79.4389329599
 21
89.7016145478
  0
LINE
  5
317
100
AcDbEntity
  8
0
100
AcDbLine
 62
7
  6
CONTINUOUS
 10
79.4389329599
 20
81.9016145478
 11
79.4389329599
 21
81.4016145478
  0
LINE
  5
318
100
AcDbEntity
  8
0
100
AcDbLine
 62
7
  6
CONTINUOUS
 10
80.0369184704
 20
100.4016145299
 11
80.0369184704
 21
124.4016145299
  0
LINE
  5
319
100
AcDbEntity
  8
0
100
AcDbLine
 62
7
  6
CONTINUOUS
 10
80.0949420494
 20
89.7016145478
 11
80.0949420494
 21
90.2016145478
  0
LINE
  5
31A
100
AcDbEntity
  8
0
100
AcDbLine
 62
7
  6
CONTINUOUS
 10
80.1389329599
 20
81.9016145478
 11
80.1389329599
 21
83.1016145302
  0
LINE
  5
31B
100
AcDbEntity
  8
0
100
AcDbLine
 62
7
  6
CONTINUOUS
 10
80.2389329608
 20
25.0016145114
 11
80.2389329599
 21
81.9016145478
  0
LINE
  5
31C
100
AcDbEntity
  8
0
100
AcDbLine
 62
7
  6
CONTINUOUS
 10
58.2063142233
 20
69.6766201764
 11
60.9533437636
 21
82.5016145302
  0
LINE
  5
31D
100
AcDbEntity
  8
0
100
AcDbLine
 62
7
  6
CONTINUOUS
 10
35.6420663012
 20
100.4016145299
 11
35.144677465
 21
99.9016145299
  0
LINE
  5
31E
100
AcDbEntity
  8
0
100
AcDbLine
 62
7
  6
CONTINUOUS
 10
32.6389329598
 20
100.4016145299
 11
32.1389329598
 21
99.9016145299
  0
LINE
  5
31F
100
AcDbEntity
  8
0
100
AcDbLine
 62
7
  6
CONTINUOUS
 10
71.8015671821
 20
109.9016145299
 11
72.9336698531
 21
109.9016145299
  0
LINE
  5
320
100
AcDbEntity
  8
0
100
AcDbLine
 62
7
  6
CONTINUOUS
 10
75.9441960667
 20
109.9016145299
 11
77.0762987377
 21
109.9016145299
  0
LINE
  5
321
100
AcDbEntity
  8
0
100
AcDbLine
 62
7
  6
CONTINUOUS
 10
116.8015671821
 20
109.9016145299
 11
117.933669853
 21
109.9016145299
  0
LINE
  5
322
100
AcDbEntity
  8
0
100
AcDbLine
 62
7
  6
CONTINUOUS
 10
120.9441960667
 20
109.9016145299
 11
122.0762987377
 21
109.9016145299
  0
LINE
  5
323
100
AcDbEntity
  8
0
100
AcDbLine
 62
7
  6
CONTINUOUS
 10
42.7013286528
 20
113.5327145299
 11
61.1765372669
 21
113.5327145299
  0
LINE
  5
324
100
AcDbEntity
  8
0
100
AcDbLine
 62
7
  6
CONTINUOUS
 10
87.7013286528
 20
113.5327145299
 11
106.1765372669
 21
113.5327145299
  0
LINE
  5
325
100
AcDbEntity
  8
0
100
AcDbLine
 62
7
  6
CONTINUOUS
 10
132.7013286529
 20
113.5327145299
 11
151.1765372669
 21
113.5327145299
  0
LINE
  5
326
100
AcDbEntity
  8
0
100
AcDbLine
 62
7
  6
CONTINUOUS
 10
87.9245221562
 20
82.5016145302
 11
90.6715516965
 21
69.6766201763
  0
LINE
  5
327
100
AcDbEntity
  8
0
100
AcDbLine
 62
7
  6
CONTINUOUS
 10
91.7882455507
 20
69.6766201764
 11
89.0412160104
 21
82.5016145302
  0
LINE
  5
328
100
AcDbEntity
  8
0
100
AcDbLine
 62
7
  6
CONTINUOUS
 10
80.5137834288
 20
124.9015839713
 11
80.5137834288
 21
100.4016145299
  0
LINE
  5
329
100
AcDbEntity
  8
0
100
AcDbLine
 62
7
  6
CONTINUOUS
 10
80.7389329599
 20
82.5016145302
 11
80.7389329599
 21
25.0016145315
  0
LINE
  5
32A
100
AcDbEntity
  8
0
100
AcDbLine
 62
7
  6
CONTINUOUS
 10
81.3389329599
 20
24.4016145299
 11
81.3389329599
 21
23.9016145299
  0
LINE
  5
32B
100
AcDbEntity
  8
0
100
AcDbLine
 62
7
  6
CONTINUOUS
 10
81.7389329599
 20
83.1016145302
 11
81.7389329599
 21
91.1016145303
  0
LINE
  5
32C
100
AcDbEntity
  8
0
100
AcDbLine
 62
7
  6
CONTINUOUS
 10
81.9389329599
 20
105.4016145299
 11
81.9389329599
 21
100.4016145303
  0
LINE
  5
32D
100
AcDbEntity
  8
0
100
AcDbLine
 62
7
  6
CONTINUOUS
 10
82.3389330893
 20
91.7016145303
 11
82.3389330893
 21
82.5016145302
  0
LINE
  5
32E
100
AcDbEntity
  8
0
100
AcDbLine
 62
7
  6
CONTINUOUS
 10
85.8303329599
 20
105.4016145299
 11
85.8303329599
 21
107.0016145299
  0
LINE
  5
32F
100
AcDbEntity
  8
0
100
AcDbLine
 62
7
  6
CONTINUOUS
 10
87.7013286528
 20
113.5327145299
 11
87.7013286528
 21
107.7327145299
  0
LINE
  5
330
100
AcDbEntity
  8
0
100
AcDbLine
 62
7
  6
CONTINUOUS
 10
89.2657278791
 20
100.4016145303
 11
89.2657278791
 21
105.4016145299
  0
LINE
  5
331
100
AcDbEntity
  8
0
100
AcDbLine
 62
7
  6
CONTINUOUS
 10
166.9389329599
 20
124.4016145299
 11
158.9396808147
 21
124.4016145299
  0
LINE
  5
332
100
AcDbEntity
  8
0
100
AcDbLine
 62
7
  6
CONTINUOUS
 10
125.0369184704
 20
124.4016145299
 11
121.8401840262
 21
124.4016145299
  0
LINE
  5
333
100
AcDbEntity
  8
0
100
AcDbLine
 62
7
  6
CONTINUOUS
 10
117.0376818937
 20
124.4016145299
 11
113.8409474494
 21
124.4016145299
  0
LINE
  5
334
100
AcDbEntity
  8
0
100
AcDbLine
 62
7
  6
CONTINUOUS
 10
80.0369184704
 20
124.4016145299
 11
76.8401840262
 21
124.4016145299
  0
LINE
  5
335
100
AcDbEntity
  8
0
100
AcDbLine
 62
7
  6
CONTINUOUS
 10
72.0376818937
 20
124.4016145299
 11
68.8409474494
 21
124.4016145299
  0
LINE
  5
336
100
AcDbEntity
  8
0
100
AcDbLine
 62
7
  6
CONTINUOUS
 10
35.0604223059
 20
124.4016145299
 11
26.9389329599
 21
124.4016145299
  0
LINE
  5
337
100
AcDbEntity
  8
0
100
AcDbLine
 62
7
  6
CONTINUOUS
 10
26.9389329599
 20
124.9016145299
 11
35.5137834288
 21
124.9016145299
  0
LINE
  5
338
100
AcDbEntity
  8
0
100
AcDbLine
 62
7
  6
CONTINUOUS
 10
68.3640293283
 20
124.9016145299
 11
80.5139746408
 21
124.9016145299
  0
LINE
  5
339
100
AcDbEntity
  8
0
100
AcDbLine
 62
7
  6
CONTINUOUS
 10
113.3638918098
 20
124.9016145299
 11
125.5139789026
 21
124.9016145299
  0
LINE
  5
33A
100
AcDbEntity
  8
0
100
AcDbLine
 62
7
  6
CONTINUOUS
 10
158.3640824909
 20
124.9016145299
 11
166.9389329599
 21
124.9016145299
  0
LINE
  5
33B
100
AcDbEntity
  8
0
100
AcDbLine
 62
7
  6
CONTINUOUS
 10
122.5481391732
 20
125.2016145299
 11
116.3305941232
 21
125.2016145299
  0
LINE
  5
33C
100
AcDbEntity
  8
0
100
AcDbLine
 62
7
  6
CONTINUOUS
 10
77.5481391732
 20
125.2016145299
 11
71.3305941232
 21
125.2016145299
  0
LINE
  5
33D
100
AcDbEntity
  8
0
100
AcDbLine
 62
7
  6
CONTINUOUS
 10
125.1389329599
 20
83.1016145302
 11
125.7389329599
 21
82.5016145302
  0
LINE
  5
33E
100
AcDbEntity
  8
0
100
AcDbLine
 62
7
  6
CONTINUOUS
 10
115.0389329599
 20
100.4016145299
 11
115.5389329599
 21
99.9016145299
  0
LINE
  5
33F
100
AcDbEntity
  8
0
100
AcDbLine
 62
7
  6
CONTINUOUS
 10
113.2357996186
 20
100.4016145299
 11
113.7331884547
 21
99.9016145299
  0
LINE
  5
340
100
AcDbEntity
  8
0
100
AcDbLine
 62
7
  6
CONTINUOUS
 10
89.7853431214
 20
105.4016145299
 11
89.7853431214
 21
100.4016145303
  0
LINE
  5
341
100
AcDbEntity
  8
0
100
AcDbLine
 62
7
  6
CONTINUOUS
 10
90.0389329599
 20
69.8016145299
 11
90.0389329599
 21
72.6301128877
  0
LINE
  5
342
100
AcDbEntity
  8
0
100
AcDbLine
 62
7
  6
CONTINUOUS
 10
90.4580049088
 20
70.6736012084
 11
90.4580049088
 21
69.8016145299
  0
LINE
  5
343
100
AcDbEntity
  8
0
100
AcDbLine
 62
7
  6
CONTINUOUS
 10
91.8334232217
 20
69.8016145299
 11
91.8334232217
 21
82.5016145302
  0
LINE
  5
344
100
AcDbEntity
  8
0
100
AcDbLine
 62
7
  6
CONTINUOUS
 10
91.9389329599
 20
91.7016145303
 11
91.9389329599
 21
100.4016145303
  0
LINE
  5
345
100
AcDbEntity
  8
0
100
AcDbLine
 62
7
  6
CONTINUOUS
 10
91.9389329599
 20
107.0016145299
 11
91.9389329599
 21
107.7327145299
  0
LINE
  5
346
100
AcDbEntity
  8
0
100
AcDbLine
 62
7
  6
CONTINUOUS
 10
92.3201308064
 20
113.5327145299
 11
92.3201308064
 21
107.7327145299
  0
LINE
  5
347
100
AcDbEntity
  8
0
100
AcDbLine
 62
7
  6
CONTINUOUS
 10
93.3389329599
 20
100.4016145303
 11
93.3389329599
 21
105.4016145299
  0
LINE
  5
348
100
AcDbEntity
  8
0
100
AcDbLine
 62
7
  6
CONTINUOUS
 10
93.9389329599
 20
105.4016145299
 11
93.9389329599
 21
100.4016145303
  0
LINE
  5
349
100
AcDbEntity
  8
0
100
AcDbLine
 62
7
  6
CONTINUOUS
 10
94.2389329599
 20
105.4016145299
 11
94.2389329599
 21
100.4016145303
  0
LINE
  5
34A
100
AcDbEntity
  8
0
100
AcDbLine
 62
7
  6
CONTINUOUS
 10
99.6389329599
 20
100.4016145303
 11
99.6389329599
 21
105.4016145299
  0
LINE
  5
34B
100
AcDbEntity
  8
0
100
AcDbLine
 62
7
  6
CONTINUOUS
 10
99.9389329599
 20
100.4016145303
 11
99.9389329599
 21
105.4016145299
  0
LINE
  5
34C
100
AcDbEntity
  8
0
100
AcDbLine
 62
7
  6
CONTINUOUS
 10
100.5389329599
 20
105.4016145299
 11
100.5389329599
 21
100.4016145303
  0
LINE
  5
34D
100
AcDbEntity
  8
0
100
AcDbLine
 62
7
  6
CONTINUOUS
 10
101.5577351134
 20
113.5327145299
 11
101.5577351134
 21
107.7327145299
  0
LINE
  5
34E
100
AcDbEntity
  8
0
100
AcDbLine
 62
7
  6
CONTINUOUS
 10
101.9389329599
 20
91.7016145303
 11
101.9389329599
 21
100.4016145303
  0
LINE
  5
34F
100
AcDbEntity
  8
0
100
AcDbLine
 62
7
  6
CONTINUOUS
 10
101.9389329599
 20
107.0016145299
 11
101.9389329599
 21
107.7327145299
  0
LINE
  5
350
100
AcDbEntity
  8
0
100
AcDbLine
 62
7
  6
CONTINUOUS
 10
102.044442698
 20
82.5016145302
 11
102.044442698
 21
69.8016145299
  0
LINE
  5
351
100
AcDbEntity
  8
0
100
AcDbLine
 62
7
  6
CONTINUOUS
 10
103.4198612859
 20
69.8016145299
 11
103.4198612859
 21
70.6736024919
  0
LINE
  5
352
100
AcDbEntity
  8
0
100
AcDbLine
 62
7
  6
CONTINUOUS
 10
103.8389329599
 20
69.8016145299
 11
103.8389329599
 21
72.6301128877
  0
LINE
  5
353
100
AcDbEntity
  8
0
100
AcDbLine
 62
7
  6
CONTINUOUS
 10
104.0925227984
 20
100.4016145303
 11
104.0925227984
 21
105.4016145299
  0
LINE
  5
354
100
AcDbEntity
  8
0
100
AcDbLine
 62
7
  6
CONTINUOUS
 10
104.6121380406
 20
105.4016145299
 11
104.6121380406
 21
100.4016145303
  0
LINE
  5
355
100
AcDbEntity
  8
0
100
AcDbLine
 62
7
  6
CONTINUOUS
 10
106.1765372669
 20
113.5327145299
 11
106.1765372669
 21
107.7327145299
  0
LINE
  5
356
100
AcDbEntity
  8
0
100
AcDbLine
 62
7
  6
CONTINUOUS
 10
114.5515805044
 20
21.9018682169
 11
114.5464397568
 21
22.9079336804
  0
LINE
  5
357
100
AcDbEntity
  8
0
100
AcDbLine
 62
7
  6
CONTINUOUS
 10
108.0475329599
 20
105.4016145299
 11
108.0475329599
 21
107.0016145299
  0
LINE
  5
358
100
AcDbEntity
  8
0
100
AcDbLine
 62
7
  6
CONTINUOUS
 10
108.8589329599
 20
237.3516145299
 11
108.8589329599
 21
229.8016145299
  0
LINE
  5
359
100
AcDbEntity
  8
0
100
AcDbLine
 62
7
  6
CONTINUOUS
 10
108.8889329599
 20
229.8016145299
 11
108.8889329599
 21
237.3516145299
  0
LINE
  5
35A
100
AcDbEntity
  8
0
100
AcDbLine
 62
7
  6
CONTINUOUS
 10
109.8889329599
 20
237.3516145299
 11
109.8889329599
 21
229.8016145299
  0
LINE
  5
35B
100
AcDbEntity
  8
0
100
AcDbLine
 62
7
  6
CONTINUOUS
 10
111.5389328304
 20
82.5016145302
 11
111.5389328304
 21
91.7016145303
  0
LINE
  5
35C
100
AcDbEntity
  8
0
100
AcDbLine
 62
7
  6
CONTINUOUS
 10
111.9389329599
 20
105.4016145299
 11
111.9389329599
 21
100.4016145303
  0
LINE
  5
35D
100
AcDbEntity
  8
0
100
AcDbLine
 62
7
  6
CONTINUOUS
 10
112.1389329599
 20
91.1016145303
 11
112.1389329599
 21
83.1016145302
  0
LINE
  5
35E
100
AcDbEntity
  8
0
100
AcDbLine
 62
7
  6
CONTINUOUS
 10
112.5389329599
 20
23.9016145299
 11
112.5389329599
 21
24.4016145299
  0
LINE
  5
35F
100
AcDbEntity
  8
0
100
AcDbLine
 62
7
  6
CONTINUOUS
 10
113.1389329599
 20
25.0016145295
 11
113.1389329599
 21
82.5016145302
  0
LINE
  5
360
100
AcDbEntity
  8
0
100
AcDbLine
 62
7
  6
CONTINUOUS
 10
113.3640824909
 20
124.9015839575
 11
113.3640824909
 21
100.4016145299
  0
LINE
  5
361
100
AcDbEntity
  8
0
100
AcDbLine
 62
7
  6
CONTINUOUS
 10
113.6289329599
 20
229.8016145299
 11
113.6289329599
 21
246.2816145299
  0
LINE
  5
362
100
AcDbEntity
  8
0
100
AcDbLine
 62
7
  6
CONTINUOUS
 10
113.6389329599
 20
81.9016145478
 11
113.6389329597
 21
25.0016145273
  0
LINE
  5
363
100
AcDbEntity
  8
0
100
AcDbLine
 62
7
  6
CONTINUOUS
 10
113.6928709807
 20
92.2016145478
 11
113.6928709807
 21
91.7016145478
  0
LINE
  5
364
100
AcDbEntity
  8
0
100
AcDbLine
 62
7
  6
CONTINUOUS
 10
113.7389329599
 20
83.1016145302
 11
113.7389329599
 21
81.9016145478
  0
LINE
  5
365
100
AcDbEntity
  8
0
100
AcDbLine
 62
7
  6
CONTINUOUS
 10
113.8409474494
 20
124.4016145299
 11
113.8409474494
 21
100.4016145299
  0
LINE
  5
366
100
AcDbEntity
  8
0
100
AcDbLine
 62
7
  6
CONTINUOUS
 10
114.1876451124
 20
234.2816145299
 11
114.1876451124
 21
243.9816145299
  0
LINE
  5
367
100
AcDbEntity
  8
0
100
AcDbLine
 62
7
  6
CONTINUOUS
 10
114.2889329599
 20
36.4016145299
 11
114.2889329599
 21
26.4016145299
  0
LINE
  5
368
100
AcDbEntity
  8
0
100
AcDbLine
 62
7
  6
CONTINUOUS
 10
114.4289329599
 20
244.9816145299
 11
114.4289329599
 21
246.2816145299
  0
LINE
  5
369
100
AcDbEntity
  8
0
100
AcDbLine
 62
7
  6
CONTINUOUS
 10
114.4389329599
 20
81.4016145478
 11
114.4389329599
 21
81.9016145478
  0
LINE
  5
36A
100
AcDbEntity
  8
0
100
AcDbLine
 62
7
  6
CONTINUOUS
 10
114.4389329599
 20
91.7016145478
 11
114.4389329599
 21
92.2016145478
  0
LINE
  5
36B
100
AcDbEntity
  8
0
100
AcDbLine
 62
7
  6
CONTINUOUS
 10
114.5289329599
 20
244.9816145299
 11
114.5289329599
 21
246.8516145299
  0
LINE
  5
36C
100
AcDbEntity
  8
0
100
AcDbLine
 62
7
  6
CONTINUOUS
 10
114.5589329592
 20
100.4016145299
 11
114.5589329598
 21
124.9016145299
  0
LINE
  5
36D
100
AcDbEntity
  8
0
100
AcDbLine
 62
7
  6
CONTINUOUS
 10
115.0389329599
 20
82.5016145476
 11
115.0389329599
 21
91.1016145468
  0
LINE
  5
36E
100
AcDbEntity
  8
0
100
AcDbLine
 62
7
  6
CONTINUOUS
 10
115.0389329599
 20
100.4016145299
 11
115.0389329599
 21
124.4016145299
  0
LINE
  5
36F
100
AcDbEntity
  8
0
100
AcDbLine
 62
7
  6
CONTINUOUS
 10
115.5389329599
 20
124.9016145299
 11
115.5389329599
 21
99.9016145299
  0
LINE
  5
370
100
AcDbEntity
  8
0
100
AcDbLine
 62
7
  6
CONTINUOUS
 10
115.5389329589
 20
91.101614558
 11
115.5389329597
 21
82.5016145453
  0
LINE
  5
371
100
AcDbEntity
  8
0
100
AcDbLine
 62
7
  6
CONTINUOUS
 10
113.1871044874
 20
91.1016145303
 11
113.2357996186
 21
100.4016145299
  0
LINE
  5
372
100
AcDbEntity
  8
0
100
AcDbLine
 62
7
  6
CONTINUOUS
 10
113.7331884547
 20
99.9016145299
 11
113.6928709806
 21
92.2016145478
  0
LINE
  5
373
100
AcDbEntity
  8
0
100
AcDbLine
 62
7
  6
CONTINUOUS
 10
104.8366499093
 20
82.5016145302
 11
102.089620369
 21
69.6766201764
  0
LINE
  5
374
100
AcDbEntity
  8
0
100
AcDbLine
 62
7
  6
CONTINUOUS
 10
80.6420663012
 20
100.4016145299
 11
80.144677465
 21
99.9016145299
  0
LINE
  5
375
100
AcDbEntity
  8
0
100
AcDbLine
 62
7
  6
CONTINUOUS
 10
78.8389329598
 20
100.4016145299
 11
78.3389329598
 21
99.9016145299
  0
LINE
  5
376
100
AcDbEntity
  8
0
100
AcDbLine
 62
7
  6
CONTINUOUS
 10
68.7389329599
 20
83.1016145302
 11
68.1389329599
 21
82.5016145302
  0
LINE
  5
377
100
AcDbEntity
  8
0
100
AcDbLine
 62
7
  6
CONTINUOUS
 10
116.8015671821
 20
94.9016145299
 11
116.8015671821
 21
109.9016145299
  0
LINE
  5
378
100
AcDbEntity
  8
0
100
AcDbLine
 62
7
  6
CONTINUOUS
 10
116.8496363107
 20
26.4016145299
 11
116.8496363114
 21
34.5662054308
  0
LINE
  5
379
100
AcDbEntity
  8
0
100
AcDbLine
 62
7
  6
CONTINUOUS
 10
117.0376818937
 20
109.9016145299
 11
117.0376818937
 21
124.4016145299
  0
LINE
  5
37A
100
AcDbEntity
  8
0
100
AcDbLine
 62
7
  6
CONTINUOUS
 10
117.2091163705
 20
36.4016145299
 11
117.2091163705
 21
94.9016145299
  0
LINE
  5
37B
100
AcDbEntity
  8
0
100
AcDbLine
 62
7
  6
CONTINUOUS
 10
117.6342010651
 20
124.9016145299
 11
117.6342010651
 21
109.9016145299
  0
LINE
  5
37C
100
AcDbEntity
  8
0
100
AcDbLine
 62
7
  6
CONTINUOUS
 10
117.6889329599
 20
23.4016145299
 11
117.6889329599
 21
26.4016145299
  0
LINE
  5
37D
100
AcDbEntity
  8
0
100
AcDbLine
 62
7
  6
CONTINUOUS
 10
117.7086922245
 20
94.9016145299
 11
117.7086922245
 21
36.4016145299
  0
LINE
  5
37E
100
AcDbEntity
  8
0
100
AcDbLine
 62
7
  6
CONTINUOUS
 10
117.8991213044
 20
23.4016145299
 11
117.8991213044
 21
26.4016145299
  0
LINE
  5
37F
100
AcDbEntity
  8
0
100
AcDbLine
 62
7
  6
CONTINUOUS
 10
117.933669853
 20
109.9016145299
 11
117.933669853
 21
124.9016145299
  0
LINE
  5
380
100
AcDbEntity
  8
0
100
AcDbLine
 62
7
  6
CONTINUOUS
 10
118.1927872197
 20
36.4016145299
 11
118.1927872197
 21
94.9016145299
  0
LINE
  5
381
100
AcDbEntity
  8
0
100
AcDbLine
 62
7
  6
CONTINUOUS
 10
118.4289329599
 20
244.9816145299
 11
118.4289329599
 21
246.8516145299
  0
LINE
  5
382
100
AcDbEntity
  8
0
100
AcDbLine
 62
7
  6
CONTINUOUS
 10
118.5289329599
 20
244.9816145299
 11
118.5289329599
 21
246.2816145299
  0
LINE
  5
383
100
AcDbEntity
  8
0
100
AcDbLine
 62
7
  6
CONTINUOUS
 10
118.7702208074
 20
243.9816145299
 11
118.7702208074
 21
234.2816145299
  0
LINE
  5
384
100
AcDbEntity
  8
0
100
AcDbLine
 62
7
  6
CONTINUOUS
 10
119.2676451124
 20
234.2816145299
 11
119.2676451124
 21
243.9816145299
  0
LINE
  5
385
100
AcDbEntity
  8
0
100
AcDbLine
 62
7
  6
CONTINUOUS
 10
119.5089329599
 20
244.9816145299
 11
119.5089329599
 21
246.2816145299
  0
LINE
  5
386
100
AcDbEntity
  8
0
100
AcDbLine
 62
7
  6
CONTINUOUS
 10
120.6850787
 20
94.9016145299
 11
120.6850787
 21
36.4016145299
  0
LINE
  5
387
100
AcDbEntity
  8
0
100
AcDbLine
 62
7
  6
CONTINUOUS
 10
120.9441960667
 20
124.9016145299
 11
120.9441960667
 21
109.9016145299
  0
LINE
  5
388
100
AcDbEntity
  8
0
100
AcDbLine
 62
7
  6
CONTINUOUS
 10
120.9804929033
 20
26.4016145299
 11
120.9804929033
 21
23.4016145299
  0
LINE
  5
389
100
AcDbEntity
  8
0
100
AcDbLine
 62
7
  6
CONTINUOUS
 10
121.1691736952
 20
36.4016145299
 11
121.1691736952
 21
94.9016145299
  0
LINE
  5
38A
100
AcDbEntity
  8
0
100
AcDbLine
 62
7
  6
CONTINUOUS
 10
121.1889329599
 20
23.4016145299
 11
121.1889329599
 21
26.4016145299
  0
LINE
  5
38B
100
AcDbEntity
  8
0
100
AcDbLine
 62
7
  6
CONTINUOUS
 10
121.2433551918
 20
109.9016145299
 11
121.2433551918
 21
124.9016145299
  0
LINE
  5
38C
100
AcDbEntity
  8
0
100
AcDbLine
 62
7
  6
CONTINUOUS
 10
121.6687495493
 20
94.9016145299
 11
121.6687495493
 21
36.4016145299
  0
LINE
  5
38D
100
AcDbEntity
  8
0
100
AcDbLine
 62
7
  6
CONTINUOUS
 10
121.8401840262
 20
124.4016145299
 11
121.8401840262
 21
109.9016145299
  0
LINE
  5
38E
100
AcDbEntity
  8
0
100
AcDbLine
 62
7
  6
CONTINUOUS
 10
122.0285025506
 20
21.4015273257
 11
122.0284141043
 21
22.9016145299
  0
LINE
  5
38F
100
AcDbEntity
  8
0
100
AcDbLine
 62
7
  6
CONTINUOUS
 10
122.0284141014
 20
26.4016145299
 11
122.0284140946
 21
34.5662096305
  0
LINE
  5
390
100
AcDbEntity
  8
0
100
AcDbLine
 62
7
  6
CONTINUOUS
 10
122.0762987377
 20
109.9016145299
 11
122.0762987377
 21
94.9016145299
  0
LINE
  5
391
100
AcDbEntity
  8
0
100
AcDbLine
 62
7
  6
CONTINUOUS
 10
123.3389329599
 20
82.5016145478
 11
123.3389329599
 21
89.2216145482
  0
LINE
  5
392
100
AcDbEntity
  8
0
100
AcDbLine
 62
7
  6
CONTINUOUS
 10
123.3389329598
 20
99.9016145299
 11
123.3389329598
 21
124.9016145299
  0
LINE
  5
393
100
AcDbEntity
  8
0
100
AcDbLine
 62
7
  6
CONTINUOUS
 10
123.6089329599
 20
244.9816145299
 11
123.6089329599
 21
246.2816145299
  0
LINE
  5
394
100
AcDbEntity
  8
0
100
AcDbLine
 62
7
  6
CONTINUOUS
 10
123.8389329598
 20
124.4016145299
 11
123.8389329598
 21
100.4016145299
  0
LINE
  5
395
100
AcDbEntity
  8
0
100
AcDbLine
 62
7
  6
CONTINUOUS
 10
123.8389329599
 20
89.2216145479
 11
123.8389329599
 21
82.5016145478
  0
LINE
  5
396
100
AcDbEntity
  8
0
100
AcDbLine
 62
7
  6
CONTINUOUS
 10
123.8502208074
 20
243.9816145299
 11
123.8502208074
 21
234.2816145299
  0
LINE
  5
397
100
AcDbEntity
  8
0
100
AcDbLine
 62
7
  6
CONTINUOUS
 10
124.3189329599
 20
124.9016145299
 11
124.3189329599
 21
100.4016145299
  0
LINE
  5
398
100
AcDbEntity
  8
0
100
AcDbLine
 62
7
  6
CONTINUOUS
 10
124.3189329599
 20
90.2016145478
 11
124.3189329599
 21
89.7016145478
  0
LINE
  5
399
100
AcDbEntity
  8
0
100
AcDbLine
 62
7
  6
CONTINUOUS
 10
124.3476451124
 20
234.2816145299
 11
124.3476451124
 21
243.9816145299
  0
LINE
  5
39A
100
AcDbEntity
  8
0
100
AcDbLine
 62
7
  6
CONTINUOUS
 10
124.4389329599
 20
81.9016145478
 11
124.4389329599
 21
81.4016145478
  0
LINE
  5
39B
100
AcDbEntity
  8
0
100
AcDbLine
 62
7
  6
CONTINUOUS
 10
124.5889329599
 20
26.4016145299
 11
124.5889329599
 21
36.4016145299
  0
LINE
  5
39C
100
AcDbEntity
  8
0
100
AcDbLine
 62
7
  6
CONTINUOUS
 10
124.5889329599
 20
244.9816145299
 11
124.5889329599
 21
246.2816145299
  0
LINE
  5
39D
100
AcDbEntity
  8
0
100
AcDbLine
 62
7
  6
CONTINUOUS
 10
124.6889329599
 20
244.9816145299
 11
124.6889329599
 21
246.8516145299
  0
LINE
  5
39E
100
AcDbEntity
  8
0
100
AcDbLine
 62
7
  6
CONTINUOUS
 10
116.8496363104
 20
22.9016145299
 11
116.8495243352
 21
21.4016077823
  0
LINE
  5
39F
100
AcDbEntity
  8
0
100
AcDbLine
 62
7
  6
CONTINUOUS
 10
103.2063142232
 20
69.6766201763
 11
105.9533437636
 21
82.5016145302
  0
LINE
  5
3A0
100
AcDbEntity
  8
0
100
AcDbLine
 62
7
  6
CONTINUOUS
 10
166.9389329599
 20
161.6156832333
 11
167.0389329599
 21
161.6156832333
  0
LINE
  5
3A1
100
AcDbEntity
  8
0
100
AcDbLine
 62
7
  6
CONTINUOUS
 10
167.0389329599
 20
161.6975609626
 11
166.9389329599
 21
161.6975609626
  0
LINE
  5
3A2
100
AcDbEntity
  8
0
100
AcDbLine
 62
7
  6
CONTINUOUS
 10
161.2389329599
 20
100.4016145299
 11
161.7389329599
 21
99.9016145299
  0
LINE
  5
3A3
100
AcDbEntity
  8
0
100
AcDbLine
 62
7
  6
CONTINUOUS
 10
158.2357996186
 20
100.4016145299
 11
158.7331884547
 21
99.9016145299
  0
LINE
  5
3A4
100
AcDbEntity
  8
0
100
AcDbLine
 62
7
  6
CONTINUOUS
 10
132.9245221562
 20
82.5016145302
 11
135.6715516965
 21
69.6766201762
  0
LINE
  5
3A5
100
AcDbEntity
  8
0
100
AcDbLine
 62
7
  6
CONTINUOUS
 10
136.7882455508
 20
69.6766201764
 11
134.0412160105
 21
82.5016145302
  0
LINE
  5
3A6
100
AcDbEntity
  8
0
100
AcDbLine
 62
7
  6
CONTINUOUS
 10
125.1954670103
 20
90.2016145478
 11
125.144677465
 21
99.9016145299
  0
LINE
  5
3A7
100
AcDbEntity
  8
0
100
AcDbLine
 62
7
  6
CONTINUOUS
 10
125.6420663012
 20
100.4016145299
 11
125.6954864765
 21
90.199205799
  0
LINE
  5
3A8
100
AcDbEntity
  8
0
100
AcDbLine
 62
7
  6
CONTINUOUS
 10
125.0369184704
 20
100.4016145299
 11
125.0369184704
 21
124.4016145299
  0
LINE
  5
3A9
100
AcDbEntity
  8
0
100
AcDbLine
 62
7
  6
CONTINUOUS
 10
125.1389329599
 20
81.9016145478
 11
125.1389329599
 21
83.1016145302
  0
LINE
  5
3AA
100
AcDbEntity
  8
0
100
AcDbLine
 62
7
  6
CONTINUOUS
 10
125.1954670103
 20
89.7016145478
 11
125.1954670103
 21
90.2016145478
  0
LINE
  5
3AB
100
AcDbEntity
  8
0
100
AcDbLine
 62
7
  6
CONTINUOUS
 10
125.2389329608
 20
25.0016145114
 11
125.2389329599
 21
81.9016145478
  0
LINE
  5
3AC
100
AcDbEntity
  8
0
100
AcDbLine
 62
7
  6
CONTINUOUS
 10
125.5137834288
 20
124.9015839712
 11
125.5137834288
 21
100.4016145299
  0
LINE
  5
3AD
100
AcDbEntity
  8
0
100
AcDbLine
 62
7
  6
CONTINUOUS
 10
125.7389329599
 20
82.5016145302
 11
125.7389329599
 21
25.0016145315
  0
LINE
  5
3AE
100
AcDbEntity
  8
0
100
AcDbLine
 62
7
  6
CONTINUOUS
 10
126.3389329599
 20
24.4016145299
 11
126.3389329599
 21
23.9016145299
  0
LINE
  5
3AF
100
AcDbEntity
  8
0
100
AcDbLine
 62
7
  6
CONTINUOUS
 10
126.7389329599
 20
83.1016145302
 11
126.7389329599
 21
91.0607482002
  0
LINE
  5
3B0
100
AcDbEntity
  8
0
100
AcDbLine
 62
7
  6
CONTINUOUS
 10
126.9389329599
 20
105.4016145299
 11
126.9389329599
 21
100.4016145303
  0
LINE
  5
3B1
100
AcDbEntity
  8
0
100
AcDbLine
 62
7
  6
CONTINUOUS
 10
127.3389330893
 20
91.6607482002
 11
127.3389330893
 21
82.5016145302
  0
LINE
  5
3B2
100
AcDbEntity
  8
0
100
AcDbLine
 62
7
  6
CONTINUOUS
 10
128.5889329599
 20
244.9816145299
 11
128.5889329599
 21
246.8516145299
  0
LINE
  5
3B3
100
AcDbEntity
  8
0
100
AcDbLine
 62
7
  6
CONTINUOUS
 10
128.6889329599
 20
244.9816145299
 11
128.6889329599
 21
246.2816145299
  0
LINE
  5
3B4
100
AcDbEntity
  8
0
100
AcDbLine
 62
7
  6
CONTINUOUS
 10
128.9302208074
 20
243.9816145299
 11
128.9302208074
 21
234.2816145299
  0
LINE
  5
3B5
100
AcDbEntity
  8
0
100
AcDbLine
 62
7
  6
CONTINUOUS
 10
129.4889329599
 20
229.8016145299
 11
129.4889329599
 21
246.2816145299
  0
LINE
  5
3B6
100
AcDbEntity
  8
0
100
AcDbLine
 62
7
  6
CONTINUOUS
 10
130.8303329599
 20
105.4016145299
 11
130.8303329599
 21
107.0016145299
  0
LINE
  5
3B7
100
AcDbEntity
  8
0
100
AcDbLine
 62
7
  6
CONTINUOUS
 10
132.7013286529
 20
113.5327145299
 11
132.7013286529
 21
107.7327145299
  0
LINE
  5
3B8
100
AcDbEntity
  8
0
100
AcDbLine
 62
7
  6
CONTINUOUS
 10
133.2289329599
 20
229.8016145299
 11
133.2289329599
 21
237.3516145299
  0
LINE
  5
3B9
100
AcDbEntity
  8
0
100
AcDbLine
 62
7
  6
CONTINUOUS
 10
166.9389329599
 20
166.6029073876
 11
167.0389329599
 21
166.6029073876
  0
LINE
  5
3BA
100
AcDbEntity
  8
0
100
AcDbLine
 62
7
  6
CONTINUOUS
 10
134.2289329599
 20
229.8016145299
 11
134.2289329599
 21
237.3516145299
  0
LINE
  5
3BB
100
AcDbEntity
  8
0
100
AcDbLine
 62
7
  6
CONTINUOUS
 10
134.2589329599
 20
237.3516145299
 11
134.2589329599
 21
229.8016145299
  0
LINE
  5
3BC
100
AcDbEntity
  8
0
100
AcDbLine
 62
7
  6
CONTINUOUS
 10
134.2657278791
 20
100.4016145303
 11
134.2657278791
 21
105.4016145299
  0
LINE
  5
3BD
100
AcDbEntity
  8
0
100
AcDbLine
 62
7
  6
CONTINUOUS
 10
134.7853431214
 20
105.4016145299
 11
134.7853431214
 21
100.4016145303
  0
LINE
  5
3BE
100
AcDbEntity
  8
0
100
AcDbLine
 62
7
  6
CONTINUOUS
 10
135.0389329599
 20
69.8016145299
 11
135.0389329599
 21
72.6301128877
  0
LINE
  5
3BF
100
AcDbEntity
  8
0
100
AcDbLine
 62
7
  6
CONTINUOUS
 10
135.4580049088
 20
70.6736012087
 11
135.4580049088
 21
69.8016145299
  0
LINE
  5
3C0
100
AcDbEntity
  8
0
100
AcDbLine
 62
7
  6
CONTINUOUS
 10
136.8334232218
 20
69.8016145299
 11
136.8334232218
 21
82.5016145302
  0
LINE
  5
3C1
100
AcDbEntity
  8
0
100
AcDbLine
 62
7
  6
CONTINUOUS
 10
136.9389329599
 20
91.6607482002
 11
136.9389329599
 21
100.4016145303
  0
LINE
  5
3C2
100
AcDbEntity
  8
0
100
AcDbLine
 62
7
  6
CONTINUOUS
 10
136.9389329599
 20
107.0016145299
 11
136.9389329599
 21
107.7327145299
  0
LINE
  5
3C3
100
AcDbEntity
  8
0
100
AcDbLine
 62
7
  6
CONTINUOUS
 10
137.3201308064
 20
113.5327145299
 11
137.3201308064
 21
107.7327145299
  0
LINE
  5
3C4
100
AcDbEntity
  8
0
100
AcDbLine
 62
7
  6
CONTINUOUS
 10
138.3389329599
 20
100.4016145303
 11
138.3389329599
 21
105.4016145299
  0
LINE
  5
3C5
100
AcDbEntity
  8
0
100
AcDbLine
 62
7
  6
CONTINUOUS
 10
138.9389329599
 20
105.4016145299
 11
138.9389329599
 21
100.4016145303
  0
LINE
  5
3C6
100
AcDbEntity
  8
0
100
AcDbLine
 62
7
  6
CONTINUOUS
 10
139.2389329599
 20
105.4016145299
 11
139.2389329599
 21
100.4016145303
  0
LINE
  5
3C7
100
AcDbEntity
  8
0
100
AcDbLine
 62
7
  6
CONTINUOUS
 10
125.6420663012
 20
100.4016145299
 11
125.144677465
 21
99.9016145299
  0
LINE
  5
3C8
100
AcDbEntity
  8
0
100
AcDbLine
 62
7
  6
CONTINUOUS
 10
123.8389329598
 20
100.4016145299
 11
123.3389329598
 21
99.9016145299
  0
LINE
  5
3C9
100
AcDbEntity
  8
0
100
AcDbLine
 62
7
  6
CONTINUOUS
 10
144.6389329599
 20
100.4016145303
 11
144.6389329599
 21
105.4016145299
  0
LINE
  5
3CA
100
AcDbEntity
  8
0
100
AcDbLine
 62
7
  6
CONTINUOUS
 10
144.9389329599
 20
100.4016145303
 11
144.9389329599
 21
105.4016145299
  0
LINE
  5
3CB
100
AcDbEntity
  8
0
100
AcDbLine
 62
7
  6
CONTINUOUS
 10
145.5389329599
 20
105.4016145299
 11
145.5389329599
 21
100.4016145303
  0
LINE
  5
3CC
100
AcDbEntity
  8
0
100
AcDbLine
 62
7
  6
CONTINUOUS
 10
146.4389329599
 20
183.5516145299
 11
146.4389329599
 21
229.8016145299
  0
LINE
  5
3CD
100
AcDbEntity
  8
0
100
AcDbLine
 62
7
  6
CONTINUOUS
 10
146.5577351134
 20
113.5327145299
 11
146.5577351134
 21
107.7327145299
  0
LINE
  5
3CE
100
AcDbEntity
  8
0
100
AcDbLine
 62
7
  6
CONTINUOUS
 10
146.9389329599
 20
91.6607482002
 11
146.9389329599
 21
100.4016145303
  0
LINE
  5
3CF
100
AcDbEntity
  8
0
100
AcDbLine
 62
7
  6
CONTINUOUS
 10
146.9389329599
 20
107.0016145299
 11
146.9389329599
 21
107.7327145299
  0
LINE
  5
3D0
100
AcDbEntity
  8
0
100
AcDbLine
 62
7
  6
CONTINUOUS
 10
147.044442698
 20
82.5016145302
 11
147.044442698
 21
69.8016145299
  0
LINE
  5
3D1
100
AcDbEntity
  8
0
100
AcDbLine
 62
7
  6
CONTINUOUS
 10
148.4198612859
 20
69.8016145299
 11
148.4198612859
 21
70.6736024921
  0
LINE
  5
3D2
100
AcDbEntity
  8
0
100
AcDbLine
 62
7
  6
CONTINUOUS
 10
148.8389329599
 20
69.8016145299
 11
148.8389329599
 21
72.6301128877
  0
LINE
  5
3D3
100
AcDbEntity
  8
0
100
AcDbLine
 62
7
  6
CONTINUOUS
 10
149.0925227984
 20
100.4016145303
 11
149.0925227984
 21
105.4016145299
  0
LINE
  5
3D4
100
AcDbEntity
  8
0
100
AcDbLine
 62
7
  6
CONTINUOUS
 10
149.6121380407
 20
105.4016145299
 11
149.6121380407
 21
100.4016145303
  0
LINE
  5
3D5
100
AcDbEntity
  8
0
100
AcDbLine
 62
7
  6
CONTINUOUS
 10
151.1765372669
 20
113.5327145299
 11
151.1765372669
 21
107.7327145299
  0
LINE
  5
3D6
100
AcDbEntity
  8
0
100
AcDbLine
 62
7
  6
CONTINUOUS
 10
113.7389329599
 20
83.1016145302
 11
113.1389329599
 21
82.5016145302
  0
LINE
  5
3D7
100
AcDbEntity
  8
0
100
AcDbLine
 62
7
  6
CONTINUOUS
 10
166.9389329599
 20
183.5516145299
 11
146.4389329599
 21
183.5516145299
  0
LINE
  5
3D8
100
AcDbEntity
  8
0
100
AcDbLine
 62
7
  6
CONTINUOUS
 10
47.4389329599
 20
183.5516145299
 11
26.9389329599
 21
183.5516145299
  0
LINE
  5
3D9
100
AcDbEntity
  8
0
100
AcDbLine
 62
7
  6
CONTINUOUS
 10
153.0475329599
 20
105.4016145299
 11
153.0475329599
 21
107.0016145299
  0
LINE
  5
3DA
100
AcDbEntity
  8
0
100
AcDbLine
 62
7
  6
CONTINUOUS
 10
156.4389329599
 20
229.8016145299
 11
156.4389329599
 21
183.5516145299
  0
LINE
  5
3DB
100
AcDbEntity
  8
0
100
AcDbLine
 62
7
  6
CONTINUOUS
 10
156.5389328305
 20
82.5016145302
 11
156.5389328305
 21
91.6607482002
  0
LINE
  5
3DC
100
AcDbEntity
  8
0
100
AcDbLine
 62
7
  6
CONTINUOUS
 10
156.9389329599
 20
105.4016145299
 11
156.9389329599
 21
100.4016145303
  0
LINE
  5
3DD
100
AcDbEntity
  8
0
100
AcDbLine
 62
7
  6
CONTINUOUS
 10
157.1389329599
 20
91.0607482002
 11
157.1389329599
 21
83.1016145302
  0
LINE
  5
3DE
100
AcDbEntity
  8
0
100
AcDbLine
 62
7
  6
CONTINUOUS
 10
157.5389329599
 20
23.9016145299
 11
157.5389329599
 21
24.4016145299
  0
LINE
  5
3DF
100
AcDbEntity
  8
0
100
AcDbLine
 62
7
  6
CONTINUOUS
 10
158.1389329599
 20
25.0016145295
 11
158.1389329599
 21
82.5016145302
  0
LINE
  5
3E0
100
AcDbEntity
  8
0
100
AcDbLine
 62
7
  6
CONTINUOUS
 10
158.2389329599
 20
218.0790229865
 11
158.2389329599
 21
217.4790233441
  0
LINE
  5
3E1
100
AcDbEntity
  8
0
100
AcDbLine
 62
7
  6
CONTINUOUS
 10
158.2389329599
 20
196.5943196414
 11
158.2389329599
 21
195.9943199989
  0
LINE
  5
3E2
100
AcDbEntity
  8
0
100
AcDbLine
 62
7
  6
CONTINUOUS
 10
158.3640824909
 20
100.4016145299
 11
158.3640824909
 21
124.8940789111
  0
LINE
  5
3E3
100
AcDbEntity
  8
0
100
AcDbLine
 62
7
  6
CONTINUOUS
 10
158.6389329599
 20
81.9016145478
 11
158.6389329598
 21
25.0016145275
  0
LINE
  5
3E4
100
AcDbEntity
  8
0
100
AcDbLine
 62
7
  6
CONTINUOUS
 10
158.6928709807
 20
92.2016145478
 11
158.6928709807
 21
91.7016145478
  0
LINE
  5
3E5
100
AcDbEntity
  8
0
100
AcDbLine
 62
7
  6
CONTINUOUS
 10
158.7389329599
 20
83.1016145302
 11
158.7389329599
 21
81.9016145478
  0
LINE
  5
3E6
100
AcDbEntity
  8
0
100
AcDbLine
 62
7
  6
CONTINUOUS
 10
158.9396808147
 20
124.4016145299
 11
158.9396808147
 21
100.4016145299
  0
LINE
  5
3E7
100
AcDbEntity
  8
0
100
AcDbLine
 62
7
  6
CONTINUOUS
 10
159.9623552994
 20
22.9016145299
 11
159.9623552993
 21
21.4016145283
  0
LINE
  5
3E8
100
AcDbEntity
  8
0
100
AcDbLine
 62
7
  6
CONTINUOUS
 10
160.0889329599
 20
33.0016145299
 11
160.0889329599
 21
79.3016145299
  0
LINE
  5
3E9
100
AcDbEntity
  8
0
100
AcDbLine
 62
7
  6
CONTINUOUS
 10
158.1868905099
 20
91.0607482002
 11
158.2357996186
 21
100.4016145299
  0
LINE
  5
3EA
100
AcDbEntity
  8
0
100
AcDbLine
 62
7
  6
CONTINUOUS
 10
158.7331884547
 20
99.9016145299
 11
158.6928709806
 21
92.2016145478
  0
LINE
  5
3EB
100
AcDbEntity
  8
0
100
AcDbLine
 62
7
  6
CONTINUOUS
 10
149.8366499093
 20
82.5016145302
 11
147.089620369
 21
69.6766201763
  0
LINE
  5
3EC
100
AcDbEntity
  8
0
100
AcDbLine
 62
7
  6
CONTINUOUS
 10
156.4389329599
 20
194.5727864102
 11
167.0389329599
 21
194.5727864102
  0
LINE
  5
3ED
100
AcDbEntity
  8
0
100
AcDbLine
 62
7
  6
CONTINUOUS
 10
156.4389329599
 20
196.0015798242
 11
167.0389329599
 21
196.0015798242
  0
LINE
  5
3EE
100
AcDbEntity
  8
0
100
AcDbLine
 62
7
  6
CONTINUOUS
 10
158.2389329599
 20
196.5943196414
 11
161.3389329599
 21
196.5943196414
  0
LINE
  5
3EF
100
AcDbEntity
  8
0
100
AcDbLine
 62
7
  6
CONTINUOUS
 10
162.5389329599
 20
196.5943196414
 11
165.6389329599
 21
196.5943196414
  0
LINE
  5
3F0
100
AcDbEntity
  8
0
100
AcDbLine
 62
7
  6
CONTINUOUS
 10
162.692751907
 20
26.0051415231
 11
162.6595748958
 21
29.8068504515
  0
LINE
  5
3F1
100
AcDbEntity
  8
0
100
AcDbLine
 62
7
  6
CONTINUOUS
 10
160.6389329226
 20
81.4016145478
 11
160.6389329226
 21
81.9016145478
  0
LINE
  5
3F2
100
AcDbEntity
  8
0
100
AcDbLine
 62
7
  6
CONTINUOUS
 10
160.6389329226
 20
91.7016145478
 11
160.6389329226
 21
92.2016145478
  0
LINE
  5
3F3
100
AcDbEntity
  8
0
100
AcDbLine
 62
7
  6
CONTINUOUS
 10
160.7589329592
 20
100.4016145299
 11
160.7589329598
 21
124.9016145299
  0
LINE
  5
3F4
100
AcDbEntity
  8
0
100
AcDbLine
 62
7
  6
CONTINUOUS
 10
161.2389329226
 20
82.5016145476
 11
161.2389329226
 21
91.1016145468
  0
LINE
  5
3F5
100
AcDbEntity
  8
0
100
AcDbLine
 62
7
  6
CONTINUOUS
 10
161.2389329599
 20
100.4016145299
 11
161.2389329599
 21
124.4016145299
  0
LINE
  5
3F6
100
AcDbEntity
  8
0
100
AcDbLine
 62
7
  6
CONTINUOUS
 10
161.3389329599
 20
218.0790229865
 11
161.3389329599
 21
217.4790233441
  0
LINE
  5
3F7
100
AcDbEntity
  8
0
100
AcDbLine
 62
7
  6
CONTINUOUS
 10
161.3389329599
 20
196.5943196414
 11
161.3389329599
 21
195.9943199989
  0
LINE
  5
3F8
100
AcDbEntity
  8
0
100
AcDbLine
 62
7
  6
CONTINUOUS
 10
161.7389329599
 20
124.9016145299
 11
161.7389329599
 21
99.9016145299
  0
LINE
  5
3F9
100
AcDbEntity
  8
0
100
AcDbLine
 62
7
  6
CONTINUOUS
 10
161.7389329217
 20
91.1016145579
 11
161.7389329225
 21
82.5016145454
  0
LINE
  5
3FA
100
AcDbEntity
  8
0
100
AcDbLine
 62
7
  6
CONTINUOUS
 10
162.5389329599
 20
218.0790229865
 11
162.5389329599
 21
217.4790233441
  0
LINE
  5
3FB
100
AcDbEntity
  8
0
100
AcDbLine
 62
7
  6
CONTINUOUS
 10
162.5389329599
 20
196.5943196414
 11
162.5389329599
 21
195.9943199989
  0
LINE
  5
3FC
100
AcDbEntity
  8
0
100
AcDbLine
 62
7
  6
CONTINUOUS
 10
162.5889329599
 20
79.3016145299
 11
162.5889329599
 21
33.0016145299
  0
LINE
  5
3FD
100
AcDbEntity
  8
0
100
AcDbLine
 62
7
  6
CONTINUOUS
 10
163.2154912593
 20
21.4016145291
 11
163.2154912594
 21
22.9016145299
  0
LINE
  5
3FE
100
AcDbEntity
  8
0
100
AcDbLine
 62
7
  6
CONTINUOUS
 10
163.8350604908
 20
22.9016145299
 11
163.8350603862
 21
124.9016145299
  0
LINE
  5
3FF
100
AcDbEntity
  8
0
100
AcDbLine
 62
7
  6
CONTINUOUS
 10
164.4350403614
 20
124.4016145299
 11
164.4350578159
 21
23.5017772861
  0
LINE
  5
400
100
AcDbEntity
  8
0
100
AcDbLine
 62
7
  6
CONTINUOUS
 10
164.5347806179
 20
23.5045876046
 11
164.5347806179
 21
124.4016145299
  0
LINE
  5
401
100
AcDbEntity
  8
0
100
AcDbLine
 62
7
  6
CONTINUOUS
 10
165.014762341
 20
124.9016145299
 11
165.014762341
 21
22.9016145299
  0
LINE
  5
402
100
AcDbEntity
  8
0
100
AcDbLine
 62
7
  6
CONTINUOUS
 10
165.6389329599
 20
218.0790229865
 11
165.6389329599
 21
217.4790233441
  0
LINE
  5
403
100
AcDbEntity
  8
0
100
AcDbLine
 62
7
  6
CONTINUOUS
 10
165.6389329599
 20
196.5943196414
 11
165.6389329599
 21
195.9943199989
  0
LINE
  5
404
100
AcDbEntity
  8
0
100
AcDbLine
 62
7
  6
CONTINUOUS
 10
166.9389329599
 20
21.9016145299
 11
166.9389329599
 21
183.5516145299
  0
LINE
  5
405
100
AcDbEntity
  8
0
100
AcDbLine
 62
7
  6
CONTINUOUS
 10
167.0389329599
 20
161.6156832333
 11
167.0389329599
 21
217.4862831694
  0
LINE
  5
406
100
AcDbEntity
  8
0
100
AcDbLine
 62
7
  6
CONTINUOUS
 10
160.018291024
 20
29.8068504515
 11
159.9851289264
 21
26.0068504509
  0
LINE
  5
407
100
AcDbEntity
  8
0
100
AcDbLine
 62
7
  6
CONTINUOUS
 10
148.2063142233
 20
69.6766201766
 11
150.9533437636
 21
82.5016145302
  0
LINE
  5
408
100
AcDbEntity
  8
0
100
AcDbLine
 62
7
  6
CONTINUOUS
 10
35.4389329534
 20
201.2774122809
 11
35.9389329561
 21
201.2861384287
  0
LINE
  5
409
100
AcDbEntity
  8
0
100
AcDbLine
 62
7
  6
CONTINUOUS
 10
37.4389329599
 20
201.2861385643
 11
35.9389329548
 21
201.2861384287
  0
LINE
  5
40A
100
AcDbEntity
  8
0
100
AcDbLine
 62
7
  6
CONTINUOUS
 10
158.7389329599
 20
83.1016145302
 11
158.1389329599
 21
82.5016145302
  0
LINE
  5
40B
100
AcDbEntity
  8
0
100
AcDbLine
 62
7
  6
CONTINUOUS
 10
37.4389329599
 20
211.1116145299
 11
35.9389329535
 21
211.1116145299
  0
LINE
  5
40C
100
AcDbEntity
  8
0
100
AcDbLine
 62
7
  6
CONTINUOUS
 10
156.4389329599
 20
216.0574897554
 11
167.0389329599
 21
216.0574897554
  0
LINE
  5
40D
100
AcDbEntity
  8
0
100
AcDbLine
 62
7
  6
CONTINUOUS
 10
156.4389329599
 20
217.4862831694
 11
167.0389329599
 21
217.4862831694
  0
LINE
  5
40E
100
AcDbEntity
  8
0
100
AcDbLine
 62
7
  6
CONTINUOUS
 10
158.2389329599
 20
218.0790229865
 11
161.3389329599
 21
218.0790229865
  0
LINE
  5
40F
100
AcDbEntity
  8
0
100
AcDbLine
 62
7
  6
CONTINUOUS
 10
162.5389329599
 20
218.0790229865
 11
165.6389329599
 21
218.0790229865
  0
LINE
  5
410
100
AcDbEntity
  8
0
100
AcDbLine
 62
7
  6
CONTINUOUS
 10
37.4389329599
 20
229.8016145299
 11
156.4389329599
 21
229.8016145299
  0
LINE
  5
411
100
AcDbEntity
  8
0
100
AcDbLine
 62
7
  6
CONTINUOUS
 10
113.6289329599
 20
230.0516145299
 11
129.4889329599
 21
230.0516145299
  0
LINE
  5
412
100
AcDbEntity
  8
0
100
AcDbLine
 62
7
  6
CONTINUOUS
 10
68.1389329599
 20
230.5016145299
 11
46.2389329599
 21
230.5016145299
  0
LINE
  5
413
100
AcDbEntity
  8
0
100
AcDbLine
 62
7
  6
CONTINUOUS
 10
46.2389329599
 20
230.8016145299
 11
68.1389329599
 21
230.8016145299
  0
LINE
  5
414
100
AcDbEntity
  8
0
100
AcDbLine
 62
7
  6
CONTINUOUS
 10
128.9302208074
 20
234.2816145299
 11
124.3476451124
 21
234.2816145299
  0
LINE
  5
415
100
AcDbEntity
  8
0
100
AcDbLine
 62
7
  6
CONTINUOUS
 10
123.8502208074
 20
234.2816145299
 11
119.2676451124
 21
234.2816145299
  0
LINE
  5
416
100
AcDbEntity
  8
0
100
AcDbLine
 62
7
  6
CONTINUOUS
 10
118.7702208074
 20
234.2816145299
 11
114.1876451124
 21
234.2816145299
  0
LINE
  5
417
100
AcDbEntity
  8
0
100
AcDbLine
 62
7
  6
CONTINUOUS
 10
115.3834878449
 20
234.4816145299
 11
117.5743780749
 21
234.4816145299
  0
LINE
  5
418
100
AcDbEntity
  8
0
100
AcDbLine
 62
7
  6
CONTINUOUS
 10
120.4634878449
 20
234.4816145299
 11
122.6543780749
 21
234.4816145299
  0
LINE
  5
419
100
AcDbEntity
  8
0
100
AcDbLine
 62
7
  6
CONTINUOUS
 10
125.5434878449
 20
234.4816145299
 11
127.7343780749
 21
234.4816145299
  0
LINE
  5
41A
100
AcDbEntity
  8
0
100
AcDbLine
 62
7
  6
CONTINUOUS
 10
108.8889329599
 20
237.3516145299
 11
113.6289329599
 21
237.3516145299
  0
LINE
  5
41B
100
AcDbEntity
  8
0
100
AcDbLine
 62
7
  6
CONTINUOUS
 10
129.4889329599
 20
237.3516145299
 11
134.2289329599
 21
237.3516145299
  0
LINE
  5
41C
100
AcDbEntity
  8
0
100
AcDbLine
 62
7
  6
CONTINUOUS
 10
113.6289329599
 20
243.9816145299
 11
129.4889329599
 21
243.9816145299
  0
LINE
  5
41D
100
AcDbEntity
  8
0
100
AcDbLine
 62
7
  6
CONTINUOUS
 10
129.4889329599
 20
244.4816145299
 11
113.6289329599
 21
244.4816145299
  0
LINE
  5
41E
100
AcDbEntity
  8
0
100
AcDbLine
 62
7
  6
CONTINUOUS
 10
113.6289329599
 20
244.7816145299
 11
129.4889329599
 21
244.7816145299
  0
LINE
  5
41F
100
AcDbEntity
  8
0
100
AcDbLine
 62
7
  6
CONTINUOUS
 10
129.4889329599
 20
244.9816145299
 11
113.6289329599
 21
244.9816145299
  0
LINE
  5
420
100
AcDbEntity
  8
0
100
AcDbLine
 62
7
  6
CONTINUOUS
 10
129.4889329599
 20
245.9816145299
 11
128.6889329599
 21
245.9816145299
  0
LINE
  5
421
100
AcDbEntity
  8
0
100
AcDbLine
 62
7
  6
CONTINUOUS
 10
124.5889329599
 20
245.9816145299
 11
123.6089329599
 21
245.9816145299
  0
LINE
  5
422
100
AcDbEntity
  8
0
100
AcDbLine
 62
7
  6
CONTINUOUS
 10
119.5089329599
 20
245.9816145299
 11
118.5289329599
 21
245.9816145299
  0
LINE
  5
423
100
AcDbEntity
  8
0
100
AcDbLine
 62
7
  6
CONTINUOUS
 10
114.4289329599
 20
245.9816145299
 11
113.6289329599
 21
245.9816145299
  0
LINE
  5
424
100
AcDbEntity
  8
0
100
AcDbLine
 62
7
  6
CONTINUOUS
 10
113.6289329599
 20
246.2816145299
 11
114.4289329599
 21
246.2816145299
  0
LINE
  5
425
100
AcDbEntity
  8
0
100
AcDbLine
 62
7
  6
CONTINUOUS
 10
118.5289329599
 20
246.2816145299
 11
119.5089329599
 21
246.2816145299
  0
LINE
  5
426
100
AcDbEntity
  8
0
100
AcDbLine
 62
7
  6
CONTINUOUS
 10
123.6089329599
 20
246.2816145299
 11
124.5889329599
 21
246.2816145299
  0
LINE
  5
427
100
AcDbEntity
  8
0
100
AcDbLine
 62
7
  6
CONTINUOUS
 10
128.6889329599
 20
246.2816145299
 11
129.4889329599
 21
246.2816145299
  0
LINE
  5
428
100
AcDbEntity
  8
0
100
AcDbLine
 62
7
  6
CONTINUOUS
 10
128.5889329599
 20
246.6516145299
 11
124.6889329599
 21
246.6516145299
  0
LINE
  5
429
100
AcDbEntity
  8
0
100
AcDbLine
 62
7
  6
CONTINUOUS
 10
118.4289329599
 20
246.6516145299
 11
114.5289329599
 21
246.6516145299
  0
LINE
  5
42A
100
AcDbEntity
  8
0
100
AcDbLine
 62
7
  6
CONTINUOUS
 10
114.5289329599
 20
246.8516145299
 11
118.4289329599
 21
246.8516145299
  0
LINE
  5
42B
100
AcDbEntity
  8
0
100
AcDbLine
 62
7
  6
CONTINUOUS
 10
124.6889329599
 20
246.8516145299
 11
128.5889329599
 21
246.8516145299
  0
ARC
  5
42C
100
AcDbEntity
  8
0
100
AcDbCircle
 62
7
  6
CONTINUOUS
 10
36.3389329599
 20
25.0016145299
 40
1.1
100
AcDbArc
 50
180.000000967
 51
269.9999998667
  0
ARC
  5
42D
100
AcDbEntity
  8
0
100
AcDbCircle
 62
7
  6
CONTINUOUS
 10
31.8889329599
 20
33.0016145299
 40
0.6
100
AcDbArc
 50
180.0
 51
270.0
  0
ARC
  5
42E
100
AcDbEntity
  8
0
100
AcDbCircle
 62
7
  6
CONTINUOUS
 10
33.1889329599
 20
33.0016145299
 40
0.6
100
AcDbArc
 50
270.0
 51
360.0
  0
ARC
  5
42F
100
AcDbEntity
  8
0
100
AcDbCircle
 62
7
  6
CONTINUOUS
 10
31.8182681778
 20
29.8016145299
 40
0.6
100
AcDbArc
 50
90.0
 51
179.4999999995
  0
ARC
  5
430
100
AcDbEntity
  8
0
100
AcDbCircle
 62
7
  6
CONTINUOUS
 10
31.7851060802
 20
26.0016145299
 40
0.6
100
AcDbArc
 50
179.5000000001
 51
270.0
  0
ARC
  5
431
100
AcDbEntity
  8
0
100
AcDbCircle
 62
7
  6
CONTINUOUS
 10
33.2927598396
 20
26.0016145299
 40
0.6
100
AcDbArc
 50
270.0
 51
0.3368036206
  0
ARC
  5
432
100
AcDbEntity
  8
0
100
AcDbCircle
 62
7
  6
CONTINUOUS
 10
33.2595977419
 20
29.8016145299
 40
0.6
100
AcDbArc
 50
0.5000000002
 51
90.0
  0
ARC
  5
433
100
AcDbEntity
  8
0
100
AcDbCircle
 62
7
  6
CONTINUOUS
 10
36.3389329599
 20
25.0016145299
 40
0.6
100
AcDbArc
 50
179.9999998916
 51
269.9999999767
  0
ARC
  5
434
100
AcDbEntity
  8
0
100
AcDbCircle
 62
7
  6
CONTINUOUS
 10
30.0428169599
 20
23.501603112
 40
0.5999885822
100
AcDbArc
 50
179.9885955764
 51
269.9989077352
  0
ARC
  5
435
100
AcDbEntity
  8
0
100
AcDbCircle
 62
7
  6
CONTINUOUS
 10
27.4389329599
 20
21.9016145299
 40
0.5
100
AcDbArc
 50
180.0
 51
270.0
  0
ARC
  5
436
100
AcDbEntity
  8
0
100
AcDbCircle
 62
7
  6
CONTINUOUS
 10
58.3389329599
 20
69.8016145299
 40
0.5
100
AcDbArc
 50
270.0
 51
360.0
  0
ARC
  5
437
100
AcDbEntity
  8
0
100
AcDbCircle
 62
7
  6
CONTINUOUS
 10
45.5389329599
 20
69.8016145299
 40
0.5
100
AcDbArc
 50
180.0
 51
270.0
  0
ARC
  5
438
100
AcDbEntity
  8
0
100
AcDbCircle
 62
7
  6
CONTINUOUS
 10
33.2389329599
 20
89.1016145478
 40
1.1
100
AcDbArc
 50
90.0
 51
179.999999997
  0
ARC
  5
439
100
AcDbEntity
  8
0
100
AcDbCircle
 62
7
  6
CONTINUOUS
 10
33.1189329599
 20
82.3816145478
 40
0.98
100
AcDbArc
 50
180.0000000382
 51
269.9999999933
  0
ARC
  5
43A
100
AcDbEntity
  8
0
100
AcDbCircle
 62
7
  6
CONTINUOUS
 10
33.1889329599
 20
79.3016145299
 40
0.6
100
AcDbArc
 50
0.0
 51
90.0
  0
ARC
  5
43B
100
AcDbEntity
  8
0
100
AcDbCircle
 62
7
  6
CONTINUOUS
 10
31.8889329599
 20
79.3016145299
 40
0.6
100
AcDbArc
 50
90.0
 51
180.0
  0
ARC
  5
43C
100
AcDbEntity
  8
0
100
AcDbCircle
 62
7
  6
CONTINUOUS
 10
33.2389329599
 20
89.1016145478
 40
0.6
100
AcDbArc
 50
90.0
 51
180.0000000011
  0
ARC
  5
43D
100
AcDbEntity
  8
0
100
AcDbCircle
 62
7
  6
CONTINUOUS
 10
35.0949420529
 20
90.3016145478
 40
0.6
100
AcDbArc
 50
270.0000000031
 51
0.2999989985
  0
ARC
  5
43E
100
AcDbEntity
  8
0
100
AcDbCircle
 62
7
  6
CONTINUOUS
 10
37.3389329599
 20
91.0607482002
 40
0.6
100
AcDbArc
 50
90.0
 51
180.0
  0
ARC
  5
43F
100
AcDbEntity
  8
0
100
AcDbCircle
 62
7
  6
CONTINUOUS
 10
37.3389329599
 20
83.1016145302
 40
0.6
100
AcDbArc
 50
180.0
 51
270.0
  0
ARC
  5
440
100
AcDbEntity
  8
0
100
AcDbCircle
 62
7
  6
CONTINUOUS
 10
35.2389329599
 20
81.4016145478
 40
0.5
100
AcDbArc
 50
0.0
 51
90.0
  0
ARC
  5
441
100
AcDbEntity
  8
0
100
AcDbCircle
 62
7
  6
CONTINUOUS
 10
32.1389329598
 20
124.4016145299
 40
0.5
100
AcDbArc
 50
0.0
 51
89.9999999994
  0
ARC
  5
442
100
AcDbEntity
  8
0
100
AcDbCircle
 62
7
  6
CONTINUOUS
 10
29.9426354745
 20
124.4018074282
 40
0.4998071319
100
AcDbArc
 50
89.9800686419
 51
180.0221130471
  0
ARC
  5
443
100
AcDbEntity
  8
0
100
AcDbCircle
 62
7
  6
CONTINUOUS
 10
33.1189329599
 20
82.3816145478
 40
0.48
100
AcDbArc
 50
179.9999999985
 51
269.9999999975
  0
ARC
  5
444
100
AcDbEntity
  8
0
100
AcDbCircle
 62
7
  6
CONTINUOUS
 10
35.0949420529
 20
90.3016145478
 40
0.0999952452
100
AcDbArc
 50
270.0990968551
 51
0.2999937802
  0
ARC
  5
445
100
AcDbEntity
  8
0
100
AcDbCircle
 62
7
  6
CONTINUOUS
 10
81.3389329599
 20
25.0016145299
 40
1.1
100
AcDbArc
 50
180.0000009656
 51
269.9999998668
  0
ARC
  5
446
100
AcDbEntity
  8
0
100
AcDbCircle
 62
7
  6
CONTINUOUS
 10
67.5389329599
 20
25.0016145299
 40
1.1
100
AcDbArc
 50
270.0000009668
 51
359.9999998645
  0
ARC
  5
447
100
AcDbEntity
  8
0
100
AcDbCircle
 62
7
  6
CONTINUOUS
 10
67.5389329599
 20
25.0016145299
 40
0.6
100
AcDbArc
 50
269.9999998914
 51
360.0
  0
ARC
  5
448
100
AcDbEntity
  8
0
100
AcDbCircle
 62
7
  6
CONTINUOUS
 10
81.3389329599
 20
25.0016145299
 40
0.6
100
AcDbArc
 50
179.9999998916
 51
269.9999999767
  0
ARC
  5
449
100
AcDbEntity
  8
0
100
AcDbCircle
 62
7
  6
CONTINUOUS
 10
72.6772170635
 20
23.436014852
 40
0.5344006456
100
AcDbArc
 50
269.9369601998
 51
287.1760262205
  0
ARC
  5
44A
100
AcDbEntity
  8
0
100
AcDbCircle
 62
7
  6
CONTINUOUS
 10
90.5389329599
 20
69.8016145299
 40
0.5
100
AcDbArc
 50
180.0
 51
270.0
  0
ARC
  5
44B
100
AcDbEntity
  8
0
100
AcDbCircle
 62
7
  6
CONTINUOUS
 10
76.6687575457
 20
23.4009182763
 40
0.4993037464
100
AcDbArc
 50
208.8853899084
 51
269.9990823971
  0
ARC
  5
44C
100
AcDbEntity
  8
0
100
AcDbCircle
 62
7
  6
CONTINUOUS
 10
72.2091099454
 20
23.4008984423
 40
0.4992839124
100
AcDbArc
 50
270.000737315
 51
0.0080050326
  0
ARC
  5
44D
100
AcDbEntity
  8
0
100
AcDbCircle
 62
7
  6
CONTINUOUS
 10
79.4389329599
 20
89.1016145478
 40
1.1
100
AcDbArc
 50
90.0
 51
180.0000000014
  0
ARC
  5
44E
100
AcDbEntity
  8
0
100
AcDbCircle
 62
7
  6
CONTINUOUS
 10
79.4389329599
 20
82.5016145478
 40
1.1
100
AcDbArc
 50
179.9999999994
 51
270.0000000004
  0
ARC
  5
44F
100
AcDbEntity
  8
0
100
AcDbCircle
 62
7
  6
CONTINUOUS
 10
69.4389329599
 20
82.5016145478
 40
1.1
100
AcDbArc
 50
270.0000005301
 51
359.9999998668
  0
ARC
  5
450
100
AcDbEntity
  8
0
100
AcDbCircle
 62
7
  6
CONTINUOUS
 10
69.4389329599
 20
91.1016145478
 40
1.0999993619
100
AcDbArc
 50
359.9997044286
 51
105.6672044799
  0
ARC
  5
451
100
AcDbEntity
  8
0
100
AcDbCircle
 62
7
  6
CONTINUOUS
 10
66.5389329599
 20
91.0607482002
 40
0.6
100
AcDbArc
 50
0.0
 51
90.0
  0
ARC
  5
452
100
AcDbEntity
  8
0
100
AcDbCircle
 62
7
  6
CONTINUOUS
 10
69.4389329599
 20
82.5016145478
 40
0.6
100
AcDbArc
 50
269.9999998914
 51
360.0
  0
ARC
  5
453
100
AcDbEntity
  8
0
100
AcDbCircle
 62
7
  6
CONTINUOUS
 10
66.5389329599
 20
83.1016145302
 40
0.6
100
AcDbArc
 50
270.0
 51
360.0
  0
ARC
  5
454
100
AcDbEntity
  8
0
100
AcDbCircle
 62
7
  6
CONTINUOUS
 10
80.0949420494
 20
90.3016145478
 40
0.6
100
AcDbArc
 50
270.0000000035
 51
0.2999989981
  0
ARC
  5
455
100
AcDbEntity
  8
0
100
AcDbCircle
 62
7
  6
CONTINUOUS
 10
79.4389329599
 20
89.1016145478
 40
0.6
100
AcDbArc
 50
90.0
 51
180.0000000011
  0
ARC
  5
456
100
AcDbEntity
  8
0
100
AcDbCircle
 62
7
  6
CONTINUOUS
 10
79.4389329599
 20
82.5016145478
 40
0.6
100
AcDbArc
 50
180.0
 51
270.0000000002
  0
ARC
  5
457
100
AcDbEntity
  8
0
100
AcDbCircle
 62
7
  6
CONTINUOUS
 10
82.3389329599
 20
91.1016145303
 40
0.6
100
AcDbArc
 50
90.0
 51
180.0
  0
ARC
  5
458
100
AcDbEntity
  8
0
100
AcDbCircle
 62
7
  6
CONTINUOUS
 10
82.3389329599
 20
83.1016145302
 40
0.6
100
AcDbArc
 50
180.0
 51
270.0
  0
ARC
  5
459
100
AcDbEntity
  8
0
100
AcDbCircle
 62
7
  6
CONTINUOUS
 10
69.4389329599
 20
91.1016145478
 40
0.5999993619
100
AcDbArc
 50
0.0
 51
111.2687078298
  0
ARC
  5
45A
100
AcDbEntity
  8
0
100
AcDbCircle
 62
7
  6
CONTINUOUS
 10
77.5489329599
 20
124.7016145299
 40
0.5
100
AcDbArc
 50
24.0
 51
90.0
  0
ARC
  5
45B
100
AcDbEntity
  8
0
100
AcDbCircle
 62
7
  6
CONTINUOUS
 10
68.692657003
 20
92.1607481953
 40
0.5
100
AcDbArc
 50
179.7
 51
270.0
  0
ARC
  5
45C
100
AcDbEntity
  8
0
100
AcDbCircle
 62
7
  6
CONTINUOUS
 10
68.6389329599
 20
81.4016145478
 40
0.5
100
AcDbArc
 50
90.0
 51
180.0
  0
ARC
  5
45D
100
AcDbEntity
  8
0
100
AcDbCircle
 62
7
  6
CONTINUOUS
 10
70.5389329599
 20
124.4016145299
 40
0.5
100
AcDbArc
 50
90.0
 51
180.0
  0
ARC
  5
45E
100
AcDbEntity
  8
0
100
AcDbCircle
 62
7
  6
CONTINUOUS
 10
78.3389329598
 20
124.4016145299
 40
0.5
100
AcDbArc
 50
0.0
 51
89.9999999985
  0
ARC
  5
45F
100
AcDbEntity
  8
0
100
AcDbCircle
 62
7
  6
CONTINUOUS
 10
71.3289329599
 20
124.7016145299
 40
0.5
100
AcDbArc
 50
90.0
 51
156.0
  0
ARC
  5
460
100
AcDbEntity
  8
0
100
AcDbCircle
 62
7
  6
CONTINUOUS
 10
80.2389329599
 20
81.4016145478
 40
0.5
100
AcDbArc
 50
0.0
 51
90.0
  0
ARC
  5
461
100
AcDbEntity
  8
0
100
AcDbCircle
 62
7
  6
CONTINUOUS
 10
80.0949420494
 20
90.3016145478
 40
0.0999952452
100
AcDbArc
 50
270.0990968523
 51
0.2999950678
  0
ARC
  5
462
100
AcDbEntity
  8
0
100
AcDbCircle
 62
7
  6
CONTINUOUS
 10
119.4388202589
 20
-321.8991702651
 40
348.4954838222
100
AcDbArc
 50
89.7351164396
 51
90.2641605323
  0
ARC
  5
463
100
AcDbEntity
  8
0
100
AcDbCircle
 62
7
  6
CONTINUOUS
 10
119.4387439587
 20
-228.9742258641
 40
255.5647985457
100
AcDbArc
 50
89.6358075101
 51
90.3632998218
  0
ARC
  5
464
100
AcDbEntity
  8
0
100
AcDbCircle
 62
7
  6
CONTINUOUS
 10
107.7074079902
 20
23.3931499226
 40
10.1917168293
100
AcDbArc
 50
358.6735008672
 51
0.0475863233
  0
ARC
  5
465
100
AcDbEntity
  8
0
100
AcDbCircle
 62
7
  6
CONTINUOUS
 10
126.3389329599
 20
25.0016145299
 40
1.1
100
AcDbArc
 50
180.0000009656
 51
269.9999998668
  0
ARC
  5
466
100
AcDbEntity
  8
0
100
AcDbCircle
 62
7
  6
CONTINUOUS
 10
112.5389329599
 20
25.0016145299
 40
1.1
100
AcDbArc
 50
270.0000009668
 51
359.9999998645
  0
ARC
  5
467
100
AcDbEntity
  8
0
100
AcDbCircle
 62
7
  6
CONTINUOUS
 10
126.3389329599
 20
25.0016145299
 40
0.6
100
AcDbArc
 50
179.9999998916
 51
269.9999999767
  0
ARC
  5
468
100
AcDbEntity
  8
0
100
AcDbCircle
 62
7
  6
CONTINUOUS
 10
112.5389329599
 20
25.0016145299
 40
0.6
100
AcDbArc
 50
269.9999998914
 51
360.0
  0
ARC
  5
469
100
AcDbEntity
  8
0
100
AcDbCircle
 62
7
  6
CONTINUOUS
 10
103.3389329599
 20
69.8016145299
 40
0.5
100
AcDbArc
 50
270.0
 51
360.0
  0
ARC
  5
46A
100
AcDbEntity
  8
0
100
AcDbCircle
 62
7
  6
CONTINUOUS
 10
124.4389329599
 20
82.5016145478
 40
1.1
100
AcDbArc
 50
180.0000000006
 51
270.0000000014
  0
ARC
  5
46B
100
AcDbEntity
  8
0
100
AcDbCircle
 62
7
  6
CONTINUOUS
 10
114.4389329599
 20
82.5016145478
 40
1.1
100
AcDbArc
 50
270.0000005301
 51
359.9999998668
  0
ARC
  5
46C
100
AcDbEntity
  8
0
100
AcDbCircle
 62
7
  6
CONTINUOUS
 10
114.4389329599
 20
91.1016145478
 40
1.1
100
AcDbArc
 50
0.0000005305
 51
89.9999998666
  0
ARC
  5
46D
100
AcDbEntity
  8
0
100
AcDbCircle
 62
7
  6
CONTINUOUS
 10
124.3189329599
 20
89.2216145478
 40
0.98
100
AcDbArc
 50
90.0000000773
 51
179.9999999801
  0
ARC
  5
46E
100
AcDbEntity
  8
0
100
AcDbCircle
 62
7
  6
CONTINUOUS
 10
127.3389329599
 20
91.0607482002
 40
0.6
100
AcDbArc
 50
90.0
 51
180.0
  0
ARC
  5
46F
100
AcDbEntity
  8
0
100
AcDbCircle
 62
7
  6
CONTINUOUS
 10
127.3389329599
 20
83.1016145302
 40
0.6
100
AcDbArc
 50
180.0
 51
270.0
  0
ARC
  5
470
100
AcDbEntity
  8
0
100
AcDbCircle
 62
7
  6
CONTINUOUS
 10
124.4389329599
 20
82.5016145478
 40
0.6
100
AcDbArc
 50
180.0
 51
270.0000000002
  0
ARC
  5
471
100
AcDbEntity
  8
0
100
AcDbCircle
 62
7
  6
CONTINUOUS
 10
114.4389329599
 20
91.1016145478
 40
0.6
100
AcDbArc
 50
0.0
 51
89.9999999767
  0
ARC
  5
472
100
AcDbEntity
  8
0
100
AcDbCircle
 62
7
  6
CONTINUOUS
 10
114.4389329599
 20
82.5016145478
 40
0.6
100
AcDbArc
 50
269.9999998914
 51
360.0
  0
ARC
  5
473
100
AcDbEntity
  8
0
100
AcDbCircle
 62
7
  6
CONTINUOUS
 10
111.5389329599
 20
91.1016145303
 40
0.6
100
AcDbArc
 50
0.0
 51
90.0
  0
ARC
  5
474
100
AcDbEntity
  8
0
100
AcDbCircle
 62
7
  6
CONTINUOUS
 10
111.5389329599
 20
83.1016145302
 40
0.6
100
AcDbArc
 50
270.0
 51
360.0
  0
ARC
  5
475
100
AcDbEntity
  8
0
100
AcDbCircle
 62
7
  6
CONTINUOUS
 10
122.5489329599
 20
124.7016145299
 40
0.5
100
AcDbArc
 50
24.0
 51
90.0
  0
ARC
  5
476
100
AcDbEntity
  8
0
100
AcDbCircle
 62
7
  6
CONTINUOUS
 10
125.2389329599
 20
81.4016145478
 40
0.5
100
AcDbArc
 50
0.0
 51
90.0
  0
ARC
  5
477
100
AcDbEntity
  8
0
100
AcDbCircle
 62
7
  6
CONTINUOUS
 10
123.3389329598
 20
124.4016145299
 40
0.5
100
AcDbArc
 50
0.0
 51
89.9999999986
  0
ARC
  5
478
100
AcDbEntity
  8
0
100
AcDbCircle
 62
7
  6
CONTINUOUS
 10
116.3289329599
 20
124.7016145299
 40
0.5
100
AcDbArc
 50
90.0
 51
156.0
  0
ARC
  5
479
100
AcDbEntity
  8
0
100
AcDbCircle
 62
7
  6
CONTINUOUS
 10
113.6928709807
 20
92.2016145478
 40
0.5
100
AcDbArc
 50
179.7
 51
269.9250001284
  0
ARC
  5
47A
100
AcDbEntity
  8
0
100
AcDbCircle
 62
7
  6
CONTINUOUS
 10
113.6389329599
 20
81.4016145478
 40
0.5
100
AcDbArc
 50
90.0
 51
180.0
  0
ARC
  5
47B
100
AcDbEntity
  8
0
100
AcDbCircle
 62
7
  6
CONTINUOUS
 10
115.5389329599
 20
124.4016145299
 40
0.5
100
AcDbArc
 50
90.0
 51
180.0
  0
ARC
  5
47C
100
AcDbEntity
  8
0
100
AcDbCircle
 62
7
  6
CONTINUOUS
 10
125.2155720052
 20
90.1816145478
 40
0.48
100
AcDbArc
 50
268.2006661204
 51
2.0993338707
  0
ARC
  5
47D
100
AcDbEntity
  8
0
100
AcDbCircle
 62
7
  6
CONTINUOUS
 10
124.3189329599
 20
89.2216145478
 40
0.48
100
AcDbArc
 50
89.9999999972
 51
179.9999999978
  0
ARC
  5
47E
100
AcDbEntity
  8
0
100
AcDbCircle
 62
7
  6
CONTINUOUS
 10
157.5389329599
 20
25.0016145299
 40
1.1
100
AcDbArc
 50
270.0000009668
 51
359.9999998755
  0
ARC
  5
47F
100
AcDbEntity
  8
0
100
AcDbCircle
 62
7
  6
CONTINUOUS
 10
160.6889329599
 20
33.0016145299
 40
0.6
100
AcDbArc
 50
180.0
 51
270.0
  0
ARC
  5
480
100
AcDbEntity
  8
0
100
AcDbCircle
 62
7
  6
CONTINUOUS
 10
161.9889329599
 20
33.0016145299
 40
0.6
100
AcDbArc
 50
270.0
 51
360.0
  0
ARC
  5
481
100
AcDbEntity
  8
0
100
AcDbCircle
 62
7
  6
CONTINUOUS
 10
160.6182681778
 20
29.8016145299
 40
0.6
100
AcDbArc
 50
90.0
 51
179.4999999691
  0
ARC
  5
482
100
AcDbEntity
  8
0
100
AcDbCircle
 62
7
  6
CONTINUOUS
 10
160.5851060802
 20
26.0016145299
 40
0.6
100
AcDbArc
 50
179.5000000301
 51
270.0
  0
ARC
  5
483
100
AcDbEntity
  8
0
100
AcDbCircle
 62
7
  6
CONTINUOUS
 10
162.0927598396
 20
26.0016145299
 40
0.6
100
AcDbArc
 50
270.0
 51
0.336803613
  0
ARC
  5
484
100
AcDbEntity
  8
0
100
AcDbCircle
 62
7
  6
CONTINUOUS
 10
162.059597742
 20
29.8016145299
 40
0.6
100
AcDbArc
 50
0.5000000297
 51
90.0
  0
ARC
  5
485
100
AcDbEntity
  8
0
100
AcDbCircle
 62
7
  6
CONTINUOUS
 10
157.5389329599
 20
25.0016145299
 40
0.6
100
AcDbArc
 50
269.9999998915
 51
360.0
  0
ARC
  5
486
100
AcDbEntity
  8
0
100
AcDbCircle
 62
7
  6
CONTINUOUS
 10
163.83504896
 20
23.5016031119
 40
0.5999885821
100
AcDbArc
 50
270.0010934865
 51
0.0111952995
  0
ARC
  5
487
100
AcDbEntity
  8
0
100
AcDbCircle
 62
7
  6
CONTINUOUS
 10
148.3389329599
 20
69.8016145299
 40
0.5
100
AcDbArc
 50
270.0
 51
360.0
  0
ARC
  5
488
100
AcDbEntity
  8
0
100
AcDbCircle
 62
7
  6
CONTINUOUS
 10
135.5389329599
 20
69.8016145299
 40
0.5
100
AcDbArc
 50
180.0
 51
270.0
  0
ARC
  5
489
100
AcDbEntity
  8
0
100
AcDbCircle
 62
7
  6
CONTINUOUS
 10
166.4389329599
 20
21.9016145299
 40
0.5
100
AcDbArc
 50
270.0
 51
360.0
  0
ARC
  5
48A
100
AcDbEntity
  8
0
100
AcDbCircle
 62
7
  6
CONTINUOUS
 10
160.6389329226
 20
82.5016145478
 40
1.1
100
AcDbArc
 50
270.0000005337
 51
359.9999998719
  0
ARC
  5
48B
100
AcDbEntity
  8
0
100
AcDbCircle
 62
7
  6
CONTINUOUS
 10
160.6389329226
 20
91.1016145478
 40
1.1
100
AcDbArc
 50
0.0000005253
 51
89.9999998677
  0
ARC
  5
48C
100
AcDbEntity
  8
0
100
AcDbCircle
 62
7
  6
CONTINUOUS
 10
161.9889329599
 20
79.3016145299
 40
0.6
100
AcDbArc
 50
0.0
 51
90.0
  0
ARC
  5
48D
100
AcDbEntity
  8
0
100
AcDbCircle
 62
7
  6
CONTINUOUS
 10
160.6889329599
 20
79.3016145299
 40
0.6
100
AcDbArc
 50
90.0
 51
180.0
  0
ARC
  5
48E
100
AcDbEntity
  8
0
100
AcDbCircle
 62
7
  6
CONTINUOUS
 10
160.6389329226
 20
91.1016145478
 40
0.6
100
AcDbArc
 50
0.0
 51
89.9999999815
  0
ARC
  5
48F
100
AcDbEntity
  8
0
100
AcDbCircle
 62
7
  6
CONTINUOUS
 10
160.6389329226
 20
82.5016145478
 40
0.6
100
AcDbArc
 50
269.9999998915
 51
360.0
  0
ARC
  5
490
100
AcDbEntity
  8
0
100
AcDbCircle
 62
7
  6
CONTINUOUS
 10
156.5389329599
 20
91.0607482002
 40
0.6
100
AcDbArc
 50
0.0
 51
90.0
  0
ARC
  5
491
100
AcDbEntity
  8
0
100
AcDbCircle
 62
7
  6
CONTINUOUS
 10
156.5389329599
 20
83.1016145302
 40
0.6
100
AcDbArc
 50
270.0
 51
360.0
  0
ARC
  5
492
100
AcDbEntity
  8
0
100
AcDbCircle
 62
7
  6
CONTINUOUS
 10
161.7389329599
 20
124.4016145299
 40
0.5
100
AcDbArc
 50
90.0
 51
180.0
  0
ARC
  5
493
100
AcDbEntity
  8
0
100
AcDbCircle
 62
7
  6
CONTINUOUS
 10
158.6928709807
 20
92.2016145478
 40
0.5
100
AcDbArc
 50
179.7
 51
269.9250001261
  0
ARC
  5
494
100
AcDbEntity
  8
0
100
AcDbCircle
 62
7
  6
CONTINUOUS
 10
158.6389329599
 20
81.4016145478
 40
0.5
100
AcDbArc
 50
90.0
 51
180.0
  0
SPLINE
  5
495
100
AcDbEntity
  8
0
100
AcDbSpline
 62
7
  6
CONTINUOUS
 70
0
 71
3
 72
8
 73
4
 74
0
 42
0.0000001
 43
0.0000001
 44
0.0000000001
 40
0.0
 40
0.0
 40
0.0
 40
0.0
 40
1.0
 40
1.0
 40
1.0
 40
1.0
 10
114.9266926033
 20
26.4016145299
 30
0.0
 10
114.9266926033
 20
29.1167960909
 30
0.0
 10
114.9348537906
 20
31.8319735634
 30
0.0
 10
114.9348537906
 20
34.5471551244
 30
0.0
  0
SPLINE
  5
496
100
AcDbEntity
  8
0
100
AcDbSpline
 62
7
  6
CONTINUOUS
 70
0
 71
3
 72
13
 73
9
 74
0
 42
0.0000001
 43
0.0000001
 44
0.0000000001
 40
0.0
 40
0.0
 40
0.0
 40
0.0
 40
0.0200543826
 40
0.071323622
 40
0.1544139177
 40
0.2686428388
 40
0.584593451
 40
1.0
 40
1.0
 40
1.0
 40
1.0
 10
117.8778079296
 20
22.9016145299
 30
0.0
 10
117.8795268956
 20
22.9016145299
 30
0.0
 10
117.8815125673
 20
22.9097906838
 30
0.0
 10
117.8839223796
 20
22.9207578275
 30
0.0
 10
117.8863785582
 20
22.9430474689
 30
0.0
 10
117.8900156914
 20
22.9862409868
 30
0.0
 10
117.8936089131
 20
23.0591227138
 30
0.0
 10
117.8955458356
 20
23.1216180648
 30
0.0
 10
117.896393537
 20
23.1572146417
 30
0.0
  0
SPLINE
  5
497
100
AcDbEntity
  8
0
100
AcDbSpline
 62
7
  6
CONTINUOUS
 70
0
 71
3
 72
8
 73
4
 74
0
 42
0.0000001
 43
0.0000001
 44
0.0000000001
 40
0.0
 40
0.0
 40
0.0
 40
0.0
 40
1.0
 40
1.0
 40
1.0
 40
1.0
 10
124.0813052289
 20
34.5471551244
 30
0.0
 10
124.0813052289
 20
31.8319735631
 30
0.0
 10
124.0894664163
 20
29.1167960902
 30
0.0
 10
124.0894664163
 20
26.4016145289
 30
0.0
  0
SPLINE
  5
498
100
AcDbEntity
  8
0
100
AcDbSpline
 62
7
  6
CONTINUOUS
 70
0
 71
3
 72
14
 73
10
 74
0
 42
0.0000001
 43
0.0000001
 44
0.0000000001
 40
0.0
 40
0.0
 40
0.0
 40
0.0
 40
0.3856895904
 40
0.5594249765
 40
0.7100353151
 40
0.8328385427
 40
0.9235079562
 40
0.9794974217
 40
1.0
 40
1.0
 40
1.0
 40
1.0
 10
120.9804929033
 20
23.4016145299
 30
0.0
 10
120.9804929033
 20
23.3371506821
 30
0.0
 10
120.9812149515
 20
23.243560353
 30
0.0
 10
120.9839060555
 20
23.1251181457
 30
0.0
 10
120.9863195441
 20
23.0499434869
 30
0.0
 10
120.9897571007
 20
22.990482973
 30
0.0
 10
120.9921582317
 20
22.9424344422
 30
0.0
 10
120.9972525422
 20
22.9204070298
 30
0.0
 10
120.9982384066
 20
22.9016145299
 30
0.0
 10
121.0016651911
 20
22.9016145299
 30
0.0
  0
SPLINE
  5
499
100
AcDbEntity
  8
0
100
AcDbSpline
 62
7
  6
CONTINUOUS
 70
0
 71
3
 72
8
 73
4
 74
0
 42
0.0000001
 43
0.0000001
 44
0.0000000001
 40
0.0
 40
0.0
 40
0.0
 40
0.0
 40
1.0
 40
1.0
 40
1.0
 40
1.0
 10
163.9350565784
 20
124.9016145299
 30
0.0
 10
164.019208417
 20
124.9016145299
 30
0.0
 10
164.1058262091
 20
124.8788421681
 30
0.0
 10
164.179333496
 20
124.837876198
 30
0.0
  0
SPLINE
  5
49A
100
AcDbEntity
  8
0
100
AcDbSpline
 62
7
  6
CONTINUOUS
 70
0
 71
3
 72
9
 73
5
 74
0
 42
0.0000001
 43
0.0000001
 44
0.0000000001
 40
0.0
 40
0.0
 40
0.0
 40
0.0
 40
0.499783094
 40
1.0
 40
1.0
 40
1.0
 40
1.0
 10
164.179333496
 20
124.837876198
 30
0.0
 10
164.2555826092
 20
124.7953821948
 30
0.0
 10
164.38742865
 20
124.6667818908
 30
0.0
 10
164.43503754
 20
124.4889810056
 30
0.0
 10
164.43503754
 20
124.4016145299
 30
0.0
  0
SPLINE
  5
49B
100
AcDbEntity
  8
0
100
AcDbSpline
 62
7
  6
CONTINUOUS
 70
0
 71
3
 72
9
 73
5
 74
0
 42
0.0000001
 43
0.0000001
 44
0.0000000001
 40
0.0
 40
0.0
 40
0.0
 40
0.0
 40
0.4836764316
 40
1.0
 40
1.0
 40
1.0
 40
1.0
 10
147.7835425839
 20
69.2984809852
 30
0.0
 10
147.8473625985
 20
69.2967718654
 30
0.0
 10
147.9822395263
 20
69.3297602193
 30
0.0
 10
148.0829400003
 20
69.4236701899
 30
0.0
 10
148.1219568087
 20
69.4795486749
 30
0.0
  0
SPLINE
  5
49C
100
AcDbEntity
  8
0
100
AcDbSpline
 62
7
  6
CONTINUOUS
 70
0
 71
3
 72
8
 73
4
 74
0
 42
0.0000001
 43
0.0000001
 44
0.0000000001
 40
0.0
 40
0.0
 40
0.0
 40
0.0
 40
1.0
 40
1.0
 40
1.0
 40
1.0
 10
148.1219568087
 20
69.4795486749
 30
0.0
 10
148.1628649243
 20
69.5381358226
 30
0.0
 10
148.1913483248
 20
69.6067492264
 30
0.0
 10
148.2063142233
 20
69.6766201766
 30
0.0
  0
SPLINE
  5
49D
100
AcDbEntity
  8
0
100
AcDbSpline
 62
7
  6
CONTINUOUS
 70
0
 71
3
 72
9
 73
5
 74
0
 42
0.0000001
 43
0.0000001
 44
0.0000000001
 40
0.0
 40
0.0
 40
0.0
 40
0.0
 40
0.1860483614
 40
1.0
 40
1.0
 40
1.0
 40
1.0
 10
146.7435923323
 20
69.3016146443
 30
0.0
 10
146.7685575044
 20
69.30165668
 30
0.0
 10
146.9027233887
 20
69.3048071113
 30
0.0
 10
147.0369227355
 20
69.3016145299
 30
0.0
 10
147.1461441842
 20
69.3016145299
 30
0.0
  0
SPLINE
  5
49E
100
AcDbEntity
  8
0
100
AcDbSpline
 62
7
  6
CONTINUOUS
 70
0
 71
3
 72
9
 73
5
 74
0
 42
0.0000001
 43
0.0000001
 44
0.0000000001
 40
0.0
 40
0.0
 40
0.0
 40
0.0
 40
0.5187400134
 40
1.0
 40
1.0
 40
1.0
 40
1.0
 10
135.6715516965
 20
69.6766201762
 30
0.0
 10
135.6862476623
 20
69.608009455
 30
0.0
 10
135.7383366399
 20
69.4788716603
 30
0.0
 10
135.8401139035
 20
69.3822937892
 30
0.0
 10
135.8962775004
 20
69.3493802208
 30
0.0
  0
SPLINE
  5
49F
100
AcDbEntity
  8
0
100
AcDbSpline
 62
7
  6
CONTINUOUS
 70
0
 71
3
 72
9
 73
5
 74
0
 42
0.0000001
 43
0.0000001
 44
0.0000000001
 40
0.0
 40
0.0
 40
0.0
 40
0.0
 40
0.2568151269
 40
1.0
 40
1.0
 40
1.0
 40
1.0
 10
135.8962775004
 20
69.3493802208
 30
0.0
 10
135.9119403466
 20
69.3402013187
 30
0.0
 10
135.9750383913
 20
69.3083083079
 30
0.0
 10
136.0470625878
 20
69.2930814845
 30
0.0
 10
136.099579481
 20
69.2944879022
 30
0.0
  0
SPLINE
  5
4A0
100
AcDbEntity
  8
0
100
AcDbSpline
 62
7
  6
CONTINUOUS
 70
0
 71
3
 72
9
 73
5
 74
0
 42
0.0000001
 43
0.0000001
 44
0.0000000001
 40
0.0
 40
0.0
 40
0.0
 40
0.0
 40
0.5201129316
 40
1.0
 40
1.0
 40
1.0
 40
1.0
 10
45.6715516965
 20
69.6766201763
 30
0.0
 10
45.6873158528
 20
69.6030224181
 30
0.0
 10
45.7450269663
 20
69.464841607
 30
0.0
 10
45.8596707499
 20
69.3664802142
 30
0.0
 10
45.9218455247
 20
69.3355442862
 30
0.0
  0
SPLINE
  5
4A1
100
AcDbEntity
  8
0
100
AcDbSpline
 62
7
  6
CONTINUOUS
 70
0
 71
3
 72
8
 73
4
 74
0
 42
0.0000001
 43
0.0000001
 44
0.0000000001
 40
0.0
 40
0.0
 40
0.0
 40
0.0
 40
1.0
 40
1.0
 40
1.0
 40
1.0
 10
45.9218455247
 20
69.3355442862
 30
0.0
 10
45.9762839107
 20
69.3084577067
 30
0.0
 10
46.0387964985
 20
69.2928601161
 30
0.0
 10
46.0995794811
 20
69.2944879022
 30
0.0
  0
SPLINE
  5
4A2
100
AcDbEntity
  8
0
100
AcDbSpline
 62
7
  6
CONTINUOUS
 70
0
 71
3
 72
9
 73
5
 74
0
 42
0.0000001
 43
0.0000001
 44
0.0000000001
 40
0.0
 40
0.0
 40
0.0
 40
0.0
 40
0.1860483615
 40
1.0
 40
1.0
 40
1.0
 40
1.0
 10
56.7435923322
 20
69.3016146443
 30
0.0
 10
56.7685575044
 20
69.30165668
 30
0.0
 10
56.9027233888
 20
69.3048071112
 30
0.0
 10
57.0369227358
 20
69.3016145299
 30
0.0
 10
57.1461441846
 20
69.3016145299
 30
0.0
  0
SPLINE
  5
4A3
100
AcDbEntity
  8
0
100
AcDbSpline
 62
7
  6
CONTINUOUS
 70
0
 71
3
 72
9
 73
5
 74
0
 42
0.0000001
 43
0.0000001
 44
0.0000000001
 40
0.0
 40
0.0
 40
0.0
 40
0.0
 40
0.4836764316
 40
1.0
 40
1.0
 40
1.0
 40
1.0
 10
57.783542584
 20
69.2984809852
 30
0.0
 10
57.8473625986
 20
69.2967718654
 30
0.0
 10
57.9822395263
 20
69.3297602193
 30
0.0
 10
58.0829400004
 20
69.4236701899
 30
0.0
 10
58.1219568088
 20
69.4795486749
 30
0.0
  0
SPLINE
  5
4A4
100
AcDbEntity
  8
0
100
AcDbSpline
 62
7
  6
CONTINUOUS
 70
0
 71
3
 72
8
 73
4
 74
0
 42
0.0000001
 43
0.0000001
 44
0.0000000001
 40
0.0
 40
0.0
 40
0.0
 40
0.0
 40
1.0
 40
1.0
 40
1.0
 40
1.0
 10
58.1219568088
 20
69.4795486749
 30
0.0
 10
58.1628649243
 20
69.5381358226
 30
0.0
 10
58.1913483247
 20
69.6067492263
 30
0.0
 10
58.2063142233
 20
69.6766201764
 30
0.0
  0
SPLINE
  5
4A5
100
AcDbEntity
  8
0
100
AcDbSpline
 62
7
  6
CONTINUOUS
 70
0
 71
3
 72
8
 73
4
 74
0
 42
0.0000001
 43
0.0000001
 44
0.0000000001
 40
0.0
 40
0.0
 40
0.0
 40
0.0
 40
1.0
 40
1.0
 40
1.0
 40
1.0
 10
164.5347806179
 20
124.4016145299
 30
0.0
 10
164.5347806179
 20
124.4878873249
 30
0.0
 10
164.5107748588
 20
124.5768094384
 30
0.0
 10
164.4677958705
 20
124.6516145299
 30
0.0
  0
SPLINE
  5
4A6
100
AcDbEntity
  8
0
100
AcDbSpline
 62
7
  6
CONTINUOUS
 70
0
 71
3
 72
8
 73
4
 74
0
 42
0.0000001
 43
0.0000001
 44
0.0000000001
 40
0.0
 40
0.0
 40
0.0
 40
0.0
 40
1.0
 40
1.0
 40
1.0
 40
1.0
 10
164.4677958705
 20
124.6516145299
 30
0.0
 10
164.4248175907
 20
124.726418388
 30
0.0
 10
164.3595925814
 20
124.7916464913
 30
0.0
 10
164.2847901371
 20
124.8346272318
 30
0.0
  0
SPLINE
  5
4A7
100
AcDbEntity
  8
0
100
AcDbSpline
 62
7
  6
CONTINUOUS
 70
0
 71
3
 72
8
 73
4
 74
0
 42
0.0000001
 43
0.0000001
 44
0.0000000001
 40
0.0
 40
0.0
 40
0.0
 40
0.0
 40
1.0
 40
1.0
 40
1.0
 40
1.0
 10
164.2847901371
 20
124.8346272318
 30
0.0
 10
164.2099889262
 20
124.8776072636
 30
0.0
 10
164.1210696064
 20
124.9016145299
 30
0.0
 10
164.0347996563
 20
124.9016145299
 30
0.0
  0
SPLINE
  5
4A8
100
AcDbEntity
  8
0
100
AcDbSpline
 62
7
  6
CONTINUOUS
 70
0
 71
3
 72
9
 73
5
 74
0
 42
0.0000001
 43
0.0000001
 44
0.0000000001
 40
0.0
 40
0.0
 40
0.0
 40
0.0
 40
0.4999958779
 40
1.0
 40
1.0
 40
1.0
 40
1.0
 10
29.8430662634
 20
124.9016145299
 30
0.0
 10
29.7567963133
 20
124.9016145299
 30
0.0
 10
29.5812267399
 20
124.8552365603
 30
0.0
 10
29.453048329
 20
124.726418388
 30
0.0
 10
29.4100700493
 20
124.6516145299
 30
0.0
  0
SPLINE
  5
4A9
100
AcDbEntity
  8
0
100
AcDbSpline
 62
7
  6
CONTINUOUS
 70
0
 71
3
 72
8
 73
4
 74
0
 42
0.0000001
 43
0.0000001
 44
0.0000000001
 40
0.0
 40
0.0
 40
0.0
 40
0.0
 40
1.0
 40
1.0
 40
1.0
 40
1.0
 10
29.4100700493
 20
124.6516145299
 30
0.0
 10
29.3670910609
 20
124.5768094384
 30
0.0
 10
29.3430853019
 20
124.4878873249
 30
0.0
 10
29.3430853019
 20
124.4016145299
 30
0.0
  0
SPLINE
  5
4AA
100
AcDbEntity
  8
0
100
AcDbSpline
 62
7
  6
CONTINUOUS
 70
0
 71
3
 72
9
 73
5
 74
0
 42
0.0000001
 43
0.0000001
 44
0.0000000001
 40
0.0
 40
0.0
 40
0.0
 40
0.0
 40
0.4836764316
 40
1.0
 40
1.0
 40
1.0
 40
1.0
 10
102.783542584
 20
69.2984809852
 30
0.0
 10
102.8473625986
 20
69.2967718654
 30
0.0
 10
102.9822395263
 20
69.3297602193
 30
0.0
 10
103.0829400004
 20
69.4236701899
 30
0.0
 10
103.1219568088
 20
69.4795486749
 30
0.0
  0
SPLINE
  5
4AB
100
AcDbEntity
  8
0
100
AcDbSpline
 62
7
  6
CONTINUOUS
 70
0
 71
3
 72
8
 73
4
 74
0
 42
0.0000001
 43
0.0000001
 44
0.0000000001
 40
0.0
 40
0.0
 40
0.0
 40
0.0
 40
1.0
 40
1.0
 40
1.0
 40
1.0
 10
103.1219568088
 20
69.4795486749
 30
0.0
 10
103.1628649243
 20
69.5381358226
 30
0.0
 10
103.1913483247
 20
69.6067492262
 30
0.0
 10
103.2063142232
 20
69.6766201763
 30
0.0
  0
SPLINE
  5
4AC
100
AcDbEntity
  8
0
100
AcDbSpline
 62
7
  6
CONTINUOUS
 70
0
 71
3
 72
9
 73
5
 74
0
 42
0.0000001
 43
0.0000001
 44
0.0000000001
 40
0.0
 40
0.0
 40
0.0
 40
0.0
 40
0.1860483614
 40
1.0
 40
1.0
 40
1.0
 40
1.0
 10
101.7435923322
 20
69.3016146443
 30
0.0
 10
101.7685575044
 20
69.30165668
 30
0.0
 10
101.9027233888
 20
69.3048071112
 30
0.0
 10
102.0369227358
 20
69.3016145299
 30
0.0
 10
102.1461441846
 20
69.3016145299
 30
0.0
  0
SPLINE
  5
4AD
100
AcDbEntity
  8
0
100
AcDbSpline
 62
7
  6
CONTINUOUS
 70
0
 71
3
 72
9
 73
5
 74
0
 42
0.0000001
 43
0.0000001
 44
0.0000000001
 40
0.0
 40
0.0
 40
0.0
 40
0.0
 40
0.5187400134
 40
1.0
 40
1.0
 40
1.0
 40
1.0
 10
90.6715516965
 20
69.6766201763
 30
0.0
 10
90.6862476623
 20
69.608009455
 30
0.0
 10
90.7383366398
 20
69.4788716604
 30
0.0
 10
90.8401139035
 20
69.3822937892
 30
0.0
 10
90.8962775004
 20
69.3493802208
 30
0.0
  0
SPLINE
  5
4AE
100
AcDbEntity
  8
0
100
AcDbSpline
 62
7
  6
CONTINUOUS
 70
0
 71
3
 72
9
 73
5
 74
0
 42
0.0000001
 43
0.0000001
 44
0.0000000001
 40
0.0
 40
0.0
 40
0.0
 40
0.0
 40
0.2568151269
 40
1.0
 40
1.0
 40
1.0
 40
1.0
 10
90.8962775004
 20
69.3493802208
 30
0.0
 10
90.9119403466
 20
69.3402013187
 30
0.0
 10
90.9750383914
 20
69.3083083079
 30
0.0
 10
91.0470625879
 20
69.2930814844
 30
0.0
 10
91.0995794811
 20
69.2944879022
 30
0.0
  0
SPLINE
  5
4AF
100
AcDbEntity
  8
0
100
AcDbSpline
 62
7
  6
CONTINUOUS
 70
0
 71
3
 72
12
 73
8
 74
0
 42
0.0000001
 43
0.0000001
 44
0.0000000001
 40
0.0
 40
0.0
 40
0.0
 40
0.0
 40
0.3726579954
 40
0.6886264315
 40
0.9014023386
 40
0.9635804029
 40
1.0
 40
1.0
 40
1.0
 40
1.0
 10
37.3389329598
 20
83.0015963779
 30
0.0
 10
37.2617787742
 20
83.0015967646
 30
0.0
 10
37.1189716075
 20
83.0064286081
 30
0.0
 10
36.9337801944
 20
83.0246389437
 30
0.0
 10
36.8123230781
 20
83.0507135066
 30
0.0
 10
36.754100203
 20
83.0762291775
 30
0.0
 10
36.7389637083
 20
83.0940597508
 30
0.0
 10
36.7389329672
 20
83.101599911
 30
0.0
  0
SPLINE
  5
4B0
100
AcDbEntity
  8
0
100
AcDbSpline
 62
7
  6
CONTINUOUS
 70
0
 71
3
 72
12
 73
8
 74
0
 42
0.0000001
 43
0.0000001
 44
0.0000000001
 40
0.0
 40
0.0
 40
0.0
 40
0.0
 40
0.3712629585
 40
0.6868103568
 40
0.9013910225
 40
0.9633597242
 40
1.0
 40
1.0
 40
1.0
 40
1.0
 10
37.3389329599
 20
91.1607481916
 30
0.0
 10
37.2620484139
 20
91.1617742568
 30
0.0
 10
37.1195942126
 20
91.1557993386
 30
0.0
 10
36.9342066567
 20
91.1376353792
 30
0.0
 10
36.8127965025
 20
91.1116136191
 30
0.0
 10
36.7536415038
 20
91.0864886911
 30
0.0
 10
36.7389329599
 20
91.068336681
 30
0.0
 10
36.7389329599
 20
91.0607482002
 30
0.0
  0
SPLINE
  5
4B1
100
AcDbEntity
  8
0
100
AcDbSpline
 62
7
  6
CONTINUOUS
 70
0
 71
3
 72
9
 73
5
 74
0
 42
0.0000001
 43
0.0000001
 44
0.0000000001
 40
0.0
 40
0.0
 40
0.0
 40
0.0
 40
0.077466356
 40
1.0
 40
1.0
 40
1.0
 40
1.0
 10
69.2212877076
 20
91.6607481953
 30
0.0
 10
69.2188644784
 20
91.6735949521
 30
0.0
 10
69.1880609984
 20
91.8395199983
 30
0.0
 10
69.1631087485
 20
92.0065143896
 30
0.0
 10
69.1418900175
 20
92.1607481953
 30
0.0
  0
SPLINE
  5
4B2
100
AcDbEntity
  8
0
100
AcDbSpline
 62
7
  6
CONTINUOUS
 70
0
 71
3
 72
12
 73
8
 74
0
 42
0.0000001
 43
0.0000001
 44
0.0000000001
 40
0.0
 40
0.0
 40
0.0
 40
0.0
 40
0.3726579954
 40
0.6886264315
 40
0.9014023386
 40
0.9635804029
 40
1.0
 40
1.0
 40
1.0
 40
1.0
 10
66.53893296
 20
91.1607663525
 30
0.0
 10
66.6160871455
 20
91.1607659657
 30
0.0
 10
66.7588943122
 20
91.1559341223
 30
0.0
 10
66.9440857253
 20
91.1377237866
 30
0.0
 10
67.0655428417
 20
91.1116492238
 30
0.0
 10
67.1237657168
 20
91.0861335529
 30
0.0
 10
67.1389022115
 20
91.0683029795
 30
0.0
 10
67.1389329525
 20
91.0607628193
 30
0.0
  0
SPLINE
  5
4B3
100
AcDbEntity
  8
0
100
AcDbSpline
 62
7
  6
CONTINUOUS
 70
0
 71
3
 72
12
 73
8
 74
0
 42
0.0000001
 43
0.0000001
 44
0.0000000001
 40
0.0
 40
0.0
 40
0.0
 40
0.0
 40
0.3712629585
 40
0.6868103568
 40
0.9013910225
 40
0.9633597242
 40
1.0
 40
1.0
 40
1.0
 40
1.0
 10
66.5389329599
 20
83.0016145387
 30
0.0
 10
66.6158175059
 20
83.0005884736
 30
0.0
 10
66.7582717072
 20
83.0065633918
 30
0.0
 10
66.943659263
 20
83.0247273511
 30
0.0
 10
67.0650694173
 20
83.0507491112
 30
0.0
 10
67.124224416
 20
83.0758740393
 30
0.0
 10
67.1389329599
 20
83.0940260494
 30
0.0
 10
67.1389329599
 20
83.1016145302
 30
0.0
  0
SPLINE
  5
4B4
100
AcDbEntity
  8
0
100
AcDbSpline
 62
7
  6
CONTINUOUS
 70
0
 71
3
 72
12
 73
8
 74
0
 42
0.0000001
 43
0.0000001
 44
0.0000000001
 40
0.0
 40
0.0
 40
0.0
 40
0.0
 40
0.3712629585
 40
0.6868103568
 40
0.9013910225
 40
0.9633597242
 40
1.0
 40
1.0
 40
1.0
 40
1.0
 10
127.3389329599
 20
91.1607481916
 30
0.0
 10
127.2620484139
 20
91.1617742568
 30
0.0
 10
127.1195942126
 20
91.1557993386
 30
0.0
 10
126.9342066567
 20
91.1376353792
 30
0.0
 10
126.8127965025
 20
91.1116136191
 30
0.0
 10
126.7536415038
 20
91.0864886911
 30
0.0
 10
126.7389329599
 20
91.068336681
 30
0.0
 10
126.7389329599
 20
91.0607482002
 30
0.0
  0
SPLINE
  5
4B5
100
AcDbEntity
  8
0
100
AcDbSpline
 62
7
  6
CONTINUOUS
 70
0
 71
3
 72
9
 73
5
 74
0
 42
0.0000001
 43
0.0000001
 44
0.0000000001
 40
0.0
 40
0.0
 40
0.0
 40
0.0
 40
0.5101756129
 40
1.0
 40
1.0
 40
1.0
 40
1.0
 10
45.4580049088
 20
69.8016145299
 30
0.0
 10
45.4580049088
 20
69.715849515
 30
0.0
 10
45.497868999
 20
69.5450688863
 30
0.0
 10
45.6155034572
 20
69.4128684259
 30
0.0
 10
45.6850899288
 20
69.3688431664
 30
0.0
  0
SPLINE
  5
4B6
100
AcDbEntity
  8
0
100
AcDbSpline
 62
7
  6
CONTINUOUS
 70
0
 71
3
 72
9
 73
5
 74
0
 42
0.0000001
 43
0.0000001
 44
0.0000000001
 40
0.0
 40
0.0
 40
0.0
 40
0.0
 40
0.2548332425
 40
1.0
 40
1.0
 40
1.0
 40
1.0
 10
45.6850899288
 20
69.3688431664
 30
0.0
 10
45.7022831094
 20
69.3579655601
 30
0.0
 10
45.7726023875
 20
69.3199971685
 30
0.0
 10
45.8536519172
 20
69.3016145299
 30
0.0
 10
45.9131440691
 20
69.3016145299
 30
0.0
  0
SPLINE
  5
4B7
100
AcDbEntity
  8
0
100
AcDbSpline
 62
7
  6
CONTINUOUS
 70
0
 71
3
 72
9
 73
5
 74
0
 42
0.0000001
 43
0.0000001
 44
0.0000000001
 40
0.0
 40
0.0
 40
0.0
 40
0.0
 40
0.2621786355
 40
1.0
 40
1.0
 40
1.0
 40
1.0
 10
46.7882455507
 20
69.6766201764
 30
0.0
 10
46.7947295063
 20
69.6463486806
 30
0.0
 10
46.8288287744
 20
69.5336055018
 30
0.0
 10
46.8993181613
 20
69.4279236383
 30
0.0
 10
46.9703031138
 20
69.3774122296
 30
0.0
  0
SPLINE
  5
4B8
100
AcDbEntity
  8
0
100
AcDbSpline
 62
7
  6
CONTINUOUS
 70
0
 71
3
 72
8
 73
4
 74
0
 42
0.0000001
 43
0.0000001
 44
0.0000000001
 40
0.0
 40
0.0
 40
0.0
 40
0.0
 40
1.0
 40
1.0
 40
1.0
 40
1.0
 10
46.9703031138
 20
69.3774122296
 30
0.0
 10
46.9953973156
 20
69.35955572
 30
0.0
 10
47.0232123022
 20
69.3452232888
 30
0.0
 10
47.0519672725
 20
69.3341903569
 30
0.0
  0
SPLINE
  5
4B9
100
AcDbEntity
  8
0
100
AcDbSpline
 62
7
  6
CONTINUOUS
 70
0
 71
3
 72
8
 73
4
 74
0
 42
0.0000001
 43
0.0000001
 44
0.0000000001
 40
0.0
 40
0.0
 40
0.0
 40
0.0
 40
1.0
 40
1.0
 40
1.0
 40
1.0
 10
47.0519672725
 20
69.3341903569
 30
0.0
 10
47.0694541481
 20
69.3274808557
 30
0.0
 10
47.0874072177
 20
69.3219152095
 30
0.0
 10
47.1055651669
 20
69.3173220509
 30
0.0
  0
SPLINE
  5
4BA
100
AcDbEntity
  8
0
100
AcDbSpline
 62
7
  6
CONTINUOUS
 70
0
 71
3
 72
9
 73
5
 74
0
 42
0.0000001
 43
0.0000001
 44
0.0000000001
 40
0.0
 40
0.0
 40
0.0
 40
0.0
 40
0.3603047884
 40
1.0
 40
1.0
 40
1.0
 40
1.0
 10
47.1043749385
 20
69.3122734215
 30
0.0
 10
47.1073714197
 20
69.3109698091
 30
0.0
 10
47.1157839413
 20
69.3075803223
 30
0.0
 10
47.1242598804
 20
69.304331517
 30
0.0
 10
47.1297788602
 20
69.3025425446
 30
0.0
  0
SPLINE
  5
4BB
100
AcDbEntity
  8
0
100
AcDbSpline
 62
7
  6
CONTINUOUS
 70
0
 71
3
 72
9
 73
5
 74
0
 42
0.0000001
 43
0.0000001
 44
0.0000000001
 40
0.0
 40
0.0
 40
0.0
 40
0.0
 40
0.5121023134
 40
1.0
 40
1.0
 40
1.0
 40
1.0
 10
57.044442698
 20
69.8016145299
 30
0.0
 10
57.044442698
 20
69.7337220894
 30
0.0
 10
57.0231995844
 20
69.598858431
 30
0.0
 10
56.9504052222
 20
69.4846670506
 30
0.0
 10
56.9097072359
 20
69.4343915323
 30
0.0
  0
SPLINE
  5
4BC
100
AcDbEntity
  8
0
100
AcDbSpline
 62
7
  6
CONTINUOUS
 70
0
 71
3
 72
9
 73
5
 74
0
 42
0.0000001
 43
0.0000001
 44
0.0000000001
 40
0.0
 40
0.0
 40
0.0
 40
0.0
 40
0.2612118061
 40
1.0
 40
1.0
 40
1.0
 40
1.0
 10
56.9097072359
 20
69.4343915323
 30
0.0
 10
56.8997977343
 20
69.4221500095
 30
0.0
 10
56.8608440332
 20
69.3764607584
 30
0.0
 10
56.8133902488
 20
69.3353770084
 30
0.0
 10
56.7725083519
 20
69.3176871183
 30
0.0
  0
SPLINE
  5
4BD
100
AcDbEntity
  8
0
100
AcDbSpline
 62
7
  6
CONTINUOUS
 70
0
 71
3
 72
9
 73
5
 74
0
 42
0.0000001
 43
0.0000001
 44
0.0000000001
 40
0.0
 40
0.0
 40
0.0
 40
0.0
 40
0.6819635719
 40
1.0
 40
1.0
 40
1.0
 40
1.0
 10
56.7737534157
 20
69.3123399471
 30
0.0
 10
56.7673697817
 20
69.3088008957
 30
0.0
 10
56.7646317946
 20
69.305333987
 30
0.0
 10
56.7401893845
 20
69.3015330328
 30
0.0
 10
56.7435923322
 20
69.3016146443
 30
0.0
  0
SPLINE
  5
4BE
100
AcDbEntity
  8
0
100
AcDbSpline
 62
7
  6
CONTINUOUS
 70
0
 71
3
 72
9
 73
5
 74
0
 42
0.0000001
 43
0.0000001
 44
0.0000000001
 40
0.0
 40
0.0
 40
0.0
 40
0.0
 40
0.4848814838
 40
1.0
 40
1.0
 40
1.0
 40
1.0
 10
47.1055651669
 20
69.3173220509
 30
0.0
 10
47.0495495932
 20
69.3415080113
 30
0.0
 10
46.9583705722
 20
69.4365973684
 30
0.0
 10
46.8902590077
 20
69.543073559
 30
0.0
 10
46.8676267715
 20
69.6038128107
 30
0.0
  0
SPLINE
  5
4BF
100
AcDbEntity
  8
0
100
AcDbSpline
 62
7
  6
CONTINUOUS
 70
0
 71
3
 72
8
 73
4
 74
0
 42
0.0000001
 43
0.0000001
 44
0.0000000001
 40
0.0
 40
0.0
 40
0.0
 40
0.0
 40
1.0
 40
1.0
 40
1.0
 40
1.0
 10
46.8676267715
 20
69.6038128107
 30
0.0
 10
46.8442635309
 20
69.6665138951
 30
0.0
 10
46.8334232217
 20
69.734702147
 30
0.0
 10
46.8334232217
 20
69.8016145299
 30
0.0
  0
SPLINE
  5
4C0
100
AcDbEntity
  8
0
100
AcDbSpline
 62
7
  6
CONTINUOUS
 70
0
 71
3
 72
9
 73
5
 74
0
 42
0.0000001
 43
0.0000001
 44
0.0000000001
 40
0.0
 40
0.0
 40
0.0
 40
0.0
 40
0.4824494648
 40
1.0
 40
1.0
 40
1.0
 40
1.0
 10
56.7725083519
 20
69.3176871183
 30
0.0
 10
56.8221877664
 20
69.33029426
 30
0.0
 10
56.9234548451
 20
69.3726274046
 30
0.0
 10
56.9933253853
 20
69.4576812299
 30
0.0
 10
57.0217597807
 20
69.5047411135
 30
0.0
  0
SPLINE
  5
4C1
100
AcDbEntity
  8
0
100
AcDbSpline
 62
7
  6
CONTINUOUS
 70
0
 71
3
 72
8
 73
4
 74
0
 42
0.0000001
 43
0.0000001
 44
0.0000000001
 40
0.0
 40
0.0
 40
0.0
 40
0.0
 40
1.0
 40
1.0
 40
1.0
 40
1.0
 10
57.0217597807
 20
69.5047411135
 30
0.0
 10
57.0536143951
 20
69.557461575
 30
0.0
 10
57.0767193658
 20
69.6163895559
 30
0.0
 10
57.089620369
 20
69.6766201764
 30
0.0
  0
SPLINE
  5
4C2
100
AcDbEntity
  8
0
100
AcDbSpline
 62
7
  6
CONTINUOUS
 70
0
 71
3
 72
12
 73
8
 74
0
 42
0.0000001
 43
0.0000001
 44
0.0000000001
 40
0.0
 40
0.0
 40
0.0
 40
0.0
 40
0.3726579954
 40
0.6886264315
 40
0.9014023386
 40
0.9635804029
 40
1.0
 40
1.0
 40
1.0
 40
1.0
 10
156.53893296
 20
91.1607663525
 30
0.0
 10
156.6160871455
 20
91.1607659657
 30
0.0
 10
156.7588943122
 20
91.1559341223
 30
0.0
 10
156.9440857253
 20
91.1377237866
 30
0.0
 10
157.0655428417
 20
91.1116492238
 30
0.0
 10
157.1237657168
 20
91.0861335529
 30
0.0
 10
157.1389022115
 20
91.0683029795
 30
0.0
 10
157.1389329525
 20
91.0607628193
 30
0.0
  0
SPLINE
  5
4C3
100
AcDbEntity
  8
0
100
AcDbSpline
 62
7
  6
CONTINUOUS
 70
0
 71
3
 72
12
 73
8
 74
0
 42
0.0000001
 43
0.0000001
 44
0.0000000001
 40
0.0
 40
0.0
 40
0.0
 40
0.0
 40
0.3712629585
 40
0.6868103568
 40
0.9013910225
 40
0.9633597242
 40
1.0
 40
1.0
 40
1.0
 40
1.0
 10
156.5389329599
 20
83.0016145387
 30
0.0
 10
156.6158175059
 20
83.0005884736
 30
0.0
 10
156.7582717072
 20
83.0065633918
 30
0.0
 10
156.943659263
 20
83.0247273511
 30
0.0
 10
157.0650694173
 20
83.0507491112
 30
0.0
 10
157.124224416
 20
83.0758740393
 30
0.0
 10
157.1389329599
 20
83.0940260494
 30
0.0
 10
157.1389329599
 20
83.1016145302
 30
0.0
  0
SPLINE
  5
4C4
100
AcDbEntity
  8
0
100
AcDbSpline
 62
7
  6
CONTINUOUS
 70
0
 71
3
 72
9
 73
5
 74
0
 42
0.0000001
 43
0.0000001
 44
0.0000000001
 40
0.0
 40
0.0
 40
0.0
 40
0.0
 40
0.5101757344
 40
1.0
 40
1.0
 40
1.0
 40
1.0
 10
58.4198612858
 20
69.8016145299
 30
0.0
 10
58.4198612858
 20
69.715848032
 30
0.0
 10
58.3799958829
 20
69.5450642904
 30
0.0
 10
58.2623571095
 20
69.4128631698
 30
0.0
 10
58.1927686321
 20
69.3688384925
 30
0.0
  0
SPLINE
  5
4C5
100
AcDbEntity
  8
0
100
AcDbSpline
 62
7
  6
CONTINUOUS
 70
0
 71
3
 72
9
 73
5
 74
0
 42
0.0000001
 43
0.0000001
 44
0.0000000001
 40
0.0
 40
0.0
 40
0.0
 40
0.0
 40
0.2548330958
 40
1.0
 40
1.0
 40
1.0
 40
1.0
 10
58.1927686321
 20
69.3688384925
 30
0.0
 10
58.1755758869
 20
69.3579616191
 30
0.0
 10
58.1052585787
 20
69.3199957737
 30
0.0
 10
58.0242120866
 20
69.3016145299
 30
0.0
 10
57.9647221106
 20
69.3016145299
 30
0.0
  0
SPLINE
  5
4C6
100
AcDbEntity
  8
0
100
AcDbSpline
 62
7
  6
CONTINUOUS
 70
0
 71
3
 72
12
 73
8
 74
0
 42
0.0000001
 43
0.0000001
 44
0.0000000001
 40
0.0
 40
0.0
 40
0.0
 40
0.0
 40
0.3726579954
 40
0.6886264315
 40
0.9014023386
 40
0.9635804029
 40
1.0
 40
1.0
 40
1.0
 40
1.0
 10
127.3389329598
 20
83.0015963779
 30
0.0
 10
127.2617787742
 20
83.0015967646
 30
0.0
 10
127.1189716075
 20
83.0064286081
 30
0.0
 10
126.9337801944
 20
83.0246389437
 30
0.0
 10
126.8123230781
 20
83.0507135066
 30
0.0
 10
126.754100203
 20
83.0762291775
 30
0.0
 10
126.7389637083
 20
83.0940597508
 30
0.0
 10
126.7389329672
 20
83.101599911
 30
0.0
  0
SPLINE
  5
4C7
100
AcDbEntity
  8
0
100
AcDbSpline
 62
7
  6
CONTINUOUS
 70
0
 71
3
 72
9
 73
5
 74
0
 42
0.0000001
 43
0.0000001
 44
0.0000000001
 40
0.0
 40
0.0
 40
0.0
 40
0.0
 40
0.2621272994
 40
1.0
 40
1.0
 40
1.0
 40
1.0
 10
121.8401840262
 20
124.4016145299
 30
0.0
 10
121.806356894
 20
124.433039797
 30
0.0
 10
121.6765079663
 20
124.5520535573
 30
0.0
 10
121.5464816375
 20
124.6709225135
 30
0.0
 10
121.4484586987
 20
124.75626785
 30
0.0
  0
SPLINE
  5
4C8
100
AcDbEntity
  8
0
100
AcDbSpline
 62
7
  6
CONTINUOUS
 70
0
 71
3
 72
11
 73
7
 74
0
 42
0.0000001
 43
0.0000001
 44
0.0000000001
 40
0.0
 40
0.0
 40
0.0
 40
0.0
 40
0.3545576273
 40
0.6539340567
 40
0.8764564753
 40
1.0
 40
1.0
 40
1.0
 40
1.0
 10
121.4484586987
 20
124.75626785
 30
0.0
 10
121.4265402428
 20
124.7753515258
 30
0.0
 10
121.3858930721
 20
124.8100271571
 30
0.0
 10
121.329826256
 20
124.8559670982
 30
0.0
 10
121.2874040836
 20
124.8852967036
 30
0.0
 10
121.2617238088
 20
124.9016145299
 30
0.0
 10
121.2515972922
 20
124.9016145299
 30
0.0
  0
SPLINE
  5
4C9
100
AcDbEntity
  8
0
100
AcDbSpline
 62
7
  6
CONTINUOUS
 70
0
 71
3
 72
9
 73
5
 74
0
 42
0.0000001
 43
0.0000001
 44
0.0000000001
 40
0.0
 40
0.0
 40
0.0
 40
0.0
 40
0.5101807996
 40
1.0
 40
1.0
 40
1.0
 40
1.0
 10
135.4580049088
 20
69.8016145299
 30
0.0
 10
135.4580049088
 20
69.7158066521
 30
0.0
 10
135.4979097169
 20
69.5449391952
 30
0.0
 10
135.6156605042
 20
69.4127126035
 30
0.0
 10
135.6853047695
 20
69.3687049434
 30
0.0
  0
SPLINE
  5
4CA
100
AcDbEntity
  8
0
100
AcDbSpline
 62
7
  6
CONTINUOUS
 70
0
 71
3
 72
9
 73
5
 74
0
 42
0.0000001
 43
0.0000001
 44
0.0000000001
 40
0.0
 40
0.0
 40
0.0
 40
0.0
 40
0.2548262611
 40
1.0
 40
1.0
 40
1.0
 40
1.0
 10
135.6853047695
 20
69.3687049434
 30
0.0
 10
135.7024855485
 20
69.3578485451
 30
0.0
 10
135.7727502148
 20
69.319954788
 30
0.0
 10
135.8537135254
 20
69.3016145299
 30
0.0
 10
135.9131440691
 20
69.3016145299
 30
0.0
  0
SPLINE
  5
4CB
100
AcDbEntity
  8
0
100
AcDbSpline
 62
7
  6
CONTINUOUS
 70
0
 71
3
 72
11
 73
7
 74
0
 42
0.0000001
 43
0.0000001
 44
0.0000000001
 40
0.0
 40
0.0
 40
0.0
 40
0.0
 40
0.123717276
 40
0.3461330427
 40
0.6453884207
 40
1.0
 40
1.0
 40
1.0
 40
1.0
 10
117.6261189434
 20
124.9016145299
 30
0.0
 10
117.6159934692
 20
124.9016145299
 30
0.0
 10
117.5903255291
 20
124.8853655941
 30
0.0
 10
117.5480095465
 20
124.8560100271
 30
0.0
 10
117.4921432513
 20
124.8100260288
 30
0.0
 10
117.4516070736
 20
124.7753527069
 30
0.0
 10
117.4297209352
 20
124.7562918956
 30
0.0
  0
SPLINE
  5
4CC
100
AcDbEntity
  8
0
100
AcDbSpline
 62
7
  6
CONTINUOUS
 70
0
 71
3
 72
9
 73
5
 74
0
 42
0.0000001
 43
0.0000001
 44
0.0000000001
 40
0.0
 40
0.0
 40
0.0
 40
0.0
 40
0.231286963
 40
1.0
 40
1.0
 40
1.0
 40
1.0
 10
117.4297209352
 20
124.7562918956
 30
0.0
 10
117.3989845444
 20
124.7295233295
 30
0.0
 10
117.2673026954
 20
124.6124042453
 30
0.0
 10
117.1368292115
 20
124.4939249965
 30
0.0
 10
117.0376818937
 20
124.4016145299
 30
0.0
  0
SPLINE
  5
4CD
100
AcDbEntity
  8
0
100
AcDbSpline
 62
7
  6
CONTINUOUS
 70
0
 71
3
 72
9
 73
5
 74
0
 42
0.0000001
 43
0.0000001
 44
0.0000000001
 40
0.0
 40
0.0
 40
0.0
 40
0.0
 40
0.510177105
 40
1.0
 40
1.0
 40
1.0
 40
1.0
 10
148.4198612859
 20
69.8016145299
 30
0.0
 10
148.4198612859
 20
69.7158047459
 30
0.0
 10
148.3799578975
 20
69.5449300243
 30
0.0
 10
148.262194678
 20
69.4127065339
 30
0.0
 10
148.1925466942
 20
69.3686990521
 30
0.0
  0
SPLINE
  5
4CE
100
AcDbEntity
  8
0
100
AcDbSpline
 62
7
  6
CONTINUOUS
 70
0
 71
3
 72
9
 73
5
 74
0
 42
0.0000001
 43
0.0000001
 44
0.0000000001
 40
0.0
 40
0.0
 40
0.0
 40
0.0
 40
0.2548281953
 40
1.0
 40
1.0
 40
1.0
 40
1.0
 10
148.1925466942
 20
69.3686990521
 30
0.0
 10
148.1753666554
 20
69.3578437451
 30
0.0
 10
148.1051062859
 20
69.319953425
 30
0.0
 10
148.0241485149
 20
69.3016145299
 30
0.0
 10
147.9647221107
 20
69.3016145299
 30
0.0
  0
SPLINE
  5
4CF
100
AcDbEntity
  8
0
100
AcDbSpline
 62
7
  6
CONTINUOUS
 70
0
 71
3
 72
9
 73
5
 74
0
 42
0.0000001
 43
0.0000001
 44
0.0000000001
 40
0.0
 40
0.0
 40
0.0
 40
0.0
 40
0.4824494648
 40
1.0
 40
1.0
 40
1.0
 40
1.0
 10
146.7725083518
 20
69.3176871183
 30
0.0
 10
146.8221877663
 20
69.3302942599
 30
0.0
 10
146.9234548451
 20
69.3726274045
 30
0.0
 10
146.9933253853
 20
69.4576812298
 30
0.0
 10
147.0217597807
 20
69.5047411134
 30
0.0
  0
SPLINE
  5
4D0
100
AcDbEntity
  8
0
100
AcDbSpline
 62
7
  6
CONTINUOUS
 70
0
 71
3
 72
8
 73
4
 74
0
 42
0.0000001
 43
0.0000001
 44
0.0000000001
 40
0.0
 40
0.0
 40
0.0
 40
0.0
 40
1.0
 40
1.0
 40
1.0
 40
1.0
 10
147.0217597807
 20
69.5047411134
 30
0.0
 10
147.0536143951
 20
69.5574615749
 30
0.0
 10
147.0767193657
 20
69.6163895559
 30
0.0
 10
147.089620369
 20
69.6766201763
 30
0.0
  0
SPLINE
  5
4D1
100
AcDbEntity
  8
0
100
AcDbSpline
 62
7
  6
CONTINUOUS
 70
0
 71
3
 72
9
 73
5
 74
0
 42
0.0000001
 43
0.0000001
 44
0.0000000001
 40
0.0
 40
0.0
 40
0.0
 40
0.0
 40
0.5121023134
 40
1.0
 40
1.0
 40
1.0
 40
1.0
 10
147.044442698
 20
69.8016145299
 30
0.0
 10
147.044442698
 20
69.7337220894
 30
0.0
 10
147.0231995844
 20
69.5988584309
 30
0.0
 10
146.9504052221
 20
69.4846670505
 30
0.0
 10
146.9097072358
 20
69.4343915322
 30
0.0
  0
SPLINE
  5
4D2
100
AcDbEntity
  8
0
100
AcDbSpline
 62
7
  6
CONTINUOUS
 70
0
 71
3
 72
9
 73
5
 74
0
 42
0.0000001
 43
0.0000001
 44
0.0000000001
 40
0.0
 40
0.0
 40
0.0
 40
0.0
 40
0.2612118061
 40
1.0
 40
1.0
 40
1.0
 40
1.0
 10
146.9097072358
 20
69.4343915322
 30
0.0
 10
146.8997977342
 20
69.4221500094
 30
0.0
 10
146.8608440332
 20
69.3764607583
 30
0.0
 10
146.8133902488
 20
69.3353770083
 30
0.0
 10
146.7725083518
 20
69.3176871183
 30
0.0
  0
SPLINE
  5
4D3
100
AcDbEntity
  8
0
100
AcDbSpline
 62
7
  6
CONTINUOUS
 70
0
 71
3
 72
9
 73
5
 74
0
 42
0.0000001
 43
0.0000001
 44
0.0000000001
 40
0.0
 40
0.0
 40
0.0
 40
0.0
 40
0.681963572
 40
1.0
 40
1.0
 40
1.0
 40
1.0
 10
146.7737534156
 20
69.3123399471
 30
0.0
 10
146.7673697816
 20
69.3088008957
 30
0.0
 10
146.7646317945
 20
69.305333987
 30
0.0
 10
146.7401893845
 20
69.3015330328
 30
0.0
 10
146.7435923323
 20
69.3016146443
 30
0.0
  0
SPLINE
  5
4D4
100
AcDbEntity
  8
0
100
AcDbSpline
 62
7
  6
CONTINUOUS
 70
0
 71
3
 72
9
 73
5
 74
0
 42
0.0000001
 43
0.0000001
 44
0.0000000001
 40
0.0
 40
0.0
 40
0.0
 40
0.0
 40
0.4848814838
 40
1.0
 40
1.0
 40
1.0
 40
1.0
 10
137.1055651669
 20
69.3173220509
 30
0.0
 10
137.0495495932
 20
69.3415080113
 30
0.0
 10
136.9583705722
 20
69.4365973684
 30
0.0
 10
136.8902590077
 20
69.543073559
 30
0.0
 10
136.8676267715
 20
69.6038128108
 30
0.0
  0
SPLINE
  5
4D5
100
AcDbEntity
  8
0
100
AcDbSpline
 62
7
  6
CONTINUOUS
 70
0
 71
3
 72
8
 73
4
 74
0
 42
0.0000001
 43
0.0000001
 44
0.0000000001
 40
0.0
 40
0.0
 40
0.0
 40
0.0
 40
1.0
 40
1.0
 40
1.0
 40
1.0
 10
136.8676267715
 20
69.6038128108
 30
0.0
 10
136.8442635309
 20
69.6665138951
 30
0.0
 10
136.8334232218
 20
69.734702147
 30
0.0
 10
136.8334232218
 20
69.8016145299
 30
0.0
  0
SPLINE
  5
4D6
100
AcDbEntity
  8
0
100
AcDbSpline
 62
7
  6
CONTINUOUS
 70
0
 71
3
 72
9
 73
5
 74
0
 42
0.0000001
 43
0.0000001
 44
0.0000000001
 40
0.0
 40
0.0
 40
0.0
 40
0.0
 40
0.2621786355
 40
1.0
 40
1.0
 40
1.0
 40
1.0
 10
136.7882455508
 20
69.6766201764
 30
0.0
 10
136.7947295063
 20
69.6463486806
 30
0.0
 10
136.8288287744
 20
69.5336055018
 30
0.0
 10
136.8993181613
 20
69.4279236383
 30
0.0
 10
136.9703031138
 20
69.3774122296
 30
0.0
  0
SPLINE
  5
4D7
100
AcDbEntity
  8
0
100
AcDbSpline
 62
7
  6
CONTINUOUS
 70
0
 71
3
 72
8
 73
4
 74
0
 42
0.0000001
 43
0.0000001
 44
0.0000000001
 40
0.0
 40
0.0
 40
0.0
 40
0.0
 40
1.0
 40
1.0
 40
1.0
 40
1.0
 10
136.9703031138
 20
69.3774122296
 30
0.0
 10
136.9954414558
 20
69.3595243108
 30
0.0
 10
137.0233103449
 20
69.3451730336
 30
0.0
 10
137.0521201303
 20
69.3341317408
 30
0.0
  0
SPLINE
  5
4D8
100
AcDbEntity
  8
0
100
AcDbSpline
 62
7
  6
CONTINUOUS
 70
0
 71
3
 72
8
 73
4
 74
0
 42
0.0000001
 43
0.0000001
 44
0.0000000001
 40
0.0
 40
0.0
 40
0.0
 40
0.0
 40
1.0
 40
1.0
 40
1.0
 40
1.0
 10
137.0521201303
 20
69.3341317408
 30
0.0
 10
137.0695587168
 20
69.3274484373
 30
0.0
 10
137.0874600222
 20
69.3219018523
 30
0.0
 10
137.1055651669
 20
69.3173220509
 30
0.0
  0
SPLINE
  5
4D9
100
AcDbEntity
  8
0
100
AcDbSpline
 62
7
  6
CONTINUOUS
 70
0
 71
3
 72
9
 73
5
 74
0
 42
0.0000001
 43
0.0000001
 44
0.0000000001
 40
0.0
 40
0.0
 40
0.0
 40
0.0
 40
0.3603047883
 40
1.0
 40
1.0
 40
1.0
 40
1.0
 10
137.1043749385
 20
69.3122734215
 30
0.0
 10
137.1073714196
 20
69.3109698091
 30
0.0
 10
137.1157839412
 20
69.3075803223
 30
0.0
 10
137.1242598804
 20
69.304331517
 30
0.0
 10
137.1297788602
 20
69.3025425446
 30
0.0
  0
SPLINE
  5
4DA
100
AcDbEntity
  8
0
100
AcDbSpline
 62
7
  6
CONTINUOUS
 70
0
 71
3
 72
16
 73
12
 74
0
 42
0.0000001
 43
0.0000001
 44
0.0000000001
 40
0.0
 40
0.0
 40
0.0
 40
0.0
 40
0.0046734863
 40
0.0171604962
 40
0.0375731897
 40
0.0659034907
 40
0.1462187254
 40
0.2578833787
 40
0.4004361729
 40
0.57260895
 40
1.0
 40
1.0
 40
1.0
 40
1.0
 10
116.8487610235
 20
26.5677697924
 30
0.0
 10
116.848972447
 20
26.5686894856
 30
0.0
 10
116.8537092656
 20
26.5687189777
 30
0.0
 10
116.8600462881
 20
26.5701858291
 30
0.0
 10
116.87303892
 20
26.5707650602
 30
0.0
 10
116.8986641975
 20
26.5723929757
 30
0.0
 10
116.9434148863
 20
26.573869504
 30
0.0
 10
117.0108001106
 20
26.5757633803
 30
0.0
 10
117.0969339511
 20
26.5775064734
 30
0.0
 10
117.246738215
 20
26.5799932353
 30
0.0
 10
117.3678071849
 20
26.5814252189
 30
0.0
 10
117.4541023593
 20
26.5823239854
 30
0.0
  0
LINE
  5
4DB
100
AcDbEntity
  8
0
100
AcDbLine
 62
7
  6
CONTINUOUS
 10
117.4541023593
 20
26.5823239854
 11
117.6326149712
 21
26.5840019659
  0
LINE
  5
4DC
100
AcDbEntity
  8
0
100
AcDbLine
 62
7
  6
CONTINUOUS
 10
117.6326149712
 20
26.5840019659
 11
117.8182751492
 21
26.5854351479
  0
LINE
  5
4DD
100
AcDbEntity
  8
0
100
AcDbLine
 62
7
  6
CONTINUOUS
 10
121.0631943866
 20
26.58540987
 11
121.2477056799
 21
26.5839810261
  0
LINE
  5
4DE
100
AcDbEntity
  8
0
100
AcDbLine
 62
7
  6
CONTINUOUS
 10
121.2477056799
 20
26.5839810261
 11
121.4331872794
 21
26.5822252861
  0
SPLINE
  5
4DF
100
AcDbEntity
  8
0
100
AcDbSpline
 62
7
  6
CONTINUOUS
 70
0
 71
3
 72
16
 73
12
 74
0
 42
0.0000001
 43
0.0000001
 44
0.0000000001
 40
0.0
 40
0.0
 40
0.0
 40
0.0
 40
0.4275539613
 40
0.5997056838
 40
0.7422077463
 40
0.8538241374
 40
0.9341072734
 40
0.9624277139
 40
0.9828348212
 40
0.9953208753
 40
1.0
 40
1.0
 40
1.0
 40
1.0
 10
121.4331872794
 20
26.5822252861
 30
0.0
 10
121.518172301
 20
26.5813299155
 30
0.0
 10
121.6373858795
 20
26.5799046646
 30
0.0
 10
121.784877575
 20
26.5774328794
 30
0.0
 10
121.8696470826
 20
26.5757009006
 30
0.0
 10
121.9359581905
 20
26.5738222722
 30
0.0
 10
121.9799930482
 20
26.5723540201
 30
0.0
 10
122.005211379
 20
26.5707430818
 30
0.0
 10
122.0179953084
 20
26.5701616708
 30
0.0
 10
122.0242376104
 20
26.5687185556
 30
0.0
 10
122.0288964399
 20
26.5686762049
 30
0.0
 10
122.0291051315
 20
26.5677697967
 30
0.0
  0
LINE
  5
4E0
100
AcDbEntity
  8
0
100
AcDbLine
 62
7
  6
CONTINUOUS
 10
117.6009604839
 20
26.5913761718
 11
117.8320976148
 21
26.5926096764
  0
SPLINE
  5
4E1
100
AcDbEntity
  8
0
100
AcDbSpline
 62
7
  6
CONTINUOUS
 70
0
 71
3
 72
16
 73
12
 74
0
 42
0.0000001
 43
0.0000001
 44
0.0000000001
 40
0.0
 40
0.0
 40
0.0
 40
0.0
 40
0.333531809
 40
0.493894312
 40
0.644773703
 40
0.7811513717
 40
0.8941257288
 40
0.9379425076
 40
0.971207715
 40
0.9923536357
 40
1.0
 40
1.0
 40
1.0
 40
1.0
 10
68.8409474494
 20
124.4016145299
 30
0.0
 10
68.7877256133
 20
124.4570645967
 30
0.0
 10
68.7080493941
 20
124.5383564855
 30
0.0
 10
68.6043707789
 20
124.6447422466
 30
0.0
 10
68.5326003739
 20
124.7189427678
 30
0.0
 10
68.4689859028
 20
124.7853628346
 30
0.0
 10
68.421801867
 20
124.8346039573
 30
0.0
 10
68.3929930442
 20
124.8663001091
 30
0.0
 10
68.3760277371
 20
124.883874795
 30
0.0
 10
68.3702099329
 20
124.8933423429
 30
0.0
 10
68.362546578
 20
124.9003410615
 30
0.0
 10
68.3638610492
 20
124.9015144695
 30
0.0
  0
SPLINE
  5
4E2
100
AcDbEntity
  8
0
100
AcDbSpline
 62
7
  6
CONTINUOUS
 70
0
 71
3
 72
10
 73
6
 74
0
 42
0.0000001
 43
0.0000001
 44
0.0000000001
 40
0.0
 40
0.0
 40
0.0
 40
0.0
 40
0.4510036162
 40
0.717050388
 40
1.0
 40
1.0
 40
1.0
 40
1.0
 10
76.2012368315
 20
22.9016145299
 30
0.0
 10
76.0827788409
 20
22.9016145299
 30
0.0
 10
75.8866740679
 20
22.9699420623
 30
0.0
 10
75.7196731902
 20
23.180924104
 30
0.0
 10
75.6850787
 20
23.327296628
 30
0.0
 10
75.6850787
 20
23.4016145299
 30
0.0
  0
SPLINE
  5
4E3
100
AcDbEntity
  8
0
100
AcDbSpline
 62
7
  6
CONTINUOUS
 70
0
 71
3
 72
11
 73
7
 74
0
 42
0.0000001
 43
0.0000001
 44
0.0000000001
 40
0.0
 40
0.0
 40
0.0
 40
0.0
 40
0.3718888776
 40
0.687548562
 40
0.9029511174
 40
1.0
 40
1.0
 40
1.0
 40
1.0
 10
30.0428055303
 20
23.4016145578
 30
0.0
 10
29.9660549212
 20
23.4019449771
 30
0.0
 10
29.8258691009
 20
23.4052491944
 30
0.0
 10
29.6340192561
 20
23.4264447717
 30
0.0
 10
29.51974799
 20
23.4484853614
 30
0.0
 10
29.4435506266
 20
23.4815431947
 30
0.0
 10
29.442818355
 20
23.5015589858
 30
0.0
  0
SPLINE
  5
4E4
100
AcDbEntity
  8
0
100
AcDbSpline
 62
7
  6
CONTINUOUS
 70
0
 71
3
 72
11
 73
7
 74
0
 42
0.0000001
 43
0.0000001
 44
0.0000000001
 40
0.0
 40
0.0
 40
0.0
 40
0.0
 40
0.2496099197
 40
0.4996357849
 40
0.7495606462
 40
1.0
 40
1.0
 40
1.0
 40
1.0
 10
114.5515805044
 20
21.9018682169
 30
0.0
 10
114.5519847721
 20
21.8323539324
 30
0.0
 10
114.518508481
 20
21.690196197
 30
0.0
 10
114.3773721018
 20
21.5289021261
 30
0.0
 10
114.1928821008
 20
21.4227000689
 30
0.0
 10
114.0516934202
 20
21.4015474976
 30
0.0
 10
113.9819469795
 20
21.4015911911
 30
0.0
  0
SPLINE
  5
4E5
100
AcDbEntity
  8
0
100
AcDbSpline
 62
7
  6
CONTINUOUS
 70
0
 71
3
 72
10
 73
6
 74
0
 42
0.0000001
 43
0.0000001
 44
0.0000000001
 40
0.0
 40
0.0
 40
0.0
 40
0.0
 40
0.2514506063
 40
0.5031408322
 40
1.0
 40
1.0
 40
1.0
 40
1.0
 10
124.3263886345
 20
21.9016167202
 30
0.0
 10
124.3259746597
 20
21.8321183355
 30
0.0
 10
124.3611420616
 20
21.6908627167
 30
0.0
 10
124.5417820419
 20
21.4733304528
 30
0.0
 10
124.758492588
 20
21.4015077978
 30
0.0
 10
124.8958218126
 20
21.401584724
 30
0.0
  0
SPLINE
  5
4E6
100
AcDbEntity
  8
0
100
AcDbSpline
 62
7
  6
CONTINUOUS
 70
0
 71
3
 72
16
 73
12
 74
0
 42
0.0000001
 43
0.0000001
 44
0.0000000001
 40
0.0
 40
0.0
 40
0.0
 40
0.0
 40
0.0067401964
 40
0.0270376996
 40
0.0596399924
 40
0.1030599618
 40
0.2155377943
 40
0.3518658193
 40
0.5034032961
 40
0.6643804148
 40
1.0
 40
1.0
 40
1.0
 40
1.0
 10
125.5139789026
 20
124.9015737309
 30
0.0
 10
125.5154090979
 20
124.900967792
 30
0.0
 10
125.5077689925
 20
124.8932790013
 30
0.0
 10
125.5026127805
 20
124.8853527595
 30
0.0
 10
125.4858743511
 20
124.8673426533
 30
0.0
 10
125.4575481896
 20
124.836162694
 30
0.0
 10
125.4103817547
 20
124.7868771011
 30
0.0
 10
125.3468054356
 20
124.7205142896
 30
0.0
 10
125.2747875699
 20
124.646112657
 30
0.0
 10
125.1706773139
 20
124.5390751215
 30
0.0
 10
125.0904840578
 20
124.457405382
 30
0.0
 10
125.0369184704
 20
124.4016145299
 30
0.0
  0
SPLINE
  5
4E7
100
AcDbEntity
  8
0
100
AcDbSpline
 62
7
  6
CONTINUOUS
 70
0
 71
3
 72
11
 73
7
 74
0
 42
0.0000001
 43
0.0000001
 44
0.0000000001
 40
0.0
 40
0.0
 40
0.0
 40
0.0
 40
0.2995013952
 40
0.5845466201
 40
0.832671005
 40
1.0
 40
1.0
 40
1.0
 40
1.0
 10
158.9396808147
 20
124.4016145299
 30
0.0
 10
158.8837872698
 20
124.4526337165
 30
0.0
 10
158.7739096283
 20
124.5512614544
 30
0.0
 10
158.6173284586
 20
124.6921272515
 30
0.0
 10
158.482669703
 20
124.8061178213
 30
0.0
 10
158.4014087433
 20
124.8742201218
 30
0.0
 10
158.3640824909
 20
124.8940789111
 30
0.0
  0
SPLINE
  5
4E8
100
AcDbEntity
  8
0
100
AcDbSpline
 62
7
  6
CONTINUOUS
 70
0
 71
3
 72
13
 73
9
 74
0
 42
0.0000001
 43
0.0000001
 44
0.0000000001
 40
0.0
 40
0.0
 40
0.0
 40
0.0
 40
0.2500005012
 40
0.3749998678
 40
0.5000010521
 40
0.6250010297
 40
0.7499991041
 40
1.0
 40
1.0
 40
1.0
 40
1.0
 10
124.1345734691
 20
34.5462682882
 30
0.0
 10
124.1315514986
 20
33.8675249827
 30
0.0
 10
124.1200388924
 20
32.8494575131
 30
0.0
 10
124.1143625558
 20
31.4919590094
 30
0.0
 10
124.1171188187
 20
30.473836957
 30
0.0
 10
124.1189596373
 20
29.4557112539
 30
0.0
 10
124.1090152163
 20
28.0982397831
 30
0.0
 10
124.0926297873
 20
27.0802249723
 30
0.0
 10
124.0894664163
 20
26.4014812394
 30
0.0
  0
SPLINE
  5
4E9
100
AcDbEntity
  8
0
100
AcDbSpline
 62
7
  6
CONTINUOUS
 70
0
 71
3
 72
11
 73
7
 74
0
 42
0.0000001
 43
0.0000001
 44
0.0000000001
 40
0.0
 40
0.0
 40
0.0
 40
0.0
 40
0.1237128147
 40
0.3461360965
 40
0.6453960497
 40
1.0
 40
1.0
 40
1.0
 40
1.0
 10
72.6261189434
 20
124.9016145299
 30
0.0
 10
72.6159876739
 20
124.9016145299
 30
0.0
 10
72.5903053736
 20
124.8853517129
 30
0.0
 10
72.5479647226
 20
124.8559768316
 30
0.0
 10
72.4920659747
 20
124.8099619469
 30
0.0
 10
72.4515063654
 20
124.7752666001
 30
0.0
 10
72.4296079069
 20
124.7561939991
 30
0.0
  0
SPLINE
  5
4EA
100
AcDbEntity
  8
0
100
AcDbSpline
 62
7
  6
CONTINUOUS
 70
0
 71
3
 72
9
 73
5
 74
0
 42
0.0000001
 43
0.0000001
 44
0.0000000001
 40
0.0
 40
0.0
 40
0.0
 40
0.0
 40
0.2313021894
 40
1.0
 40
1.0
 40
1.0
 40
1.0
 10
72.4296079069
 20
124.7561939991
 30
0.0
 10
72.3988789226
 20
124.7294303959
 30
0.0
 10
72.267236171
 20
124.612342368
 30
0.0
 10
72.1367992079
 20
124.4938970618
 30
0.0
 10
72.0376818937
 20
124.4016145299
 30
0.0
  0
SPLINE
  5
4EB
100
AcDbEntity
  8
0
100
AcDbSpline
 62
7
  6
CONTINUOUS
 70
0
 71
3
 72
9
 73
5
 74
0
 42
0.0000001
 43
0.0000001
 44
0.0000000001
 40
0.0
 40
0.0
 40
0.0
 40
0.0
 40
0.2621527673
 40
1.0
 40
1.0
 40
1.0
 40
1.0
 10
76.8401840262
 20
124.4016145299
 30
0.0
 10
76.8063239277
 20
124.4330704225
 30
0.0
 10
76.6763580366
 20
124.5521852155
 30
0.0
 10
76.5462233001
 20
124.6711650686
 30
0.0
 10
76.4481097734
 20
124.7565731668
 30
0.0
  0
SPLINE
  5
4EC
100
AcDbEntity
  8
0
100
AcDbSpline
 62
7
  6
CONTINUOUS
 70
0
 71
3
 72
11
 73
7
 74
0
 42
0.0000001
 43
0.0000001
 44
0.0000000001
 40
0.0
 40
0.0
 40
0.0
 40
0.0
 40
0.354575311
 40
0.6539368584
 40
0.8764410941
 40
1.0
 40
1.0
 40
1.0
 40
1.0
 10
76.4481097734
 20
124.7565731668
 30
0.0
 10
76.4262297456
 20
124.7756197919
 30
0.0
 10
76.3856548973
 20
124.8102258403
 30
0.0
 10
76.3296875539
 20
124.8560683253
 30
0.0
 10
76.2873418387
 20
124.8853383886
 30
0.0
 10
76.261705987
 20
124.9016145299
 30
0.0
 10
76.2515972922
 20
124.9016145299
 30
0.0
  0
SPLINE
  5
4ED
100
AcDbEntity
  8
0
100
AcDbSpline
 62
7
  6
CONTINUOUS
 70
0
 71
3
 72
16
 73
12
 74
0
 42
0.0000001
 43
0.0000001
 44
0.0000000001
 40
0.0
 40
0.0
 40
0.0
 40
0.0
 40
0.006898289
 40
0.0274278004
 40
0.0602404434
 40
0.1037579403
 40
0.2165236104
 40
0.3530782958
 40
0.5043558669
 40
0.6652462632
 40
1.0
 40
1.0
 40
1.0
 40
1.0
 10
80.5139746408
 20
124.9015737319
 30
0.0
 10
80.5154384577
 20
124.9009535634
 30
0.0
 10
80.5078949579
 20
124.8930496976
 30
0.0
 10
80.5026008428
 20
124.8850299122
 30
0.0
 10
80.4856754756
 20
124.8670537834
 30
0.0
 10
80.4571294397
 20
124.8358605411
 30
0.0
 10
80.4099440385
 20
124.7864146514
 30
0.0
 10
80.3463090965
 20
124.7200111928
 30
0.0
 10
80.2743392539
 20
124.645598017
 30
0.0
 10
80.1703047894
 20
124.5388652141
 30
0.0
 10
80.0903484445
 20
124.4572641349
 30
0.0
 10
80.0369184704
 20
124.4016145299
 30
0.0
  0
SPLINE
  5
4EE
100
AcDbEntity
  8
0
100
AcDbSpline
 62
7
  6
CONTINUOUS
 70
0
 71
3
 72
10
 73
6
 74
0
 42
0.0000001
 43
0.0000001
 44
0.0000000001
 40
0.0
 40
0.0
 40
0.0
 40
0.0
 40
0.1177510427
 40
0.3165209409
 40
1.0
 40
1.0
 40
1.0
 40
1.0
 10
164.4350476293
 20
23.5016127628
 30
0.0
 10
164.4347563366
 20
23.4936488614
 30
0.0
 10
164.4189314137
 20
23.4750938295
 30
0.0
 10
164.3570739665
 20
23.4493982967
 30
0.0
 10
164.2976085603
 20
23.4370595061
 30
0.0
 10
164.2519423481
 20
23.4296907162
 30
0.0
  0
SPLINE
  5
4EF
100
AcDbEntity
  8
0
100
AcDbSpline
 62
7
  6
CONTINUOUS
 70
0
 71
3
 72
9
 73
5
 74
0
 42
0.0000001
 43
0.0000001
 44
0.0000000001
 40
0.0
 40
0.0
 40
0.0
 40
0.0
 40
0.216492034
 40
1.0
 40
1.0
 40
1.0
 40
1.0
 10
164.2519423481
 20
23.4296907162
 30
0.0
 10
164.2221582664
 20
23.4248846982
 30
0.0
 10
164.0838682357
 20
23.4072047253
 30
0.0
 10
163.9442464291
 20
23.4017496616
 30
0.0
 10
163.8350604096
 20
23.4016145292
 30
0.0
  0
SPLINE
  5
4F0
100
AcDbEntity
  8
0
100
AcDbSpline
 62
7
  6
CONTINUOUS
 70
0
 71
3
 72
9
 73
5
 74
0
 42
0.0000001
 43
0.0000001
 44
0.0000000001
 40
0.0
 40
0.0
 40
0.0
 40
0.0
 40
0.5301525946
 40
1.0
 40
1.0
 40
1.0
 40
1.0
 10
73.1927872197
 20
23.4016145299
 30
0.0
 10
73.1927872197
 20
23.2908203696
 30
0.0
 10
73.1154631524
 20
23.0753161657
 30
0.0
 10
72.9288343093
 20
22.9544694192
 30
0.0
 10
72.8350300178
 20
22.9254474016
 30
0.0
  0
SPLINE
  5
4F1
100
AcDbEntity
  8
0
100
AcDbSpline
 62
7
  6
CONTINUOUS
 70
0
 71
3
 72
10
 73
6
 74
0
 42
0.0000001
 43
0.0000001
 44
0.0000000001
 40
0.0
 40
0.0
 40
0.0
 40
0.0
 40
0.2501024654
 40
0.6249957394
 40
1.0
 40
1.0
 40
1.0
 40
1.0
 10
28.8631035782
 20
22.9016145273
 30
0.0
 10
28.8768965321
 20
22.950161022
 30
0.0
 10
28.9059126254
 20
23.0733414665
 30
0.0
 10
28.9188368923
 20
23.2752487295
 30
0.0
 10
28.929382396
 20
23.4260724372
 30
0.0
 10
28.9338090162
 20
23.5016145299
 30
0.0
  0
SPLINE
  5
4F2
100
AcDbEntity
  8
0
100
AcDbSpline
 62
7
  6
CONTINUOUS
 70
0
 71
3
 72
9
 73
5
 74
0
 42
0.0000001
 43
0.0000001
 44
0.0000000001
 40
0.0
 40
0.0
 40
0.0
 40
0.0
 40
0.4347094056
 40
1.0
 40
1.0
 40
1.0
 40
1.0
 10
35.5137834288
 20
124.8655526249
 30
0.0
 10
35.4498990762
 20
124.7966037609
 30
0.0
 10
35.297806956
 20
124.6428350533
 30
0.0
 10
35.146120906
 20
124.488769923
 30
0.0
 10
35.0604223059
 20
124.4016145299
 30
0.0
  0
SPLINE
  5
4F3
100
AcDbEntity
  8
0
100
AcDbSpline
 62
7
  6
CONTINUOUS
 70
0
 71
3
 72
8
 73
4
 74
0
 42
0.0000001
 43
0.0000001
 44
0.0000000001
 40
0.0
 40
0.0
 40
0.0
 40
0.0
 40
1.0
 40
1.0
 40
1.0
 40
1.0
 10
76.2312658883
 20
23.1601959716
 30
0.0
 10
76.1911533502
 20
23.2329644166
 30
0.0
 10
76.1691736952
 20
23.3185226392
 30
0.0
 10
76.1691736952
 20
23.4016145299
 30
0.0
  0
SPLINE
  5
4F4
100
AcDbEntity
  8
0
100
AcDbSpline
 62
7
  6
CONTINUOUS
 70
0
 71
3
 72
13
 73
9
 74
0
 42
0.0000001
 43
0.0000001
 44
0.0000000001
 40
0.0
 40
0.0
 40
0.0
 40
0.0
 40
0.2500008959
 40
0.3749989703
 40
0.4999989479
 40
0.6250001322
 40
0.7499994988
 40
1.0
 40
1.0
 40
1.0
 40
1.0
 10
114.9266926033
 20
26.4014812394
 30
0.0
 10
114.9235292322
 20
27.0802249723
 30
0.0
 10
114.9071438087
 20
28.0982397832
 30
0.0
 10
114.8971993852
 20
29.4557112539
 30
0.0
 10
114.8990402022
 20
30.473836957
 30
0.0
 10
114.9017964654
 20
31.4919590094
 30
0.0
 10
114.8961201305
 20
32.8494575132
 30
0.0
 10
114.8846075209
 20
33.8675249827
 30
0.0
 10
114.8815855504
 20
34.5462682882
 30
0.0
  0
SPLINE
  5
4F5
100
AcDbEntity
  8
0
100
AcDbSpline
 62
7
  6
CONTINUOUS
 70
0
 71
3
 72
16
 73
12
 74
0
 42
0.0000001
 43
0.0000001
 44
0.0000000001
 40
0.0
 40
0.0
 40
0.0
 40
0.0
 40
0.3356206723
 40
0.4965993788
 40
0.6481376869
 40
0.7844652767
 40
0.8969405169
 40
0.9403602436
 40
0.9729626389
 40
0.9932601267
 40
1.0
 40
1.0
 40
1.0
 40
1.0
 10
113.8409474494
 20
124.4016145299
 30
0.0
 10
113.7873905936
 20
124.4574136427
 30
0.0
 10
113.7071964445
 20
124.5390828115
 30
0.0
 10
113.6030718598
 20
124.6461065916
 30
0.0
 10
113.5310568232
 20
124.720510995
 30
0.0
 10
113.4674826681
 20
124.7868746117
 30
0.0
 10
113.420320904
 20
124.8361632147
 30
0.0
 10
113.3919957273
 20
124.8673429012
 30
0.0
 10
113.3752574748
 20
124.8853531385
 30
0.0
 10
113.3700999828
 20
124.8932778489
 30
0.0
 10
113.3624615661
 20
124.9009680973
 30
0.0
 10
113.3638918098
 20
124.9015737136
 30
0.0
  0
SPLINE
  5
4F6
100
AcDbEntity
  8
0
100
AcDbSpline
 62
7
  6
CONTINUOUS
 70
0
 71
3
 72
12
 73
8
 74
0
 42
0.0000001
 43
0.0000001
 44
0.0000000001
 40
0.0
 40
0.0
 40
0.0
 40
0.0
 40
0.3712629585
 40
0.6868103568
 40
0.9013910225
 40
0.9633597242
 40
1.0
 40
1.0
 40
1.0
 40
1.0
 10
82.3389329599
 20
91.2016145218
 30
0.0
 10
82.2620484139
 20
91.2026405869
 30
0.0
 10
82.1195942126
 20
91.1966656687
 30
0.0
 10
81.9342066567
 20
91.1785017094
 30
0.0
 10
81.8127965025
 20
91.1524799492
 30
0.0
 10
81.7536415038
 20
91.1273550212
 30
0.0
 10
81.7389329599
 20
91.1092030111
 30
0.0
 10
81.7389329599
 20
91.1016145303
 30
0.0
  0
SPLINE
  5
4F7
100
AcDbEntity
  8
0
100
AcDbSpline
 62
7
  6
CONTINUOUS
 70
0
 71
3
 72
9
 73
5
 74
0
 42
0.0000001
 43
0.0000001
 44
0.0000000001
 40
0.0
 40
0.0
 40
0.0
 40
0.0
 40
0.5101757344
 40
1.0
 40
1.0
 40
1.0
 40
1.0
 10
103.4198612859
 20
69.8016145299
 30
0.0
 10
103.4198612859
 20
69.715848032
 30
0.0
 10
103.379995883
 20
69.5450642905
 30
0.0
 10
103.2623571095
 20
69.4128631698
 30
0.0
 10
103.1927686321
 20
69.3688384925
 30
0.0
  0
SPLINE
  5
4F8
100
AcDbEntity
  8
0
100
AcDbSpline
 62
7
  6
CONTINUOUS
 70
0
 71
3
 72
9
 73
5
 74
0
 42
0.0000001
 43
0.0000001
 44
0.0000000001
 40
0.0
 40
0.0
 40
0.0
 40
0.0
 40
0.2548330958
 40
1.0
 40
1.0
 40
1.0
 40
1.0
 10
103.1927686321
 20
69.3688384925
 30
0.0
 10
103.175575887
 20
69.3579616192
 30
0.0
 10
103.1052585788
 20
69.3199957737
 30
0.0
 10
103.0242120866
 20
69.3016145299
 30
0.0
 10
102.9647221107
 20
69.3016145299
 30
0.0
  0
SPLINE
  5
4F9
100
AcDbEntity
  8
0
100
AcDbSpline
 62
7
  6
CONTINUOUS
 70
0
 71
3
 72
9
 73
5
 74
0
 42
0.0000001
 43
0.0000001
 44
0.0000000001
 40
0.0
 40
0.0
 40
0.0
 40
0.0
 40
0.4824494648
 40
1.0
 40
1.0
 40
1.0
 40
1.0
 10
101.7725083519
 20
69.3176871183
 30
0.0
 10
101.8221877664
 20
69.33029426
 30
0.0
 10
101.9234548451
 20
69.3726274045
 30
0.0
 10
101.9933253853
 20
69.4576812299
 30
0.0
 10
102.0217597807
 20
69.5047411134
 30
0.0
  0
SPLINE
  5
4FA
100
AcDbEntity
  8
0
100
AcDbSpline
 62
7
  6
CONTINUOUS
 70
0
 71
3
 72
8
 73
4
 74
0
 42
0.0000001
 43
0.0000001
 44
0.0000000001
 40
0.0
 40
0.0
 40
0.0
 40
0.0
 40
1.0
 40
1.0
 40
1.0
 40
1.0
 10
102.0217597807
 20
69.5047411134
 30
0.0
 10
102.0536143951
 20
69.557461575
 30
0.0
 10
102.0767193658
 20
69.6163895559
 30
0.0
 10
102.089620369
 20
69.6766201764
 30
0.0
  0
SPLINE
  5
4FB
100
AcDbEntity
  8
0
100
AcDbSpline
 62
7
  6
CONTINUOUS
 70
0
 71
3
 72
9
 73
5
 74
0
 42
0.0000001
 43
0.0000001
 44
0.0000000001
 40
0.0
 40
0.0
 40
0.0
 40
0.0
 40
0.4848814838
 40
1.0
 40
1.0
 40
1.0
 40
1.0
 10
92.1055651669
 20
69.3173220509
 30
0.0
 10
92.0495495932
 20
69.3415080113
 30
0.0
 10
91.9583705722
 20
69.4365973684
 30
0.0
 10
91.8902590077
 20
69.543073559
 30
0.0
 10
91.8676267715
 20
69.6038128107
 30
0.0
  0
SPLINE
  5
4FC
100
AcDbEntity
  8
0
100
AcDbSpline
 62
7
  6
CONTINUOUS
 70
0
 71
3
 72
8
 73
4
 74
0
 42
0.0000001
 43
0.0000001
 44
0.0000000001
 40
0.0
 40
0.0
 40
0.0
 40
0.0
 40
1.0
 40
1.0
 40
1.0
 40
1.0
 10
91.8676267715
 20
69.6038128107
 30
0.0
 10
91.8442635309
 20
69.6665138951
 30
0.0
 10
91.8334232217
 20
69.734702147
 30
0.0
 10
91.8334232217
 20
69.8016145299
 30
0.0
  0
SPLINE
  5
4FD
100
AcDbEntity
  8
0
100
AcDbSpline
 62
7
  6
CONTINUOUS
 70
0
 71
3
 72
10
 73
6
 74
0
 42
0.0000001
 43
0.0000001
 44
0.0000000001
 40
0.0
 40
0.0
 40
0.0
 40
0.0
 40
0.250007988
 40
0.6251464661
 40
1.0
 40
1.0
 40
1.0
 40
1.0
 10
164.943174988
 20
23.5167607498
 30
0.0
 10
164.9461615326
 20
23.4651440574
 30
0.0
 10
164.9556441572
 20
23.3362205147
 30
0.0
 10
164.9643313412
 20
23.1294244037
 30
0.0
 10
164.9938342974
 20
22.9762579545
 30
0.0
 10
165.014762341
 20
22.9016145299
 30
0.0
  0
SPLINE
  5
4FE
100
AcDbEntity
  8
0
100
AcDbSpline
 62
7
  6
CONTINUOUS
 70
0
 71
3
 72
9
 73
5
 74
0
 42
0.0000001
 43
0.0000001
 44
0.0000000001
 40
0.0
 40
0.0
 40
0.0
 40
0.0
 40
0.6819635716
 40
1.0
 40
1.0
 40
1.0
 40
1.0
 10
101.7737534157
 20
69.3123399471
 30
0.0
 10
101.7673697817
 20
69.3088008957
 30
0.0
 10
101.7646317946
 20
69.305333987
 30
0.0
 10
101.7401893844
 20
69.3015330328
 30
0.0
 10
101.7435923322
 20
69.3016146443
 30
0.0
  0
SPLINE
  5
4FF
100
AcDbEntity
  8
0
100
AcDbSpline
 62
7
  6
CONTINUOUS
 70
0
 71
3
 72
9
 73
5
 74
0
 42
0.0000001
 43
0.0000001
 44
0.0000000001
 40
0.0
 40
0.0
 40
0.0
 40
0.0
 40
0.5121023134
 40
1.0
 40
1.0
 40
1.0
 40
1.0
 10
102.044442698
 20
69.8016145299
 30
0.0
 10
102.044442698
 20
69.7337220894
 30
0.0
 10
102.0231995844
 20
69.598858431
 30
0.0
 10
101.9504052222
 20
69.4846670506
 30
0.0
 10
101.9097072359
 20
69.4343915323
 30
0.0
  0
SPLINE
  5
500
100
AcDbEntity
  8
0
100
AcDbSpline
 62
7
  6
CONTINUOUS
 70
0
 71
3
 72
9
 73
5
 74
0
 42
0.0000001
 43
0.0000001
 44
0.0000000001
 40
0.0
 40
0.0
 40
0.0
 40
0.0
 40
0.2612118061
 40
1.0
 40
1.0
 40
1.0
 40
1.0
 10
101.9097072359
 20
69.4343915323
 30
0.0
 10
101.8997977343
 20
69.4221500095
 30
0.0
 10
101.8608440332
 20
69.3764607584
 30
0.0
 10
101.8133902488
 20
69.3353770084
 30
0.0
 10
101.7725083519
 20
69.3176871183
 30
0.0
  0
SPLINE
  5
501
100
AcDbEntity
  8
0
100
AcDbSpline
 62
7
  6
CONTINUOUS
 70
0
 71
3
 72
9
 73
5
 74
0
 42
0.0000001
 43
0.0000001
 44
0.0000000001
 40
0.0
 40
0.0
 40
0.0
 40
0.0
 40
0.3603047884
 40
1.0
 40
1.0
 40
1.0
 40
1.0
 10
92.1043749385
 20
69.3122734215
 30
0.0
 10
92.1073714197
 20
69.3109698091
 30
0.0
 10
92.1157839413
 20
69.3075803223
 30
0.0
 10
92.1242598804
 20
69.304331517
 30
0.0
 10
92.1297788602
 20
69.3025425446
 30
0.0
  0
SPLINE
  5
502
100
AcDbEntity
  8
0
100
AcDbSpline
 62
7
  6
CONTINUOUS
 70
0
 71
3
 72
9
 73
5
 74
0
 42
0.0000001
 43
0.0000001
 44
0.0000000001
 40
0.0
 40
0.0
 40
0.0
 40
0.0
 40
0.2621786355
 40
1.0
 40
1.0
 40
1.0
 40
1.0
 10
91.7882455507
 20
69.6766201764
 30
0.0
 10
91.7947295063
 20
69.6463486806
 30
0.0
 10
91.8288287744
 20
69.5336055018
 30
0.0
 10
91.8993181613
 20
69.4279236383
 30
0.0
 10
91.9703031138
 20
69.3774122296
 30
0.0
  0
SPLINE
  5
503
100
AcDbEntity
  8
0
100
AcDbSpline
 62
7
  6
CONTINUOUS
 70
0
 71
3
 72
8
 73
4
 74
0
 42
0.0000001
 43
0.0000001
 44
0.0000000001
 40
0.0
 40
0.0
 40
0.0
 40
0.0
 40
1.0
 40
1.0
 40
1.0
 40
1.0
 10
91.9703031138
 20
69.3774122296
 30
0.0
 10
91.9954414558
 20
69.3595243108
 30
0.0
 10
92.0233103449
 20
69.3451730337
 30
0.0
 10
92.0521201302
 20
69.3341317409
 30
0.0
  0
SPLINE
  5
504
100
AcDbEntity
  8
0
100
AcDbSpline
 62
7
  6
CONTINUOUS
 70
0
 71
3
 72
8
 73
4
 74
0
 42
0.0000001
 43
0.0000001
 44
0.0000000001
 40
0.0
 40
0.0
 40
0.0
 40
0.0
 40
1.0
 40
1.0
 40
1.0
 40
1.0
 10
92.0521201302
 20
69.3341317409
 30
0.0
 10
92.0695587168
 20
69.3274484373
 30
0.0
 10
92.0874600222
 20
69.3219018523
 30
0.0
 10
92.1055651669
 20
69.3173220509
 30
0.0
  0
LINE
  5
505
100
AcDbEntity
  8
0
100
AcDbLine
 62
7
  6
CONTINUOUS
 10
124.3263886345
 20
21.9016167202
 11
124.3312674401
 21
22.9016145954
  0
SPLINE
  5
506
100
AcDbEntity
  8
0
100
AcDbSpline
 62
7
  6
CONTINUOUS
 70
0
 71
3
 72
9
 73
5
 74
0
 42
0.0000001
 43
0.0000001
 44
0.0000000001
 40
0.0
 40
0.0
 40
0.0
 40
0.0
 40
0.5101807996
 40
1.0
 40
1.0
 40
1.0
 40
1.0
 10
90.4580049088
 20
69.8016145299
 30
0.0
 10
90.4580049088
 20
69.7158066521
 30
0.0
 10
90.4979097169
 20
69.5449391952
 30
0.0
 10
90.6156605042
 20
69.4127126035
 30
0.0
 10
90.6853047696
 20
69.3687049434
 30
0.0
  0
SPLINE
  5
507
100
AcDbEntity
  8
0
100
AcDbSpline
 62
7
  6
CONTINUOUS
 70
0
 71
3
 72
9
 73
5
 74
0
 42
0.0000001
 43
0.0000001
 44
0.0000000001
 40
0.0
 40
0.0
 40
0.0
 40
0.0
 40
0.2548262611
 40
1.0
 40
1.0
 40
1.0
 40
1.0
 10
90.6853047696
 20
69.3687049434
 30
0.0
 10
90.7024855485
 20
69.3578485451
 30
0.0
 10
90.7727502149
 20
69.319954788
 30
0.0
 10
90.8537135254
 20
69.3016145299
 30
0.0
 10
90.9131440691
 20
69.3016145299
 30
0.0
  0
SPLINE
  5
508
100
AcDbEntity
  8
0
100
AcDbSpline
 62
7
  6
CONTINUOUS
 70
0
 71
3
 72
12
 73
8
 74
0
 42
0.0000001
 43
0.0000001
 44
0.0000000001
 40
0.0
 40
0.0
 40
0.0
 40
0.0
 40
0.3726579954
 40
0.6886264315
 40
0.9014023386
 40
0.9635804029
 40
1.0
 40
1.0
 40
1.0
 40
1.0
 10
111.53893296
 20
91.2016326826
 30
0.0
 10
111.6160871455
 20
91.2016322959
 30
0.0
 10
111.7588943122
 20
91.1968004524
 30
0.0
 10
111.9440857253
 20
91.1785901168
 30
0.0
 10
112.0655428417
 20
91.1525155539
 30
0.0
 10
112.1237657168
 20
91.126999883
 30
0.0
 10
112.1389022115
 20
91.1091693097
 30
0.0
 10
112.1389329525
 20
91.1016291494
 30
0.0
  0
SPLINE
  5
509
100
AcDbEntity
  8
0
100
AcDbSpline
 62
7
  6
CONTINUOUS
 70
0
 71
3
 72
12
 73
8
 74
0
 42
0.0000001
 43
0.0000001
 44
0.0000000001
 40
0.0
 40
0.0
 40
0.0
 40
0.0
 40
0.3726579954
 40
0.6886264315
 40
0.9014023386
 40
0.9635804029
 40
1.0
 40
1.0
 40
1.0
 40
1.0
 10
82.3389329598
 20
83.0015963779
 30
0.0
 10
82.2617787742
 20
83.0015967646
 30
0.0
 10
82.1189716075
 20
83.0064286081
 30
0.0
 10
81.9337801944
 20
83.0246389437
 30
0.0
 10
81.8123230781
 20
83.0507135066
 30
0.0
 10
81.754100203
 20
83.0762291775
 30
0.0
 10
81.7389637083
 20
83.0940597508
 30
0.0
 10
81.7389329672
 20
83.101599911
 30
0.0
  0
SPLINE
  5
50A
100
AcDbEntity
  8
0
100
AcDbSpline
 62
7
  6
CONTINUOUS
 70
0
 71
3
 72
12
 73
8
 74
0
 42
0.0000001
 43
0.0000001
 44
0.0000000001
 40
0.0
 40
0.0
 40
0.0
 40
0.0
 40
0.3712629585
 40
0.6868103568
 40
0.9013910225
 40
0.9633597242
 40
1.0
 40
1.0
 40
1.0
 40
1.0
 10
111.5389329599
 20
83.0016145387
 30
0.0
 10
111.6158175059
 20
83.0005884736
 30
0.0
 10
111.7582717072
 20
83.0065633918
 30
0.0
 10
111.943659263
 20
83.0247273511
 30
0.0
 10
112.0650694173
 20
83.0507491112
 30
0.0
 10
112.124224416
 20
83.0758740393
 30
0.0
 10
112.1389329599
 20
83.0940260494
 30
0.0
 10
112.1389329599
 20
83.1016145302
 30
0.0
  0
ELLIPSE
  5
50B
100
AcDbEntity
  8
0
100
AcDbEllipse
 62
7
  6
CONTINUOUS
 10
119.4389329599
 20
34.5253379549
 30
0.0
 11
2.55
 21
0.0
 31
0.0
 40
0.0087268678
 41
1.2242184409
 42
1.9173742127
  0
ELLIPSE
  5
50C
100
AcDbEntity
  8
0
100
AcDbEllipse
 62
7
  6
CONTINUOUS
 10
126.6389329599
 20
234.0566145299
 30
0.0
 11
1.175
 21
-0.0
 31
0.0
 40
1.0
 41
2.3549499842
 42
2.7714996634
  0
ELLIPSE
  5
50D
100
AcDbEntity
  8
0
100
AcDbEllipse
 62
7
  6
CONTINUOUS
 10
126.6389329599
 20
234.0566145299
 30
0.0
 11
0.0
 21
1.175
 31
0.0
 40
1.0
 41
-1.2007033366
 42
0.7841536574
  0
ELLIPSE
  5
50E
100
AcDbEntity
  8
0
100
AcDbEllipse
 62
7
  6
CONTINUOUS
 10
121.5589329599
 20
234.0566145299
 30
0.0
 11
1.175
 21
0.0
 31
0.0
 40
1.0
 41
2.3549499842
 42
2.7714996634
  0
ELLIPSE
  5
50F
100
AcDbEntity
  8
0
100
AcDbEllipse
 62
7
  6
CONTINUOUS
 10
121.5589329599
 20
234.0566145299
 30
0.0
 11
-0.0
 21
1.175
 31
0.0
 40
1.0
 41
-1.2007033366
 42
0.7841536574
  0
ELLIPSE
  5
510
100
AcDbEntity
  8
0
100
AcDbEllipse
 62
7
  6
CONTINUOUS
 10
116.4789329599
 20
234.0566145299
 30
0.0
 11
0.0
 21
1.175
 31
0.0
 40
1.0
 41
-1.2007033366
 42
1.2007033366
  0
ELLIPSE
  5
511
100
AcDbEntity
  8
0
100
AcDbEllipse
 62
7
  6
CONTINUOUS
 10
119.4389329599
 20
309.3732398532
 30
0.0
 11
0.0
 21
292.2010578297
 31
0.0
 40
0.0087268678
 41
-3.5064039782
 42
-3.4881705395
  0
ELLIPSE
  5
512
100
AcDbEntity
  8
0
100
AcDbEllipse
 62
7
  6
CONTINUOUS
 10
119.4389329599
 20
309.3732398532
 30
0.0
 11
0.0
 21
292.2010578297
 31
0.0
 40
0.0087268678
 41
-2.7950147677
 42
-2.776781329
  0
ELLIPSE
  5
513
100
AcDbEntity
  8
0
100
AcDbEllipse
 62
7
  6
CONTINUOUS
 10
74.4389329599
 20
309.3732398532
 30
0.0
 11
0.0
 21
292.2010578297
 31
0.0
 40
0.0087268678
 41
-2.9712433366
 42
-2.9432381314
  0
ELLIPSE
  5
514
100
AcDbEntity
  8
0
100
AcDbEllipse
 62
7
  6
CONTINUOUS
 10
74.4389329599
 20
309.3732398532
 30
0.0
 11
0.0
 21
292.2010578297
 31
0.0
 40
0.0087268678
 41
-3.3399471757
 42
-3.3119419706
  0
ELLIPSE
  5
515
100
AcDbEntity
  8
0
100
AcDbEllipse
 62
7
  6
CONTINUOUS
 10
121.1683250433
 20
23.4016145299
 30
0.0
 11
0.0
 21
0.5
 31
0.0
 40
0.0412158332
 41
-3.1415926536
 42
-1.5707963268
  0
ELLIPSE
  5
516
100
AcDbEntity
  8
0
100
AcDbEllipse
 62
7
  6
CONTINUOUS
 10
117.7095408765
 20
23.4016145299
 30
0.0
 11
-0.0
 21
0.5
 31
0.0
 40
0.0412158332
 41
-4.7123889804
 42
-3.1415926536
  0
ELLIPSE
  5
517
100
AcDbEntity
  8
0
100
AcDbEllipse
 62
7
  6
CONTINUOUS
 10
116.4789329599
 20
233.2816145299
 30
0.0
 11
0.0
 21
2.5
 31
0.0
 40
1.0
 41
-1.1592794807
 42
-0.7240350913
  0
ELLIPSE
  5
518
100
AcDbEntity
  8
0
100
AcDbEllipse
 62
7
  6
CONTINUOUS
 10
116.4789329599
 20
233.2816145299
 30
0.0
 11
2.5
 21
0.0
 31
0.0
 40
1.0
 41
7.1299465427
 42
9.0132611147
  0
ELLIPSE
  5
519
100
AcDbEntity
  8
0
100
AcDbEllipse
 62
7
  6
CONTINUOUS
 10
121.5589329599
 20
233.2816145299
 30
0.0
 11
2.5
 21
-0.0
 31
0.0
 40
1.0
 41
6.6947021532
 42
8.5776925029
  0
ELLIPSE
  5
51A
100
AcDbEntity
  8
0
100
AcDbEllipse
 62
7
  6
CONTINUOUS
 10
121.5589329599
 20
233.2816145299
 30
0.0
 11
0.0
 21
2.5
 31
0.0
 40
1.0
 41
0.7237108689
 42
1.1592794807
  0
ELLIPSE
  5
51B
100
AcDbEntity
  8
0
100
AcDbEllipse
 62
7
  6
CONTINUOUS
 10
126.6389329599
 20
233.2816145299
 30
0.0
 11
2.5
 21
0.0
 31
0.0
 40
1.0
 41
0.4115168461
 42
0.8467612355
  0
ELLIPSE
  5
51C
100
AcDbEntity
  8
0
100
AcDbEllipse
 62
7
  6
CONTINUOUS
 10
126.6389329599
 20
233.2816145299
 30
0.0
 11
0.0
 21
2.5
 31
0.0
 40
1.0
 41
-0.7240350913
 42
0.7237108689
  0
ELLIPSE
  5
51D
100
AcDbEntity
  8
0
100
AcDbEllipse
 62
7
  6
CONTINUOUS
 10
126.6389329599
 20
233.2816145299
 30
0.0
 11
2.5
 21
-0.0
 31
0.0
 40
1.0
 41
2.2945071957
 42
2.7300758075
  0
ENDSEC
  0
SECTION
  2
OBJECTS
  0
DICTIONARY
  5
C
100
AcDbDictionary
280
0
281
1
  3
ACAD_GROUP
350
D
  3
ACAD_MLINESTYLE
350
17
  3
ACAD_LAYOUT
350
1A
  3
ACAD_PLOTSETTINGS
350
19
  3
ACAD_PLOTSTYLENAME
350
E
  0
DICTIONARY
  5
D
102
{ACAD_REACTORS
330
C
102
}
100
AcDbDictionary
280
0
281
1
  0
ACDBDICTIONARYWDFLT
  5
E
102
{ACAD_REACTORS
330
C
102
}
100
AcDbDictionary
281
1
  3
Normal
350
F
100
AcDbDictionaryWithDefault
340
F
  0
DICTIONARY
  5
17
102
{ACAD_REACTORS
330
C
102
}
100
AcDbDictionary
280
0
281
1
  3
Standard
350
18
  0
DICTIONARY
  5
19
102
{ACAD_REACTORS
330
C
102
}
100
AcDbDictionary
281
1
  0
DICTIONARY
  5
1A
102
{ACAD_REACTORS
330
C
102
}
100
AcDbDictionary
281
1
  3
Model
350
51E
  3
Layout1
350
51F
  0
ACDBPLACEHOLDER
  5
F
102
{ACAD_REACTORS
330
E
102
}
  0
MLINESTYLE
  5
18
102
{ACAD_REACTORS
330
17
102
}
100
AcDbMlineStyle
  2
STANDARD
 70
0
  3

 62
256
 51
90.0
 52
90.0
 71
2
 49
0.5
 62
256
  6
BYLAYER
 49
-0.5
 62
256
  6
BYLAYER
  0
LAYOUT
  5
51E
102
{ACAD_REACTORS
330
1A
102
}
100
AcDbPlotSettings
  1

  2
none_device
  4

  6

 40
0.0
 41
0.0
 42
0.0
 43
0.0
 44
210.0
 45
297.0
 46
0.0
 47
0.0
 48
0.0
 49
0.0
140
0.0
141
0.0
142
1.0
143
1.0
 70
1024
 72
1
 73
0
 74
0
  7

 75
0
147
1.0
148
0.0
149
0.0
100
AcDbLayout
  1
Model
 70
0
 71
0
 10
0.0
 20
0.0
 11
210.0
 21
297.0
 12
0.0
 22
0.0
 32
0.0
 14
0.0
 24
0.0
 34
0.0
 15
0.0
 25
0.0
 35
0.0
146
0.0
 13
0.0
 23
0.0
 33
0.0
 16
1.0
 26
0.0
 36
0.0
 17
0.0
 27
1.0
 37
0.0
 76
0
330
213
345
0
346
0
  0
LAYOUT
  5
51F
102
{ACAD_REACTORS
330
1A
102
}
100
AcDbPlotSettings
  1

  2
none_device
  4

  6

 40
0.0
 41
0.0
 42
0.0
 43
0.0
 44
210.0
 45
297.0
 46
0.0
 47
0.0
 48
0.0
 49
0.0
140
0.0
141
0.0
142
1.0
143
1.0
 70
0
 72
1
 73
0
 74
0
  7

 75
0
147
1.0
148
0.0
149
0.0
100
AcDbLayout
  1
Layout1
 70
0
 71
1
 10
0.0
 20
0.0
 11
210.0
 21
297.0
 12
0.0
 22
0.0
 32
0.0
 14
0.0
 24
0.0
 34
0.0
 15
0.0
 25
0.0
 35
0.0
146
0.0
 13
0.0
 23
0.0
 33
0.0
 16
1.0
 26
0.0
 36
0.0
 17
0.0
 27
1.0
 37
0.0
 76
0
330
214
345
0
346
0
  0
ENDSEC
  0
EOF
