999
DXF file: C:\Users\sesa63760\Dev\_Creo\CAD\MCADID0005252_3D-CAD\drw0001_4.dxf
999
Pro/ENGINEER 2019471 by Parametric Technology Corporation
  0
SECTION
  2
HEADER
  9
$ACADVER
  1
AC1024
  9
$DWGCODEPAGE
  3
ANSI_1252
  9
$EXTMAX
 10
56.5184111717
 20
79.9331815142
 30
0.0
  9
$EXTMIN
 10
0.0
 20
0.0
 30
0.0
  9
$LIMMIN
 10
0.0
 20
0.0
  9
$LIMMAX
 10
56.5184111717
 20
79.9331815142
  9
$VIEWCTR
 10
28.2592055858
 20
39.9665907571
  9
$VIEWSIZE
 40
79.9331815142
  9
$CLAYER
  8
0
  9
$LTSCALE
 40
5.2104592394
  9
$CELTYPE
  6
BYLAYER
  9
$DIMSCALE
 40
1.0
  9
$DIMASZ
 40
0.6728382282
  9
$DIMEXO
 40
1.0
  9
$DIMDLI
 40
3.5999536563
  9
$DIMEXE
 40
1.0
  9
$DIMCEN
 40
0.8526206028
  9
$DIMLFAC
 40
1.0
  9
$DIMBLK
  1
_FILLED
  9
$DIMALT
 70
0
  9
$DIMALTF
 40
0.0393700787
  9
$DIMTXT
 40
0.9419735195
  9
$DIMTOL
 70
1
  9
$DIMLIM
 70
0
  9
$DIMTFAC
 40
1.0
  9
$DIMTP
 40
0.01
  9
$DIMTM
 40
0.01
  9
$DIMGAP
 40
0.625
  9
$DIMDSEP
 70
46
  9
$AUNITS
 70
0
  9
$PDMODE
 70
3
  9
$PDSIZE
 40
0.3125
  9
$HANDSEED
  5
2A8
  9
$TILEMODE
 70
1
  9
$MEASUREMENT
 70
1
  9
$INSUNITS
 70
4
  0
ENDSEC
  0
SECTION
  2
CLASSES
  0
CLASS
  1
ACDBDICTIONARYWDFLT
  2
AcDbDictionaryWithDefault
  3
AutoCAD 2000
 90
0
 91
1
280
0
281
0
  0
CLASS
  1
ACDBPLACEHOLDER
  2
AcDbPlaceHolder
  3
AutoCAD 2000
 90
0
 91
1
280
0
281
0
  0
CLASS
  1
LAYOUT
  2
AcDbLayout
  3
AutoCAD 2000
 90
0
 91
0
280
0
281
0
  0
ENDSEC
  0
SECTION
  2
TABLES
  0
TABLE
  2
VPORT
  5
8
100
AcDbSymbolTable
 70
2
  0
VPORT
  5
1F4
100
AcDbSymbolTableRecord
100
AcDbViewportTableRecord
  2
*ACTIVE
 70
0
 10
0.0
 20
0.0
 11
1.0
 21
1.0
 12
28.2592055858
 22
39.9665907571
 13
0.0
 23
0.0
 14
1.0
 24
1.0
 15
0.0
 25
0.0
 16
0.0
 26
0.0
 36
1.0
 17
0.0
 27
0.0
 37
0.0
 40
79.9331815142
 41
0.7070707071
 42
50.0
 43
0.0
 44
0.0
 50
0.0
 51
0.0
 71
0
 72
100
 73
1
 74
1
 75
0
 76
0
 77
0
 78
0
  0
ENDTAB
  0
TABLE
  2
LTYPE
  5
5
100
AcDbSymbolTable
 70
6
  0
LTYPE
  5
14
100
AcDbSymbolTableRecord
100
AcDbLinetypeTableRecord
  2
BYBLOCK
 70
0
  3

 72
65
 73
0
 40
0.0
  0
LTYPE
  5
15
100
AcDbSymbolTableRecord
100
AcDbLinetypeTableRecord
  2
BYLAYER
 70
0
  3

 72
65
 73
0
 40
0.0
  0
LTYPE
  5
16
100
AcDbSymbolTableRecord
100
AcDbLinetypeTableRecord
  2
CONTINUOUS
 70
64
  3
Solid line
 72
65
 73
0
 40
0.0
  0
LTYPE
  5
1F5
100
AcDbSymbolTableRecord
100
AcDbLinetypeTableRecord
  2
CENTER
 70
64
  3
____ _ ____ _ ____ _ ____ _ ____ _ ____ _ ____
 72
65
 73
4
 40
0.6
 49
0.375
 74
0
 49
-0.075
 74
0
 49
0.075
 74
0
 49
-0.075
 74
0
  0
LTYPE
  5
1F6
100
AcDbSymbolTableRecord
100
AcDbLinetypeTableRecord
  2
HIDDEN
 70
64
  3
- - - - - - - - - - - - - - - - - - - -
 72
65
 73
2
 40
0.2
 49
0.1
 74
0
 49
-0.1
 74
0
  0
LTYPE
  5
1F7
100
AcDbSymbolTableRecord
100
AcDbLinetypeTableRecord
  2
PHANTOM
 70
64
  3
_____ _ _ _____ _ _ _____ _ _ _____
 72
65
 73
6
 40
0.8
 49
0.45
 74
0
 49
-0.05
 74
0
 49
0.1
 74
0
 49
-0.05
 74
0
 49
0.1
 74
0
 49
-0.05
 74
0
  0
LTYPE
  5
1F8
100
AcDbSymbolTableRecord
100
AcDbLinetypeTableRecord
  2
DOT
 70
64
  3
. . . . . . . . . . . . . . . . . . . .
 72
65
 73
2
 40
0.2
 49
0.1
 74
0
 49
-0.1
 74
0
  0
LTYPE
  5
1F9
100
AcDbSymbolTableRecord
100
AcDbLinetypeTableRecord
  2
DASHED
 70
64
  3
- - - - - - - - - - - - - - - - - - - -
 72
65
 73
2
 40
0.2
 49
0.1
 74
0
 49
-0.1
 74
0
  0
ENDTAB
  0
TABLE
  2
LAYER
  5
2
100
AcDbSymbolTable
 70
36
  0
LAYER
  5
10
100
AcDbSymbolTableRecord
100
AcDbLayerTableRecord
  2
0
 70
0
 62
7
  6
CONTINUOUS
370
-3
390
F
  0
LAYER
  5
1FA
100
AcDbSymbolTableRecord
100
AcDbLayerTableRecord
  2
DEFAULT_1
 70
0
 62
7
  6
CENTER
370
-3
390
F
  0
LAYER
  5
1FB
100
AcDbSymbolTableRecord
100
AcDbLayerTableRecord
  2
DEFAULT_2
 70
0
 62
7
  6
HIDDEN
370
-3
390
F
  0
LAYER
  5
1FC
100
AcDbSymbolTableRecord
100
AcDbLayerTableRecord
  2
DEFAULT_3
 70
0
 62
7
  6
PHANTOM
370
-3
390
F
  0
LAYER
  5
1FD
100
AcDbSymbolTableRecord
100
AcDbLayerTableRecord
  2
00_COMPONENTS
 70
0
 62
7
  6
CONTINUOUS
370
-3
390
F
  0
LAYER
  5
1FE
100
AcDbSymbolTableRecord
100
AcDbLayerTableRecord
  2
00_COMPONENTS_1
 70
0
 62
7
  6
CONTINUOUS
370
-3
390
F
  0
LAYER
  5
1FF
100
AcDbSymbolTableRecord
100
AcDbLayerTableRecord
  2
00_COMPONENTS_3
 70
0
 62
7
  6
CONTINUOUS
370
-3
390
F
  0
LAYER
  5
200
100
AcDbSymbolTableRecord
100
AcDbLayerTableRecord
  2
00_COMPONENTS_4
 70
0
 62
7
  6
CONTINUOUS
370
-3
390
F
  0
LAYER
  5
201
100
AcDbSymbolTableRecord
100
AcDbLayerTableRecord
  2
00_COMPONENTS_5
 70
0
 62
7
  6
CONTINUOUS
370
-3
390
F
  0
LAYER
  5
202
100
AcDbSymbolTableRecord
100
AcDbLayerTableRecord
  2
00_COMPONENTS_6
 70
0
 62
7
  6
CONTINUOUS
370
-3
390
F
  0
LAYER
  5
203
100
AcDbSymbolTableRecord
100
AcDbLayerTableRecord
  2
01_1_DEFAULT_DATUMS
 70
0
 62
7
  6
CONTINUOUS
370
-3
390
F
  0
LAYER
  5
204
100
AcDbSymbolTableRecord
100
AcDbLayerTableRecord
  2
01_PLANES
 70
0
 62
7
  6
CONTINUOUS
370
-3
390
F
  0
LAYER
  5
205
100
AcDbSymbolTableRecord
100
AcDbLayerTableRecord
  2
02_COORD_SYS
 70
0
 62
7
  6
CONTINUOUS
370
-3
390
F
  0
LAYER
  5
206
100
AcDbSymbolTableRecord
100
AcDbLayerTableRecord
  2
03_AXES
 70
0
 62
7
  6
CONTINUOUS
370
-3
390
F
  0
LAYER
  5
207
100
AcDbSymbolTableRecord
100
AcDbLayerTableRecord
  2
03_AXES_3
 70
0
 62
7
  6
CONTINUOUS
370
-3
390
F
  0
LAYER
  5
208
100
AcDbSymbolTableRecord
100
AcDbLayerTableRecord
  2
03_AXES_6
 70
0
 62
7
  6
CONTINUOUS
370
-3
390
F
  0
LAYER
  5
209
100
AcDbSymbolTableRecord
100
AcDbLayerTableRecord
  2
04_POINTS
 70
0
 62
7
  6
CONTINUOUS
370
-3
390
F
  0
LAYER
  5
20A
100
AcDbSymbolTableRecord
100
AcDbLayerTableRecord
  2
05_CURVES
 70
0
 62
7
  6
CONTINUOUS
370
-3
390
F
  0
LAYER
  5
20B
100
AcDbSymbolTableRecord
100
AcDbLayerTableRecord
  2
06_SURFS
 70
0
 62
7
  6
CONTINUOUS
370
-3
390
F
  0
LAYER
  5
20C
100
AcDbSymbolTableRecord
100
AcDbLayerTableRecord
  2
07_COSMETICS
 70
0
 62
7
  6
CONTINUOUS
370
-3
390
F
  0
LAYER
  5
20D
100
AcDbSymbolTableRecord
100
AcDbLayerTableRecord
  2
10_NOTES
 70
0
 62
7
  6
CONTINUOUS
370
-3
390
F
  0
LAYER
  5
20E
100
AcDbSymbolTableRecord
100
AcDbLayerTableRecord
  2
11_NOTES_PUB
 70
0
 62
7
  6
CONTINUOUS
370
-3
390
F
  0
LAYER
  5
20F
100
AcDbSymbolTableRecord
100
AcDbLayerTableRecord
  2
13_REF_GTOL
 70
0
 62
7
  6
CONTINUOUS
370
-3
390
F
  0
LAYER
  5
210
100
AcDbSymbolTableRecord
100
AcDbLayerTableRecord
  2
16_MISC
 70
0
 62
7
  6
CONTINUOUS
370
-3
390
F
  0
LAYER
  5
211
100
AcDbSymbolTableRecord
100
AcDbLayerTableRecord
  2
17_NO_PRINT
 70
0
 62
7
  6
CONTINUOUS
370
-3
390
F
  0
LAYER
  5
212
100
AcDbSymbolTableRecord
100
AcDbLayerTableRecord
  2
18_DATUM_CAMS_JOINTS
 70
0
 62
7
  6
CONTINUOUS
370
-3
390
F
  0
LAYER
  5
213
100
AcDbSymbolTableRecord
100
AcDbLayerTableRecord
  2
19_DATUM_FUNCTIONAL
 70
0
 62
7
  6
CONTINUOUS
370
-3
390
F
  0
LAYER
  5
214
100
AcDbSymbolTableRecord
100
AcDbLayerTableRecord
  2
20_DATUM_KINEMATIC_SCHEME
 70
0
 62
7
  6
CONTINUOUS
370
-3
390
F
  0
LAYER
  5
215
100
AcDbSymbolTableRecord
100
AcDbLayerTableRecord
  2
INTFCLR_89006
 70
0
 62
7
  6
CONTINUOUS
370
-3
390
F
  0
LAYER
  5
216
100
AcDbSymbolTableRecord
100
AcDbLayerTableRecord
  2
INTF_BLANK
 70
0
 62
7
  6
CONTINUOUS
370
-3
390
F
  0
LAYER
  5
217
100
AcDbSymbolTableRecord
100
AcDbLayerTableRecord
  2
SHELL4
 70
0
 62
7
  6
CONTINUOUS
370
-3
390
F
  0
LAYER
  5
218
100
AcDbSymbolTableRecord
100
AcDbLayerTableRecord
  2
SHELL5
 70
0
 62
7
  6
CONTINUOUS
370
-3
390
F
  0
LAYER
  5
219
100
AcDbSymbolTableRecord
100
AcDbLayerTableRecord
  2
SHELL6
 70
0
 62
7
  6
CONTINUOUS
370
-3
390
F
  0
LAYER
  5
21A
100
AcDbSymbolTableRecord
100
AcDbLayerTableRecord
  2
_BLACK_HOLE
 70
0
 62
7
  6
CONTINUOUS
370
-3
390
F
  0
LAYER
  5
21B
100
AcDbSymbolTableRecord
100
AcDbLayerTableRecord
  2
black
 70
0
 62
7
  6
CONTINUOUS
370
-3
390
F
  0
ENDTAB
  0
TABLE
  2
STYLE
  5
3
100
AcDbSymbolTable
 70
1
  0
STYLE
  5
11
100
AcDbSymbolTableRecord
100
AcDbTextStyleTableRecord
  2
STANDARD
 70
0
 40
0.0
 41
1.0
 50
0.0
 71
0
 42
0.2
  3
ARIAL.TTF
  4

  0
STYLE
  5
21C
100
AcDbSymbolTableRecord
100
AcDbTextStyleTableRecord
  2
TEXTSTYLE_1
 70
0
 40
0.0
 41
0.8
 50
0.0
 71
0
 42
0.2
  3
gdt
  4

  0
ENDTAB
  0
TABLE
  2
VIEW
  5
6
100
AcDbSymbolTable
 70
0
  0
ENDTAB
  0
TABLE
  2
UCS
  5
7
100
AcDbSymbolTable
 70
0
  0
ENDTAB
  0
TABLE
  2
APPID
  5
9
100
AcDbSymbolTable
 70
1
  0
APPID
  5
21D
100
AcDbSymbolTableRecord
100
AcDbRegAppTableRecord
  2
ACAD
 70
0
  0
ENDTAB
  0
TABLE
  2
BLOCK_RECORD
  5
1
100
AcDbSymbolTable
 70
0
  0
BLOCK_RECORD
  5
21E
100
AcDbSymbolTableRecord
100
AcDbBlockTableRecord
  2
*Model_Space
  0
BLOCK_RECORD
  5
21F
100
AcDbSymbolTableRecord
100
AcDbBlockTableRecord
  2
*Paper_Space
  0
BLOCK_RECORD
  5
220
100
AcDbSymbolTableRecord
100
AcDbBlockTableRecord
  2
_FILLED
  0
ENDTAB
  0
TABLE
  2
DIMSTYLE
  5
A
100
AcDbSymbolTable
 70
1
100
AcDbDimStyleTable
 71
0
  0
DIMSTYLE
105
221
100
AcDbSymbolTableRecord
100
AcDbDimStyleTableRecord
  2
STANDARD
 70
0
  3

  4

 40
1.0
 41
0.6728382282
 42
1.0
 43
0.38
 44
1.0
 45
0.0
 46
0.0
 47
0.01
 48
0.01
140
0.9419735195
141
0.09
142
0.0
143
25.4
144
1.0
145
0.0
146
1.0
147
0.625
 71
1
 72
0
 73
0
 74
0
 75
0
 76
0
 77
1
 78
8
 79
2
170
0
171
1
172
0
173
0
174
0
175
0
176
0
177
0
178
0
270
2
179
2
271
2
272
2
273
2
274
2
275
0
280
0
281
0
282
0
283
1
284
8
285
0
286
0
287
3
288
0
340
11
278
46
341
220
342
220
343
220
344
220
  0
ENDTAB
  0
ENDSEC
  0
SECTION
  2
BLOCKS
  0
BLOCK
  5
20
100
AcDbEntity
  8
0
100
AcDbBlockBegin
  2
*Model_Space
 70
0
 10
0.0
 20
0.0
 30
0.0
  3
*Model_Space
  1

  0
ENDBLK
  5
21
100
AcDbEntity
  8
0
100
AcDbBlockEnd
  0
BLOCK
  5
1C
100
AcDbEntity
  8
0
100
AcDbBlockBegin
  2
*Paper_Space
 70
0
 10
0.0
 20
0.0
 30
0.0
  3
*Paper_Space
  1

  0
ENDBLK
  5
1D
100
AcDbEntity
  8
0
100
AcDbBlockEnd
  0
BLOCK
  5
222
100
AcDbEntity
  8
0
100
AcDbBlockBegin
  2
_FILLED
 70
64
 10
0.0
 20
0.0
  3
_FILLED
  1

  0
SOLID
  5
223
100
AcDbEntity
  8
0
  6
BYBLOCK
 62
0
100
AcDbTrace
 10
0.0
 20
0.0
 11
-1.0
 21
0.25
 12
-1.0
 22
-0.25
 13
-1.0
 23
-0.25
  0
ENDBLK
  5
224
100
AcDbEntity
  8
0
  6
BYBLOCK
 62
0
100
AcDbBlockEnd
  0
ENDSEC
  0
SECTION
  2
ENTITIES
  0
LINE
  5
225
100
AcDbEntity
  8
00_COMPONENTS_3
100
AcDbLine
 62
7
  6
BYLAYER
 10
46.4046863219
 20
6.4459072163
 11
48.3704362895
 21
6.7221753576
  0
LINE
  5
226
100
AcDbEntity
  8
00_COMPONENTS_3
100
AcDbLine
 62
7
  6
BYLAYER
 10
9.4984863219
 20
6.4459072163
 11
7.5327363542
 21
6.7221753576
  0
LINE
  5
227
100
AcDbEntity
  8
00_COMPONENTS_3
100
AcDbLine
 62
7
  6
BYLAYER
 10
34.819370684
 20
5.7369046156
 11
39.6455362895
 21
6.4151779582
  0
LINE
  5
228
100
AcDbEntity
  8
00_COMPONENTS_3
100
AcDbLine
 62
7
  6
BYLAYER
 10
27.9515863219
 20
5.7369046156
 11
34.819370684
 21
5.7369046156
  0
LINE
  5
229
100
AcDbEntity
  8
00_COMPONENTS_3
100
AcDbLine
 62
7
  6
BYLAYER
 10
21.0838149996
 20
5.7369038233
 11
21.3070651382
 21
5.7369045773
  0
LINE
  5
22A
100
AcDbEntity
  8
00_COMPONENTS_3
100
AcDbLine
 62
7
  6
BYLAYER
 10
39.6455362895
 20
6.4151779582
 11
16.2576363542
 21
6.4151779582
  0
LINE
  5
22B
100
AcDbEntity
  8
00_COMPONENTS_3
100
AcDbLine
 62
7
  6
BYLAYER
 10
46.4046863219
 20
6.4459072163
 11
9.4984863219
 21
6.4459072163
  0
LINE
  5
22C
100
AcDbEntity
  8
00_COMPONENTS_3
100
AcDbLine
 62
7
  6
BYLAYER
 10
48.3704362895
 20
6.7221753576
 11
7.5327363542
 21
6.7221753576
  0
LINE
  5
22D
100
AcDbEntity
  8
00_COMPONENTS_3
100
AcDbLine
 62
7
  6
BYLAYER
 10
7.3140863219
 20
6.973703447
 11
48.5890863219
 21
6.973703447
  0
LINE
  5
22E
100
AcDbEntity
  8
00_COMPONENTS_3
100
AcDbLine
 62
7
  6
BYLAYER
 10
21.0838086365
 20
5.7369036773
 11
16.2576363542
 21
6.4151779582
  0
LINE
  5
22F
100
AcDbEntity
  8
00_COMPONENTS_3
100
AcDbLine
 62
7
  6
BYLAYER
 10
48.5890863219
 20
9.9279046156
 11
7.3140863219
 21
9.9279046156
  0
LINE
  5
230
100
AcDbEntity
  8
00_COMPONENTS_3
100
AcDbLine
 62
7
  6
BYLAYER
 10
48.3349146157
 20
10.1819046156
 11
7.568258028
 21
10.1819046156
  0
LINE
  5
231
100
AcDbEntity
  8
0
100
AcDbLine
 62
7
  6
BYLAYER
 10
6.5139863219
 20
47.2283046156
 11
6.5139863219
 21
54.6705046156
  0
LINE
  5
232
100
AcDbEntity
  8
00_COMPONENTS_3
100
AcDbLine
 62
7
  6
BYLAYER
 10
7.3140863219
 20
6.973703447
 11
7.3140863219
 21
9.9279046156
  0
LINE
  5
233
100
AcDbEntity
  8
0
100
AcDbLine
 62
7
  6
BYLAYER
 10
7.6569863219
 20
47.2283046156
 11
7.6569863219
 21
44.8280046156
  0
LINE
  5
234
100
AcDbEntity
  8
0
100
AcDbLine
 62
7
  6
BYLAYER
 10
8.1078363219
 20
44.8280046156
 11
8.1078363219
 21
43.2405046156
  0
LINE
  5
235
100
AcDbEntity
  8
00_COMPONENTS_1
100
AcDbLine
 62
7
  6
BYLAYER
 10
8.9015863219
 20
35.3665046156
 11
8.9015863219
 21
36.8905046156
  0
LINE
  5
236
100
AcDbEntity
  8
00_COMPONENTS_1
100
AcDbLine
 62
7
  6
BYLAYER
 10
9.5365863219
 20
34.0965046156
 11
9.5365863219
 21
35.3665046156
  0
LINE
  5
237
100
AcDbEntity
  8
00_COMPONENTS_1
100
AcDbLine
 62
7
  6
BYLAYER
 10
10.4890863219
 20
27.803479382
 11
11.5578863179
 21
27.1864074166
  0
LINE
  5
238
100
AcDbEntity
  8
00_COMPONENTS_1
100
AcDbLine
 62
7
  6
BYLAYER
 10
10.4890863219
 20
27.803479382
 11
10.4890863219
 21
34.0965046156
  0
LINE
  5
239
100
AcDbEntity
  8
00_COMPONENTS_1
100
AcDbLine
 62
7
  6
BYLAYER
 10
11.9515863179
 20
26.5044990137
 11
11.9515863179
 21
21.6373046156
  0
LINE
  5
23A
100
AcDbEntity
  8
0
100
AcDbLine
 62
7
  6
BYLAYER
 10
12.9655863219
 20
43.2405046156
 11
12.9655863219
 21
36.8905046156
  0
LINE
  5
23B
100
AcDbEntity
  8
00_COMPONENTS_1
100
AcDbLine
 62
7
  6
BYLAYER
 10
11.9515863179
 20
21.6373046156
 11
43.9515863259
 21
21.6373046156
  0
LINE
  5
23C
100
AcDbEntity
  8
00_COMPONENTS_3
100
AcDbLine
 62
7
  6
BYLAYER
 10
15.3404863219
 20
10.1819046156
 11
15.3404863219
 21
21.6373046156
  0
LINE
  5
23D
100
AcDbEntity
  8
0
100
AcDbLine
 62
7
  6
BYLAYER
 10
44.734352631
 20
66.6365514219
 11
44.9593708559
 21
66.7847638424
  0
LINE
  5
23E
100
AcDbEntity
  8
0
100
AcDbLine
 62
7
  6
BYLAYER
 10
44.9593708559
 20
66.7847638424
 11
45.167372783
 21
66.9156566878
  0
LINE
  5
23F
100
AcDbEntity
  8
00_COMPONENTS_1
100
AcDbLine
 62
7
  6
BYLAYER
 10
43.9515863259
 20
26.5044990137
 11
11.9515863179
 21
26.5044990137
  0
LINE
  5
240
100
AcDbEntity
  8
00_COMPONENTS_1
100
AcDbLine
 62
7
  6
BYLAYER
 10
11.5578863179
 20
27.1864074166
 11
44.3452863259
 21
27.1864074166
  0
LINE
  5
241
100
AcDbEntity
  8
00_COMPONENTS_1
100
AcDbLine
 62
7
  6
BYLAYER
 10
20.7183819889
 20
34.0965046156
 11
20.7183819889
 21
28.6341558213
  0
LINE
  5
242
100
AcDbEntity
  8
0
100
AcDbLine
 62
7
  6
BYLAYER
 10
50.9639863219
 20
63.561298008
 11
51.4719863219
 21
63.8379746377
  0
LINE
  5
243
100
AcDbEntity
  8
0
100
AcDbLine
 62
7
  6
BYLAYER
 10
50.9639863219
 20
62.7092087109
 11
51.4719863219
 21
62.9858853407
  0
LINE
  5
244
100
AcDbEntity
  8
0
100
AcDbLine
 62
7
  6
BYLAYER
 10
21.4407883097
 20
52.1897712823
 11
21.4407883097
 21
47.2283046156
  0
LINE
  5
245
100
AcDbEntity
  8
0
100
AcDbLine
 62
7
  6
BYLAYER
 10
22.0532589202
 20
54.6705046156
 11
22.0532589202
 21
52.1897712823
  0
LINE
  5
246
100
AcDbEntity
  8
0
100
AcDbLine
 62
7
  6
BYLAYER
 10
47.3654718524
 20
59.512185559
 11
47.7247343697
 21
59.7413084912
  0
LINE
  5
247
100
AcDbEntity
  8
00_COMPONENTS_1
100
AcDbLine
 62
7
  6
BYLAYER
 10
9.5365863219
 20
34.0965046156
 11
46.3665863219
 21
34.0965046156
  0
LINE
  5
248
100
AcDbEntity
  8
0
100
AcDbLine
 62
7
  6
BYLAYER
 10
24.5225863219
 20
54.6705046156
 11
24.5225863219
 21
73.7205046156
  0
LINE
  5
249
100
AcDbEntity
  8
00_COMPONENTS_1
100
AcDbLine
 62
7
  6
BYLAYER
 10
24.8824926446
 20
35.3665046156
 11
24.8824926446
 21
34.0965046156
  0
LINE
  5
24A
100
AcDbEntity
  8
0
100
AcDbLine
 62
7
  6
BYLAYER
 10
26.3640863219
 20
54.6705046156
 11
26.3640863219
 21
47.2283046156
  0
LINE
  5
24B
100
AcDbEntity
  8
00_COMPONENTS_1
100
AcDbLine
 62
7
  6
BYLAYER
 10
8.9015863219
 20
35.3665046156
 11
47.0015863219
 21
35.3665046156
  0
LINE
  5
24C
100
AcDbEntity
  8
00_COMPONENTS_1
100
AcDbLine
 62
7
  6
BYLAYER
 10
47.0015863219
 20
36.8905046156
 11
8.9015863219
 21
36.8905046156
  0
LINE
  5
24D
100
AcDbEntity
  8
0
100
AcDbLine
 62
7
  6
BYLAYER
 10
29.5390863219
 20
54.6705046156
 11
29.5390863219
 21
47.2283046156
  0
LINE
  5
24E
100
AcDbEntity
  8
00_COMPONENTS_1
100
AcDbLine
 62
7
  6
BYLAYER
 10
31.0206799992
 20
34.0965046156
 11
31.0206799992
 21
35.3665046156
  0
LINE
  5
24F
100
AcDbEntity
  8
0
100
AcDbLine
 62
7
  6
BYLAYER
 10
33.8499137236
 20
52.1897712823
 11
33.8499137236
 21
54.6705046156
  0
LINE
  5
250
100
AcDbEntity
  8
0
100
AcDbLine
 62
7
  6
BYLAYER
 10
34.4623843341
 20
47.2283046156
 11
34.4623843341
 21
52.1897712823
  0
LINE
  5
251
100
AcDbEntity
  8
0
100
AcDbLine
 62
7
  6
BYLAYER
 10
8.1078363219
 20
43.2405046156
 11
47.7953363219
 21
43.2405046156
  0
LINE
  5
252
100
AcDbEntity
  8
0
100
AcDbLine
 62
7
  6
BYLAYER
 10
7.6569863219
 20
44.8280046156
 11
48.2461863219
 21
44.8280046156
  0
LINE
  5
253
100
AcDbEntity
  8
00_COMPONENTS_1
100
AcDbLine
 62
7
  6
BYLAYER
 10
35.1847906548
 20
34.0965046156
 11
35.1847906548
 21
28.6341558213
  0
LINE
  5
254
100
AcDbEntity
  8
0
100
AcDbLine
 62
7
  6
BYLAYER
 10
6.5139863219
 20
47.2283046156
 11
49.3891863219
 21
47.2283046156
  0
LINE
  5
255
100
AcDbEntity
  8
0
100
AcDbLine
 62
7
  6
BYLAYER
 10
37.7559863219
 20
54.6705046156
 11
37.7559863219
 21
73.7205046156
  0
LINE
  5
256
100
AcDbEntity
  8
0
100
AcDbLine
 62
7
  6
BYLAYER
 10
37.7813863219
 20
54.6705046156
 11
37.7813863219
 21
73.7205046156
  0
LINE
  5
257
100
AcDbEntity
  8
00_COMPONENTS_3
100
AcDbLine
 62
7
  6
BYLAYER
 10
40.5626863219
 20
10.1819046156
 11
40.5626863219
 21
21.6373046156
  0
LINE
  5
258
100
AcDbEntity
  8
0
100
AcDbLine
 62
7
  6
BYLAYER
 10
40.7277863155
 20
54.9245046156
 11
40.7277863155
 21
73.2125046156
  0
LINE
  5
259
100
AcDbEntity
  8
0
100
AcDbLine
 62
7
  6
BYLAYER
 10
41.7437863219
 20
73.7205046156
 11
41.7437863219
 21
54.9245046156
  0
LINE
  5
25A
100
AcDbEntity
  8
0
100
AcDbLine
 62
7
  6
BYLAYER
 10
42.9375863219
 20
36.8905046156
 11
42.9375863219
 21
43.2405046156
  0
LINE
  5
25B
100
AcDbEntity
  8
0
100
AcDbLine
 62
7
  6
BYLAYER
 10
6.5139863219
 20
52.1897712823
 11
22.0532589202
 21
52.1897712823
  0
LINE
  5
25C
100
AcDbEntity
  8
0
100
AcDbLine
 62
7
  6
BYLAYER
 10
33.8499137236
 20
52.1897712823
 11
49.3891863219
 21
52.1897712823
  0
LINE
  5
25D
100
AcDbEntity
  8
0
100
AcDbLine
 62
7
  6
BYLAYER
 10
43.8519863219
 20
65.5035492684
 11
43.8519863219
 21
65.2905269441
  0
LINE
  5
25E
100
AcDbEntity
  8
00_COMPONENTS_1
100
AcDbLine
 62
7
  6
BYLAYER
 10
43.9515863259
 20
21.6373046156
 11
43.9515863259
 21
26.5044990137
  0
LINE
  5
25F
100
AcDbEntity
  8
0
100
AcDbLine
 62
7
  6
BYLAYER
 10
44.6393863219
 20
60.3611903608
 11
44.6393863219
 21
62.7092087109
  0
LINE
  5
260
100
AcDbEntity
  8
00_COMPONENTS_1
100
AcDbLine
 62
7
  6
BYLAYER
 10
45.4140863219
 20
34.0965046156
 11
45.4140863219
 21
27.803479382
  0
LINE
  5
261
100
AcDbEntity
  8
0
100
AcDbLine
 62
7
  6
BYLAYER
 10
49.3891863219
 20
54.6705046156
 11
6.5139863219
 21
54.6705046156
  0
LINE
  5
262
100
AcDbEntity
  8
0
100
AcDbLine
 62
7
  6
BYLAYER
 10
37.7559863219
 20
54.6959046156
 11
37.7813863219
 21
54.6959046156
  0
LINE
  5
263
100
AcDbEntity
  8
0
100
AcDbLine
 62
7
  6
BYLAYER
 10
37.7813863219
 20
54.9245046156
 11
41.743786321
 21
54.9245046156
  0
LINE
  5
264
100
AcDbEntity
  8
00_COMPONENTS_1
100
AcDbLine
 62
7
  6
BYLAYER
 10
46.3665863219
 20
35.3665046156
 11
46.3665863219
 21
34.0965046156
  0
LINE
  5
265
100
AcDbEntity
  8
00_COMPONENTS_1
100
AcDbLine
 62
7
  6
BYLAYER
 10
47.0015863219
 20
36.8905046156
 11
47.0015863219
 21
35.3665046156
  0
LINE
  5
266
100
AcDbEntity
  8
0
100
AcDbLine
 62
7
  6
BYLAYER
 10
47.7953363219
 20
43.2405046156
 11
47.7953363219
 21
44.8280046156
  0
LINE
  5
267
100
AcDbEntity
  8
0
100
AcDbLine
 62
7
  6
BYLAYER
 10
48.0937863219
 20
54.6705046156
 11
48.0937863219
 21
60.1989821349
  0
LINE
  5
268
100
AcDbEntity
  8
0
100
AcDbLine
 62
7
  6
BYLAYER
 10
48.0937863219
 20
67.0197558803
 11
48.0937863219
 21
73.7205046156
  0
LINE
  5
269
100
AcDbEntity
  8
0
100
AcDbLine
 62
7
  6
BYLAYER
 10
48.1445863219
 20
60.3611903608
 11
48.1445863219
 21
62.7092087109
  0
LINE
  5
26A
100
AcDbEntity
  8
0
100
AcDbLine
 62
7
  6
BYLAYER
 10
48.2461863219
 20
44.8280046156
 11
48.2461863219
 21
47.2283046156
  0
LINE
  5
26B
100
AcDbEntity
  8
00_COMPONENTS_1
100
AcDbLine
 62
7
  6
BYLAYER
 10
44.3452863259
 20
27.1864074166
 11
45.4140863219
 21
27.803479382
  0
LINE
  5
26C
100
AcDbEntity
  8
00_COMPONENTS_3
100
AcDbLine
 62
7
  6
BYLAYER
 10
48.5890863219
 20
6.973703447
 11
48.5890863219
 21
9.9279046156
  0
LINE
  5
26D
100
AcDbEntity
  8
0
100
AcDbLine
 62
7
  6
BYLAYER
 10
48.9319863219
 20
65.5035492684
 11
48.9319863219
 21
65.2905269441
  0
LINE
  5
26E
100
AcDbEntity
  8
0
100
AcDbLine
 62
7
  6
BYLAYER
 10
49.3891863219
 20
54.6705046156
 11
49.3891863219
 21
47.2283046156
  0
LINE
  5
26F
100
AcDbEntity
  8
0
100
AcDbLine
 62
7
  6
BYLAYER
 10
50.9639863219
 20
62.7092087109
 11
50.9639863219
 21
63.561298008
  0
LINE
  5
270
100
AcDbEntity
  8
0
100
AcDbLine
 62
7
  6
BYLAYER
 10
51.4719863219
 20
62.9858853407
 11
51.4719863219
 21
66.7430792505
  0
LINE
  5
271
100
AcDbEntity
  8
0
100
AcDbLine
 62
7
  6
BYLAYER
 10
41.7437863219
 20
62.7092087109
 11
50.9639863219
 21
62.7092087109
  0
LINE
  5
272
100
AcDbEntity
  8
0
100
AcDbLine
 62
7
  6
BYLAYER
 10
41.7437863219
 20
63.561298008
 11
50.9639863219
 21
63.561298008
  0
LINE
  5
273
100
AcDbEntity
  8
0
100
AcDbLine
 62
7
  6
BYLAYER
 10
41.7437863219
 20
67.0197558803
 11
45.4522569812
 21
67.0197558803
  0
LINE
  5
274
100
AcDbEntity
  8
0
100
AcDbLine
 62
7
  6
BYLAYER
 10
47.24823893
 20
67.0197558803
 11
50.9639863219
 21
67.0197558803
  0
LINE
  5
275
100
AcDbEntity
  8
0
100
AcDbLine
 62
7
  6
BYLAYER
 10
45.4185007913
 20
59.512185559
 11
45.0592382741
 21
59.7413084912
  0
LINE
  5
276
100
AcDbEntity
  8
0
100
AcDbLine
 62
7
  6
BYLAYER
 10
48.6868013225
 20
65.9096515759
 11
48.8049863219
 21
65.5035492684
  0
LINE
  5
277
100
AcDbEntity
  8
0
100
AcDbLine
 62
7
  6
BYLAYER
 10
48.0937863219
 20
67.3723867256
 11
41.7437863219
 21
67.3723867256
  0
LINE
  5
278
100
AcDbEntity
  8
0
100
AcDbLine
 62
7
  6
BYLAYER
 10
44.9593708559
 20
66.7847638424
 11
45.5135230759
 21
66.6105120658
  0
LINE
  5
279
100
AcDbEntity
  8
0
100
AcDbLine
 62
7
  6
BYLAYER
 10
46.6426127157
 20
66.2554726586
 11
48.3326017878
 21
65.7240598309
  0
LINE
  5
27A
100
AcDbEntity
  8
0
100
AcDbLine
 62
7
  6
BYLAYER
 10
41.743786321
 20
73.2125046156
 11
37.7813863219
 21
73.2125046156
  0
LINE
  5
27B
100
AcDbEntity
  8
0
100
AcDbLine
 62
7
  6
BYLAYER
 10
37.7813863219
 20
73.6951046156
 11
37.7559863219
 21
73.6951046156
  0
LINE
  5
27C
100
AcDbEntity
  8
0
100
AcDbLine
 62
7
  6
BYLAYER
 10
37.7559863219
 20
73.7205046156
 11
24.5225863219
 21
73.7205046156
  0
LINE
  5
27D
100
AcDbEntity
  8
0
100
AcDbLine
 62
7
  6
BYLAYER
 10
37.7813863219
 20
73.7205046156
 11
48.0937863219
 21
73.7205046156
  0
LINE
  5
27E
100
AcDbEntity
  8
0
100
AcDbLine
 62
7
  6
BYLAYER
 10
50.9639863219
 20
67.0197558803
 11
51.4719863219
 21
66.7430792505
  0
ARC
  5
27F
100
AcDbEntity
  8
0
100
AcDbCircle
 62
7
  6
BYLAYER
 10
46.3919863219
 20
64.5405108441
 40
2.6722916667
100
AcDbArc
 50
128.3383909518
 51
149.1793325992
  0
ARC
  5
280
100
AcDbEntity
  8
0
100
AcDbCircle
 62
7
  6
BYLAYER
 10
46.3919863219
 20
64.5405108441
 40
2.6722916667
100
AcDbArc
 50
30.8206587983
 51
117.2754864572
  0
ARC
  5
281
100
AcDbEntity
  8
0
100
AcDbCircle
 62
7
  6
BYLAYER
 10
45.5863323207
 20
64.6365667562
 40
2.0938149349
100
AcDbArc
 50
121.7328600126
 51
123.9231820417
  0
ARC
  5
282
100
AcDbEntity
  8
0
100
AcDbCircle
 62
7
  6
BYLAYER
 10
45.5325191169
 20
64.7168776124
 40
1.9971419528
100
AcDbArc
 50
123.9279582021
 51
124.8218953428
  0
ARC
  5
283
100
AcDbEntity
  8
00_COMPONENTS_1
100
AcDbCircle
 62
7
  6
BYLAYER
 10
11.1641863179
 20
26.5044990137
 40
0.7874
100
AcDbArc
 50
0.0
 51
60.0
  0
ARC
  5
284
100
AcDbEntity
  8
00_COMPONENTS_1
100
AcDbCircle
 62
7
  6
BYLAYER
 10
44.7389863259
 20
26.5044990137
 40
0.7874
100
AcDbArc
 50
120.0
 51
180.0
  0
ARC
  5
285
100
AcDbEntity
  8
00_COMPONENTS_3
100
AcDbCircle
 62
7
  6
BYLAYER
 10
16.2929863219
 20
6.6667060477
 40
0.254
100
AcDbArc
 50
247.1582872456
 51
262.0
  0
ARC
  5
286
100
AcDbEntity
  8
00_COMPONENTS_3
100
AcDbCircle
 62
7
  6
BYLAYER
 10
39.6101863219
 20
6.6667060477
 40
0.254
100
AcDbArc
 50
278.0
 51
292.8417127544
  0
ARC
  5
287
100
AcDbEntity
  8
00_COMPONENTS_3
100
AcDbCircle
 62
7
  6
BYLAYER
 10
48.3350863219
 20
6.973703447
 40
0.254
100
AcDbArc
 50
278.0
 51
360.0
  0
ARC
  5
288
100
AcDbEntity
  8
00_COMPONENTS_3
100
AcDbCircle
 62
7
  6
BYLAYER
 10
7.5680863219
 20
6.973703447
 40
0.254
100
AcDbArc
 50
180.0
 51
262.0
  0
ARC
  5
289
100
AcDbEntity
  8
00_COMPONENTS_3
100
AcDbCircle
 62
7
  6
BYLAYER
 10
7.5680863219
 20
9.9279046156
 40
0.254
100
AcDbArc
 50
90.0
 51
180.0
  0
ARC
  5
28A
100
AcDbEntity
  8
00_COMPONENTS_3
100
AcDbCircle
 62
7
  6
BYLAYER
 10
48.3350863219
 20
9.9279046156
 40
0.254
100
AcDbArc
 50
0.0
 51
90.0
  0
SPLINE
  5
28B
100
AcDbEntity
  8
00_COMPONENTS_3
100
AcDbSpline
 62
7
  6
BYLAYER
 70
0
 71
3
 72
34
 73
30
 74
0
 42
0.0000001
 43
0.0000001
 44
0.0000000001
 40
0.0
 40
0.0
 40
0.0
 40
0.0
 40
0.1290944124
 40
0.2323662806
 40
0.3577780789
 40
0.4277002088
 40
0.5017960074
 40
0.579512158
 40
0.61958173
 40
0.6603181204
 40
0.7017370564
 40
0.7436696347
 40
0.7648370385
 40
0.7861608826
 40
0.8075993866
 40
0.8289983595
 40
0.8504422665
 40
0.872073174
 40
0.8937695349
 40
0.9045912085
 40
0.9154326281
 40
0.9264097851
 40
0.9375335641
 40
0.9483806338
 40
0.9584858947
 40
0.9681391248
 40
0.9781583892
 40
0.9889794829
 40
1.0
 40
1.0
 40
1.0
 40
1.0
 10
21.2364777583
 20
5.7369033151
 30
0.0
 10
21.5209634791
 20
5.7369075619
 30
0.0
 10
22.0330297072
 20
5.7369062777
 30
0.0
 10
22.8214662691
 20
5.7369044639
 30
0.0
 10
23.4795047051
 20
5.7369006243
 30
0.0
 10
24.0732477547
 20
5.736919521
 30
0.0
 10
24.5618837689
 20
5.73686203
 30
0.0
 10
24.9847336212
 20
5.7369459865
 30
0.0
 10
25.3340692429
 20
5.7368166556
 30
0.0
 10
25.6034165968
 20
5.7369725668
 30
0.0
 10
25.8768694368
 20
5.7367456943
 30
0.0
 10
26.107198052
 20
5.7368364876
 30
0.0
 10
26.293243129
 20
5.7368246205
 30
0.0
 10
26.4341251062
 20
5.7365975235
 30
0.0
 10
26.5755170786
 20
5.7360528771
 30
0.0
 10
26.7171740853
 20
5.7364810855
 30
0.0
 10
26.8592539374
 20
5.7371423777
 30
0.0
 10
27.0019906585
 20
5.7368715811
 30
0.0
 10
27.1213187565
 20
5.7368333623
 30
0.0
 10
27.2168701169
 20
5.7369474727
 30
0.0
 10
27.288799348
 20
5.7369873199
 30
0.0
 10
27.3613952174
 20
5.7366067165
 30
0.0
 10
27.4339930274
 20
5.7355967833
 30
0.0
 10
27.5046934862
 20
5.7354806221
 30
0.0
 10
27.5720909244
 20
5.738696107
 30
0.0
 10
27.6374746465
 20
5.7442606666
 30
0.0
 10
27.704618153
 20
5.7477168764
 30
0.0
 10
27.7748572842
 20
5.7468928832
 30
0.0
 10
27.8229524138
 20
5.7450354375
 30
0.0
 10
27.8472148371
 20
5.7439668292
 30
0.0
  0
SPLINE
  5
28C
100
AcDbEntity
  8
00_COMPONENTS_3
100
AcDbSpline
 62
7
  6
BYLAYER
 70
0
 71
3
 72
9
 73
5
 74
0
 42
0.0000001
 43
0.0000001
 44
0.0000000001
 40
0.0
 40
0.0
 40
0.0
 40
0.0
 40
0.5312220987
 40
1.0
 40
1.0
 40
1.0
 40
1.0
 10
27.8472148371
 20
5.7439668292
 30
0.0
 10
27.8657233298
 20
5.7431516456
 30
0.0
 10
27.9005563945
 20
5.7414958336
 30
0.0
 10
27.9353499104
 20
5.7388173365
 30
0.0
 10
27.9515863219
 20
5.7369046156
 30
0.0
  0
SPLINE
  5
28D
100
AcDbEntity
  8
0
100
AcDbSpline
 62
7
  6
BYLAYER
 70
0
 71
3
 72
11
 73
7
 74
0
 42
0.0000001
 43
0.0000001
 44
0.0000000001
 40
0.0
 40
0.0
 40
0.0
 40
0.0
 40
0.2222825922
 40
0.4674372099
 40
0.729414432
 40
1.0
 40
1.0
 40
1.0
 40
1.0
 10
45.4185108843
 20
59.5121902369
 30
0.0
 10
45.4819462642
 20
59.471723256
 30
0.0
 10
45.6242934984
 20
59.4004090329
 30
0.0
 10
45.8601528519
 20
59.3249084186
 30
0.0
 10
46.1199364873
 20
59.2782369764
 30
0.0
 10
46.3003917605
 20
59.2677437306
 30
0.0
 10
46.3919863219
 20
59.2677437306
 30
0.0
  0
SPLINE
  5
28E
100
AcDbEntity
  8
0
100
AcDbSpline
 62
7
  6
BYLAYER
 70
0
 71
3
 72
12
 73
8
 74
0
 42
0.0000001
 43
0.0000001
 44
0.0000000001
 40
0.0
 40
0.0
 40
0.0
 40
0.0
 40
0.2896252478
 40
0.548302625
 40
0.7812706571
 40
0.8916182998
 40
1.0
 40
1.0
 40
1.0
 40
1.0
 10
47.7247245066
 20
59.741313079
 30
0.0
 10
47.788187584
 20
59.7817843147
 30
0.0
 10
47.9028926325
 20
59.8678090062
 30
0.0
 10
48.0391199371
 20
60.0204800147
 30
0.0
 10
48.1116794307
 20
60.1616879523
 30
0.0
 10
48.1399215539
 20
60.2760693397
 30
0.0
 10
48.1445704076
 20
60.333023528
 30
0.0
 10
48.1445704076
 20
60.3611903608
 30
0.0
  0
SPLINE
  5
28F
100
AcDbEntity
  8
0
100
AcDbSpline
 62
7
  6
BYLAYER
 70
0
 71
3
 72
12
 73
8
 74
0
 42
0.0000001
 43
0.0000001
 44
0.0000000001
 40
0.0
 40
0.0
 40
0.0
 40
0.0
 40
0.1083817002
 40
0.2187293429
 40
0.451697375
 40
0.7103747522
 40
1.0
 40
1.0
 40
1.0
 40
1.0
 10
44.6394022361
 20
60.3611903608
 30
0.0
 10
44.6394022361
 20
60.333023528
 30
0.0
 10
44.6440510899
 20
60.2760693397
 30
0.0
 10
44.6722932131
 20
60.1616879523
 30
0.0
 10
44.7448527067
 20
60.0204800147
 30
0.0
 10
44.8810800113
 20
59.8678090061
 30
0.0
 10
44.9957850598
 20
59.7817843147
 30
0.0
 10
45.0592481372
 20
59.741313079
 30
0.0
  0
SPLINE
  5
290
100
AcDbEntity
  8
0
100
AcDbSpline
 62
7
  6
BYLAYER
 70
0
 71
3
 72
11
 73
7
 74
0
 42
0.0000001
 43
0.0000001
 44
0.0000000001
 40
0.0
 40
0.0
 40
0.0
 40
0.0
 40
0.2403303951
 40
0.4847039229
 40
0.7368559266
 40
1.0
 40
1.0
 40
1.0
 40
1.0
 10
43.8519945123
 20
65.5035492686
 30
0.0
 10
43.8519951006
 20
65.5428352468
 30
0.0
 10
43.8582673217
 20
65.6222003317
 30
0.0
 10
43.8861883768
 20
65.7398210975
 30
0.0
 10
43.9323932108
 20
65.8555256617
 30
0.0
 10
43.9741079845
 20
65.929020731
 30
0.0
 10
43.9975452847
 20
65.965090175
 30
0.0
  0
SPLINE
  5
291
100
AcDbEntity
  8
0
100
AcDbSpline
 62
7
  6
BYLAYER
 70
0
 71
3
 72
10
 73
6
 74
0
 42
0.0000001
 43
0.0000001
 44
0.0000000001
 40
0.0
 40
0.0
 40
0.0
 40
0.0
 40
0.2310709803
 40
0.6005907422
 40
1.0
 40
1.0
 40
1.0
 40
1.0
 10
43.9975452847
 20
65.965090175
 30
0.0
 10
44.0209934037
 20
66.0011762688
 30
0.0
 10
44.0876188401
 20
66.0913578771
 30
0.0
 10
44.2179154165
 20
66.2253990301
 30
0.0
 10
44.3310317607
 20
66.3139141943
 30
0.0
 10
44.3920964905
 20
66.3563934595
 30
0.0
  0
SPLINE
  5
292
100
AcDbEntity
  8
0
100
AcDbSpline
 62
7
  6
BYLAYER
 70
0
 71
3
 72
11
 73
7
 74
0
 42
0.0000001
 43
0.0000001
 44
0.0000000001
 40
0.0
 40
0.0
 40
0.0
 40
0.0
 40
0.2705943799
 40
0.5325684217
 40
0.7777204975
 40
1.0
 40
1.0
 40
1.0
 40
1.0
 10
46.3919863219
 20
59.2677437306
 30
0.0
 10
46.483583906
 20
59.2677437306
 30
0.0
 10
46.6640412372
 20
59.2782370559
 30
0.0
 10
46.9238257002
 20
59.3249097581
 30
0.0
 10
47.1596827755
 20
59.4004087043
 30
0.0
 10
47.3020271195
 20
59.4717242798
 30
0.0
 10
47.365462028
 20
59.5121901159
 30
0.0
  0
SPLINE
  5
293
100
AcDbEntity
  8
0
100
AcDbSpline
 62
7
  6
BYLAYER
 70
0
 71
3
 72
14
 73
10
 74
0
 42
0.0000001
 43
0.0000001
 44
0.0000000001
 40
0.0
 40
0.0
 40
0.0
 40
0.0
 40
0.2767096237
 40
0.4080659864
 40
0.5344873923
 40
0.65620717
 40
0.7737520014
 40
0.8880212484
 40
1.0
 40
1.0
 40
1.0
 40
1.0
 10
46.3919863219
 20
66.4075442232
 30
0.0
 10
46.2193286165
 20
66.4806460299
 30
0.0
 10
45.9530495852
 20
66.5647092935
 30
0.0
 10
45.5935519853
 20
66.6136138468
 30
0.0
 10
45.3357230514
 20
66.617239968
 30
0.0
 10
45.0888749483
 20
66.5883307677
 30
0.0
 10
44.856396674
 20
66.5270456027
 30
0.0
 10
44.6418158266
 20
66.4341331573
 30
0.0
 10
44.5118255538
 20
66.3513971125
 30
0.0
 10
44.4513708559
 20
66.3055458623
 30
0.0
  0
SPLINE
  5
294
100
AcDbEntity
  8
0
100
AcDbSpline
 62
7
  6
BYLAYER
 70
0
 71
3
 72
11
 73
7
 74
0
 42
0.0000001
 43
0.0000001
 44
0.0000000001
 40
0.0
 40
0.0
 40
0.0
 40
0.0
 40
0.2538104147
 40
0.507605006
 40
0.7575126171
 40
1.0
 40
1.0
 40
1.0
 40
1.0
 10
47.8246017878
 20
65.2448418508
 30
0.0
 10
47.7322828126
 20
65.3729191786
 30
0.0
 10
47.5302688496
 20
65.616994839
 30
0.0
 10
47.1840873315
 20
65.9386017595
 30
0.0
 10
46.8041301698
 20
66.2075541405
 30
0.0
 10
46.5308876297
 20
66.3487345886
 30
0.0
 10
46.3919863219
 20
66.4075442232
 30
0.0
  0
SPLINE
  5
295
100
AcDbEntity
  8
0
100
AcDbSpline
 62
7
  6
BYLAYER
 70
0
 71
3
 72
9
 73
5
 74
0
 42
0.0000001
 43
0.0000001
 44
0.0000000001
 40
0.0
 40
0.0
 40
0.0
 40
0.0
 40
0.530502906
 40
1.0
 40
1.0
 40
1.0
 40
1.0
 10
48.2961556895
 20
66.4190752237
 30
0.0
 10
48.397195907
 20
66.3567473209
 30
0.0
 10
48.5788543211
 20
66.2237147451
 30
0.0
 10
48.7286443475
 20
66.0538605476
 30
0.0
 10
48.7859616322
 20
65.9658065112
 30
0.0
  0
SPLINE
  5
296
100
AcDbEntity
  8
0
100
AcDbSpline
 62
7
  6
BYLAYER
 70
0
 71
3
 72
11
 73
7
 74
0
 42
0.0000001
 43
0.0000001
 44
0.0000000001
 40
0.0
 40
0.0
 40
0.0
 40
0.0
 40
0.2631828733
 40
0.5153415248
 40
0.7596993018
 40
1.0
 40
1.0
 40
1.0
 40
1.0
 10
48.7859616322
 20
65.9658065112
 30
0.0
 10
48.8094723517
 20
65.9296880217
 30
0.0
 10
48.851319602
 20
65.8560897728
 30
0.0
 10
48.8976709084
 20
65.7402040902
 30
0.0
 10
48.9256856088
 20
65.622394959
 30
0.0
 10
48.9319787208
 20
65.5428986892
 30
0.0
 10
48.9319781315
 20
65.5035492682
 30
0.0
  0
SPLINE
  5
297
100
AcDbEntity
  8
0
100
AcDbSpline
 62
7
  6
BYLAYER
 70
0
 71
3
 72
11
 73
7
 74
0
 42
0.0000001
 43
0.0000001
 44
0.0000000001
 40
0.0
 40
0.0
 40
0.0
 40
0.0
 40
0.2341159496
 40
0.4774572437
 40
0.7324614193
 40
1.0
 40
1.0
 40
1.0
 40
1.0
 10
45.167364511
 20
66.9156686336
 30
0.0
 10
45.2543422775
 20
66.9605256329
 30
0.0
 10
45.4413991772
 20
67.0342270573
 30
0.0
 10
45.7436202947
 20
67.0921095133
 30
0.0
 10
46.065077956
 20
67.0984015627
 30
0.0
 10
46.2824408512
 20
67.0690135049
 30
0.0
 10
46.3919863219
 20
67.0465015299
 30
0.0
  0
SPLINE
  5
298
100
AcDbEntity
  8
0
100
AcDbSpline
 62
7
  6
BYLAYER
 70
0
 71
3
 72
18
 73
14
 74
0
 42
0.0000001
 43
0.0000001
 44
0.0000000001
 40
0.0
 40
0.0
 40
0.0
 40
0.0
 40
0.0432732769
 40
0.0875103157
 40
0.1335821859
 40
0.1821926139
 40
0.2338542907
 40
0.2888904323
 40
0.4093858538
 40
0.5433928537
 40
0.6887535391
 40
0.8422837475
 40
1.0
 40
1.0
 40
1.0
 40
1.0
 10
48.9319781315
 20
65.5035492682
 30
0.0
 10
48.9319774519
 20
65.4581678403
 30
0.0
 10
48.923562981
 20
65.3661924394
 30
0.0
 10
48.8862197371
 20
65.2304861678
 30
0.0
 10
48.8245519215
 20
65.0978082862
 30
0.0
 10
48.739476664
 20
64.9694619506
 30
0.0
 10
48.6319160857
 20
64.8465796493
 30
0.0
 10
48.454653458
 20
64.6866934047
 30
0.0
 10
48.1805243531
 20
64.5089596539
 30
0.0
 10
47.7952367839
 20
64.3399884634
 30
0.0
 10
47.3576440473
 20
64.2145695268
 30
0.0
 10
46.8840759076
 20
64.1374634929
 30
0.0
 10
46.5573860617
 20
64.1201661194
 30
0.0
 10
46.3919863219
 20
64.1201661194
 30
0.0
  0
SPLINE
  5
299
100
AcDbEntity
  8
0
100
AcDbSpline
 62
7
  6
BYLAYER
 70
0
 71
3
 72
11
 73
7
 74
0
 42
0.0000001
 43
0.0000001
 44
0.0000000001
 40
0.0
 40
0.0
 40
0.0
 40
0.0
 40
0.2706200631
 40
0.5325473812
 40
0.7777219045
 40
1.0
 40
1.0
 40
1.0
 40
1.0
 10
46.3919863219
 20
59.406655988
 30
0.0
 10
46.517400192
 20
59.406655988
 30
0.0
 10
46.7644483151
 20
59.4210063006
 30
0.0
 10
47.1201010337
 20
59.4849281505
 30
0.0
 10
47.4430049947
 20
59.5882519687
 30
0.0
 10
47.6378714915
 20
59.6859257738
 30
0.0
 10
47.7247245066
 20
59.741313079
 30
0.0
  0
SPLINE
  5
29A
100
AcDbEntity
  8
0
100
AcDbSpline
 62
7
  6
BYLAYER
 70
0
 71
3
 72
11
 73
7
 74
0
 42
0.0000001
 43
0.0000001
 44
0.0000000001
 40
0.0
 40
0.0
 40
0.0
 40
0.0
 40
0.2354642812
 40
0.4843225697
 40
0.7413320227
 40
1.0
 40
1.0
 40
1.0
 40
1.0
 10
46.3919863219
 20
67.0465015299
 30
0.0
 10
46.5763114673
 20
67.0086220718
 30
0.0
 10
46.9472592192
 20
66.8869298657
 30
0.0
 10
47.466715997
 20
66.5955354843
 30
0.0
 10
47.940969388
 20
66.2056232734
 30
0.0
 10
48.2117247394
 20
65.8917567675
 30
0.0
 10
48.3326017878
 20
65.7240598309
 30
0.0
  0
SPLINE
  5
29B
100
AcDbEntity
  8
0
100
AcDbSpline
 62
7
  6
BYLAYER
 70
0
 71
3
 72
18
 73
14
 74
0
 42
0.0000001
 43
0.0000001
 44
0.0000000001
 40
0.0
 40
0.0
 40
0.0
 40
0.0
 40
0.0432732769
 40
0.0875103157
 40
0.1335821859
 40
0.1821926139
 40
0.2338542907
 40
0.2888904323
 40
0.4093858538
 40
0.5433928537
 40
0.6887535391
 40
0.8422837475
 40
1.0
 40
1.0
 40
1.0
 40
1.0
 10
43.8519945123
 20
65.2905269439
 30
0.0
 10
43.8519951919
 20
65.245145516
 30
0.0
 10
43.8604096628
 20
65.1531701152
 30
0.0
 10
43.8977529067
 20
65.0174638436
 30
0.0
 10
43.9594207223
 20
64.8847859619
 30
0.0
 10
44.0444959798
 20
64.7564396264
 30
0.0
 10
44.1520565581
 20
64.633557325
 30
0.0
 10
44.3293191858
 20
64.4736710804
 30
0.0
 10
44.6034482907
 20
64.2959373297
 30
0.0
 10
44.9887358599
 20
64.1269661391
 30
0.0
 10
45.4263285965
 20
64.0015472026
 30
0.0
 10
45.8998967362
 20
63.9244411687
 30
0.0
 10
46.2265865821
 20
63.9071437952
 30
0.0
 10
46.3919863219
 20
63.9071437952
 30
0.0
  0
SPLINE
  5
29C
100
AcDbEntity
  8
0
100
AcDbSpline
 62
7
  6
BYLAYER
 70
0
 71
3
 72
9
 73
5
 74
0
 42
0.0000001
 43
0.0000001
 44
0.0000000001
 40
0.0
 40
0.0
 40
0.0
 40
0.0
 40
0.4735665741
 40
1.0
 40
1.0
 40
1.0
 40
1.0
 10
44.4513708559
 20
66.3055458623
 30
0.0
 10
44.4825438142
 20
66.3672658378
 30
0.0
 10
44.5665506856
 20
66.4886956066
 30
0.0
 10
44.6740586026
 20
66.5888763367
 30
0.0
 10
44.7343513665
 20
66.6365518962
 30
0.0
  0
SPLINE
  5
29D
100
AcDbEntity
  8
0
100
AcDbSpline
 62
7
  6
BYLAYER
 70
0
 71
3
 72
10
 73
6
 74
0
 42
0.0000001
 43
0.0000001
 44
0.0000000001
 40
0.0
 40
0.0
 40
0.0
 40
0.0
 40
0.4590572122
 40
0.7190543157
 40
1.0
 40
1.0
 40
1.0
 40
1.0
 10
48.3326017878
 20
65.7240598309
 30
0.0
 10
48.2838454881
 20
65.6275262392
 30
0.0
 10
48.1744643526
 20
65.4924438294
 30
0.0
 10
47.9911391262
 20
65.3443563993
 30
0.0
 10
47.8825487593
 20
65.2768241132
 30
0.0
 10
47.8246017878
 20
65.2448418508
 30
0.0
  0
SPLINE
  5
29E
100
AcDbEntity
  8
0
100
AcDbSpline
 62
7
  6
BYLAYER
 70
0
 71
3
 72
11
 73
7
 74
0
 42
0.0000001
 43
0.0000001
 44
0.0000000001
 40
0.0
 40
0.0
 40
0.0
 40
0.0
 40
0.2222780955
 40
0.4674526188
 40
0.7293799369
 40
1.0
 40
1.0
 40
1.0
 40
1.0
 10
45.0592481372
 20
59.741313079
 30
0.0
 10
45.1461011522
 20
59.6859257738
 30
0.0
 10
45.3409676491
 20
59.5882519687
 30
0.0
 10
45.6638716101
 20
59.4849281505
 30
0.0
 10
46.0195243287
 20
59.4210063006
 30
0.0
 10
46.2665724518
 20
59.406655988
 30
0.0
 10
46.3919863219
 20
59.406655988
 30
0.0
  0
SPLINE
  5
29F
100
AcDbEntity
  8
0
100
AcDbSpline
 62
7
  6
BYLAYER
 70
0
 71
3
 72
18
 73
14
 74
0
 42
0.0000001
 43
0.0000001
 44
0.0000000001
 40
0.0
 40
0.0
 40
0.0
 40
0.0
 40
0.0432401769
 40
0.0875046804
 40
0.1335942366
 40
0.1822027796
 40
0.2338601414
 40
0.2888972657
 40
0.4093963717
 40
0.5434024118
 40
0.6887590946
 40
0.8422842191
 40
1.0
 40
1.0
 40
1.0
 40
1.0
 10
48.8049863219
 20
65.5035492684
 30
0.0
 10
48.8049863219
 20
65.460469775
 30
0.0
 10
48.7969705205
 20
65.3731014375
 30
0.0
 10
48.7615214988
 20
65.244163051
 30
0.0
 10
48.7029475447
 20
65.1180633619
 30
0.0
 10
48.6220996037
 20
64.9961359302
 30
0.0
 10
48.5199082982
 20
64.8794131196
 30
0.0
 10
48.3515051935
 20
64.7275242962
 30
0.0
 10
48.0910805326
 20
64.5586718605
 30
0.0
 10
47.7250533245
 20
64.3981579594
 30
0.0
 10
47.3093484228
 20
64.2790151781
 30
0.0
 10
46.8594666224
 20
64.2057673606
 30
0.0
 10
46.5491160197
 20
64.1893352769
 30
0.0
 10
46.3919863219
 20
64.1893352769
 30
0.0
  0
SPLINE
  5
2A0
100
AcDbEntity
  8
0
100
AcDbSpline
 62
7
  6
BYLAYER
 70
0
 71
3
 72
21
 73
17
 74
0
 42
0.0000001
 43
0.0000001
 44
0.0000000001
 40
0.0
 40
0.0
 40
0.0
 40
0.0
 40
0.1652280616
 40
0.324109373
 40
0.3994199779
 40
0.4711447027
 40
0.538812078
 40
0.6021296217
 40
0.6609977004
 40
0.7155697594
 40
0.7663013521
 40
0.8139974224
 40
0.8598040236
 40
0.9051170246
 40
0.9514062763
 40
1.0
 40
1.0
 40
1.0
 40
1.0
 10
46.3919863219
 20
64.1893352769
 30
0.0
 10
46.2038261527
 20
64.1893352769
 30
0.0
 10
45.8343324819
 20
64.2126858137
 30
0.0
 10
45.3864650914
 20
64.3007547996
 30
0.0
 10
45.0541033596
 20
64.4062256481
 30
0.0
 10
44.8275530577
 20
64.4989900874
 30
0.0
 10
44.6224251262
 20
64.6056434053
 30
0.0
 10
44.441449312
 20
64.72472081
 30
0.0
 10
44.2871115144
 20
64.8547800016
 30
0.0
 10
44.1615122748
 20
64.9941856862
 30
0.0
 10
44.0665919438
 20
65.1413208217
 30
0.0
 10
44.0040042416
 20
65.2943209171
 30
0.0
 10
43.9752029841
 20
65.4509833089
 30
0.0
 10
43.9809885178
 20
65.6086189036
 30
0.0
 10
44.0211594062
 20
65.7642987712
 30
0.0
 10
44.0687279286
 20
65.8621467167
 30
0.0
 10
44.0970844177
 20
65.9096673685
 30
0.0
  0
SPLINE
  5
2A1
100
AcDbEntity
  8
0
100
AcDbSpline
 62
7
  6
BYLAYER
 70
0
 71
3
 72
18
 73
14
 74
0
 42
0.0000001
 43
0.0000001
 44
0.0000000001
 40
0.0
 40
0.0
 40
0.0
 40
0.0
 40
0.1577158219
 40
0.3112424607
 40
0.4566014734
 40
0.5906071977
 40
0.7111035312
 40
0.7661410703
 40
0.8178037097
 40
0.8664155901
 40
0.9124883269
 40
0.9567262199
 40
1.0
 40
1.0
 40
1.0
 40
1.0
 10
46.3919863219
 20
64.1201661194
 30
0.0
 10
46.2265869985
 20
64.1201661194
 30
0.0
 10
45.8999012357
 20
64.1374625937
 30
0.0
 10
45.4263388827
 20
64.2145675238
 30
0.0
 10
44.988751984
 20
64.3399815739
 30
0.0
 10
44.6034646496
 20
64.5089492003
 30
0.0
 10
44.3293353732
 20
64.68668358
 30
0.0
 10
44.1520648955
 20
64.8465667332
 30
0.0
 10
44.0445043079
 20
64.9694542523
 30
0.0
 10
43.9594223785
 20
65.0978003527
 30
0.0
 10
43.8977555309
 20
65.230482601
 30
0.0
 10
43.860409577
 20
65.3661902386
 30
0.0
 10
43.8519938326
 20
65.4581673034
 30
0.0
 10
43.8519945123
 20
65.5035492686
 30
0.0
  0
SPLINE
  5
2A2
100
AcDbEntity
  8
0
100
AcDbSpline
 62
7
  6
BYLAYER
 70
0
 71
3
 72
18
 73
14
 74
0
 42
0.0000001
 43
0.0000001
 44
0.0000000001
 40
0.0
 40
0.0
 40
0.0
 40
0.0
 40
0.1577158219
 40
0.3112424607
 40
0.4566014734
 40
0.5906071977
 40
0.7111035312
 40
0.7661410703
 40
0.8178037097
 40
0.8664155901
 40
0.9124883269
 40
0.9567262199
 40
1.0
 40
1.0
 40
1.0
 40
1.0
 10
46.3919863219
 20
63.9071437952
 30
0.0
 10
46.5573856452
 20
63.9071437952
 30
0.0
 10
46.8840714081
 20
63.9244402694
 30
0.0
 10
47.3576337611
 20
64.0015451995
 30
0.0
 10
47.7952206597
 20
64.1269592496
 30
0.0
 10
48.1805079942
 20
64.295926876
 30
0.0
 10
48.4546372705
 20
64.4736612557
 30
0.0
 10
48.6319077483
 20
64.633544409
 30
0.0
 10
48.7394683358
 20
64.7564319281
 30
0.0
 10
48.8245502653
 20
64.8847780284
 30
0.0
 10
48.8862171129
 20
65.0174602767
 30
0.0
 10
48.9235630668
 20
65.1531679143
 30
0.0
 10
48.9319788111
 20
65.2451449791
 30
0.0
 10
48.9319781315
 20
65.2905269444
 30
0.0
  0
SPLINE
  5
2A3
100
AcDbEntity
  8
00_COMPONENTS_1
100
AcDbSpline
 62
7
  6
BYLAYER
 70
0
 71
3
 72
15
 73
11
 74
0
 42
0.0000001
 43
0.0000001
 44
0.0000000001
 40
0.0
 40
0.0
 40
0.0
 40
0.0
 40
0.1262643924
 40
0.2515123322
 40
0.3759716731
 40
0.5
 40
0.6240283269
 40
0.7484876678
 40
0.8737356076
 40
1.0
 40
1.0
 40
1.0
 40
1.0
 10
35.1847906548
 20
28.6341558213
 30
0.0
 10
35.602640481
 20
28.5035945841
 30
0.0
 10
36.4429999913
 20
28.2681455378
 30
0.0
 10
37.7206421412
 20
28.0039360677
 30
0.0
 10
39.0075079282
 20
27.8404527463
 30
0.0
 10
40.2994384884
 20
27.785043047
 30
0.0
 10
41.5913690485
 20
27.8404527463
 30
0.0
 10
42.8782348356
 20
28.0039360677
 30
0.0
 10
44.1558769854
 20
28.2681455378
 30
0.0
 10
44.9962364957
 20
28.5035945841
 30
0.0
 10
45.4140863219
 20
28.6341558213
 30
0.0
  0
SPLINE
  5
2A4
100
AcDbEntity
  8
00_COMPONENTS_1
100
AcDbSpline
 62
7
  6
BYLAYER
 70
0
 71
3
 72
15
 73
11
 74
0
 42
0.0000001
 43
0.0000001
 44
0.0000000001
 40
0.0
 40
0.0
 40
0.0
 40
0.0
 40
0.12500029
 40
0.2500023334
 40
0.3750011493
 40
0.5
 40
0.6249988507
 40
0.7499976666
 40
0.87499971
 40
1.0
 40
1.0
 40
1.0
 40
1.0
 10
20.7183819889
 20
28.6341558213
 30
0.0
 10
21.3119398739
 20
28.503013728
 30
0.0
 10
22.5050802965
 20
28.2668925411
 30
0.0
 10
24.3103839729
 20
28.0032784326
 30
0.0
 10
26.1277216101
 20
27.8402990658
 30
0.0
 10
27.9515863219
 20
27.7850878293
 30
0.0
 10
29.7754510336
 20
27.8402990658
 30
0.0
 10
31.5927886709
 20
28.0032784326
 30
0.0
 10
33.3980923473
 20
28.2668925411
 30
0.0
 10
34.5912327699
 20
28.503013728
 30
0.0
 10
35.1847906548
 20
28.6341558213
 30
0.0
  0
SPLINE
  5
2A5
100
AcDbEntity
  8
00_COMPONENTS_1
100
AcDbSpline
 62
7
  6
BYLAYER
 70
0
 71
3
 72
15
 73
11
 74
0
 42
0.0000001
 43
0.0000001
 44
0.0000000001
 40
0.0
 40
0.0
 40
0.0
 40
0.0
 40
0.1262643924
 40
0.2515123322
 40
0.3759716731
 40
0.5
 40
0.6240283269
 40
0.7484876678
 40
0.8737356076
 40
1.0
 40
1.0
 40
1.0
 40
1.0
 10
10.4890863219
 20
28.6341558213
 30
0.0
 10
10.9069361481
 20
28.5035945841
 30
0.0
 10
11.7472956584
 20
28.2681455378
 30
0.0
 10
13.0249378082
 20
28.0039360677
 30
0.0
 10
14.3118035952
 20
27.8404527463
 30
0.0
 10
15.6037341554
 20
27.785043047
 30
0.0
 10
16.8956647156
 20
27.8404527463
 30
0.0
 10
18.1825305026
 20
28.0039360677
 30
0.0
 10
19.4601726525
 20
28.2681455378
 30
0.0
 10
20.3005321627
 20
28.5035945841
 30
0.0
 10
20.7183819889
 20
28.6341558213
 30
0.0
  0
ENDSEC
  0
SECTION
  2
OBJECTS
  0
DICTIONARY
  5
C
100
AcDbDictionary
280
0
281
1
  3
ACAD_GROUP
350
D
  3
ACAD_MLINESTYLE
350
17
  3
ACAD_LAYOUT
350
1A
  3
ACAD_PLOTSETTINGS
350
19
  3
ACAD_PLOTSTYLENAME
350
E
  0
DICTIONARY
  5
D
102
{ACAD_REACTORS
330
C
102
}
100
AcDbDictionary
280
0
281
1
  0
ACDBDICTIONARYWDFLT
  5
E
102
{ACAD_REACTORS
330
C
102
}
100
AcDbDictionary
281
1
  3
Normal
350
F
100
AcDbDictionaryWithDefault
340
F
  0
DICTIONARY
  5
17
102
{ACAD_REACTORS
330
C
102
}
100
AcDbDictionary
280
0
281
1
  3
Standard
350
18
  0
DICTIONARY
  5
19
102
{ACAD_REACTORS
330
C
102
}
100
AcDbDictionary
281
1
  0
DICTIONARY
  5
1A
102
{ACAD_REACTORS
330
C
102
}
100
AcDbDictionary
281
1
  3
Model
350
2A6
  3
Layout1
350
2A7
  0
ACDBPLACEHOLDER
  5
F
102
{ACAD_REACTORS
330
E
102
}
  0
MLINESTYLE
  5
18
102
{ACAD_REACTORS
330
17
102
}
100
AcDbMlineStyle
  2
STANDARD
 70
0
  3

 62
256
 51
90.0
 52
90.0
 71
2
 49
0.5
 62
256
  6
BYLAYER
 49
-0.5
 62
256
  6
BYLAYER
  0
LAYOUT
  5
2A6
102
{ACAD_REACTORS
330
1A
102
}
100
AcDbPlotSettings
  1

  2
none_device
  4

  6

 40
0.0
 41
0.0
 42
0.0
 43
0.0
 44
210.0
 45
297.0
 46
0.0
 47
0.0
 48
0.0
 49
0.0
140
0.0
141
0.0
142
1.0
143
1.0
 70
1024
 72
1
 73
0
 74
0
  7

 75
0
147
1.0
148
0.0
149
0.0
100
AcDbLayout
  1
Model
 70
0
 71
0
 10
0.0
 20
0.0
 11
210.0
 21
297.0
 12
0.0
 22
0.0
 32
0.0
 14
0.0
 24
0.0
 34
0.0
 15
0.0
 25
0.0
 35
0.0
146
0.0
 13
0.0
 23
0.0
 33
0.0
 16
1.0
 26
0.0
 36
0.0
 17
0.0
 27
1.0
 37
0.0
 76
0
330
21E
345
0
346
0
  0
LAYOUT
  5
2A7
102
{ACAD_REACTORS
330
1A
102
}
100
AcDbPlotSettings
  1

  2
none_device
  4

  6

 40
0.0
 41
0.0
 42
0.0
 43
0.0
 44
210.0
 45
297.0
 46
0.0
 47
0.0
 48
0.0
 49
0.0
140
0.0
141
0.0
142
1.0
143
1.0
 70
0
 72
1
 73
0
 74
0
  7

 75
0
147
1.0
148
0.0
149
0.0
100
AcDbLayout
  1
Layout1
 70
0
 71
1
 10
0.0
 20
0.0
 11
210.0
 21
297.0
 12
0.0
 22
0.0
 32
0.0
 14
0.0
 24
0.0
 34
0.0
 15
0.0
 25
0.0
 35
0.0
146
0.0
 13
0.0
 23
0.0
 33
0.0
 16
1.0
 26
0.0
 36
0.0
 17
0.0
 27
1.0
 37
0.0
 76
0
330
21F
345
0
346
0
  0
ENDSEC
  0
EOF
