999
DXF file: C:\Users\sesa63760\Dev\_Creo\CAD\MCADPD0004128_3D-CAD\drw0001_6.dxf
999
Pro/ENGINEER 2019471 by Parametric Technology Corporation
  0
SECTION
  2
HEADER
  9
$ACADVER
  1
AC1024
  9
$DWGCODEPAGE
  3
ANSI_1252
  9
$EXTMAX
 10
108.6416997242
 20
153.6504038957
 30
0.0
  9
$EXTMIN
 10
0.0
 20
0.0
 30
0.0
  9
$LIMMIN
 10
0.0
 20
0.0
  9
$LIMMAX
 10
108.6416997242
 20
153.6504038957
  9
$VIEWCTR
 10
54.3208498621
 20
76.8252019478
  9
$VIEWSIZE
 40
153.6504038957
  9
$CLAYER
  8
0
  9
$LTSCALE
 40
10.0157300317
  9
$CELTYPE
  6
BYLAYER
  9
$DIMSCALE
 40
1.0
  9
$DIMASZ
 40
1.2933535681
  9
$DIMEXO
 40
1.0
  9
$DIMDLI
 40
6.919958931
  9
$DIMEXE
 40
1.0
  9
$DIMCEN
 40
1.6389376416
  9
$DIMLFAC
 40
1.0
  9
$DIMBLK
  1
_FILLED
  9
$DIMALT
 70
0
  9
$DIMALTF
 40
0.0393700787
  9
$DIMTXT
 40
1.8106949954
  9
$DIMTOL
 70
1
  9
$DIMLIM
 70
0
  9
$DIMTFAC
 40
1.0
  9
$DIMTP
 40
0.01
  9
$DIMTM
 40
0.01
  9
$DIMGAP
 40
0.625
  9
$DIMDSEP
 70
46
  9
$AUNITS
 70
0
  9
$PDMODE
 70
3
  9
$PDSIZE
 40
0.3125
  9
$HANDSEED
  5
264
  9
$TILEMODE
 70
1
  9
$MEASUREMENT
 70
1
  9
$INSUNITS
 70
4
  0
ENDSEC
  0
SECTION
  2
CLASSES
  0
CLASS
  1
ACDBDICTIONARYWDFLT
  2
AcDbDictionaryWithDefault
  3
AutoCAD 2000
 90
0
 91
1
280
0
281
0
  0
CLASS
  1
ACDBPLACEHOLDER
  2
AcDbPlaceHolder
  3
AutoCAD 2000
 90
0
 91
1
280
0
281
0
  0
CLASS
  1
LAYOUT
  2
AcDbLayout
  3
AutoCAD 2000
 90
0
 91
0
280
0
281
0
  0
ENDSEC
  0
SECTION
  2
TABLES
  0
TABLE
  2
VPORT
  5
8
100
AcDbSymbolTable
 70
2
  0
VPORT
  5
1F4
100
AcDbSymbolTableRecord
100
AcDbViewportTableRecord
  2
*ACTIVE
 70
0
 10
0.0
 20
0.0
 11
1.0
 21
1.0
 12
54.3208498621
 22
76.8252019478
 13
0.0
 23
0.0
 14
1.0
 24
1.0
 15
0.0
 25
0.0
 16
0.0
 26
0.0
 36
1.0
 17
0.0
 27
0.0
 37
0.0
 40
153.6504038957
 41
0.7070707071
 42
50.0
 43
0.0
 44
0.0
 50
0.0
 51
0.0
 71
0
 72
100
 73
1
 74
1
 75
0
 76
0
 77
0
 78
0
  0
ENDTAB
  0
TABLE
  2
LTYPE
  5
5
100
AcDbSymbolTable
 70
6
  0
LTYPE
  5
14
100
AcDbSymbolTableRecord
100
AcDbLinetypeTableRecord
  2
BYBLOCK
 70
0
  3

 72
65
 73
0
 40
0.0
  0
LTYPE
  5
15
100
AcDbSymbolTableRecord
100
AcDbLinetypeTableRecord
  2
BYLAYER
 70
0
  3

 72
65
 73
0
 40
0.0
  0
LTYPE
  5
16
100
AcDbSymbolTableRecord
100
AcDbLinetypeTableRecord
  2
CONTINUOUS
 70
64
  3
Solid line
 72
65
 73
0
 40
0.0
  0
LTYPE
  5
1F5
100
AcDbSymbolTableRecord
100
AcDbLinetypeTableRecord
  2
CENTER
 70
64
  3
____ _ ____ _ ____ _ ____ _ ____ _ ____ _ ____
 72
65
 73
4
 40
0.6
 49
0.375
 74
0
 49
-0.075
 74
0
 49
0.075
 74
0
 49
-0.075
 74
0
  0
LTYPE
  5
1F6
100
AcDbSymbolTableRecord
100
AcDbLinetypeTableRecord
  2
HIDDEN
 70
64
  3
- - - - - - - - - - - - - - - - - - - -
 72
65
 73
2
 40
0.2
 49
0.1
 74
0
 49
-0.1
 74
0
  0
LTYPE
  5
1F7
100
AcDbSymbolTableRecord
100
AcDbLinetypeTableRecord
  2
PHANTOM
 70
64
  3
_____ _ _ _____ _ _ _____ _ _ _____
 72
65
 73
6
 40
0.8
 49
0.45
 74
0
 49
-0.05
 74
0
 49
0.1
 74
0
 49
-0.05
 74
0
 49
0.1
 74
0
 49
-0.05
 74
0
  0
LTYPE
  5
1F8
100
AcDbSymbolTableRecord
100
AcDbLinetypeTableRecord
  2
DOT
 70
64
  3
. . . . . . . . . . . . . . . . . . . .
 72
65
 73
2
 40
0.2
 49
0.1
 74
0
 49
-0.1
 74
0
  0
LTYPE
  5
1F9
100
AcDbSymbolTableRecord
100
AcDbLinetypeTableRecord
  2
DASHED
 70
64
  3
- - - - - - - - - - - - - - - - - - - -
 72
65
 73
2
 40
0.2
 49
0.1
 74
0
 49
-0.1
 74
0
  0
ENDTAB
  0
TABLE
  2
LAYER
  5
2
100
AcDbSymbolTable
 70
36
  0
LAYER
  5
10
100
AcDbSymbolTableRecord
100
AcDbLayerTableRecord
  2
0
 70
0
 62
7
  6
CONTINUOUS
370
-3
390
F
  0
LAYER
  5
1FA
100
AcDbSymbolTableRecord
100
AcDbLayerTableRecord
  2
DEFAULT_1
 70
0
 62
7
  6
CENTER
370
-3
390
F
  0
LAYER
  5
1FB
100
AcDbSymbolTableRecord
100
AcDbLayerTableRecord
  2
DEFAULT_2
 70
0
 62
7
  6
HIDDEN
370
-3
390
F
  0
LAYER
  5
1FC
100
AcDbSymbolTableRecord
100
AcDbLayerTableRecord
  2
DEFAULT_3
 70
0
 62
7
  6
PHANTOM
370
-3
390
F
  0
LAYER
  5
1FD
100
AcDbSymbolTableRecord
100
AcDbLayerTableRecord
  2
00_COMPONENTS
 70
0
 62
7
  6
CONTINUOUS
370
-3
390
F
  0
LAYER
  5
1FE
100
AcDbSymbolTableRecord
100
AcDbLayerTableRecord
  2
01_1_DEFAULT_DATUMS
 70
0
 62
7
  6
CONTINUOUS
370
-3
390
F
  0
LAYER
  5
1FF
100
AcDbSymbolTableRecord
100
AcDbLayerTableRecord
  2
01_PLANES
 70
0
 62
7
  6
CONTINUOUS
370
-3
390
F
  0
LAYER
  5
200
100
AcDbSymbolTableRecord
100
AcDbLayerTableRecord
  2
02_COORD_SYS
 70
0
 62
7
  6
CONTINUOUS
370
-3
390
F
  0
LAYER
  5
201
100
AcDbSymbolTableRecord
100
AcDbLayerTableRecord
  2
03_AXES
 70
0
 62
7
  6
CONTINUOUS
370
-3
390
F
  0
LAYER
  5
202
100
AcDbSymbolTableRecord
100
AcDbLayerTableRecord
  2
04_POINTS
 70
0
 62
7
  6
CONTINUOUS
370
-3
390
F
  0
LAYER
  5
203
100
AcDbSymbolTableRecord
100
AcDbLayerTableRecord
  2
05_CURVES
 70
0
 62
7
  6
CONTINUOUS
370
-3
390
F
  0
LAYER
  5
204
100
AcDbSymbolTableRecord
100
AcDbLayerTableRecord
  2
06_SURFS
 70
0
 62
7
  6
CONTINUOUS
370
-3
390
F
  0
LAYER
  5
205
100
AcDbSymbolTableRecord
100
AcDbLayerTableRecord
  2
07_COSMETICS
 70
0
 62
7
  6
CONTINUOUS
370
-3
390
F
  0
LAYER
  5
206
100
AcDbSymbolTableRecord
100
AcDbLayerTableRecord
  2
10_NOTES
 70
0
 62
7
  6
CONTINUOUS
370
-3
390
F
  0
LAYER
  5
207
100
AcDbSymbolTableRecord
100
AcDbLayerTableRecord
  2
11_NOTES_PUB
 70
0
 62
7
  6
CONTINUOUS
370
-3
390
F
  0
LAYER
  5
208
100
AcDbSymbolTableRecord
100
AcDbLayerTableRecord
  2
13_REF_GTOL
 70
0
 62
7
  6
CONTINUOUS
370
-3
390
F
  0
LAYER
  5
209
100
AcDbSymbolTableRecord
100
AcDbLayerTableRecord
  2
16_MISC
 70
0
 62
7
  6
CONTINUOUS
370
-3
390
F
  0
LAYER
  5
20A
100
AcDbSymbolTableRecord
100
AcDbLayerTableRecord
  2
17_NO_PRINT
 70
0
 62
7
  6
CONTINUOUS
370
-3
390
F
  0
LAYER
  5
20B
100
AcDbSymbolTableRecord
100
AcDbLayerTableRecord
  2
18_DATUM_CAMS_JOINTS
 70
0
 62
7
  6
CONTINUOUS
370
-3
390
F
  0
LAYER
  5
20C
100
AcDbSymbolTableRecord
100
AcDbLayerTableRecord
  2
19_DATUM_FUNCTIONAL
 70
0
 62
7
  6
CONTINUOUS
370
-3
390
F
  0
LAYER
  5
20D
100
AcDbSymbolTableRecord
100
AcDbLayerTableRecord
  2
20_DATUM_KINEMATIC_SCHEME
 70
0
 62
7
  6
CONTINUOUS
370
-3
390
F
  0
ENDTAB
  0
TABLE
  2
STYLE
  5
3
100
AcDbSymbolTable
 70
1
  0
STYLE
  5
11
100
AcDbSymbolTableRecord
100
AcDbTextStyleTableRecord
  2
STANDARD
 70
0
 40
0.0
 41
1.0
 50
0.0
 71
0
 42
0.2
  3
ARIAL.TTF
  4

  0
STYLE
  5
20E
100
AcDbSymbolTableRecord
100
AcDbTextStyleTableRecord
  2
TEXTSTYLE_1
 70
0
 40
0.0
 41
0.8
 50
0.0
 71
0
 42
0.2
  3
gdt
  4

  0
ENDTAB
  0
TABLE
  2
VIEW
  5
6
100
AcDbSymbolTable
 70
0
  0
ENDTAB
  0
TABLE
  2
UCS
  5
7
100
AcDbSymbolTable
 70
0
  0
ENDTAB
  0
TABLE
  2
APPID
  5
9
100
AcDbSymbolTable
 70
1
  0
APPID
  5
20F
100
AcDbSymbolTableRecord
100
AcDbRegAppTableRecord
  2
ACAD
 70
0
  0
ENDTAB
  0
TABLE
  2
BLOCK_RECORD
  5
1
100
AcDbSymbolTable
 70
0
  0
BLOCK_RECORD
  5
210
100
AcDbSymbolTableRecord
100
AcDbBlockTableRecord
  2
*Model_Space
  0
BLOCK_RECORD
  5
211
100
AcDbSymbolTableRecord
100
AcDbBlockTableRecord
  2
*Paper_Space
  0
BLOCK_RECORD
  5
212
100
AcDbSymbolTableRecord
100
AcDbBlockTableRecord
  2
_FILLED
  0
ENDTAB
  0
TABLE
  2
DIMSTYLE
  5
A
100
AcDbSymbolTable
 70
1
100
AcDbDimStyleTable
 71
0
  0
DIMSTYLE
105
213
100
AcDbSymbolTableRecord
100
AcDbDimStyleTableRecord
  2
STANDARD
 70
0
  3

  4

 40
1.0
 41
1.2933535681
 42
1.0
 43
0.38
 44
1.0
 45
0.0
 46
0.0
 47
0.01
 48
0.01
140
1.8106949954
141
0.09
142
0.0
143
25.4
144
1.0
145
0.0
146
1.0
147
0.625
 71
1
 72
0
 73
0
 74
0
 75
0
 76
0
 77
1
 78
8
 79
2
170
0
171
1
172
0
173
0
174
0
175
0
176
0
177
0
178
0
270
2
179
2
271
2
272
2
273
2
274
2
275
0
280
0
281
0
282
0
283
1
284
8
285
0
286
0
287
3
288
0
340
11
278
46
341
212
342
212
343
212
344
212
  0
ENDTAB
  0
ENDSEC
  0
SECTION
  2
BLOCKS
  0
BLOCK
  5
20
100
AcDbEntity
  8
0
100
AcDbBlockBegin
  2
*Model_Space
 70
0
 10
0.0
 20
0.0
 30
0.0
  3
*Model_Space
  1

  0
ENDBLK
  5
21
100
AcDbEntity
  8
0
100
AcDbBlockEnd
  0
BLOCK
  5
1C
100
AcDbEntity
  8
0
100
AcDbBlockBegin
  2
*Paper_Space
 70
0
 10
0.0
 20
0.0
 30
0.0
  3
*Paper_Space
  1

  0
ENDBLK
  5
1D
100
AcDbEntity
  8
0
100
AcDbBlockEnd
  0
BLOCK
  5
214
100
AcDbEntity
  8
0
100
AcDbBlockBegin
  2
_FILLED
 70
64
 10
0.0
 20
0.0
  3
_FILLED
  1

  0
SOLID
  5
215
100
AcDbEntity
  8
0
  6
BYBLOCK
 62
0
100
AcDbTrace
 10
0.0
 20
0.0
 11
-1.0
 21
0.25
 12
-1.0
 22
-0.25
 13
-1.0
 23
-0.25
  0
ENDBLK
  5
216
100
AcDbEntity
  8
0
  6
BYBLOCK
 62
0
100
AcDbBlockEnd
  0
ENDSEC
  0
SECTION
  2
ENTITIES
  0
LINE
  5
217
100
AcDbEntity
  8
0
100
AcDbLine
 62
7
  6
BYLAYER
 10
12.3002050183
 20
91.6318400342
 11
12.3002050183
 21
62.4252019478
  0
LINE
  5
218
100
AcDbEntity
  8
0
100
AcDbLine
 62
7
  6
BYLAYER
 10
14.111960231
 20
62.4252019478
 11
14.111960231
 21
91.6792825141
  0
LINE
  5
219
100
AcDbEntity
  8
0
100
AcDbLine
 62
7
  6
BYLAYER
 10
14.6150610252
 20
91.692456672
 11
14.6150610252
 21
62.4252019478
  0
LINE
  5
21A
100
AcDbEntity
  8
0
100
AcDbLine
 62
7
  6
BYLAYER
 10
98.2343985887
 20
38.3252019478
 11
91.2343985887
 21
38.3252019478
  0
LINE
  5
21B
100
AcDbEntity
  8
0
100
AcDbLine
 62
7
  6
BYLAYER
 10
91.2343985887
 20
38.5388637196
 11
98.2343985887
 21
38.5388637196
  0
LINE
  5
21C
100
AcDbEntity
  8
0
100
AcDbLine
 62
7
  6
BYLAYER
 10
19.8917137298
 20
91.8306306859
 11
19.8917137298
 21
102.8252019478
  0
LINE
  5
21D
100
AcDbEntity
  8
0
100
AcDbLine
 62
7
  6
BYLAYER
 10
19.8931455299
 20
62.4252019478
 11
19.8931455299
 21
51.2252019478
  0
LINE
  5
21E
100
AcDbEntity
  8
0
100
AcDbLine
 62
7
  6
BYLAYER
 10
98.2343985887
 20
39.8252019478
 11
91.2343985887
 21
39.8252019478
  0
LINE
  5
21F
100
AcDbEntity
  8
0
100
AcDbLine
 62
7
  6
BYLAYER
 10
34.3931114579
 20
41.0752019478
 11
69.2343985887
 21
41.0752019478
  0
LINE
  5
220
100
AcDbEntity
  8
0
100
AcDbLine
 62
7
  6
BYLAYER
 10
21.5569339562
 20
102.8252019478
 11
21.5569339562
 21
91.8742360121
  0
LINE
  5
221
100
AcDbEntity
  8
0
100
AcDbLine
 62
7
  6
BYLAYER
 10
21.5580359151
 20
51.2252019478
 11
21.5580359151
 21
62.4252019478
  0
LINE
  5
222
100
AcDbEntity
  8
0
100
AcDbLine
 62
7
  6
BYLAYER
 10
21.9693752662
 20
62.4252019478
 11
21.9693752662
 21
51.2252019478
  0
LINE
  5
223
100
AcDbEntity
  8
0
100
AcDbLine
 62
7
  6
BYLAYER
 10
22.224467814
 20
102.8252019478
 11
22.224467814
 21
91.8917160014
  0
LINE
  5
224
100
AcDbEntity
  8
0
100
AcDbLine
 62
7
  6
BYLAYER
 10
91.2343985887
 20
42.9816108032
 11
98.2343985887
 21
42.9816108032
  0
LINE
  5
225
100
AcDbEntity
  8
0
100
AcDbLine
 62
7
  6
BYLAYER
 10
69.2343985887
 20
43.8252019478
 11
91.2343985887
 21
43.8252019478
  0
LINE
  5
226
100
AcDbEntity
  8
0
100
AcDbLine
 62
7
  6
BYLAYER
 10
19.8931533803
 20
51.2252019478
 11
37.135224153
 21
51.2252019478
  0
LINE
  5
227
100
AcDbEntity
  8
0
100
AcDbLine
 62
7
  6
BYLAYER
 10
34.4263963815
 20
110.6751421146
 11
34.426393456
 21
110.6752019478
  0
LINE
  5
228
100
AcDbEntity
  8
0
100
AcDbLine
 62
7
  6
BYLAYER
 10
34.393104292
 20
49.6751282506
 11
34.3931015414
 21
49.6752019478
  0
LINE
  5
229
100
AcDbEntity
  8
0
100
AcDbLine
 62
7
  6
BYLAYER
 10
34.4265174515
 20
110.6700100978
 11
34.4263934564
 21
110.6752019478
  0
LINE
  5
22A
100
AcDbEntity
  8
0
100
AcDbLine
 62
7
  6
BYLAYER
 10
34.3932384563
 20
49.6694407779
 11
34.3931015415
 21
49.6752019478
  0
LINE
  5
22B
100
AcDbEntity
  8
0
100
AcDbLine
 62
7
  6
BYLAYER
 10
34.3931014446
 20
49.6751979691
 11
34.3931033488
 21
49.6750905233
  0
LINE
  5
22C
100
AcDbEntity
  8
0
100
AcDbLine
 62
7
  6
BYLAYER
 10
34.4263931434
 20
110.6751891029
 11
34.4263946941
 21
110.6750750061
  0
LINE
  5
22D
100
AcDbEntity
  8
0
100
AcDbLine
 62
7
  6
BYLAYER
 10
34.3843985887
 20
102.8252019478
 11
34.3843985887
 21
104.2762268336
  0
LINE
  5
22E
100
AcDbEntity
  8
0
100
AcDbLine
 62
7
  6
BYLAYER
 10
34.3843985887
 20
110.6741770621
 11
34.3843985887
 21
112.7252019478
  0
LINE
  5
22F
100
AcDbEntity
  8
0
100
AcDbLine
 62
7
  6
BYLAYER
 10
34.393101442
 20
51.2252019478
 11
34.393101442
 21
49.6751980129
  0
LINE
  5
230
100
AcDbEntity
  8
0
100
AcDbLine
 62
7
  6
BYLAYER
 10
34.393101442
 20
43.2752058828
 11
34.393101442
 21
41.0752019478
  0
LINE
  5
231
100
AcDbEntity
  8
0
100
AcDbLine
 62
7
  6
BYLAYER
 10
34.4263931349
 20
102.8252019478
 11
34.4263931349
 21
104.2752146525
  0
LINE
  5
232
100
AcDbEntity
  8
0
100
AcDbLine
 62
7
  6
BYLAYER
 10
34.4263931349
 20
110.6751892432
 11
34.4263931349
 21
112.7252019478
  0
LINE
  5
233
100
AcDbEntity
  8
0
100
AcDbLine
 62
7
  6
BYLAYER
 10
36.2601018174
 20
41.0752019478
 11
36.2601018174
 21
51.2252019478
  0
LINE
  5
234
100
AcDbEntity
  8
0
100
AcDbLine
 62
7
  6
BYLAYER
 10
36.2689438185
 20
112.7252019478
 11
36.2689438185
 21
102.8252019478
  0
LINE
  5
235
100
AcDbEntity
  8
0
100
AcDbLine
 62
7
  6
BYLAYER
 10
34.42639468
 20
104.2753280857
 11
34.4263931435
 21
104.275214793
  0
LINE
  5
236
100
AcDbEntity
  8
0
100
AcDbLine
 62
7
  6
BYLAYER
 10
34.3931033018
 20
43.2753111213
 11
34.3931014446
 21
43.2752059267
  0
LINE
  5
237
100
AcDbEntity
  8
0
100
AcDbLine
 62
7
  6
BYLAYER
 10
34.4265169797
 20
104.28037342
 11
34.4263965618
 21
104.2752146525
  0
LINE
  5
238
100
AcDbEntity
  8
0
100
AcDbLine
 62
7
  6
BYLAYER
 10
34.3932368588
 20
43.2808952311
 11
34.3931033633
 21
43.2752058828
  0
LINE
  5
239
100
AcDbEntity
  8
0
100
AcDbLine
 62
7
  6
BYLAYER
 10
34.3931015415
 20
43.2752019478
 11
34.3931042411
 21
43.2752740324
  0
LINE
  5
23A
100
AcDbEntity
  8
0
100
AcDbLine
 62
7
  6
BYLAYER
 10
34.4263934564
 20
104.2752019478
 11
34.4263963675
 21
104.2752614077
  0
LINE
  5
23B
100
AcDbEntity
  8
0
100
AcDbLine
 62
7
  6
BYLAYER
 10
37.1347693387
 20
41.0752019478
 11
37.1346197466
 21
112.7252019478
  0
LINE
  5
23C
100
AcDbEntity
  8
0
100
AcDbLine
 62
7
  6
BYLAYER
 10
91.2343985887
 20
59.8252019478
 11
65.2343985887
 21
59.8252019478
  0
LINE
  5
23D
100
AcDbEntity
  8
0
100
AcDbLine
 62
7
  6
BYLAYER
 10
94.7343985887
 20
60.3252019478
 11
92.7343985887
 21
60.3252019478
  0
LINE
  5
23E
100
AcDbEntity
  8
0
100
AcDbLine
 62
7
  6
BYLAYER
 10
12.3002167049
 20
62.4252019478
 11
21.9693752662
 21
62.4252019478
  0
LINE
  5
23F
100
AcDbEntity
  8
0
100
AcDbLine
 62
7
  6
BYLAYER
 10
65.2343985887
 20
59.8252019478
 11
65.2343985887
 21
41.0752019478
  0
LINE
  5
240
100
AcDbEntity
  8
0
100
AcDbLine
 62
7
  6
BYLAYER
 10
65.2343985887
 20
92.9052019478
 11
65.2343985887
 21
112.7252019478
  0
LINE
  5
241
100
AcDbEntity
  8
0
100
AcDbLine
 62
7
  6
BYLAYER
 10
94.7343985887
 20
60.3252019478
 11
98.2343985887
 21
57.8744755641
  0
LINE
  5
242
100
AcDbEntity
  8
0
100
AcDbLine
 62
7
  6
BYLAYER
 10
69.2343985887
 20
41.0752019478
 11
69.2343985887
 21
43.8252019478
  0
LINE
  5
243
100
AcDbEntity
  8
0
100
AcDbLine
 62
7
  6
BYLAYER
 10
69.2343985887
 20
59.8252019478
 11
69.2343985887
 21
92.9052019478
  0
LINE
  5
244
100
AcDbEntity
  8
0
100
AcDbLine
 62
7
  6
BYLAYER
 10
69.2343985887
 20
108.9120052445
 11
69.2343985887
 21
112.7252019478
  0
LINE
  5
245
100
AcDbEntity
  8
0
100
AcDbLine
 62
7
  6
BYLAYER
 10
92.7343985887
 20
92.6252019478
 11
97.0343985887
 21
92.6252019478
  0
LINE
  5
246
100
AcDbEntity
  8
0
100
AcDbLine
 62
7
  6
BYLAYER
 10
98.2343985887
 20
93.8252019478
 11
97.0343985887
 21
92.6252019478
  0
LINE
  5
247
100
AcDbEntity
  8
0
100
AcDbLine
 62
7
  6
BYLAYER
 10
12.3002167286
 20
91.6318403408
 11
22.224467814
 21
91.8917160014
  0
LINE
  5
248
100
AcDbEntity
  8
0
100
AcDbLine
 62
7
  6
BYLAYER
 10
91.2343985887
 20
92.9052019478
 11
65.2343985887
 21
92.9052019478
  0
LINE
  5
249
100
AcDbEntity
  8
0
100
AcDbLine
 62
7
  6
BYLAYER
 10
19.8917215679
 20
102.8252019478
 11
37.1350617418
 21
102.8252019478
  0
LINE
  5
24A
100
AcDbEntity
  8
0
100
AcDbLine
 62
7
  6
BYLAYER
 10
91.2343985887
 20
108.9120052445
 11
69.2343985887
 21
108.9120052445
  0
LINE
  5
24B
100
AcDbEntity
  8
0
100
AcDbLine
 62
7
  6
BYLAYER
 10
91.2343985887
 20
115.3251781054
 11
91.2343985887
 21
38.3252257903
  0
LINE
  5
24C
100
AcDbEntity
  8
0
100
AcDbLine
 62
7
  6
BYLAYER
 10
92.7343985887
 20
60.3252019478
 11
92.7343985887
 21
92.6252019478
  0
LINE
  5
24D
100
AcDbEntity
  8
0
100
AcDbLine
 62
7
  6
BYLAYER
 10
69.2343985887
 20
112.7252019478
 11
34.3844114175
 21
112.7252019478
  0
LINE
  5
24E
100
AcDbEntity
  8
0
100
AcDbLine
 62
7
  6
BYLAYER
 10
98.2343985887
 20
113.5013346426
 11
91.2343985887
 21
113.5013346426
  0
LINE
  5
24F
100
AcDbEntity
  8
0
100
AcDbLine
 62
7
  6
BYLAYER
 10
91.2343985887
 20
114.5954500567
 11
98.2343985887
 21
114.5954500567
  0
LINE
  5
250
100
AcDbEntity
  8
0
100
AcDbLine
 62
7
  6
BYLAYER
 10
98.2343985887
 20
115.3252019478
 11
91.2343985887
 21
115.3252019478
  0
LINE
  5
251
100
AcDbEntity
  8
0
100
AcDbLine
 62
7
  6
BYLAYER
 10
98.2343985887
 20
38.3252257903
 11
98.2343985887
 21
57.8744755641
  0
LINE
  5
252
100
AcDbEntity
  8
0
100
AcDbLine
 62
7
  6
BYLAYER
 10
98.2343985887
 20
93.8252019478
 11
98.2343985887
 21
115.3251781054
  0
SPLINE
  5
253
100
AcDbEntity
  8
0
100
AcDbSpline
 62
7
  6
BYLAYER
 70
0
 71
3
 72
19
 73
15
 74
0
 42
0.0000001
 43
0.0000001
 44
0.0000000001
 40
0.0
 40
0.0
 40
0.0
 40
0.0
 40
0.0103657812
 40
0.0393406272
 40
0.0858151633
 40
0.1480255644
 40
0.3096957134
 40
0.5000067217
 40
0.690316718
 40
0.8519836287
 40
0.9141920475
 40
0.960664389
 40
0.9896368469
 40
1.0
 40
1.0
 40
1.0
 40
1.0
 10
34.4263946941
 20
110.6750750061
 30
0.0
 10
34.4267860184
 20
110.6529634012
 30
0.0
 10
34.4291821625
 20
110.5690637406
 30
0.0
 10
34.4332492212
 20
110.3860255796
 30
0.0
 10
34.4398706671
 20
110.0924069043
 30
0.0
 10
34.4509179035
 20
109.5157178082
 30
0.0
 10
34.4630654948
 20
108.6321265951
 30
0.0
 10
34.4686055983
 20
107.4751606828
 30
0.0
 10
34.4630648234
 20
106.3182016818
 30
0.0
 10
34.4509167972
 20
105.4346237739
 30
0.0
 10
34.4398698385
 20
104.8579504961
 30
0.0
 10
34.4332479874
 20
104.5643458369
 30
0.0
 10
34.4291824687
 20
104.3813230346
 30
0.0
 10
34.4267853687
 20
104.2974340941
 30
0.0
 10
34.42639468
 20
104.2753280857
 30
0.0
  0
SPLINE
  5
254
100
AcDbEntity
  8
0
100
AcDbSpline
 62
7
  6
BYLAYER
 70
0
 71
3
 72
15
 73
11
 74
0
 42
0.0000001
 43
0.0000001
 44
0.0000000001
 40
0.0
 40
0.0
 40
0.0
 40
0.0
 40
0.0392626083
 40
0.14793275
 40
0.3096415625
 40
0.5000206916
 40
0.690396687
 40
0.852096214
 40
0.9607531189
 40
1.0
 40
1.0
 40
1.0
 40
1.0
 10
34.3931033488
 20
49.6750905233
 30
0.0
 10
34.3948566689
 20
49.5913428782
 30
0.0
 10
34.4032715159
 20
49.2758414074
 30
0.0
 10
34.4161309382
 20
48.6153470835
 30
0.0
 10
34.4299503276
 20
47.6324177972
 30
0.0
 10
34.4353765201
 20
46.4750750761
 30
0.0
 10
34.4299490933
 20
45.3177521403
 30
0.0
 10
34.4161249195
 20
44.3348776946
 30
0.0
 10
34.4032743412
 20
43.6744648089
 30
0.0
 10
34.3948519695
 20
43.3590253028
 30
0.0
 10
34.3931033018
 20
43.2753111213
 30
0.0
  0
SPLINE
  5
255
100
AcDbEntity
  8
0
100
AcDbSpline
 62
7
  6
BYLAYER
 70
0
 71
3
 72
33
 73
29
 74
0
 42
0.0000001
 43
0.0000001
 44
0.0000000001
 40
0.0
 40
0.0
 40
0.0
 40
0.0
 40
0.0058771464
 40
0.0098769442
 40
0.0147939396
 40
0.0276320402
 40
0.0446308827
 40
0.0657540853
 40
0.090889192
 40
0.1198379253
 40
0.1523510706
 40
0.2269200704
 40
0.3118948475
 40
0.4040937671
 40
0.4999976703
 40
0.5959005881
 40
0.6880975952
 40
0.7730714525
 40
0.8476423972
 40
0.8801567496
 40
0.9091071163
 40
0.9342432431
 40
0.9553675103
 40
0.9723672971
 40
0.9852058161
 40
0.9901229379
 40
0.994122817
 40
1.0
 40
1.0
 40
1.0
 40
1.0
 10
35.1700310428
 20
49.6752019478
 30
0.0
 10
35.1828308139
 20
49.6752019478
 30
0.0
 10
35.2036533633
 20
49.6636211741
 30
0.0
 10
35.2247465267
 20
49.6396023209
 30
0.0
 10
35.2508542444
 20
49.5997413831
 30
0.0
 10
35.2814650447
 20
49.53022188
 30
0.0
 10
35.3159406113
 20
49.4246448034
 30
0.0
 10
35.3498425141
 20
49.291028644
 30
0.0
 10
35.3828094249
 20
49.1305516527
 30
0.0
 10
35.4143352103
 20
48.9445744308
 30
0.0
 10
35.4557559588
 20
48.651195358
 30
0.0
 10
35.4995114554
 20
48.235082101
 30
0.0
 10
35.538109936
 20
47.6880941002
 30
0.0
 10
35.5623184762
 20
47.0937713067
 30
0.0
 10
35.5705820141
 20
46.4752195786
 30
0.0
 10
35.5623198442
 20
45.8566720097
 30
0.0
 10
35.5381134758
 20
45.2623574358
 30
0.0
 10
35.4995156073
 20
44.7153713527
 30
0.0
 10
35.4557617479
 20
44.2992530126
 30
0.0
 10
35.4143395208
 20
44.005863632
 30
0.0
 10
35.3828140856
 20
43.8198778277
 30
0.0
 10
35.3498460966
 20
43.6593927705
 30
0.0
 10
35.3159430228
 20
43.5257701261
 30
0.0
 10
35.2814667873
 20
43.4201876735
 30
0.0
 10
35.2508547671
 20
43.350665179
 30
0.0
 10
35.2247466843
 20
43.3108028383
 30
0.0
 10
35.2036535571
 20
43.2867833124
 30
0.0
 10
35.1828308937
 20
43.2752019478
 30
0.0
 10
35.1700310428
 20
43.2752019478
 30
0.0
  0
SPLINE
  5
256
100
AcDbEntity
  8
0
100
AcDbSpline
 62
7
  6
BYLAYER
 70
0
 71
3
 72
49
 73
45
 74
0
 42
0.0000001
 43
0.0000001
 44
0.0000000001
 40
0.0
 40
0.0
 40
0.0
 40
0.0
 40
0.0001517164
 40
0.0006052833
 40
0.0013598486
 40
0.0024144678
 40
0.0037681863
 40
0.0054200465
 40
0.0096143575
 40
0.0149897281
 40
0.0215376101
 40
0.0292405869
 40
0.0380760761
 40
0.0590540107
 40
0.0842845055
 40
0.1135179877
 40
0.1464664667
 40
0.1828263115
 40
0.2222356046
 40
0.2643180337
 40
0.3086739911
 40
0.4024616325
 40
0.4999996981
 40
0.597537809
 40
0.6913254656
 40
0.7356813891
 40
0.7777637343
 40
0.817172964
 40
0.8535327337
 40
0.8864812349
 40
0.9157148547
 40
0.9409454373
 40
0.9619235444
 40
0.970759135
 40
0.9784621943
 40
0.9850101206
 40
0.9903855289
 40
0.9945798801
 40
0.9962317594
 40
0.9975854953
 40
0.9986401295
 40
0.9993947064
 40
0.9998482809
 40
1.0
 40
1.0
 40
1.0
 40
1.0
 10
34.3844245228
 20
110.6752019478
 30
0.0
 10
34.3847482233
 20
110.6752019478
 30
0.0
 10
34.3841314535
 20
110.6731307162
 30
0.0
 10
34.3849086046
 20
110.6709848893
 30
0.0
 10
34.3847021972
 20
110.6657315537
 30
0.0
 10
34.3850867157
 20
110.6591757712
 30
0.0
 10
34.3852894192
 20
110.6504440213
 30
0.0
 10
34.3857757293
 20
110.6351239188
 30
0.0
 10
34.3864355988
 20
110.6111686993
 30
0.0
 10
34.3873865925
 20
110.5768032223
 30
0.0
 10
34.3884996114
 20
110.5349402256
 30
0.0
 10
34.3897792051
 20
110.4857012347
 30
0.0
 10
34.3917999748
 20
110.4056816417
 30
0.0
 10
34.3946349769
 20
110.2882749978
 30
0.0
 10
34.3982921428
 20
110.1273543004
 30
0.0
 10
34.4022377185
 20
109.9408936973
 30
0.0
 10
34.4063211202
 20
109.7306854636
 30
0.0
 10
34.4103897415
 20
109.4987622406
 30
0.0
 10
34.414297654
 20
109.2473455645
 30
0.0
 10
34.4178898469
 20
108.9788620715
 30
0.0
 10
34.4221585494
 20
108.5943571256
 30
0.0
 10
34.4259344228
 20
108.0915212176
 30
0.0
 10
34.4274991207
 20
107.4752037835
 30
0.0
 10
34.4259344718
 20
106.8588863168
 30
0.0
 10
34.4221585925
 20
106.3560503522
 30
0.0
 10
34.4178899364
 20
105.9715456247
 30
0.0
 10
34.4142977325
 20
105.7030625186
 30
0.0
 10
34.4103898571
 20
105.4516463163
 30
0.0
 10
34.4063212444
 20
105.2197233413
 30
0.0
 10
34.4022378015
 20
105.0095149276
 30
0.0
 10
34.3982921852
 20
104.8230537971
 30
0.0
 10
34.3946350273
 20
104.6621322504
 30
0.0
 10
34.3918000105
 20
104.5447248345
 30
0.0
 10
34.3897792269
 20
104.4647044813
 30
0.0
 10
34.3884996278
 20
104.4154650034
 30
0.0
 10
34.3873866217
 20
104.3736016555
 30
0.0
 10
34.3864356326
 20
104.3392359176
 30
0.0
 10
34.3857757586
 20
104.3152804911
 30
0.0
 10
34.385289441
 20
104.2999602252
 30
0.0
 10
34.3850867324
 20
104.2912283646
 30
0.0
 10
34.3847022059
 20
104.2846724908
 30
0.0
 10
34.3849086143
 20
104.2794190762
 30
0.0
 10
34.3841314485
 20
104.2772732148
 30
0.0
 10
34.3847482291
 20
104.2752019478
 30
0.0
 10
34.3844245228
 20
104.2752019478
 30
0.0
  0
SPLINE
  5
257
100
AcDbEntity
  8
0
100
AcDbSpline
 62
7
  6
BYLAYER
 70
0
 71
3
 72
33
 73
29
 74
0
 42
0.0000001
 43
0.0000001
 44
0.0000000001
 40
0.0
 40
0.0
 40
0.0
 40
0.0
 40
0.0058756367
 40
0.0098749008
 40
0.0147914866
 40
0.0276290458
 40
0.0446276008
 40
0.0657506954
 40
0.0908858304
 40
0.1198346972
 40
0.1523480589
 40
0.2269176685
 40
0.311893195
 40
0.4040929275
 40
0.4999976652
 40
0.5959014182
 40
0.6880992397
 40
0.7730738485
 40
0.8476454053
 40
0.8801599751
 40
0.9091104764
 40
0.9342466321
 40
0.9553707916
 40
0.9723702915
 40
0.985208269
 40
0.9901249813
 40
0.9941243267
 40
1.0
 40
1.0
 40
1.0
 40
1.0
 10
35.2028502933
 20
110.6752019478
 30
0.0
 10
35.2156466369
 20
110.6752019478
 30
0.0
 10
35.2364635381
 20
110.6636195367
 30
0.0
 10
35.2575487081
 20
110.6396016671
 30
0.0
 10
35.2836486259
 20
110.5997400182
 30
0.0
 10
35.3142496621
 20
110.5302203285
 30
0.0
 10
35.3487147179
 20
110.4246432523
 30
0.0
 10
35.3826063993
 20
110.2910269342
 30
0.0
 10
35.415563592
 20
110.1305496686
 30
0.0
 10
35.4470801963
 20
109.9445721596
 30
0.0
 10
35.4884890487
 20
109.6511925739
 30
0.0
 10
35.5322321393
 20
109.2350792223
 30
0.0
 10
35.5708198153
 20
108.6880917525
 30
0.0
 10
35.5950216366
 20
108.0937699942
 30
0.0
 10
35.6032828929
 20
107.4752196103
 30
0.0
 10
35.5950230069
 20
106.8566733821
 30
0.0
 10
35.5708233573
 20
106.262359834
 30
0.0
 10
35.5322362935
 20
105.7153742688
 30
0.0
 10
35.4884948396
 20
105.2992558222
 30
0.0
 10
35.4470845077
 20
105.0058659194
 30
0.0
 10
35.4155682532
 20
104.8198798227
 30
0.0
 10
35.382609982
 20
104.6593944868
 30
0.0
 10
35.3487171294
 20
104.5257716806
 30
0.0
 10
35.3142514046
 20
104.4201892263
 30
0.0
 10
35.2836491485
 20
104.3506665441
 30
0.0
 10
35.2575488657
 20
104.310803492
 30
0.0
 10
35.2364637319
 20
104.2867849498
 30
0.0
 10
35.2156467167
 20
104.2752019478
 30
0.0
 10
35.2028502933
 20
104.2752019478
 30
0.0
  0
SPLINE
  5
258
100
AcDbEntity
  8
0
100
AcDbSpline
 62
7
  6
BYLAYER
 70
0
 71
3
 72
35
 73
31
 74
0
 42
0.0000001
 43
0.0000001
 44
0.0000000001
 40
0.0
 40
0.0
 40
0.0
 40
0.0
 40
0.0011125385
 40
0.0031544424
 40
0.010593766
 40
0.0226411456
 40
0.0392387854
 40
0.0602300516
 40
0.0854376842
 40
0.1146180086
 40
0.147488749
 40
0.1837505249
 40
0.2230461054
 40
0.3092282274
 40
0.4027382633
 40
0.4999901964
 40
0.5972421671
 40
0.6907525586
 40
0.776936806
 40
0.8162352897
 40
0.8524996735
 40
0.8853729628
 40
0.9145563543
 40
0.9397658801
 40
0.9607588614
 40
0.9773579568
 40
0.9894059447
 40
0.9968455104
 40
0.9988874549
 40
1.0
 40
1.0
 40
1.0
 40
1.0
 10
19.9931325157
 20
60.9752019478
 30
0.0
 10
19.9955516829
 20
60.9752019478
 30
0.0
 10
20.0013316631
 20
60.9697616704
 30
0.0
 10
20.0101308222
 20
60.9490696883
 30
0.0
 10
20.0214363761
 20
60.9028463999
 30
0.0
 10
20.0339047946
 20
60.8257372036
 30
0.0
 10
20.0472027516
 20
60.7184465622
 30
0.0
 10
20.0606141455
 20
60.5826119199
 30
0.0
 10
20.0739919657
 20
60.4192223227
 30
0.0
 10
20.0870387544
 20
60.2299342539
 30
0.0
 10
20.0995221107
 20
60.0165164151
 30
0.0
 10
20.1111862982
 20
59.781030798
 30
0.0
 10
20.1258285087
 20
59.4296369272
 30
0.0
 10
20.1403914783
 20
58.9536641049
 30
0.0
 10
20.1512118631
 20
58.3515438909
 30
0.0
 10
20.1549259177
 20
57.7252658691
 30
0.0
 10
20.1512144767
 20
57.0989870547
 30
0.0
 10
20.1403952105
 20
56.4968613382
 30
0.0
 10
20.1258326409
 20
56.0208767939
 30
0.0
 10
20.1111909672
 20
55.6694662821
 30
0.0
 10
20.0995265124
 20
55.4339631276
 30
0.0
 10
20.0870418675
 20
55.2205274516
 30
0.0
 10
20.0739947961
 20
55.0312230383
 30
0.0
 10
20.0606162589
 20
54.8678189293
 30
0.0
 10
20.0472040665
 20
54.7319733124
 30
0.0
 10
20.0339056457
 20
54.624674423
 30
0.0
 10
20.021436674
 20
54.5475602767
 30
0.0
 10
20.0101308965
 20
54.5013349935
 30
0.0
 10
20.0013317132
 20
54.4806423958
 30
0.0
 10
19.9955516973
 20
54.4752019478
 30
0.0
 10
19.9931325157
 20
54.4752019478
 30
0.0
  0
SPLINE
  5
259
100
AcDbEntity
  8
0
100
AcDbSpline
 62
7
  6
BYLAYER
 70
0
 71
3
 72
33
 73
29
 74
0
 42
0.0000001
 43
0.0000001
 44
0.0000000001
 40
0.0
 40
0.0
 40
0.0
 40
0.0
 40
0.0059850667
 40
0.0100206786
 40
0.0149638689
 40
0.0278336548
 40
0.0448462706
 40
0.0659715729
 40
0.091100688
 40
0.1200377198
 40
0.1525350428
 40
0.2270644263
 40
0.3119935407
 40
0.4041438496
 40
0.4999979018
 40
0.5958509577
 40
0.6879993272
 40
0.7729274599
 40
0.8474586625
 40
0.8799571369
 40
0.9088957381
 40
0.9340258329
 40
0.9551521657
 40
0.9721656983
 40
0.9850358919
 40
0.9899792062
 40
0.9940148978
 40
1.0
 40
1.0
 40
1.0
 40
1.0
 10
20.7966647823
 20
60.9752019478
 30
0.0
 10
20.8099115267
 20
60.9752019478
 30
0.0
 10
20.8314646729
 20
60.9635668747
 30
0.0
 10
20.853436689
 20
60.9390969931
 30
0.0
 10
20.8804520241
 20
60.8986653332
 30
0.0
 10
20.912122619
 20
60.8280709803
 30
0.0
 10
20.9477007411
 20
60.7208442504
 30
0.0
 10
20.9826262324
 20
60.5851492399
 30
0.0
 10
21.0165254208
 20
60.4221789689
 30
0.0
 10
21.0488932214
 20
60.2333080349
 30
0.0
 10
21.0913598634
 20
59.9353608257
 30
0.0
 10
21.1361270625
 20
59.5127349714
 30
0.0
 10
21.1755477539
 20
58.9571630602
 30
0.0
 10
21.2002407298
 20
58.3534990554
 30
0.0
 10
21.2086640881
 20
57.7252183562
 30
0.0
 10
21.2002419817
 20
57.0969419453
 30
0.0
 10
21.1755511722
 20
56.493286517
 30
0.0
 10
21.1361311018
 20
55.9377170298
 30
0.0
 10
21.091365539
 20
55.5150865534
 30
0.0
 10
21.0488974869
 20
55.2171294049
 30
0.0
 10
21.0165300912
 20
55.0282500966
 30
0.0
 10
20.9826298236
 20
54.8652719363
 30
0.0
 10
20.9477031684
 20
54.7295705611
 30
0.0
 10
20.912124383
 20
54.6223385242
 30
0.0
 10
20.8804525448
 20
54.5517412305
 30
0.0
 10
20.8534368444
 20
54.5113081768
 30
0.0
 10
20.8314648682
 20
54.4868376142
 30
0.0
 10
20.8099116054
 20
54.4752019478
 30
0.0
 10
20.7966647823
 20
54.4752019478
 30
0.0
  0
SPLINE
  5
25A
100
AcDbEntity
  8
0
100
AcDbSpline
 62
7
  6
BYLAYER
 70
0
 71
3
 72
33
 73
29
 74
0
 42
0.0000001
 43
0.0000001
 44
0.0000000001
 40
0.0
 40
0.0
 40
0.0
 40
0.0
 40
0.0059849795
 40
0.0100205638
 40
0.0149637332
 40
0.0278334843
 40
0.0448460754
 40
0.0659713623
 40
0.0911004664
 40
0.1200374891
 40
0.1525348058
 40
0.2270641935
 40
0.3119934712
 40
0.4041438771
 40
0.4999979094
 40
0.5958511365
 40
0.6879995492
 40
0.7729276041
 40
0.8474588071
 40
0.879957303
 40
0.9088959318
 40
0.9340260445
 40
0.9551523766
 40
0.9721658932
 40
0.9850360527
 40
0.989979338
 40
0.9940149927
 40
1.0
 40
1.0
 40
1.0
 40
1.0
 10
20.7952032671
 20
99.5752019478
 30
0.0
 10
20.8084498096
 20
99.5752019478
 30
0.0
 10
20.830002618
 20
99.5635667278
 30
0.0
 10
20.8519741442
 20
99.5390968711
 30
0.0
 10
20.8789890028
 20
99.4986651478
 30
0.0
 10
20.9106590173
 20
99.4280708042
 30
0.0
 10
20.9462364661
 20
99.3208441039
 30
0.0
 10
20.981161296
 20
99.1851491416
 30
0.0
 10
21.015059868
 20
99.0221789379
 30
0.0
 10
21.0474270904
 20
98.8333080958
 30
0.0
 10
21.0898929473
 20
98.5353610039
 30
0.0
 10
21.1346592737
 20
98.1127349901
 30
0.0
 10
21.1740794208
 20
97.5571628339
 30
0.0
 10
21.1987722573
 20
96.9534986964
 30
0.0
 10
21.2071951572
 20
96.3252178608
 30
0.0
 10
21.1987729015
 20
95.6969414503
 30
0.0
 10
21.1740828959
 20
95.0932860983
 30
0.0
 10
21.1346636763
 20
94.5377169968
 30
0.0
 10
21.0898986386
 20
94.1150868804
 30
0.0
 10
21.0474313091
 20
93.8171297248
 30
0.0
 10
21.0150645182
 20
93.6282502943
 30
0.0
 10
20.9811648842
 20
93.465272016
 30
0.0
 10
20.946238856
 20
93.3295705758
 30
0.0
 10
20.9106607052
 20
93.2223385296
 30
0.0
 10
20.8789894882
 20
93.1517412191
 30
0.0
 10
20.8519742686
 20
93.1113081453
 30
0.0
 10
20.8300027837
 20
93.0868376689
 30
0.0
 10
20.8084498713
 20
93.0752019478
 30
0.0
 10
20.7952032671
 20
93.0752019478
 30
0.0
  0
SPLINE
  5
25B
100
AcDbEntity
  8
0
100
AcDbSpline
 62
7
  6
BYLAYER
 70
0
 71
3
 72
35
 73
31
 74
0
 42
0.0000001
 43
0.0000001
 44
0.0000000001
 40
0.0
 40
0.0
 40
0.0
 40
0.0
 40
0.0011125039
 40
0.0031543927
 40
0.0105937051
 40
0.0226410707
 40
0.0392386973
 40
0.060229953
 40
0.0854375752
 40
0.1146178865
 40
0.1474886137
 40
0.1837503734
 40
0.2230459545
 40
0.3092282129
 40
0.4027383158
 40
0.4999902049
 40
0.5972423134
 40
0.6907527195
 40
0.7769368636
 40
0.8162353231
 40
0.8524996997
 40
0.8853730029
 40
0.9145564221
 40
0.9397659694
 40
0.9607589591
 40
0.9773580543
 40
0.9894060332
 40
0.9968455706
 40
0.9988874918
 40
1.0
 40
1.0
 40
1.0
 40
1.0
 10
19.9916919057
 20
99.5752019478
 30
0.0
 10
19.9941109971
 20
99.5752019478
 30
0.0
 10
19.9998907499
 20
99.5697615231
 30
0.0
 10
20.0086894276
 20
99.5490696083
 30
0.0
 10
20.019994555
 20
99.5028462385
 30
0.0
 10
20.0324624328
 20
99.4257371125
 30
0.0
 10
20.0457598739
 20
99.3184465002
 30
0.0
 10
20.0591707459
 20
99.1826119271
 30
0.0
 10
20.0725480723
 20
99.0192224064
 30
0.0
 10
20.0855943923
 20
98.8299344387
 30
0.0
 10
20.0980773054
 20
98.616516725
 30
0.0
 10
20.1097410886
 20
98.3810312158
 30
0.0
 10
20.1243828147
 20
98.0296371588
 30
0.0
 10
20.1389453197
 20
97.5536640107
 30
0.0
 10
20.1497654945
 20
96.9515436126
 30
0.0
 10
20.1534794077
 20
96.3252654114
 30
0.0
 10
20.1497678265
 20
95.6989865354
 30
0.0
 10
20.138949081
 20
95.09686087
 30
0.0
 10
20.1243870868
 20
94.6208766841
 30
0.0
 10
20.1097458223
 20
94.269466545
 30
0.0
 10
20.0980817016
 20
94.0339634773
 30
0.0
 10
20.0855974804
 20
93.8205277606
 30
0.0
 10
20.0725508985
 20
93.6312232292
 30
0.0
 10
20.0591728703
 20
93.467818996
 30
0.0
 10
20.0457611877
 20
93.3319733088
 30
0.0
 10
20.0324632642
 20
93.2246743728
 30
0.0
 10
20.0199948408
 20
93.1475602869
 30
0.0
 10
20.0086895016
 20
93.1013349778
 30
0.0
 10
19.9998907924
 20
93.0806424968
 30
0.0
 10
19.9941110064
 20
93.0752019478
 30
0.0
 10
19.9916919057
 20
93.0752019478
 30
0.0
  0
SPLINE
  5
25C
100
AcDbEntity
  8
0
100
AcDbSpline
 62
7
  6
BYLAYER
 70
0
 71
3
 72
35
 73
31
 74
0
 42
0.0000001
 43
0.0000001
 44
0.0000000001
 40
0.0
 40
0.0
 40
0.0
 40
0.0
 40
0.0010898894
 40
0.0030953756
 40
0.0104607599
 40
0.0224428116
 40
0.0389878492
 40
0.0599413403
 40
0.0851271123
 40
0.1143010035
 40
0.1471794388
 40
0.1834610628
 40
0.222786095
 40
0.3090459374
 40
0.4026452555
 40
0.4999891374
 40
0.5973332844
 40
0.6909334874
 40
0.7771960435
 40
0.8165242279
 40
0.8528086481
 40
0.8856897578
 40
0.9148668337
 40
0.9400545608
 40
0.9610097968
 40
0.9775563097
 40
0.9895389773
 40
0.9969045907
 40
0.9989101087
 40
1.0
 40
1.0
 40
1.0
 40
1.0
 10
19.9931325157
 20
54.4752019478
 30
0.0
 10
19.9907657063
 20
54.4752019478
 30
0.0
 10
19.985137501
 20
54.4806508208
 30
0.0
 10
19.9773756983
 20
54.501450981
 30
0.0
 10
19.9681167615
 20
54.5476378831
 30
0.0
 10
19.9591657474
 20
54.6247336337
 30
0.0
 10
19.9505436474
 20
54.7320078577
 30
0.0
 10
19.9428277316
 20
54.867863424
 30
0.0
 10
19.9359468841
 20
55.0312935161
 30
0.0
 10
19.9299541522
 20
55.2206409815
 30
0.0
 10
19.9248041952
 20
55.4341250454
 30
0.0
 10
19.9204737302
 20
55.6696723204
 30
0.0
 10
19.9155530042
 20
56.0211490679
 30
0.0
 10
19.9113584569
 20
56.49711475
 30
0.0
 10
19.9086285469
 20
57.0990851458
 30
0.0
 10
19.9077646148
 20
57.7251316936
 30
0.0
 10
19.9086288246
 20
58.3511801609
 30
0.0
 10
19.9113575888
 20
58.953158953
 30
0.0
 10
19.9155520346
 20
59.4291392961
 30
0.0
 10
19.9204722659
 20
59.780634863
 30
0.0
 10
19.9248030221
 20
60.0162008619
 30
0.0
 10
19.9299530556
 20
60.2297037223
 30
0.0
 10
19.9359448891
 20
60.4190681938
 30
0.0
 10
19.9428262614
 20
60.582513236
 30
0.0
 10
19.9505427533
 20
60.7183800137
 30
0.0
 10
19.9591650383
 20
60.8256626059
 30
0.0
 10
19.9681167144
 20
60.902763319
 30
0.0
 10
19.9773757752
 20
60.9489521707
 30
0.0
 10
19.9851374844
 20
60.9697529278
 30
0.0
 10
19.9907657022
 20
60.9752019478
 30
0.0
 10
19.9931325157
 20
60.9752019478
 30
0.0
  0
SPLINE
  5
25D
100
AcDbEntity
  8
0
100
AcDbSpline
 62
7
  6
BYLAYER
 70
0
 71
3
 72
33
 73
29
 74
0
 42
0.0000001
 43
0.0000001
 44
0.0000000001
 40
0.0
 40
0.0
 40
0.0
 40
0.0
 40
0.0058982277
 40
0.0098512857
 40
0.014704093
 40
0.0273953448
 40
0.0442548546
 40
0.0652645642
 40
0.090321316
 40
0.1192291867
 40
0.151737498
 40
0.2263873533
 40
0.3115173233
 40
0.4039008102
 40
0.4999947218
 40
0.5960883796
 40
0.6884715114
 40
0.7736022254
 40
0.8482552035
 40
0.880765047
 40
0.9096748263
 40
0.9347327422
 40
0.9557435728
 40
0.9726040515
 40
0.9852957261
 40
0.9901486424
 40
0.9941017595
 40
1.0
 40
1.0
 40
1.0
 40
1.0
 10
20.7952032671
 20
93.0752019478
 30
0.0
 10
20.7821959078
 20
93.0752019478
 30
0.0
 10
20.7610220267
 20
93.0867252844
 30
0.0
 10
20.7401582132
 20
93.1112876343
 30
0.0
 10
20.7149692943
 20
93.1517634295
 30
0.0
 10
20.68652635
 20
93.2224469678
 30
0.0
 10
20.655723997
 20
93.3296805805
 30
0.0
 10
20.6265795364
 20
93.4654480452
 30
0.0
 10
20.5992708155
 20
93.6285505286
 30
0.0
 10
20.5740613206
 20
93.8176050242
 30
0.0
 10
20.5420007735
 20
94.1159773626
 30
0.0
 10
20.509892577
 20
94.5389075846
 30
0.0
 10
20.4828545732
 20
95.0943882318
 30
0.0
 10
20.4664712128
 20
95.6975936438
 30
0.0
 10
20.4609781001
 20
96.3251662246
 30
0.0
 10
20.4664700595
 20
96.9527380243
 30
0.0
 10
20.4828514228
 20
97.5559437939
 30
0.0
 10
20.5098887848
 20
98.1114322153
 30
0.0
 10
20.5419961969
 20
98.5343744576
 30
0.0
 10
20.5740578625
 20
98.8327612168
 30
0.0
 10
20.599266278
 20
99.0218261012
 30
0.0
 10
20.6265761783
 20
99.1849377916
 30
0.0
 10
20.6557218198
 20
99.3207123135
 30
0.0
 10
20.686524734
 20
99.4279515682
 30
0.0
 10
20.7149689759
 20
99.4986381418
 30
0.0
 10
20.740158223
 20
99.5391152691
 30
0.0
 10
20.7610219328
 20
99.5636781873
 30
0.0
 10
20.7821958795
 20
99.5752019478
 30
0.0
 10
20.7952032671
 20
99.5752019478
 30
0.0
  0
SPLINE
  5
25E
100
AcDbEntity
  8
0
100
AcDbSpline
 62
7
  6
BYLAYER
 70
0
 71
3
 72
33
 73
29
 74
0
 42
0.0000001
 43
0.0000001
 44
0.0000000001
 40
0.0
 40
0.0
 40
0.0
 40
0.0
 40
0.0057806099
 40
0.0096906664
 40
0.0145100256
 40
0.0271562634
 40
0.043991192
 40
0.0649909945
 40
0.0900491501
 40
0.1189672493
 40
0.1514927573
 40
0.2261918793
 40
0.3113827778
 40
0.4038324368
 40
0.4999942734
 40
0.5961559146
 40
0.6886053514
 40
0.7737971748
 40
0.8484996361
 40
0.8810267581
 40
0.909946854
 40
0.9350062269
 40
0.9560071908
 40
0.9728431202
 40
0.9854897929
 40
0.9903092627
 40
0.9942193782
 40
1.0
 40
1.0
 40
1.0
 40
1.0
 10
35.2028502933
 20
104.2752019478
 30
0.0
 10
35.1903095649
 20
104.2752019478
 30
0.0
 10
35.1698974022
 20
104.2866693737
 30
0.0
 10
35.1500068649
 20
104.3107849433
 30
0.0
 10
35.1258718864
 20
104.3506942779
 30
0.0
 10
35.0987423199
 20
104.4203068127
 30
0.0
 10
35.0694079646
 20
104.5258893381
 30
0.0
 10
35.0417289888
 20
104.6595809515
 30
0.0
 10
35.015854311
 20
104.8201966014
 30
0.0
 10
34.9920304187
 20
105.0063665649
 30
0.0
 10
34.9618049848
 20
105.3001922183
 30
0.0
 10
34.9316624095
 20
105.7166245662
 30
0.0
 10
34.9063759561
 20
106.2635160449
 30
0.0
 10
34.8910989974
 20
106.8573565517
 30
0.0
 10
34.8859848582
 20
107.4751640177
 30
0.0
 10
34.8910978939
 20
108.092971003
 30
0.0
 10
34.9063728558
 20
108.6868126668
 30
0.0
 10
34.9316586766
 20
109.2337129433
 30
0.0
 10
34.9618005191
 20
109.6501581492
 30
0.0
 10
34.9920270487
 20
109.9439988305
 30
0.0
 10
35.015849832
 20
110.1301794956
 30
0.0
 10
35.0417256807
 20
110.2908045985
 30
0.0
 10
35.0694058326
 20
110.4245034273
 30
0.0
 10
35.0987407368
 20
110.5300916847
 30
0.0
 10
35.125871583
 20
110.5997073108
 30
0.0
 10
35.1500068852
 20
110.6396179846
 30
0.0
 10
35.1698973162
 20
110.6637341095
 30
0.0
 10
35.190309539
 20
110.6752019478
 30
0.0
 10
35.2028502933
 20
110.6752019478
 30
0.0
  0
SPLINE
  5
25F
100
AcDbEntity
  8
0
100
AcDbSpline
 62
7
  6
BYLAYER
 70
0
 71
3
 72
33
 73
29
 74
0
 42
0.0000001
 43
0.0000001
 44
0.0000000001
 40
0.0
 40
0.0
 40
0.0
 40
0.0
 40
0.0057821197
 40
0.009692694
 40
0.0145124394
 40
0.0271591631
 40
0.0439943253
 40
0.0649941921
 40
0.0900522893
 40
0.1189702394
 40
0.1514955292
 40
0.2261940734
 40
0.3113842833
 40
0.4038332013
 40
0.4999942774
 40
0.5961551575
 40
0.6886038525
 40
0.7737949858
 40
0.8484968673
 40
0.8810237704
 40
0.9099437163
 40
0.9350030302
 40
0.956004058
 40
0.9728402207
 40
0.9854873791
 40
0.9903072351
 40
0.9942178684
 40
1.0
 40
1.0
 40
1.0
 40
1.0
 10
35.1700310428
 20
43.2752019478
 30
0.0
 10
35.1574869176
 20
43.2752019478
 30
0.0
 10
35.1370691568
 20
43.2866676597
 30
0.0
 10
35.1171706244
 20
43.3107842428
 30
0.0
 10
35.0930279007
 20
43.3506928651
 30
0.0
 10
35.0658886831
 20
43.4203052574
 30
0.0
 10
35.0365440638
 20
43.5258878084
 30
0.0
 10
35.0088551404
 20
43.6595793002
 30
0.0
 10
34.9829710594
 20
43.8201947309
 30
0.0
 10
34.9591383299
 20
44.0063644799
 30
0.0
 10
34.9289014951
 20
44.3001897843
 30
0.0
 10
34.8987471745
 20
44.7166221605
 30
0.0
 10
34.873450599
 20
45.2635141393
 30
0.0
 10
34.8581673972
 20
45.8573555059
 30
0.0
 10
34.8530511457
 20
46.475164042
 30
0.0
 10
34.8581662938
 20
47.0929720953
 30
0.0
 10
34.8734474991
 20
47.6868146131
 30
0.0
 10
34.8987434419
 20
48.2337153804
 30
0.0
 10
34.9288970296
 20
48.6501606057
 30
0.0
 10
34.9591349598
 20
48.9440009303
 30
0.0
 10
34.9829665805
 20
49.1301813763
 30
0.0
 10
35.0088518323
 20
49.290806256
 30
0.0
 10
35.0365419318
 20
49.4245049604
 30
0.0
 10
35.0658870998
 20
49.5300932415
 30
0.0
 10
35.0930275972
 20
49.5997087239
 30
0.0
 10
35.1171706446
 20
49.6396186851
 30
0.0
 10
35.1370690707
 20
49.6637358235
 30
0.0
 10
35.1574868917
 20
49.6752019478
 30
0.0
 10
35.1700310428
 20
49.6752019478
 30
0.0
  0
SPLINE
  5
260
100
AcDbEntity
  8
0
100
AcDbSpline
 62
7
  6
BYLAYER
 70
0
 71
3
 72
35
 73
31
 74
0
 42
0.0000001
 43
0.0000001
 44
0.0000000001
 40
0.0
 40
0.0
 40
0.0
 40
0.0
 40
0.0010898539
 40
0.0030953219
 40
0.0104606891
 40
0.0224427336
 40
0.0389877689
 40
0.0599412608
 40
0.0851270358
 40
0.1143009316
 40
0.1471793727
 40
0.1834610034
 40
0.2227860431
 40
0.3090459017
 40
0.4026452374
 40
0.4999891373
 40
0.5973333024
 40
0.690933523
 40
0.7771960954
 40
0.8165242872
 40
0.8528087141
 40
0.8856898296
 40
0.9148669101
 40
0.9400546403
 40
0.9610098771
 40
0.9775563877
 40
0.9895390481
 40
0.9969046444
 40
0.9989101442
 40
1.0
 40
1.0
 40
1.0
 40
1.0
 10
19.9916919057
 20
93.0752019478
 30
0.0
 10
19.989325174
 20
93.0752019478
 30
0.0
 10
19.983697199
 20
93.0806509474
 30
0.0
 10
19.9759358761
 20
93.1014510023
 30
0.0
 10
19.9666773542
 20
93.1476379608
 30
0.0
 10
19.957726873
 20
93.2247336491
 30
0.0
 10
19.9491052561
 20
93.332007889
 30
0.0
 10
19.941389825
 20
93.4678634494
 30
0.0
 10
19.934509431
 20
93.6312935468
 30
0.0
 10
19.9285171257
 20
93.8206410141
 30
0.0
 10
19.9233675606
 20
94.0341250799
 30
0.0
 10
19.9190374496
 20
94.2696723552
 30
0.0
 10
19.9141171544
 20
94.6211491012
 30
0.0
 10
19.9099230173
 20
95.0971147764
 30
0.0
 10
19.907193402
 20
95.6990851601
 30
0.0
 10
19.9063295691
 20
96.3251316933
 30
0.0
 10
19.9071936798
 20
96.951180146
 30
0.0
 10
19.9099221493
 20
97.553158926
 30
0.0
 10
19.9141161849
 20
98.0291392624
 30
0.0
 10
19.9190359854
 20
98.3806348278
 30
0.0
 10
19.9233663876
 20
98.6162008271
 30
0.0
 10
19.9285160291
 20
98.8297036895
 30
0.0
 10
19.9345074361
 20
99.0190681629
 30
0.0
 10
19.9413883549
 20
99.1825132105
 30
0.0
 10
19.949104362
 20
99.3183799823
 30
0.0
 10
19.957726164
 20
99.4256625905
 30
0.0
 10
19.9666773072
 20
99.5027632413
 30
0.0
 10
19.975935953
 20
99.5489521494
 30
0.0
 10
19.9836971824
 20
99.5697528012
 30
0.0
 10
19.9893251699
 20
99.5752019478
 30
0.0
 10
19.9916919057
 20
99.5752019478
 30
0.0
  0
SPLINE
  5
261
100
AcDbEntity
  8
0
100
AcDbSpline
 62
7
  6
BYLAYER
 70
0
 71
3
 72
33
 73
29
 74
0
 42
0.0000001
 43
0.0000001
 44
0.0000000001
 40
0.0
 40
0.0
 40
0.0
 40
0.0
 40
0.0058983192
 40
0.0098514088
 40
0.0147042398
 40
0.0273955216
 40
0.0442550458
 40
0.0652647595
 40
0.0903215078
 40
0.1192293695
 40
0.1517376675
 40
0.2263874875
 40
0.3115174154
 40
0.403900857
 40
0.4999947221
 40
0.5960883333
 40
0.6884714197
 40
0.7736020916
 40
0.8482550342
 40
0.8807648643
 40
0.9096746345
 40
0.9347325469
 40
0.9557433815
 40
0.9726038747
 40
0.9852955792
 40
0.9901485193
 40
0.994101668
 40
1.0
 40
1.0
 40
1.0
 40
1.0
 10
20.7966647823
 20
54.4752019478
 30
0.0
 10
20.7836572135
 20
54.4752019478
 30
0.0
 10
20.7624829909
 20
54.4867251829
 30
0.0
 10
20.741618687
 20
54.5112875911
 30
0.0
 10
20.7164292948
 20
54.5517633425
 30
0.0
 10
20.6879857611
 20
54.6224468704
 30
0.0
 10
20.6571827826
 20
54.7296804846
 30
0.0
 10
20.6280377178
 20
54.8654479414
 30
0.0
 10
20.6007284273
 20
55.028550411
 30
0.0
 10
20.5755183984
 20
55.2176048931
 30
0.0
 10
20.5434571643
 20
55.5159772095
 30
0.0
 10
20.5113482622
 20
55.9389074333
 30
0.0
 10
20.4843096522
 20
56.4943881119
 30
0.0
 10
20.4679259187
 20
57.097593578
 30
0.0
 10
20.4624326799
 20
57.7251662261
 30
0.0
 10
20.4679247654
 20
58.3527380931
 30
0.0
 10
20.4843065018
 20
58.9559439164
 30
0.0
 10
20.51134447
 20
59.5114323686
 30
0.0
 10
20.5434525876
 20
59.9343746121
 30
0.0
 10
20.5755149404
 20
60.2327613489
 30
0.0
 10
20.6007238898
 20
60.4218262195
 30
0.0
 10
20.6280343596
 20
60.5849378958
 30
0.0
 10
20.6571806054
 20
60.7207124096
 30
0.0
 10
20.6879841451
 20
60.8279516658
 30
0.0
 10
20.7164289764
 20
60.8986382289
 30
0.0
 10
20.7416186968
 20
60.9391153123
 30
0.0
 10
20.7624828971
 20
60.9636782889
 30
0.0
 10
20.7836571852
 20
60.9752019478
 30
0.0
 10
20.7966647823
 20
60.9752019478
 30
0.0
  0
ENDSEC
  0
SECTION
  2
OBJECTS
  0
DICTIONARY
  5
C
100
AcDbDictionary
280
0
281
1
  3
ACAD_GROUP
350
D
  3
ACAD_MLINESTYLE
350
17
  3
ACAD_LAYOUT
350
1A
  3
ACAD_PLOTSETTINGS
350
19
  3
ACAD_PLOTSTYLENAME
350
E
  0
DICTIONARY
  5
D
102
{ACAD_REACTORS
330
C
102
}
100
AcDbDictionary
280
0
281
1
  0
ACDBDICTIONARYWDFLT
  5
E
102
{ACAD_REACTORS
330
C
102
}
100
AcDbDictionary
281
1
  3
Normal
350
F
100
AcDbDictionaryWithDefault
340
F
  0
DICTIONARY
  5
17
102
{ACAD_REACTORS
330
C
102
}
100
AcDbDictionary
280
0
281
1
  3
Standard
350
18
  0
DICTIONARY
  5
19
102
{ACAD_REACTORS
330
C
102
}
100
AcDbDictionary
281
1
  0
DICTIONARY
  5
1A
102
{ACAD_REACTORS
330
C
102
}
100
AcDbDictionary
281
1
  3
Model
350
262
  3
Layout1
350
263
  0
ACDBPLACEHOLDER
  5
F
102
{ACAD_REACTORS
330
E
102
}
  0
MLINESTYLE
  5
18
102
{ACAD_REACTORS
330
17
102
}
100
AcDbMlineStyle
  2
STANDARD
 70
0
  3

 62
256
 51
90.0
 52
90.0
 71
2
 49
0.5
 62
256
  6
BYLAYER
 49
-0.5
 62
256
  6
BYLAYER
  0
LAYOUT
  5
262
102
{ACAD_REACTORS
330
1A
102
}
100
AcDbPlotSettings
  1

  2
none_device
  4

  6

 40
0.0
 41
0.0
 42
0.0
 43
0.0
 44
210.0
 45
297.0
 46
0.0
 47
0.0
 48
0.0
 49
0.0
140
0.0
141
0.0
142
1.0
143
1.0
 70
1024
 72
1
 73
0
 74
0
  7

 75
0
147
1.0
148
0.0
149
0.0
100
AcDbLayout
  1
Model
 70
0
 71
0
 10
0.0
 20
0.0
 11
210.0
 21
297.0
 12
0.0
 22
0.0
 32
0.0
 14
0.0
 24
0.0
 34
0.0
 15
0.0
 25
0.0
 35
0.0
146
0.0
 13
0.0
 23
0.0
 33
0.0
 16
1.0
 26
0.0
 36
0.0
 17
0.0
 27
1.0
 37
0.0
 76
0
330
210
345
0
346
0
  0
LAYOUT
  5
263
102
{ACAD_REACTORS
330
1A
102
}
100
AcDbPlotSettings
  1

  2
none_device
  4

  6

 40
0.0
 41
0.0
 42
0.0
 43
0.0
 44
210.0
 45
297.0
 46
0.0
 47
0.0
 48
0.0
 49
0.0
140
0.0
141
0.0
142
1.0
143
1.0
 70
0
 72
1
 73
0
 74
0
  7

 75
0
147
1.0
148
0.0
149
0.0
100
AcDbLayout
  1
Layout1
 70
0
 71
1
 10
0.0
 20
0.0
 11
210.0
 21
297.0
 12
0.0
 22
0.0
 32
0.0
 14
0.0
 24
0.0
 34
0.0
 15
0.0
 25
0.0
 35
0.0
146
0.0
 13
0.0
 23
0.0
 33
0.0
 16
1.0
 26
0.0
 36
0.0
 17
0.0
 27
1.0
 37
0.0
 76
0
330
211
345
0
346
0
  0
ENDSEC
  0
EOF
