999
DXF file: C:\2D\Gen2D\CAD\LC1G400EHES207N\drw0001_7.dxf
999
Pro/ENGINEER 2019471 by Parametric Technology Corporation
  0
SECTION
  2
HEADER
  9
$ACADVER
  1
AC1024
  9
$DWGCODEPAGE
  3
ANSI_1252
  9
$EXTMAX
 10
186.0533336795
 20
263.1325719182
 30
0.0
  9
$EXTMIN
 10
0.0
 20
0.0
 30
0.0
  9
$LIMMIN
 10
0.0
 20
0.0
  9
$LIMMAX
 10
186.0533336795
 20
263.1325719182
  9
$VIEWCTR
 10
93.0266668398
 20
131.5662859591
  9
$VIEWSIZE
 40
263.1325719182
  9
$CLAYER
  8
0
  9
$LTSCALE
 40
17.1523454287
  9
$CELTYPE
  6
BYLAYER
  9
$DIMSCALE
 40
1.0
  9
$DIMASZ
 40
2.214920639
  9
$DIMEXO
 40
1.0
  9
$DIMDLI
 40
11.8507113871
  9
$DIMEXE
 40
1.0
  9
$DIMCEN
 40
2.8067474338
  9
$DIMLFAC
 40
1.0
  9
$DIMBLK
  1
_FILLED
  9
$DIMALT
 70
0
  9
$DIMALTF
 40
0.0393700787
  9
$DIMTXT
 40
3.1008888947
  9
$DIMTOL
 70
1
  9
$DIMLIM
 70
0
  9
$DIMTFAC
 40
1.0
  9
$DIMTP
 40
0.01
  9
$DIMTM
 40
0.01
  9
$DIMGAP
 40
0.625
  9
$DIMDSEP
 70
46
  9
$AUNITS
 70
0
  9
$PDMODE
 70
3
  9
$PDSIZE
 40
0.3125
  9
$HANDSEED
  5
565
  9
$TILEMODE
 70
1
  9
$MEASUREMENT
 70
1
  9
$INSUNITS
 70
4
  0
ENDSEC
  0
SECTION
  2
CLASSES
  0
CLASS
  1
ACDBDICTIONARYWDFLT
  2
AcDbDictionaryWithDefault
  3
AutoCAD 2000
 90
0
 91
1
280
0
281
0
  0
CLASS
  1
ACDBPLACEHOLDER
  2
AcDbPlaceHolder
  3
AutoCAD 2000
 90
0
 91
1
280
0
281
0
  0
CLASS
  1
LAYOUT
  2
AcDbLayout
  3
AutoCAD 2000
 90
0
 91
0
280
0
281
0
  0
ENDSEC
  0
SECTION
  2
TABLES
  0
TABLE
  2
VPORT
  5
8
100
AcDbSymbolTable
 70
2
  0
VPORT
  5
1F4
100
AcDbSymbolTableRecord
100
AcDbViewportTableRecord
  2
*ACTIVE
 70
0
 10
0.0
 20
0.0
 11
1.0
 21
1.0
 12
93.0266668398
 22
131.5662859591
 13
0.0
 23
0.0
 14
1.0
 24
1.0
 15
0.0
 25
0.0
 16
0.0
 26
0.0
 36
1.0
 17
0.0
 27
0.0
 37
0.0
 40
263.1325719182
 41
0.7070707071
 42
50.0
 43
0.0
 44
0.0
 50
0.0
 51
0.0
 71
0
 72
100
 73
1
 74
1
 75
0
 76
0
 77
0
 78
0
  0
ENDTAB
  0
TABLE
  2
LTYPE
  5
5
100
AcDbSymbolTable
 70
6
  0
LTYPE
  5
14
100
AcDbSymbolTableRecord
100
AcDbLinetypeTableRecord
  2
BYBLOCK
 70
0
  3

 72
65
 73
0
 40
0.0
  0
LTYPE
  5
15
100
AcDbSymbolTableRecord
100
AcDbLinetypeTableRecord
  2
BYLAYER
 70
0
  3

 72
65
 73
0
 40
0.0
  0
LTYPE
  5
16
100
AcDbSymbolTableRecord
100
AcDbLinetypeTableRecord
  2
CONTINUOUS
 70
64
  3
Solid line
 72
65
 73
0
 40
0.0
  0
LTYPE
  5
1F5
100
AcDbSymbolTableRecord
100
AcDbLinetypeTableRecord
  2
CENTER
 70
64
  3
____ _ ____ _ ____ _ ____ _ ____ _ ____ _ ____
 72
65
 73
4
 40
0.6
 49
0.375
 74
0
 49
-0.075
 74
0
 49
0.075
 74
0
 49
-0.075
 74
0
  0
LTYPE
  5
1F6
100
AcDbSymbolTableRecord
100
AcDbLinetypeTableRecord
  2
HIDDEN
 70
64
  3
- - - - - - - - - - - - - - - - - - - -
 72
65
 73
2
 40
0.2
 49
0.1
 74
0
 49
-0.1
 74
0
  0
LTYPE
  5
1F7
100
AcDbSymbolTableRecord
100
AcDbLinetypeTableRecord
  2
PHANTOM
 70
64
  3
_____ _ _ _____ _ _ _____ _ _ _____
 72
65
 73
6
 40
0.8
 49
0.45
 74
0
 49
-0.05
 74
0
 49
0.1
 74
0
 49
-0.05
 74
0
 49
0.1
 74
0
 49
-0.05
 74
0
  0
LTYPE
  5
1F8
100
AcDbSymbolTableRecord
100
AcDbLinetypeTableRecord
  2
DOT
 70
64
  3
. . . . . . . . . . . . . . . . . . . .
 72
65
 73
2
 40
0.2
 49
0.1
 74
0
 49
-0.1
 74
0
  0
LTYPE
  5
1F9
100
AcDbSymbolTableRecord
100
AcDbLinetypeTableRecord
  2
DASHED
 70
64
  3
- - - - - - - - - - - - - - - - - - - -
 72
65
 73
2
 40
0.2
 49
0.1
 74
0
 49
-0.1
 74
0
  0
ENDTAB
  0
TABLE
  2
LAYER
  5
2
100
AcDbSymbolTable
 70
36
  0
LAYER
  5
10
100
AcDbSymbolTableRecord
100
AcDbLayerTableRecord
  2
0
 70
0
 62
7
  6
CONTINUOUS
370
-3
390
F
  0
LAYER
  5
1FA
100
AcDbSymbolTableRecord
100
AcDbLayerTableRecord
  2
DEFAULT_1
 70
0
 62
7
  6
CENTER
370
-3
390
F
  0
LAYER
  5
1FB
100
AcDbSymbolTableRecord
100
AcDbLayerTableRecord
  2
DEFAULT_2
 70
0
 62
8
  6
HIDDEN
370
-3
390
F
  0
LAYER
  5
1FC
100
AcDbSymbolTableRecord
100
AcDbLayerTableRecord
  2
DEFAULT_3
 70
0
 62
7
  6
PHANTOM
370
-3
390
F
  0
LAYER
  5
1FD
100
AcDbSymbolTableRecord
100
AcDbLayerTableRecord
  2
00_COMPONENTS
 70
0
 62
7
  6
CONTINUOUS
370
-3
390
F
  0
LAYER
  5
1FE
100
AcDbSymbolTableRecord
100
AcDbLayerTableRecord
  2
01_1_DEFAULT_DATUMS
 70
0
 62
7
  6
CONTINUOUS
370
-3
390
F
  0
LAYER
  5
1FF
100
AcDbSymbolTableRecord
100
AcDbLayerTableRecord
  2
01_PLANES
 70
0
 62
7
  6
CONTINUOUS
370
-3
390
F
  0
LAYER
  5
200
100
AcDbSymbolTableRecord
100
AcDbLayerTableRecord
  2
02_COORD_SYS
 70
0
 62
7
  6
CONTINUOUS
370
-3
390
F
  0
LAYER
  5
201
100
AcDbSymbolTableRecord
100
AcDbLayerTableRecord
  2
03_AXES
 70
0
 62
7
  6
CONTINUOUS
370
-3
390
F
  0
LAYER
  5
202
100
AcDbSymbolTableRecord
100
AcDbLayerTableRecord
  2
04_POINTS
 70
0
 62
7
  6
CONTINUOUS
370
-3
390
F
  0
LAYER
  5
203
100
AcDbSymbolTableRecord
100
AcDbLayerTableRecord
  2
05_CURVES
 70
0
 62
7
  6
CONTINUOUS
370
-3
390
F
  0
LAYER
  5
204
100
AcDbSymbolTableRecord
100
AcDbLayerTableRecord
  2
06_SURFS
 70
0
 62
7
  6
CONTINUOUS
370
-3
390
F
  0
LAYER
  5
205
100
AcDbSymbolTableRecord
100
AcDbLayerTableRecord
  2
07_COSMETICS
 70
0
 62
7
  6
CONTINUOUS
370
-3
390
F
  0
LAYER
  5
206
100
AcDbSymbolTableRecord
100
AcDbLayerTableRecord
  2
10_NOTES
 70
0
 62
7
  6
CONTINUOUS
370
-3
390
F
  0
LAYER
  5
207
100
AcDbSymbolTableRecord
100
AcDbLayerTableRecord
  2
11_NOTES_PUB
 70
0
 62
7
  6
CONTINUOUS
370
-3
390
F
  0
LAYER
  5
208
100
AcDbSymbolTableRecord
100
AcDbLayerTableRecord
  2
13_REF_GTOL
 70
0
 62
7
  6
CONTINUOUS
370
-3
390
F
  0
LAYER
  5
209
100
AcDbSymbolTableRecord
100
AcDbLayerTableRecord
  2
16_MISC
 70
0
 62
7
  6
CONTINUOUS
370
-3
390
F
  0
LAYER
  5
20A
100
AcDbSymbolTableRecord
100
AcDbLayerTableRecord
  2
17_NO_PRINT
 70
0
 62
7
  6
CONTINUOUS
370
-3
390
F
  0
LAYER
  5
20B
100
AcDbSymbolTableRecord
100
AcDbLayerTableRecord
  2
18_DATUM_CAMS_JOINTS
 70
0
 62
7
  6
CONTINUOUS
370
-3
390
F
  0
LAYER
  5
20C
100
AcDbSymbolTableRecord
100
AcDbLayerTableRecord
  2
19_DATUM_FUNCTIONAL
 70
0
 62
7
  6
CONTINUOUS
370
-3
390
F
  0
LAYER
  5
20D
100
AcDbSymbolTableRecord
100
AcDbLayerTableRecord
  2
20_DATUM_KINEMATIC_SCHEME
 70
0
 62
7
  6
CONTINUOUS
370
-3
390
F
  0
LAYER
  5
20E
100
AcDbSymbolTableRecord
100
AcDbLayerTableRecord
  2
INTFCLR_9
 70
0
 62
7
  6
CONTINUOUS
370
-3
390
F
  0
LAYER
  5
20F
100
AcDbSymbolTableRecord
100
AcDbLayerTableRecord
  2
INTF_BLANK
 70
0
 62
7
  6
CONTINUOUS
370
-3
390
F
  0
LAYER
  5
210
100
AcDbSymbolTableRecord
100
AcDbLayerTableRecord
  2
_BLACK_HOLE
 70
0
 62
7
  6
CONTINUOUS
370
-3
390
F
  0
ENDTAB
  0
TABLE
  2
STYLE
  5
3
100
AcDbSymbolTable
 70
1
  0
STYLE
  5
11
100
AcDbSymbolTableRecord
100
AcDbTextStyleTableRecord
  2
STANDARD
 70
0
 40
0.0
 41
0.8
 50
0.0
 71
0
 42
0.2
  3
txt
  4

  0
STYLE
  5
211
100
AcDbSymbolTableRecord
100
AcDbTextStyleTableRecord
  2
TEXTSTYLE_1
 70
0
 40
0.0
 41
0.8
 50
0.0
 71
0
 42
0.2
  3
gdt
  4

  0
ENDTAB
  0
TABLE
  2
VIEW
  5
6
100
AcDbSymbolTable
 70
0
  0
ENDTAB
  0
TABLE
  2
UCS
  5
7
100
AcDbSymbolTable
 70
0
  0
ENDTAB
  0
TABLE
  2
APPID
  5
9
100
AcDbSymbolTable
 70
1
  0
APPID
  5
212
100
AcDbSymbolTableRecord
100
AcDbRegAppTableRecord
  2
ACAD
 70
0
  0
ENDTAB
  0
TABLE
  2
BLOCK_RECORD
  5
1
100
AcDbSymbolTable
 70
0
  0
BLOCK_RECORD
  5
213
100
AcDbSymbolTableRecord
100
AcDbBlockTableRecord
  2
*Model_Space
  0
BLOCK_RECORD
  5
214
100
AcDbSymbolTableRecord
100
AcDbBlockTableRecord
  2
*Paper_Space
  0
BLOCK_RECORD
  5
215
100
AcDbSymbolTableRecord
100
AcDbBlockTableRecord
  2
_FILLED
  0
ENDTAB
  0
TABLE
  2
DIMSTYLE
  5
A
100
AcDbSymbolTable
 70
1
100
AcDbDimStyleTable
 71
0
  0
DIMSTYLE
105
216
100
AcDbSymbolTableRecord
100
AcDbDimStyleTableRecord
  2
STANDARD
 70
0
  3

  4

 40
1.0
 41
2.214920639
 42
1.0
 43
0.38
 44
1.0
 45
0.0
 46
0.0
 47
0.01
 48
0.01
140
3.1008888947
141
0.09
142
0.0
143
25.4
144
1.0
145
0.0
146
1.0
147
0.625
 71
1
 72
0
 73
0
 74
0
 75
0
 76
0
 77
1
 78
8
 79
2
170
0
171
1
172
0
173
0
174
0
175
0
176
0
177
0
178
0
270
2
179
2
271
2
272
2
273
2
274
2
275
0
280
0
281
0
282
0
283
1
284
8
285
0
286
0
287
3
288
0
340
11
278
46
341
215
342
215
343
215
344
215
  0
ENDTAB
  0
ENDSEC
  0
SECTION
  2
BLOCKS
  0
BLOCK
  5
20
100
AcDbEntity
  8
0
100
AcDbBlockBegin
  2
*Model_Space
 70
0
 10
0.0
 20
0.0
 30
0.0
  3
*Model_Space
  1

  0
ENDBLK
  5
21
100
AcDbEntity
  8
0
100
AcDbBlockEnd
  0
BLOCK
  5
1C
100
AcDbEntity
  8
0
100
AcDbBlockBegin
  2
*Paper_Space
 70
0
 10
0.0
 20
0.0
 30
0.0
  3
*Paper_Space
  1

  0
ENDBLK
  5
1D
100
AcDbEntity
  8
0
100
AcDbBlockEnd
  0
BLOCK
  5
217
100
AcDbEntity
  8
0
100
AcDbBlockBegin
  2
_FILLED
 70
64
 10
0.0
 20
0.0
  3
_FILLED
  1

  0
SOLID
  5
218
100
AcDbEntity
  8
0
  6
BYBLOCK
 62
0
100
AcDbTrace
 10
0.0
 20
0.0
 11
-1.0
 21
0.25
 12
-1.0
 22
-0.25
 13
-1.0
 23
-0.25
  0
ENDBLK
  5
219
100
AcDbEntity
  8
0
  6
BYBLOCK
 62
0
100
AcDbBlockEnd
  0
ENDSEC
  0
SECTION
  2
ENTITIES
  0
LINE
  5
21A
100
AcDbEntity
  8
0
100
AcDbLine
 62
7
  6
CONTINUOUS
 10
125.0488769114
 20
21.3816067316
 11
125.8488769114
 21
21.3821228116
  0
LINE
  5
21B
100
AcDbEntity
  8
0
100
AcDbLine
 62
7
  6
CONTINUOUS
 10
124.9488769114
 20
19.485337333
 11
121.0488769114
 21
19.485337333
  0
LINE
  5
21C
100
AcDbEntity
  8
0
100
AcDbLine
 62
7
  6
CONTINUOUS
 10
114.7888769114
 20
19.485337333
 11
110.8888769114
 21
19.485337333
  0
LINE
  5
21D
100
AcDbEntity
  8
0
100
AcDbLine
 62
7
  6
CONTINUOUS
 10
110.8888769114
 20
19.685337333
 11
114.7888769114
 21
19.685337333
  0
LINE
  5
21E
100
AcDbEntity
  8
0
100
AcDbLine
 62
7
  6
CONTINUOUS
 10
121.0488769114
 20
19.685337333
 11
124.9488769114
 21
19.685337333
  0
LINE
  5
21F
100
AcDbEntity
  8
0
100
AcDbLine
 62
7
  6
CONTINUOUS
 10
125.8488769114
 20
20.055337333
 11
125.0488769114
 21
20.055337333
  0
LINE
  5
220
100
AcDbEntity
  8
0
100
AcDbLine
 62
7
  6
CONTINUOUS
 10
120.9488769114
 20
20.055337333
 11
119.9688769114
 21
20.055337333
  0
LINE
  5
221
100
AcDbEntity
  8
0
100
AcDbLine
 62
7
  6
CONTINUOUS
 10
115.8688769114
 20
20.055337333
 11
114.8888769114
 21
20.055337333
  0
LINE
  5
222
100
AcDbEntity
  8
0
100
AcDbLine
 62
7
  6
CONTINUOUS
 10
110.7888769114
 20
20.055337333
 11
109.9888769114
 21
20.055337333
  0
LINE
  5
223
100
AcDbEntity
  8
0
100
AcDbLine
 62
7
  6
CONTINUOUS
 10
125.8488769114
 20
20.2290679344
 11
125.0488769114
 21
20.2290598146
  0
LINE
  5
224
100
AcDbEntity
  8
0
100
AcDbLine
 62
7
  6
CONTINUOUS
 10
120.9488769114
 20
20.2290679344
 11
119.9688769114
 21
20.2290598146
  0
LINE
  5
225
100
AcDbEntity
  8
0
100
AcDbLine
 62
7
  6
CONTINUOUS
 10
115.8688769114
 20
20.2290679344
 11
114.8888769114
 21
20.2290598146
  0
LINE
  5
226
100
AcDbEntity
  8
0
100
AcDbLine
 62
7
  6
CONTINUOUS
 10
110.7888769114
 20
20.2290679344
 11
109.9888769114
 21
20.2290598146
  0
LINE
  5
227
100
AcDbEntity
  8
0
100
AcDbLine
 62
7
  6
CONTINUOUS
 10
125.0488769114
 20
21.355337333
 11
124.9488769114
 21
21.355337333
  0
LINE
  5
228
100
AcDbEntity
  8
0
100
AcDbLine
 62
7
  6
CONTINUOUS
 10
121.0114469238
 20
21.355337333
 11
120.9488769114
 21
21.355337333
  0
LINE
  5
229
100
AcDbEntity
  8
0
100
AcDbLine
 62
7
  6
CONTINUOUS
 10
119.9688769114
 20
21.355337333
 11
115.8688769114
 21
21.355337333
  0
LINE
  5
22A
100
AcDbEntity
  8
0
100
AcDbLine
 62
7
  6
CONTINUOUS
 10
114.8888769114
 20
21.355337333
 11
114.7888769114
 21
21.355337333
  0
LINE
  5
22B
100
AcDbEntity
  8
0
100
AcDbLine
 62
7
  6
CONTINUOUS
 10
110.8514469238
 20
21.355337333
 11
110.7888769114
 21
21.355337333
  0
LINE
  5
22C
100
AcDbEntity
  8
0
100
AcDbLine
 62
7
  6
CONTINUOUS
 10
119.9688769114
 20
21.3816067316
 11
120.9488769114
 21
21.3816148514
  0
LINE
  5
22D
100
AcDbEntity
  8
0
100
AcDbLine
 62
7
  6
CONTINUOUS
 10
114.8888769114
 20
21.3816067316
 11
115.8688769114
 21
21.3816148514
  0
LINE
  5
22E
100
AcDbEntity
  8
0
100
AcDbLine
 62
7
  6
CONTINUOUS
 10
125.8488769114
 20
21.555337333
 11
109.9888769114
 21
21.555337333
  0
LINE
  5
22F
100
AcDbEntity
  8
0
100
AcDbLine
 62
7
  6
CONTINUOUS
 10
109.9888769114
 20
21.855337333
 11
125.8488769114
 21
21.855337333
  0
LINE
  5
230
100
AcDbEntity
  8
0
100
AcDbLine
 62
7
  6
CONTINUOUS
 10
109.9888769114
 20
22.355337333
 11
125.8488769114
 21
22.355337333
  0
LINE
  5
231
100
AcDbEntity
  8
0
100
AcDbLine
 62
7
  6
CONTINUOUS
 10
109.9888769114
 20
24.705337333
 11
125.8488769114
 21
24.705337333
  0
LINE
  5
232
100
AcDbEntity
  8
0
100
AcDbLine
 62
7
  6
CONTINUOUS
 10
109.9888769114
 20
21.3821228115
 11
110.7888769114
 21
21.3816148514
  0
LINE
  5
233
100
AcDbEntity
  8
0
100
AcDbLine
 62
7
  6
CONTINUOUS
 10
105.2488769114
 20
28.985337333
 11
109.9888769114
 21
28.985337333
  0
LINE
  5
234
100
AcDbEntity
  8
0
100
AcDbLine
 62
7
  6
CONTINUOUS
 10
125.8488769114
 20
28.985337333
 11
130.5888769114
 21
28.985337333
  0
LINE
  5
235
100
AcDbEntity
  8
0
100
AcDbLine
 62
7
  6
CONTINUOUS
 10
64.4988769114
 20
35.535337333
 11
42.5988769114
 21
35.535337333
  0
LINE
  5
236
100
AcDbEntity
  8
0
100
AcDbLine
 62
7
  6
CONTINUOUS
 10
42.5988769114
 20
35.835337333
 11
64.4988769114
 21
35.835337333
  0
LINE
  5
237
100
AcDbEntity
  8
0
100
AcDbLine
 62
7
  6
CONTINUOUS
 10
31.798876905
 20
55.7253373394
 11
32.2988769076
 21
55.2253373368
  0
LINE
  5
238
100
AcDbEntity
  8
0
100
AcDbLine
 62
7
  6
CONTINUOUS
 10
33.798882275
 20
36.535337333
 11
152.7988715393
 21
36.535337333
  0
LINE
  5
239
100
AcDbEntity
  8
0
100
AcDbLine
 62
7
  6
CONTINUOUS
 10
31.4988769114
 20
183.2353373327
 11
32.0988769114
 21
183.8353373327
  0
LINE
  5
23A
100
AcDbEntity
  8
0
100
AcDbLine
 62
7
  6
CONTINUOUS
 10
111.8817344613
 20
46.0366038096
 11
109.716044004
 21
46.0366038096
  0
LINE
  5
23B
100
AcDbEntity
  8
0
100
AcDbLine
 62
7
  6
CONTINUOUS
 10
76.8817344612
 20
46.0366038096
 11
74.716044004
 21
46.0366038096
  0
LINE
  5
23C
100
AcDbEntity
  8
0
100
AcDbLine
 62
7
  6
CONTINUOUS
 10
74.7158319598
 20
46.4316867518
 11
76.8819629324
 21
46.4316867369
  0
LINE
  5
23D
100
AcDbEntity
  8
0
100
AcDbLine
 62
7
  6
CONTINUOUS
 10
109.7158319599
 20
46.4316867518
 11
111.8819629325
 21
46.4316867369
  0
LINE
  5
23E
100
AcDbEntity
  8
0
100
AcDbLine
 62
7
  6
CONTINUOUS
 10
161.9988769114
 20
48.2615314964
 11
158.8988769114
 21
48.2615314964
  0
LINE
  5
23F
100
AcDbEntity
  8
0
100
AcDbLine
 62
7
  6
CONTINUOUS
 10
157.6988769114
 20
48.2615314964
 11
154.5988769114
 21
48.2615314964
  0
LINE
  5
240
100
AcDbEntity
  8
0
100
AcDbLine
 62
7
  6
CONTINUOUS
 10
161.9988769114
 20
48.302797872
 11
158.8988769114
 21
48.302797872
  0
LINE
  5
241
100
AcDbEntity
  8
0
100
AcDbLine
 62
7
  6
CONTINUOUS
 10
157.6988769114
 20
48.302797872
 11
154.5988769114
 21
48.302797872
  0
LINE
  5
242
100
AcDbEntity
  8
0
100
AcDbLine
 62
7
  6
CONTINUOUS
 10
152.7988769114
 20
48.8506686935
 11
154.5988769114
 21
48.8551800853
  0
LINE
  5
243
100
AcDbEntity
  8
0
100
AcDbLine
 62
7
  6
CONTINUOUS
 10
157.6988769114
 20
48.8520333223
 11
158.8988769114
 21
48.8520333223
  0
LINE
  5
244
100
AcDbEntity
  8
0
100
AcDbLine
 62
7
  6
CONTINUOUS
 10
163.3988769114
 20
48.872611925
 11
162.6988769111
 21
48.8726119249
  0
LINE
  5
245
100
AcDbEntity
  8
0
100
AcDbLine
 62
7
  6
CONTINUOUS
 10
152.7988769114
 20
48.9100573398
 11
163.3988769114
 21
48.9100573398
  0
LINE
  5
246
100
AcDbEntity
  8
0
100
AcDbLine
 62
7
  6
CONTINUOUS
 10
152.7988769114
 20
50.3414708411
 11
163.3988769114
 21
50.3414708411
  0
LINE
  5
247
100
AcDbEntity
  8
0
100
AcDbLine
 62
7
  6
CONTINUOUS
 10
162.6988769111
 20
48.8506686935
 11
161.9988769114
 21
48.8551800853
  0
LINE
  5
248
100
AcDbEntity
  8
0
100
AcDbLine
 62
7
  6
CONTINUOUS
 10
23.2988769114
 20
82.785337333
 11
23.2988769114
 21
244.435337333
  0
LINE
  5
249
100
AcDbEntity
  8
0
100
AcDbLine
 62
7
  6
CONTINUOUS
 10
33.7988769114
 20
55.225337333
 11
32.2988769063
 21
55.225337333
  0
LINE
  5
24A
100
AcDbEntity
  8
0
100
AcDbLine
 62
7
  6
CONTINUOUS
 10
27.5450579643
 20
240.3318103397
 11
27.5782349755
 21
236.5301014117
  0
LINE
  5
24B
100
AcDbEntity
  8
0
100
AcDbLine
 62
7
  6
CONTINUOUS
 10
25.2230475303
 20
141.435337333
 11
25.2230475303
 21
243.4353373329
  0
LINE
  5
24C
100
AcDbEntity
  8
0
100
AcDbLine
 62
7
  6
CONTINUOUS
 10
25.7030292534
 20
242.835337333
 11
25.7030292534
 21
141.935337333
  0
LINE
  5
24D
100
AcDbEntity
  8
0
100
AcDbLine
 62
7
  6
CONTINUOUS
 10
25.8027691603
 20
141.935337333
 11
25.8027495007
 21
242.8350197177
  0
LINE
  5
24E
100
AcDbEntity
  8
0
100
AcDbLine
 62
7
  6
CONTINUOUS
 10
26.4027494851
 20
141.435337333
 11
26.402748927
 21
243.435337333
  0
LINE
  5
24F
100
AcDbEntity
  8
0
100
AcDbLine
 62
7
  6
CONTINUOUS
 10
27.5222989857
 20
244.935337333
 11
27.5222989857
 21
243.435337333
  0
LINE
  5
250
100
AcDbEntity
  8
0
100
AcDbLine
 62
7
  6
CONTINUOUS
 10
27.6488769114
 20
233.335337333
 11
27.6488769114
 21
187.035337333
  0
LINE
  5
251
100
AcDbEntity
  8
0
100
AcDbLine
 62
7
  6
CONTINUOUS
 10
28.4988769114
 20
141.435337333
 11
28.4988769114
 21
166.435337333
  0
LINE
  5
252
100
AcDbEntity
  8
0
100
AcDbLine
 62
7
  6
CONTINUOUS
 10
28.4988769114
 20
177.235337315
 11
28.4988769114
 21
183.9553373156
  0
LINE
  5
253
100
AcDbEntity
  8
0
100
AcDbLine
 62
7
  6
CONTINUOUS
 10
28.9988769114
 20
183.9553373151
 11
28.9988769114
 21
177.2353373151
  0
LINE
  5
254
100
AcDbEntity
  8
0
100
AcDbLine
 62
7
  6
CONTINUOUS
 10
28.9988769114
 20
165.935337333
 11
28.9988769114
 21
141.935337333
  0
LINE
  5
255
100
AcDbEntity
  8
0
100
AcDbLine
 62
7
  6
CONTINUOUS
 10
29.4788769114
 20
184.9353373151
 11
29.4788769114
 21
184.4353373151
  0
LINE
  5
256
100
AcDbEntity
  8
0
100
AcDbLine
 62
7
  6
CONTINUOUS
 10
29.4788769115
 20
165.935337333
 11
29.4788769115
 21
141.435337333
  0
LINE
  5
257
100
AcDbEntity
  8
0
100
AcDbLine
 62
7
  6
CONTINUOUS
 10
29.5988769114
 20
176.6353373151
 11
29.5988769114
 21
176.1353373151
  0
LINE
  5
258
100
AcDbEntity
  8
0
100
AcDbLine
 62
7
  6
CONTINUOUS
 10
30.1488769114
 20
187.035337333
 11
30.1488769114
 21
233.335337333
  0
LINE
  5
259
100
AcDbEntity
  8
0
100
AcDbLine
 62
7
  6
CONTINUOUS
 10
30.275454572
 20
243.435337333
 11
30.275454572
 21
244.935337333
  0
LINE
  5
25A
100
AcDbEntity
  8
0
100
AcDbLine
 62
7
  6
CONTINUOUS
 10
31.4203662574
 20
141.935337333
 11
31.4203662574
 21
165.935337333
  0
LINE
  5
25B
100
AcDbEntity
  8
0
100
AcDbLine
 62
7
  6
CONTINUOUS
 10
31.4548860044
 20
176.1353373151
 11
31.4548860044
 21
176.6353373151
  0
LINE
  5
25C
100
AcDbEntity
  8
0
100
AcDbLine
 62
7
  6
CONTINUOUS
 10
31.4988769114
 20
183.2353373327
 11
31.4988769114
 21
184.4353373151
  0
LINE
  5
25D
100
AcDbEntity
  8
0
100
AcDbLine
 62
7
  6
CONTINUOUS
 10
31.5988769114
 20
184.4353373151
 11
31.5988769125
 21
241.335337355
  0
LINE
  5
25E
100
AcDbEntity
  8
0
100
AcDbLine
 62
7
  6
CONTINUOUS
 10
31.7988769114
 20
82.785337333
 11
31.7988769114
 21
55.7253373416
  0
LINE
  5
25F
100
AcDbEntity
  8
0
100
AcDbLine
 62
7
  6
CONTINUOUS
 10
31.8737273804
 20
165.935337333
 11
31.8737273804
 21
141.471399238
  0
LINE
  5
260
100
AcDbEntity
  8
0
100
AcDbLine
 62
7
  6
CONTINUOUS
 10
32.0988769114
 20
241.33533733
 11
32.0988769114
 21
183.8353373327
  0
LINE
  5
261
100
AcDbEntity
  8
0
100
AcDbLine
 62
7
  6
CONTINUOUS
 10
32.2988769114
 20
55.225337333
 11
32.2988769073
 21
82.785337333
  0
LINE
  5
262
100
AcDbEntity
  8
0
100
AcDbLine
 62
7
  6
CONTINUOUS
 10
31.5046214165
 20
166.435337333
 11
31.5548855252
 21
176.0349866829
  0
LINE
  5
263
100
AcDbEntity
  8
0
100
AcDbLine
 62
7
  6
CONTINUOUS
 10
32.0548818752
 20
176.0329811312
 11
32.0020102527
 21
165.935337333
  0
LINE
  5
264
100
AcDbEntity
  8
0
100
AcDbLine
 62
7
  6
CONTINUOUS
 10
30.2195188473
 20
236.5301014117
 11
30.2526809449
 21
240.3301014117
  0
LINE
  5
265
100
AcDbEntity
  8
0
100
AcDbLine
 62
7
  6
CONTINUOUS
 10
42.0314956481
 20
196.6603316865
 11
39.2844661077
 21
183.8353373327
  0
LINE
  5
266
100
AcDbEntity
  8
0
100
AcDbLine
 62
7
  6
CONTINUOUS
 10
40.401159962
 20
183.8353373327
 11
43.1481895023
 21
196.6603316866
  0
LINE
  5
267
100
AcDbEntity
  8
0
100
AcDbLine
 62
7
  6
CONTINUOUS
 10
33.7988769114
 20
65.0508132971
 11
32.298876905
 21
65.0508133225
  0
LINE
  5
268
100
AcDbEntity
  8
0
100
AcDbLine
 62
7
  6
CONTINUOUS
 10
161.9988769114
 20
69.8180689028
 11
158.8988769114
 21
69.8180689028
  0
LINE
  5
269
100
AcDbEntity
  8
0
100
AcDbLine
 62
7
  6
CONTINUOUS
 10
157.6988769114
 20
69.8180689028
 11
154.5988769114
 21
69.8180689028
  0
LINE
  5
26A
100
AcDbEntity
  8
0
100
AcDbLine
 62
7
  6
CONTINUOUS
 10
152.7988769114
 20
70.4253283706
 11
163.3988769114
 21
70.4253283706
  0
LINE
  5
26B
100
AcDbEntity
  8
0
100
AcDbLine
 62
7
  6
CONTINUOUS
 10
31.7988769033
 20
65.0595394748
 11
32.2988769066
 21
65.0508133226
  0
LINE
  5
26C
100
AcDbEntity
  8
0
100
AcDbLine
 62
7
  6
CONTINUOUS
 10
32.6988769114
 20
242.435337333
 11
32.6988769114
 21
241.935337333
  0
LINE
  5
26D
100
AcDbEntity
  8
0
100
AcDbLine
 62
7
  6
CONTINUOUS
 10
33.0988769114
 20
175.2762036627
 11
33.0988769114
 21
183.2353373327
  0
LINE
  5
26E
100
AcDbEntity
  8
0
100
AcDbLine
 62
7
  6
CONTINUOUS
 10
33.2988769114
 20
161.935337333
 11
33.2988769114
 21
165.9353373326
  0
LINE
  5
26F
100
AcDbEntity
  8
0
100
AcDbLine
 62
7
  6
CONTINUOUS
 10
33.6988770409
 20
183.8353373327
 11
33.6988770409
 21
174.6762036627
  0
LINE
  5
270
100
AcDbEntity
  8
0
100
AcDbLine
 62
7
  6
CONTINUOUS
 10
33.7988769114
 20
36.535337333
 11
33.7988769114
 21
82.785337333
  0
LINE
  5
271
100
AcDbEntity
  8
0
100
AcDbLine
 62
7
  6
CONTINUOUS
 10
37.1902769114
 20
161.935337333
 11
37.1902769114
 21
160.335337333
  0
LINE
  5
272
100
AcDbEntity
  8
0
100
AcDbLine
 62
7
  6
CONTINUOUS
 10
39.0612726044
 20
153.804237333
 11
39.0612726044
 21
159.604237333
  0
LINE
  5
273
100
AcDbEntity
  8
0
100
AcDbLine
 62
7
  6
CONTINUOUS
 10
40.6256718307
 20
161.935337333
 11
40.6256718307
 21
165.9353373326
  0
LINE
  5
274
100
AcDbEntity
  8
0
100
AcDbLine
 62
7
  6
CONTINUOUS
 10
41.1452870729
 20
165.9353373326
 11
41.1452870729
 21
161.935337333
  0
LINE
  5
275
100
AcDbEntity
  8
0
100
AcDbLine
 62
7
  6
CONTINUOUS
 10
41.3988769114
 20
193.706838975
 11
41.3988769114
 21
196.535337333
  0
LINE
  5
276
100
AcDbEntity
  8
0
100
AcDbLine
 62
7
  6
CONTINUOUS
 10
152.7988769114
 20
71.8567418719
 11
163.3988769114
 21
71.8567418719
  0
LINE
  5
277
100
AcDbEntity
  8
0
100
AcDbLine
 62
7
  6
CONTINUOUS
 10
113.0824911339
 20
72.035337333
 11
108.5152626889
 21
72.035337333
  0
LINE
  5
278
100
AcDbEntity
  8
0
100
AcDbLine
 62
7
  6
CONTINUOUS
 10
78.0824911339
 20
72.035337333
 11
73.5152626889
 21
72.035337333
  0
LINE
  5
279
100
AcDbEntity
  8
0
100
AcDbLine
 62
7
  6
CONTINUOUS
 10
48.7988768118
 20
75.785337333
 11
57.598876956
 21
75.785337333
  0
LINE
  5
27A
100
AcDbEntity
  8
0
100
AcDbLine
 62
7
  6
CONTINUOUS
 10
48.7988768501
 20
76.585337334
 11
57.598876942
 21
76.5853373345
  0
LINE
  5
27B
100
AcDbEntity
  8
0
100
AcDbLine
 62
7
  6
CONTINUOUS
 10
59.2988769104
 20
78.2853372716
 11
60.0988769105
 21
78.285337252
  0
LINE
  5
27C
100
AcDbEntity
  8
0
100
AcDbLine
 62
7
  6
CONTINUOUS
 10
47.0988769129
 20
78.2853373024
 11
46.2988769127
 21
78.2853372916
  0
LINE
  5
27D
100
AcDbEntity
  8
0
100
AcDbLine
 62
7
  6
CONTINUOUS
 10
41.8179488604
 20
196.535337333
 11
41.8179488604
 21
195.6633506544
  0
LINE
  5
27E
100
AcDbEntity
  8
0
100
AcDbLine
 62
7
  6
CONTINUOUS
 10
42.5988769114
 20
36.535337333
 11
42.5988769114
 21
35.535337333
  0
LINE
  5
27F
100
AcDbEntity
  8
0
100
AcDbLine
 62
7
  6
CONTINUOUS
 10
43.1933671733
 20
183.8353373327
 11
43.1933671733
 21
196.535337333
  0
LINE
  5
280
100
AcDbEntity
  8
0
100
AcDbLine
 62
7
  6
CONTINUOUS
 10
43.2306001609
 20
36.535337333
 11
43.2306001679
 21
82.785337333
  0
LINE
  5
281
100
AcDbEntity
  8
0
100
AcDbLine
 62
7
  6
CONTINUOUS
 10
43.2988769114
 20
174.6762036627
 11
43.2988769114
 21
165.9353373326
  0
LINE
  5
282
100
AcDbEntity
  8
0
100
AcDbLine
 62
7
  6
CONTINUOUS
 10
43.2988769114
 20
160.335337333
 11
43.2988769114
 21
159.604237333
  0
LINE
  5
283
100
AcDbEntity
  8
0
100
AcDbLine
 62
7
  6
CONTINUOUS
 10
43.6800747579
 20
153.804237333
 11
43.6800747579
 21
159.604237333
  0
LINE
  5
284
100
AcDbEntity
  8
0
100
AcDbLine
 62
7
  6
CONTINUOUS
 10
44.6988769114
 20
161.935337333
 11
44.6988769114
 21
165.9353373326
  0
LINE
  5
285
100
AcDbEntity
  8
0
100
AcDbLine
 62
7
  6
CONTINUOUS
 10
45.2988769114
 20
165.9353373326
 11
45.2988769114
 21
161.935337333
  0
LINE
  5
286
100
AcDbEntity
  8
0
100
AcDbLine
 62
7
  6
CONTINUOUS
 10
45.5988769114
 20
165.9353373326
 11
45.5988769114
 21
161.935337333
  0
LINE
  5
287
100
AcDbEntity
  8
0
100
AcDbLine
 62
7
  6
CONTINUOUS
 10
46.2988769114
 20
107.4653374269
 11
46.2988769114
 21
78.2853372916
  0
LINE
  5
288
100
AcDbEntity
  8
0
100
AcDbLine
 62
7
  6
CONTINUOUS
 10
47.0988769125
 20
107.4653373944
 11
47.0988769129
 21
78.2853373024
  0
LINE
  5
289
100
AcDbEntity
  8
0
100
AcDbLine
 62
7
  6
CONTINUOUS
 10
48.7988768925
 20
109.1653373315
 11
48.7988768829
 21
109.9653373317
  0
LINE
  5
28A
100
AcDbEntity
  8
0
100
AcDbLine
 62
7
  6
CONTINUOUS
 10
48.7988768501
 20
76.585337334
 11
48.7988768118
 21
75.7853373339
  0
LINE
  5
28B
100
AcDbEntity
  8
0
100
AcDbLine
 62
7
  6
CONTINUOUS
 10
64.5957435701
 20
165.935337333
 11
65.0931324063
 21
166.435337333
  0
LINE
  5
28C
100
AcDbEntity
  8
0
100
AcDbLine
 62
7
  6
CONTINUOUS
 10
76.4988769114
 20
183.2353373327
 11
77.0988769114
 21
183.8353373327
  0
LINE
  5
28D
100
AcDbEntity
  8
0
100
AcDbLine
 62
7
  6
CONTINUOUS
 10
163.2988769114
 20
82.785337333
 11
143.3668887907
 21
82.785337333
  0
LINE
  5
28E
100
AcDbEntity
  8
0
100
AcDbLine
 62
7
  6
CONTINUOUS
 10
43.2306001679
 20
82.785337333
 11
23.2988769114
 21
82.785337333
  0
LINE
  5
28F
100
AcDbEntity
  8
0
100
AcDbLine
 62
7
  6
CONTINUOUS
 10
50.9988769114
 20
161.935337333
 11
50.9988769114
 21
165.9353373326
  0
LINE
  5
290
100
AcDbEntity
  8
0
100
AcDbLine
 62
7
  6
CONTINUOUS
 10
51.2988769114
 20
161.935337333
 11
51.2988769114
 21
165.9353373326
  0
LINE
  5
291
100
AcDbEntity
  8
0
100
AcDbLine
 62
7
  6
CONTINUOUS
 10
51.8988769114
 20
165.9353373326
 11
51.8988769114
 21
161.935337333
  0
LINE
  5
292
100
AcDbEntity
  8
0
100
AcDbLine
 62
7
  6
CONTINUOUS
 10
52.9176790649
 20
153.804237333
 11
52.9176790649
 21
159.604237333
  0
LINE
  5
293
100
AcDbEntity
  8
0
100
AcDbLine
 62
7
  6
CONTINUOUS
 10
53.2988769114
 20
174.6762036627
 11
53.2988769114
 21
165.9353373326
  0
LINE
  5
294
100
AcDbEntity
  8
0
100
AcDbLine
 62
7
  6
CONTINUOUS
 10
53.2988769114
 20
160.335337333
 11
53.2988769114
 21
159.604237333
  0
LINE
  5
295
100
AcDbEntity
  8
0
100
AcDbLine
 62
7
  6
CONTINUOUS
 10
53.4043866496
 20
196.535337333
 11
53.4043866496
 21
183.8353373327
  0
LINE
  5
296
100
AcDbEntity
  8
0
100
AcDbLine
 62
7
  6
CONTINUOUS
 10
54.7798052374
 20
195.663349371
 11
54.7798052374
 21
196.535337333
  0
LINE
  5
297
100
AcDbEntity
  8
0
100
AcDbLine
 62
7
  6
CONTINUOUS
 10
55.1988769114
 20
193.7068389752
 11
55.1988769114
 21
196.535337333
  0
LINE
  5
298
100
AcDbEntity
  8
0
100
AcDbLine
 62
7
  6
CONTINUOUS
 10
55.4524667499
 20
161.935337333
 11
55.4524667499
 21
165.9353373326
  0
LINE
  5
299
100
AcDbEntity
  8
0
100
AcDbLine
 62
7
  6
CONTINUOUS
 10
55.9720819922
 20
165.9353373326
 11
55.9720819922
 21
161.935337333
  0
LINE
  5
29A
100
AcDbEntity
  8
0
100
AcDbLine
 62
7
  6
CONTINUOUS
 10
57.5364812184
 20
153.804237333
 11
57.5364812184
 21
159.604237333
  0
LINE
  5
29B
100
AcDbEntity
  8
0
100
AcDbLine
 62
7
  6
CONTINUOUS
 10
57.598876942
 20
76.5853373345
 11
57.598876956
 21
75.7853373343
  0
LINE
  5
29C
100
AcDbEntity
  8
0
100
AcDbLine
 62
7
  6
CONTINUOUS
 10
57.5988769461
 20
109.165337332
 11
57.5988769759
 21
109.9653373321
  0
LINE
  5
29D
100
AcDbEntity
  8
0
100
AcDbLine
 62
7
  6
CONTINUOUS
 10
66.3988769115
 20
165.935337333
 11
66.8988769115
 21
166.435337333
  0
LINE
  5
29E
100
AcDbEntity
  8
0
100
AcDbLine
 62
7
  6
CONTINUOUS
 10
65.2988769114
 20
96.0508933128
 11
69.2988769114
 21
96.0508933128
  0
LINE
  5
29F
100
AcDbEntity
  8
0
100
AcDbLine
 62
7
  6
CONTINUOUS
 10
117.2988769114
 20
96.0508933128
 11
121.2988769114
 21
96.0508933128
  0
LINE
  5
2A0
100
AcDbEntity
  8
0
100
AcDbLine
 62
7
  6
CONTINUOUS
 10
64.5957435701
 20
165.935337333
 11
64.5468344614
 21
175.2762036627
  0
LINE
  5
2A1
100
AcDbEntity
  8
0
100
AcDbLine
 62
7
  6
CONTINUOUS
 10
65.0526009545
 20
174.1762036676
 11
65.0931324063
 21
166.435337333
  0
LINE
  5
2A2
100
AcDbEntity
  8
0
100
AcDbLine
 62
7
  6
CONTINUOUS
 10
59.2988769104
 20
78.2853372716
 11
59.2988769099
 21
107.4653373636
  0
LINE
  5
2A3
100
AcDbEntity
  8
0
100
AcDbLine
 62
7
  6
CONTINUOUS
 10
59.4074769114
 20
161.935337333
 11
59.4074769114
 21
160.335337333
  0
LINE
  5
2A4
100
AcDbEntity
  8
0
100
AcDbLine
 62
7
  6
CONTINUOUS
 10
60.0988769114
 20
78.285337252
 11
60.0988769114
 21
107.4653373687
  0
LINE
  5
2A5
100
AcDbEntity
  8
0
100
AcDbLine
 62
7
  6
CONTINUOUS
 10
62.898876782
 20
174.6762036627
 11
62.898876782
 21
183.8353373327
  0
LINE
  5
2A6
100
AcDbEntity
  8
0
100
AcDbLine
 62
7
  6
CONTINUOUS
 10
63.2988769114
 20
161.935337333
 11
63.2988769114
 21
165.9353373326
  0
LINE
  5
2A7
100
AcDbEntity
  8
0
100
AcDbLine
 62
7
  6
CONTINUOUS
 10
63.4988769114
 20
183.2353373327
 11
63.4988769114
 21
175.2762036627
  0
LINE
  5
2A8
100
AcDbEntity
  8
0
100
AcDbLine
 62
7
  6
CONTINUOUS
 10
63.8988769114
 20
241.935337333
 11
63.8988769114
 21
242.435337333
  0
LINE
  5
2A9
100
AcDbEntity
  8
0
100
AcDbLine
 62
7
  6
CONTINUOUS
 10
64.4988769114
 20
35.535337333
 11
64.4988769114
 21
36.535337333
  0
LINE
  5
2AA
100
AcDbEntity
  8
0
100
AcDbLine
 62
7
  6
CONTINUOUS
 10
64.4988769114
 20
183.8353373327
 11
64.4988769114
 21
241.3353373332
  0
LINE
  5
2AB
100
AcDbEntity
  8
0
100
AcDbLine
 62
7
  6
CONTINUOUS
 10
64.7240801177
 20
141.4353873455
 11
64.7239629688
 21
165.935337333
  0
LINE
  5
2AC
100
AcDbEntity
  8
0
100
AcDbLine
 62
7
  6
CONTINUOUS
 10
64.9988769112
 20
241.3353373367
 11
64.9988769114
 21
184.4353373151
  0
LINE
  5
2AD
100
AcDbEntity
  8
0
100
AcDbLine
 62
7
  6
CONTINUOUS
 10
65.0526009545
 20
174.6762036676
 11
65.0526009545
 21
174.1762036676
  0
LINE
  5
2AE
100
AcDbEntity
  8
0
100
AcDbLine
 62
7
  6
CONTINUOUS
 10
65.0988769114
 20
184.4353373151
 11
65.0988769114
 21
183.2353373327
  0
LINE
  5
2AF
100
AcDbEntity
  8
0
100
AcDbLine
 62
7
  6
CONTINUOUS
 10
65.2008914009
 20
165.935337333
 11
65.2008914009
 21
141.935337333
  0
LINE
  5
2B0
100
AcDbEntity
  8
0
100
AcDbLine
 62
7
  6
CONTINUOUS
 10
65.2988769114
 20
96.0508933128
 11
65.2988769114
 21
101.035337333
  0
LINE
  5
2B1
100
AcDbEntity
  8
0
100
AcDbLine
 62
7
  6
CONTINUOUS
 10
65.7988769114
 20
101.535337333
 11
65.7988769114
 21
99.5508933128
  0
LINE
  5
2B2
100
AcDbEntity
  8
0
100
AcDbLine
 62
7
  6
CONTINUOUS
 10
65.7988769114
 20
184.4353373151
 11
65.7988769114
 21
184.9353373151
  0
LINE
  5
2B3
100
AcDbEntity
  8
0
100
AcDbLine
 62
7
  6
CONTINUOUS
 10
65.9188769114
 20
141.435337333
 11
65.918876911
 21
165.935337333
  0
LINE
  5
2B4
100
AcDbEntity
  8
0
100
AcDbLine
 62
7
  6
CONTINUOUS
 10
66.3988769115
 20
141.935337333
 11
66.3988769115
 21
165.935337333
  0
LINE
  5
2B5
100
AcDbEntity
  8
0
100
AcDbLine
 62
7
  6
CONTINUOUS
 10
66.3988769114
 20
175.2353373151
 11
66.3988769114
 21
183.8353373153
  0
LINE
  5
2B6
100
AcDbEntity
  8
0
100
AcDbLine
 62
7
  6
CONTINUOUS
 10
66.8988766987
 20
175.2353429906
 11
66.8988769112
 21
183.8353373188
  0
LINE
  5
2B7
100
AcDbEntity
  8
0
100
AcDbLine
 62
7
  6
CONTINUOUS
 10
66.8988769115
 20
166.435337333
 11
66.8988769115
 21
141.435337333
  0
LINE
  5
2B8
100
AcDbEntity
  8
0
100
AcDbLine
 62
7
  6
CONTINUOUS
 10
65.648875366
 20
239.935337333
 11
65.6318815456
 21
229.935337333
  0
LINE
  5
2B9
100
AcDbEntity
  8
0
100
AcDbLine
 62
7
  6
CONTINUOUS
 10
108.4988769114
 20
183.8353373327
 11
107.8988769114
 21
183.2353373327
  0
LINE
  5
2BA
100
AcDbEntity
  8
0
100
AcDbLine
 62
7
  6
CONTINUOUS
 10
65.7988769114
 20
99.5508933128
 11
68.7988769114
 21
99.5508933128
  0
LINE
  5
2BB
100
AcDbEntity
  8
0
100
AcDbLine
 62
7
  6
CONTINUOUS
 10
117.7988769114
 20
99.5508933128
 11
120.7988769114
 21
99.5508933128
  0
LINE
  5
2BC
100
AcDbEntity
  8
0
100
AcDbLine
 62
7
  6
CONTINUOUS
 10
163.3988769114
 20
99.8266208944
 11
163.2988769114
 21
99.8266208944
  0
LINE
  5
2BD
100
AcDbEntity
  8
0
100
AcDbLine
 62
7
  6
CONTINUOUS
 10
121.2988769114
 20
101.035337333
 11
117.2988769114
 21
101.035337333
  0
LINE
  5
2BE
100
AcDbEntity
  8
0
100
AcDbLine
 62
7
  6
CONTINUOUS
 10
69.2988769114
 20
101.035337333
 11
65.2988769114
 21
101.035337333
  0
LINE
  5
2BF
100
AcDbEntity
  8
0
100
AcDbLine
 62
7
  6
CONTINUOUS
 10
65.7988769114
 20
101.535337333
 11
68.7988769114
 21
101.535337333
  0
LINE
  5
2C0
100
AcDbEntity
  8
0
100
AcDbLine
 62
7
  6
CONTINUOUS
 10
117.7988769114
 20
101.535337333
 11
120.7988769114
 21
101.535337333
  0
LINE
  5
2C1
100
AcDbEntity
  8
0
100
AcDbLine
 62
7
  6
CONTINUOUS
 10
163.2988769114
 20
104.7212686295
 11
163.3988769114
 21
104.7212686295
  0
LINE
  5
2C2
100
AcDbEntity
  8
0
100
AcDbLine
 62
7
  6
CONTINUOUS
 10
53.4495643206
 20
196.6603316865
 11
56.1965938609
 21
183.8353373327
  0
LINE
  5
2C3
100
AcDbEntity
  8
0
100
AcDbLine
 62
7
  6
CONTINUOUS
 10
73.6447236977
 20
47.0166245938
 11
73.1151731459
 21
72.0402241333
  0
LINE
  5
2C4
100
AcDbEntity
  8
0
100
AcDbLine
 62
7
  6
CONTINUOUS
 10
74.0446438398
 20
47.0193292659
 11
73.5152626889
 21
72.035337333
  0
LINE
  5
2C5
100
AcDbEntity
  8
0
100
AcDbLine
 62
7
  6
CONTINUOUS
 10
75.9658722773
 20
229.935337333
 11
75.9488784569
 21
239.935337333
  0
LINE
  5
2C6
100
AcDbEntity
  8
0
100
AcDbLine
 62
7
  6
CONTINUOUS
 10
68.1615111336
 20
171.435337333
 11
68.1615111336
 21
156.435337333
  0
LINE
  5
2C7
100
AcDbEntity
  8
0
100
AcDbLine
 62
7
  6
CONTINUOUS
 10
68.3976258452
 20
141.935337333
 11
68.3976258452
 21
156.435337333
  0
LINE
  5
2C8
100
AcDbEntity
  8
0
100
AcDbLine
 62
7
  6
CONTINUOUS
 10
68.569060322
 20
171.435337333
 11
68.569060322
 21
229.935337333
  0
LINE
  5
2C9
100
AcDbEntity
  8
0
100
AcDbLine
 62
7
  6
CONTINUOUS
 10
68.569060322
 20
239.935337333
 11
68.569060322
 21
243.435337333
  0
LINE
  5
2CA
100
AcDbEntity
  8
0
100
AcDbLine
 62
7
  6
CONTINUOUS
 10
68.7988769114
 20
99.5508933128
 11
68.7988769114
 21
101.535337333
  0
LINE
  5
2CB
100
AcDbEntity
  8
0
100
AcDbLine
 62
7
  6
CONTINUOUS
 10
68.9941450166
 20
156.435337333
 11
68.9941450166
 21
141.435337333
  0
LINE
  5
2CC
100
AcDbEntity
  8
0
100
AcDbLine
 62
7
  6
CONTINUOUS
 10
69.0686361761
 20
242.935337333
 11
69.0686361761
 21
239.935337333
  0
LINE
  5
2CD
100
AcDbEntity
  8
0
100
AcDbLine
 62
7
  6
CONTINUOUS
 10
69.0686361761
 20
229.935337333
 11
69.0686361761
 21
171.435337333
  0
LINE
  5
2CE
100
AcDbEntity
  8
0
100
AcDbLine
 62
7
  6
CONTINUOUS
 10
69.2936138046
 20
141.435337333
 11
69.2936138046
 21
156.435337333
  0
LINE
  5
2CF
100
AcDbEntity
  8
0
100
AcDbLine
 62
7
  6
CONTINUOUS
 10
69.2988769114
 20
96.0508933128
 11
69.2988769114
 21
101.035337333
  0
LINE
  5
2D0
100
AcDbEntity
  8
0
100
AcDbLine
 62
7
  6
CONTINUOUS
 10
69.5527311712
 20
171.435337333
 11
69.5527311712
 21
229.935337333
  0
LINE
  5
2D1
100
AcDbEntity
  8
0
100
AcDbLine
 62
7
  6
CONTINUOUS
 10
69.5527311712
 20
239.935337333
 11
69.5527311712
 21
242.935337333
  0
LINE
  5
2D2
100
AcDbEntity
  8
0
100
AcDbLine
 62
7
  6
CONTINUOUS
 10
72.0450226516
 20
242.935337333
 11
72.0450226516
 21
239.935337333
  0
LINE
  5
2D3
100
AcDbEntity
  8
0
100
AcDbLine
 62
7
  6
CONTINUOUS
 10
72.0450226516
 20
229.935337333
 11
72.0450226516
 21
171.435337333
  0
LINE
  5
2D4
100
AcDbEntity
  8
0
100
AcDbLine
 62
7
  6
CONTINUOUS
 10
72.3041400183
 20
156.435337333
 11
72.3041400183
 21
141.435337333
  0
LINE
  5
2D5
100
AcDbEntity
  8
0
100
AcDbLine
 62
7
  6
CONTINUOUS
 10
72.5291176467
 20
171.435337333
 11
72.5291176467
 21
229.935337333
  0
LINE
  5
2D6
100
AcDbEntity
  8
0
100
AcDbLine
 62
7
  6
CONTINUOUS
 10
72.5291176467
 20
239.935337333
 11
72.5291176467
 21
242.935337333
  0
LINE
  5
2D7
100
AcDbEntity
  8
0
100
AcDbLine
 62
7
  6
CONTINUOUS
 10
72.6032991433
 20
141.435337333
 11
72.6032991433
 21
156.435337333
  0
LINE
  5
2D8
100
AcDbEntity
  8
0
100
AcDbLine
 62
7
  6
CONTINUOUS
 10
73.0286935008
 20
229.935337333
 11
73.0286935008
 21
171.435337333
  0
LINE
  5
2D9
100
AcDbEntity
  8
0
100
AcDbLine
 62
7
  6
CONTINUOUS
 10
73.2001279777
 20
156.435337333
 11
73.2001279777
 21
141.935337333
  0
LINE
  5
2DA
100
AcDbEntity
  8
0
100
AcDbLine
 62
7
  6
CONTINUOUS
 10
73.4362426892
 20
156.435337333
 11
73.4362426892
 21
171.435337333
  0
LINE
  5
2DB
100
AcDbEntity
  8
0
100
AcDbLine
 62
7
  6
CONTINUOUS
 10
74.6988769114
 20
141.435337333
 11
74.6988769114
 21
166.435337333
  0
LINE
  5
2DC
100
AcDbEntity
  8
0
100
AcDbLine
 62
7
  6
CONTINUOUS
 10
74.6988769114
 20
177.2353373151
 11
74.6988769114
 21
183.8353373151
  0
LINE
  5
2DD
100
AcDbEntity
  8
0
100
AcDbLine
 62
7
  6
CONTINUOUS
 10
74.7158369438
 20
46.4316871572
 11
74.7158369438
 21
46.0366038096
  0
LINE
  5
2DE
100
AcDbEntity
  8
0
100
AcDbLine
 62
7
  6
CONTINUOUS
 10
75.1988769114
 20
183.8353373151
 11
75.1988769114
 21
177.2353373151
  0
LINE
  5
2DF
100
AcDbEntity
  8
0
100
AcDbLine
 62
7
  6
CONTINUOUS
 10
75.1988769114
 20
165.935337333
 11
75.1988769114
 21
141.935337333
  0
LINE
  5
2E0
100
AcDbEntity
  8
0
100
AcDbLine
 62
7
  6
CONTINUOUS
 10
75.6788769115
 20
165.935337333
 11
75.6788769115
 21
141.435337333
  0
LINE
  5
2E1
100
AcDbEntity
  8
0
100
AcDbLine
 62
7
  6
CONTINUOUS
 10
75.7988769114
 20
184.9353373151
 11
75.7988769114
 21
184.4353373151
  0
LINE
  5
2E2
100
AcDbEntity
  8
0
100
AcDbLine
 62
7
  6
CONTINUOUS
 10
75.7988769114
 20
176.6353373151
 11
75.7988769114
 21
176.1353373151
  0
LINE
  5
2E3
100
AcDbEntity
  8
0
100
AcDbLine
 62
7
  6
CONTINUOUS
 10
76.3968624219
 20
141.935337333
 11
76.3968624219
 21
165.935337333
  0
LINE
  5
2E4
100
AcDbEntity
  8
0
100
AcDbLine
 62
7
  6
CONTINUOUS
 10
76.4548860009
 20
176.1353373151
 11
76.4548860009
 21
176.6353373151
  0
LINE
  5
2E5
100
AcDbEntity
  8
0
100
AcDbLine
 62
7
  6
CONTINUOUS
 10
76.4988769114
 20
183.2353373327
 11
76.4988769114
 21
184.4353373151
  0
LINE
  5
2E6
100
AcDbEntity
  8
0
100
AcDbLine
 62
7
  6
CONTINUOUS
 10
76.5988769114
 20
184.4353373151
 11
76.5988769125
 21
241.335337355
  0
LINE
  5
2E7
100
AcDbEntity
  8
0
100
AcDbLine
 62
7
  6
CONTINUOUS
 10
73.0286935008
 20
239.935337333
 11
73.0286935008
 21
243.435337333
  0
LINE
  5
2E8
100
AcDbEntity
  8
0
100
AcDbLine
 62
7
  6
CONTINUOUS
 10
76.5046214165
 20
166.435337333
 11
76.5548855246
 21
176.0349866809
  0
LINE
  5
2E9
100
AcDbEntity
  8
0
100
AcDbLine
 62
7
  6
CONTINUOUS
 10
77.0548818752
 20
176.0329811311
 11
77.0020102527
 21
165.935337333
  0
LINE
  5
2EA
100
AcDbEntity
  8
0
100
AcDbLine
 62
7
  6
CONTINUOUS
 10
87.0314956481
 20
196.6603316865
 11
84.2844661077
 21
183.8353373327
  0
LINE
  5
2EB
100
AcDbEntity
  8
0
100
AcDbLine
 62
7
  6
CONTINUOUS
 10
85.401159962
 20
183.8353373327
 11
88.1481895023
 21
196.6603316866
  0
LINE
  5
2EC
100
AcDbEntity
  8
0
100
AcDbLine
 62
7
  6
CONTINUOUS
 10
47.0988769125
 20
107.4653373944
 11
46.2988769123
 21
107.4653374269
  0
LINE
  5
2ED
100
AcDbEntity
  8
0
100
AcDbLine
 62
7
  6
CONTINUOUS
 10
59.2988769099
 20
107.4653373636
 11
60.0988769101
 21
107.4653373687
  0
LINE
  5
2EE
100
AcDbEntity
  8
0
100
AcDbLine
 62
7
  6
CONTINUOUS
 10
57.5988769461
 20
109.165337332
 11
48.7988768925
 21
109.1653373315
  0
LINE
  5
2EF
100
AcDbEntity
  8
0
100
AcDbLine
 62
7
  6
CONTINUOUS
 10
57.5988769759
 20
109.965337333
 11
48.7988768829
 21
109.965337333
  0
LINE
  5
2F0
100
AcDbEntity
  8
0
100
AcDbLine
 62
7
  6
CONTINUOUS
 10
28.9988769114
 20
165.935337333
 11
28.4988769114
 21
166.435337333
  0
LINE
  5
2F1
100
AcDbEntity
  8
0
100
AcDbLine
 62
7
  6
CONTINUOUS
 10
32.0020102527
 20
165.935337333
 11
31.5046214165
 21
166.435337333
  0
LINE
  5
2F2
100
AcDbEntity
  8
0
100
AcDbLine
 62
7
  6
CONTINUOUS
 10
57.3132877151
 20
183.8353373327
 11
54.5662581748
 21
196.6603316864
  0
LINE
  5
2F3
100
AcDbEntity
  8
0
100
AcDbLine
 62
7
  6
CONTINUOUS
 10
76.8737273804
 20
141.4353678916
 11
76.8737273804
 21
165.935337333
  0
LINE
  5
2F4
100
AcDbEntity
  8
0
100
AcDbLine
 62
7
  6
CONTINUOUS
 10
76.8819445962
 20
46.4316871572
 11
76.8819445962
 21
46.0366038096
  0
LINE
  5
2F5
100
AcDbEntity
  8
0
100
AcDbLine
 62
7
  6
CONTINUOUS
 10
77.0988769114
 20
241.33533733
 11
77.0988769114
 21
183.8353373327
  0
LINE
  5
2F6
100
AcDbEntity
  8
0
100
AcDbLine
 62
7
  6
CONTINUOUS
 10
77.6988769114
 20
242.435337333
 11
77.6988769114
 21
241.935337333
  0
LINE
  5
2F7
100
AcDbEntity
  8
0
100
AcDbLine
 62
7
  6
CONTINUOUS
 10
78.0988769114
 20
175.2353373326
 11
78.0988769114
 21
183.8353373327
  0
LINE
  5
2F8
100
AcDbEntity
  8
0
100
AcDbLine
 62
7
  6
CONTINUOUS
 10
78.2988769114
 20
161.935337333
 11
78.2988769114
 21
165.9353373326
  0
LINE
  5
2F9
100
AcDbEntity
  8
0
100
AcDbLine
 62
7
  6
CONTINUOUS
 10
78.6988770409
 20
174.6353373326
 11
78.6988769114
 21
183.2353373327
  0
LINE
  5
2FA
100
AcDbEntity
  8
0
100
AcDbLine
 62
7
  6
CONTINUOUS
 10
82.1902769114
 20
161.935337333
 11
82.1902769114
 21
160.335337333
  0
LINE
  5
2FB
100
AcDbEntity
  8
0
100
AcDbLine
 62
7
  6
CONTINUOUS
 10
84.0612726044
 20
153.804237333
 11
84.0612726044
 21
159.604237333
  0
LINE
  5
2FC
100
AcDbEntity
  8
0
100
AcDbLine
 62
7
  6
CONTINUOUS
 10
85.6256718307
 20
161.935337333
 11
85.6256718307
 21
165.9353373326
  0
LINE
  5
2FD
100
AcDbEntity
  8
0
100
AcDbLine
 62
7
  6
CONTINUOUS
 10
78.0824911339
 20
72.035337333
 11
77.5531931712
 21
47.023613719
  0
LINE
  5
2FE
100
AcDbEntity
  8
0
100
AcDbLine
 62
7
  6
CONTINUOUS
 10
78.4825806769
 20
72.0402241333
 11
77.9531097284
 21
47.0203862004
  0
LINE
  5
2FF
100
AcDbEntity
  8
0
100
AcDbLine
 62
7
  6
CONTINUOUS
 10
109.5957435701
 20
165.935337333
 11
110.0931324063
 21
166.435337333
  0
LINE
  5
300
100
AcDbEntity
  8
0
100
AcDbLine
 62
7
  6
CONTINUOUS
 10
121.4988769114
 20
183.2353373327
 11
122.0988769114
 21
183.8353373327
  0
LINE
  5
301
100
AcDbEntity
  8
0
100
AcDbLine
 62
7
  6
CONTINUOUS
 10
111.3988769115
 20
165.935337333
 11
111.8988769115
 21
166.435337333
  0
LINE
  5
302
100
AcDbEntity
  8
0
100
AcDbLine
 62
7
  6
CONTINUOUS
 10
86.1452870729
 20
165.9353373326
 11
86.1452870729
 21
161.935337333
  0
LINE
  5
303
100
AcDbEntity
  8
0
100
AcDbLine
 62
7
  6
CONTINUOUS
 10
86.3988769114
 20
193.7068389751
 11
86.3988769114
 21
196.535337333
  0
LINE
  5
304
100
AcDbEntity
  8
0
100
AcDbLine
 62
7
  6
CONTINUOUS
 10
86.8179488604
 20
196.535337333
 11
86.8179488604
 21
195.6633506544
  0
LINE
  5
305
100
AcDbEntity
  8
0
100
AcDbLine
 62
7
  6
CONTINUOUS
 10
88.1933671733
 20
183.8353373327
 11
88.1933671733
 21
196.535337333
  0
LINE
  5
306
100
AcDbEntity
  8
0
100
AcDbLine
 62
7
  6
CONTINUOUS
 10
88.2988769114
 20
174.6353373326
 11
88.2988769114
 21
165.9353373326
  0
LINE
  5
307
100
AcDbEntity
  8
0
100
AcDbLine
 62
7
  6
CONTINUOUS
 10
88.2988769114
 20
160.335337333
 11
88.2988769114
 21
159.604237333
  0
LINE
  5
308
100
AcDbEntity
  8
0
100
AcDbLine
 62
7
  6
CONTINUOUS
 10
88.6800747579
 20
153.804237333
 11
88.6800747579
 21
159.604237333
  0
LINE
  5
309
100
AcDbEntity
  8
0
100
AcDbLine
 62
7
  6
CONTINUOUS
 10
89.6988769114
 20
161.935337333
 11
89.6988769114
 21
165.9353373326
  0
LINE
  5
30A
100
AcDbEntity
  8
0
100
AcDbLine
 62
7
  6
CONTINUOUS
 10
90.2988769114
 20
165.9353373326
 11
90.2988769114
 21
161.935337333
  0
LINE
  5
30B
100
AcDbEntity
  8
0
100
AcDbLine
 62
7
  6
CONTINUOUS
 10
90.5988769114
 20
165.9353373326
 11
90.5988769114
 21
161.935337333
  0
LINE
  5
30C
100
AcDbEntity
  8
0
100
AcDbLine
 62
7
  6
CONTINUOUS
 10
95.9988769114
 20
161.935337333
 11
95.9988769114
 21
165.9353373326
  0
LINE
  5
30D
100
AcDbEntity
  8
0
100
AcDbLine
 62
7
  6
CONTINUOUS
 10
96.2988769114
 20
161.935337333
 11
96.2988769114
 21
165.9353373326
  0
LINE
  5
30E
100
AcDbEntity
  8
0
100
AcDbLine
 62
7
  6
CONTINUOUS
 10
96.8988769114
 20
165.9353373326
 11
96.8988769114
 21
161.935337333
  0
LINE
  5
30F
100
AcDbEntity
  8
0
100
AcDbLine
 62
7
  6
CONTINUOUS
 10
97.9176790649
 20
153.804237333
 11
97.9176790649
 21
159.604237333
  0
LINE
  5
310
100
AcDbEntity
  8
0
100
AcDbLine
 62
7
  6
CONTINUOUS
 10
98.2988769114
 20
174.6353373326
 11
98.2988769114
 21
165.9353373326
  0
LINE
  5
311
100
AcDbEntity
  8
0
100
AcDbLine
 62
7
  6
CONTINUOUS
 10
98.2988769114
 20
160.335337333
 11
98.2988769114
 21
159.604237333
  0
LINE
  5
312
100
AcDbEntity
  8
0
100
AcDbLine
 62
7
  6
CONTINUOUS
 10
98.4043866496
 20
196.535337333
 11
98.4043866496
 21
183.8353373327
  0
LINE
  5
313
100
AcDbEntity
  8
0
100
AcDbLine
 62
7
  6
CONTINUOUS
 10
99.7798052374
 20
195.663349371
 11
99.7798052374
 21
196.535337333
  0
LINE
  5
314
100
AcDbEntity
  8
0
100
AcDbLine
 62
7
  6
CONTINUOUS
 10
100.1988769114
 20
193.7068389752
 11
100.1988769114
 21
196.535337333
  0
LINE
  5
315
100
AcDbEntity
  8
0
100
AcDbLine
 62
7
  6
CONTINUOUS
 10
100.4524667499
 20
161.935337333
 11
100.4524667499
 21
165.9353373326
  0
LINE
  5
316
100
AcDbEntity
  8
0
100
AcDbLine
 62
7
  6
CONTINUOUS
 10
100.9720819922
 20
165.9353373326
 11
100.9720819922
 21
161.935337333
  0
LINE
  5
317
100
AcDbEntity
  8
0
100
AcDbLine
 62
7
  6
CONTINUOUS
 10
102.5364812184
 20
153.804237333
 11
102.5364812184
 21
159.604237333
  0
LINE
  5
318
100
AcDbEntity
  8
0
100
AcDbLine
 62
7
  6
CONTINUOUS
 10
67.6888769114
 20
141.135337333
 11
73.9088769114
 21
141.135337333
  0
LINE
  5
319
100
AcDbEntity
  8
0
100
AcDbLine
 62
7
  6
CONTINUOUS
 10
112.6888769114
 20
141.135337333
 11
118.9088769114
 21
141.135337333
  0
LINE
  5
31A
100
AcDbEntity
  8
0
100
AcDbLine
 62
7
  6
CONTINUOUS
 10
23.2988769114
 20
141.435337333
 11
31.8737273804
 21
141.435337333
  0
LINE
  5
31B
100
AcDbEntity
  8
0
100
AcDbLine
 62
7
  6
CONTINUOUS
 10
64.7239732775
 20
141.435337333
 11
76.873922533
 21
141.435337333
  0
LINE
  5
31C
100
AcDbEntity
  8
0
100
AcDbLine
 62
7
  6
CONTINUOUS
 10
109.7238357932
 20
141.435337333
 11
121.8739185001
 21
141.435337333
  0
LINE
  5
31D
100
AcDbEntity
  8
0
100
AcDbLine
 62
7
  6
CONTINUOUS
 10
154.7240264424
 20
141.435337333
 11
163.2988769114
 21
141.435337333
  0
LINE
  5
31E
100
AcDbEntity
  8
0
100
AcDbLine
 62
7
  6
CONTINUOUS
 10
23.2988769114
 20
141.935337333
 11
31.4203662574
 21
141.935337333
  0
LINE
  5
31F
100
AcDbEntity
  8
0
100
AcDbLine
 62
7
  6
CONTINUOUS
 10
65.2008914009
 20
141.935337333
 11
68.3976258452
 21
141.935337333
  0
LINE
  5
320
100
AcDbEntity
  8
0
100
AcDbLine
 62
7
  6
CONTINUOUS
 10
73.2001279777
 20
141.935337333
 11
76.3968624219
 21
141.935337333
  0
LINE
  5
321
100
AcDbEntity
  8
0
100
AcDbLine
 62
7
  6
CONTINUOUS
 10
110.2008914009
 20
141.935337333
 11
113.3976258452
 21
141.935337333
  0
LINE
  5
322
100
AcDbEntity
  8
0
100
AcDbLine
 62
7
  6
CONTINUOUS
 10
118.2001279777
 20
141.935337333
 11
121.3968624219
 21
141.935337333
  0
LINE
  5
323
100
AcDbEntity
  8
0
100
AcDbLine
 62
7
  6
CONTINUOUS
 10
155.2996247662
 20
141.935337333
 11
163.2988769114
 21
141.935337333
  0
LINE
  5
324
100
AcDbEntity
  8
0
100
AcDbLine
 62
7
  6
CONTINUOUS
 10
108.6447236977
 20
47.0166245938
 11
108.1151731459
 21
72.0402241333
  0
LINE
  5
325
100
AcDbEntity
  8
0
100
AcDbLine
 62
7
  6
CONTINUOUS
 10
109.0446438398
 20
47.0193292653
 11
108.5152626889
 21
72.035337333
  0
LINE
  5
326
100
AcDbEntity
  8
0
100
AcDbLine
 62
7
  6
CONTINUOUS
 10
109.5957435701
 20
165.935337333
 11
109.547048439
 21
175.2353373326
  0
LINE
  5
327
100
AcDbEntity
  8
0
100
AcDbLine
 62
7
  6
CONTINUOUS
 10
110.0528149322
 20
174.1353373151
 11
110.0931324063
 21
166.435337333
  0
LINE
  5
328
100
AcDbEntity
  8
0
100
AcDbLine
 62
7
  6
CONTINUOUS
 10
104.4074769114
 20
161.935337333
 11
104.4074769114
 21
160.335337333
  0
LINE
  5
329
100
AcDbEntity
  8
0
100
AcDbLine
 62
7
  6
CONTINUOUS
 10
105.2188769114
 20
28.985337333
 11
105.2188769114
 21
36.535337333
  0
LINE
  5
32A
100
AcDbEntity
  8
0
100
AcDbLine
 62
7
  6
CONTINUOUS
 10
105.2488769114
 20
36.535337333
 11
105.2488769114
 21
28.985337333
  0
LINE
  5
32B
100
AcDbEntity
  8
0
100
AcDbLine
 62
7
  6
CONTINUOUS
 10
106.2488769114
 20
36.535337333
 11
106.2488769114
 21
28.985337333
  0
LINE
  5
32C
100
AcDbEntity
  8
0
100
AcDbLine
 62
7
  6
CONTINUOUS
 10
107.898876782
 20
174.6353373326
 11
107.8988769114
 21
183.2353373327
  0
LINE
  5
32D
100
AcDbEntity
  8
0
100
AcDbLine
 62
7
  6
CONTINUOUS
 10
108.2988769114
 20
161.935337333
 11
108.2988769114
 21
165.9353373326
  0
LINE
  5
32E
100
AcDbEntity
  8
0
100
AcDbLine
 62
7
  6
CONTINUOUS
 10
108.4988769114
 20
183.8353373327
 11
108.4988769114
 21
175.2353373326
  0
LINE
  5
32F
100
AcDbEntity
  8
0
100
AcDbLine
 62
7
  6
CONTINUOUS
 10
108.8988769114
 20
241.935337333
 11
108.8988769114
 21
242.435337333
  0
LINE
  5
330
100
AcDbEntity
  8
0
100
AcDbLine
 62
7
  6
CONTINUOUS
 10
109.4988769114
 20
183.8353373327
 11
109.4988769114
 21
241.3353373332
  0
LINE
  5
331
100
AcDbEntity
  8
0
100
AcDbLine
 62
7
  6
CONTINUOUS
 10
109.7158369438
 20
46.4316871572
 11
109.7158369438
 21
46.0366038096
  0
LINE
  5
332
100
AcDbEntity
  8
0
100
AcDbLine
 62
7
  6
CONTINUOUS
 10
109.7240264425
 20
141.4353679054
 11
109.7240264425
 21
165.935337333
  0
LINE
  5
333
100
AcDbEntity
  8
0
100
AcDbLine
 62
7
  6
CONTINUOUS
 10
109.9888769114
 20
21.534283103
 11
109.9888769114
 21
20.055337333
  0
LINE
  5
334
100
AcDbEntity
  8
0
100
AcDbLine
 62
7
  6
CONTINUOUS
 10
109.9888769114
 20
21.555337333
 11
109.9888769114
 21
36.535337333
  0
LINE
  5
335
100
AcDbEntity
  8
0
100
AcDbLine
 62
7
  6
CONTINUOUS
 10
109.9988769112
 20
241.3353373367
 11
109.9988769114
 21
184.4353373151
  0
LINE
  5
336
100
AcDbEntity
  8
0
100
AcDbLine
 62
7
  6
CONTINUOUS
 10
110.0528149322
 20
174.6353373151
 11
110.0528149322
 21
174.1353373151
  0
LINE
  5
337
100
AcDbEntity
  8
0
100
AcDbLine
 62
7
  6
CONTINUOUS
 10
110.0988769114
 20
184.4353373151
 11
110.0988769114
 21
183.2353373327
  0
LINE
  5
338
100
AcDbEntity
  8
0
100
AcDbLine
 62
7
  6
CONTINUOUS
 10
110.2008914009
 20
165.935337333
 11
110.2008914009
 21
141.935337333
  0
LINE
  5
339
100
AcDbEntity
  8
0
100
AcDbLine
 62
7
  6
CONTINUOUS
 10
110.648875366
 20
239.935337333
 11
110.648875366
 21
229.935337333
  0
LINE
  5
33A
100
AcDbEntity
  8
0
100
AcDbLine
 62
7
  6
CONTINUOUS
 10
110.6803816284
 20
22.355337333
 11
110.6803816284
 21
24.705337333
  0
LINE
  5
33B
100
AcDbEntity
  8
0
100
AcDbLine
 62
7
  6
CONTINUOUS
 10
110.7888769114
 20
20.055337333
 11
110.7888769114
 21
21.555337333
  0
LINE
  5
33C
100
AcDbEntity
  8
0
100
AcDbLine
 62
7
  6
CONTINUOUS
 10
110.7988769114
 20
174.1353373151
 11
110.7988769114
 21
174.6353373151
  0
LINE
  5
33D
100
AcDbEntity
  8
0
100
AcDbLine
 62
7
  6
CONTINUOUS
 10
110.7988769114
 20
184.4353373151
 11
110.7988769114
 21
184.9353373151
  0
LINE
  5
33E
100
AcDbEntity
  8
0
100
AcDbLine
 62
7
  6
CONTINUOUS
 10
110.8888769114
 20
19.485337333
 11
110.8888769114
 21
21.555337333
  0
LINE
  5
33F
100
AcDbEntity
  8
0
100
AcDbLine
 62
7
  6
CONTINUOUS
 10
110.9188769114
 20
141.435337333
 11
110.918876911
 21
165.935337333
  0
LINE
  5
340
100
AcDbEntity
  8
0
100
AcDbLine
 62
7
  6
CONTINUOUS
 10
111.3988769115
 20
141.935337333
 11
111.3988769115
 21
165.935337333
  0
LINE
  5
341
100
AcDbEntity
  8
0
100
AcDbLine
 62
7
  6
CONTINUOUS
 10
111.3988769114
 20
175.2353373161
 11
111.3988769114
 21
183.8353373153
  0
LINE
  5
342
100
AcDbEntity
  8
0
100
AcDbLine
 62
7
  6
CONTINUOUS
 10
111.8819445963
 20
46.4316871572
 11
111.8819445963
 21
46.0366038096
  0
LINE
  5
343
100
AcDbEntity
  8
0
100
AcDbLine
 62
7
  6
CONTINUOUS
 10
111.8988769112
 20
183.8353373211
 11
111.8988769103
 21
175.2353372931
  0
LINE
  5
344
100
AcDbEntity
  8
0
100
AcDbLine
 62
7
  6
CONTINUOUS
 10
111.8988769115
 20
166.435337333
 11
111.8988769115
 21
141.435337333
  0
LINE
  5
345
100
AcDbEntity
  8
0
100
AcDbLine
 62
7
  6
CONTINUOUS
 10
75.1988769114
 20
165.935337333
 11
74.6988769114
 21
166.435337333
  0
LINE
  5
346
100
AcDbEntity
  8
0
100
AcDbLine
 62
7
  6
CONTINUOUS
 10
65.0988769114
 20
183.2353373327
 11
64.4988769114
 21
183.8353373327
  0
LINE
  5
347
100
AcDbEntity
  8
0
100
AcDbLine
 62
7
  6
CONTINUOUS
 10
77.0020102527
 20
165.935337333
 11
76.5046214165
 21
166.435337333
  0
LINE
  5
348
100
AcDbEntity
  8
0
100
AcDbLine
 62
7
  6
CONTINUOUS
 10
98.4495643206
 20
196.6603316865
 11
101.1965938609
 21
183.8353373327
  0
LINE
  5
349
100
AcDbEntity
  8
0
100
AcDbLine
 62
7
  6
CONTINUOUS
 10
113.1615111336
 20
171.435337333
 11
113.1615111336
 21
156.435337333
  0
LINE
  5
34A
100
AcDbEntity
  8
0
100
AcDbLine
 62
7
  6
CONTINUOUS
 10
113.3976258452
 20
141.935337333
 11
113.3976258452
 21
156.435337333
  0
LINE
  5
34B
100
AcDbEntity
  8
0
100
AcDbLine
 62
7
  6
CONTINUOUS
 10
113.569060322
 20
171.435337333
 11
113.569060322
 21
229.935337333
  0
LINE
  5
34C
100
AcDbEntity
  8
0
100
AcDbLine
 62
7
  6
CONTINUOUS
 10
113.569060322
 20
239.935337333
 11
113.569060322
 21
243.435337333
  0
LINE
  5
34D
100
AcDbEntity
  8
0
100
AcDbLine
 62
7
  6
CONTINUOUS
 10
113.9941450166
 20
156.435337333
 11
113.9941450166
 21
141.435337333
  0
LINE
  5
34E
100
AcDbEntity
  8
0
100
AcDbLine
 62
7
  6
CONTINUOUS
 10
114.0686361761
 20
242.935337333
 11
114.0686361761
 21
239.935337333
  0
LINE
  5
34F
100
AcDbEntity
  8
0
100
AcDbLine
 62
7
  6
CONTINUOUS
 10
114.0686361761
 20
229.935337333
 11
114.0686361761
 21
171.435337333
  0
LINE
  5
350
100
AcDbEntity
  8
0
100
AcDbLine
 62
7
  6
CONTINUOUS
 10
114.2936138046
 20
141.435337333
 11
114.2936138046
 21
156.435337333
  0
LINE
  5
351
100
AcDbEntity
  8
0
100
AcDbLine
 62
7
  6
CONTINUOUS
 10
114.5527311712
 20
171.435337333
 11
114.5527311712
 21
229.935337333
  0
LINE
  5
352
100
AcDbEntity
  8
0
100
AcDbLine
 62
7
  6
CONTINUOUS
 10
114.5527311712
 20
239.935337333
 11
114.5527311712
 21
242.935337333
  0
LINE
  5
353
100
AcDbEntity
  8
0
100
AcDbLine
 62
7
  6
CONTINUOUS
 10
114.7888769114
 20
19.485337333
 11
114.7888769114
 21
21.555337333
  0
LINE
  5
354
100
AcDbEntity
  8
0
100
AcDbLine
 62
7
  6
CONTINUOUS
 10
114.8888769114
 20
21.4730047434
 11
114.8888769114
 21
20.055337333
  0
LINE
  5
355
100
AcDbEntity
  8
0
100
AcDbLine
 62
7
  6
CONTINUOUS
 10
115.3973721944
 20
24.705337333
 11
115.3973721944
 21
22.355337333
  0
LINE
  5
356
100
AcDbEntity
  8
0
100
AcDbLine
 62
7
  6
CONTINUOUS
 10
115.7603816284
 20
22.355337333
 11
115.7603816284
 21
24.705337333
  0
LINE
  5
357
100
AcDbEntity
  8
0
100
AcDbLine
 62
7
  6
CONTINUOUS
 10
115.8688769114
 20
20.055337333
 11
115.8688769114
 21
21.555337333
  0
LINE
  5
358
100
AcDbEntity
  8
0
100
AcDbLine
 62
7
  6
CONTINUOUS
 10
117.0450226516
 20
242.935337333
 11
117.0450226516
 21
239.935337333
  0
LINE
  5
359
100
AcDbEntity
  8
0
100
AcDbLine
 62
7
  6
CONTINUOUS
 10
117.0450226516
 20
229.935337333
 11
117.0450226516
 21
171.435337333
  0
LINE
  5
35A
100
AcDbEntity
  8
0
100
AcDbLine
 62
7
  6
CONTINUOUS
 10
117.2988769114
 20
96.0508933128
 11
117.2988769114
 21
101.035337333
  0
LINE
  5
35B
100
AcDbEntity
  8
0
100
AcDbLine
 62
7
  6
CONTINUOUS
 10
117.3041400183
 20
156.435337333
 11
117.3041400183
 21
141.435337333
  0
LINE
  5
35C
100
AcDbEntity
  8
0
100
AcDbLine
 62
7
  6
CONTINUOUS
 10
117.5291176467
 20
171.435337333
 11
117.5291176467
 21
229.935337333
  0
LINE
  5
35D
100
AcDbEntity
  8
0
100
AcDbLine
 62
7
  6
CONTINUOUS
 10
117.5291176467
 20
239.935337333
 11
117.5291176467
 21
242.935337333
  0
LINE
  5
35E
100
AcDbEntity
  8
0
100
AcDbLine
 62
7
  6
CONTINUOUS
 10
117.6032991433
 20
141.435337333
 11
117.6032991433
 21
156.435337333
  0
LINE
  5
35F
100
AcDbEntity
  8
0
100
AcDbLine
 62
7
  6
CONTINUOUS
 10
117.7988769114
 20
101.535337333
 11
117.7988769114
 21
99.5508933128
  0
LINE
  5
360
100
AcDbEntity
  8
0
100
AcDbLine
 62
7
  6
CONTINUOUS
 10
118.0286935008
 20
243.435337333
 11
118.0286935008
 21
239.935337333
  0
LINE
  5
361
100
AcDbEntity
  8
0
100
AcDbLine
 62
7
  6
CONTINUOUS
 10
118.0286935008
 20
229.935337333
 11
118.0286935008
 21
171.435337333
  0
LINE
  5
362
100
AcDbEntity
  8
0
100
AcDbLine
 62
7
  6
CONTINUOUS
 10
118.2001279777
 20
156.435337333
 11
118.2001279777
 21
141.935337333
  0
LINE
  5
363
100
AcDbEntity
  8
0
100
AcDbLine
 62
7
  6
CONTINUOUS
 10
118.4362426892
 20
156.435337333
 11
118.4362426892
 21
171.435337333
  0
LINE
  5
364
100
AcDbEntity
  8
0
100
AcDbLine
 62
7
  6
CONTINUOUS
 10
119.6988769114
 20
141.435337333
 11
119.6988769114
 21
166.435337333
  0
LINE
  5
365
100
AcDbEntity
  8
0
100
AcDbLine
 62
7
  6
CONTINUOUS
 10
119.6988769114
 20
177.1153373146
 11
119.6988769114
 21
183.8353373151
  0
LINE
  5
366
100
AcDbEntity
  8
0
100
AcDbLine
 62
7
  6
CONTINUOUS
 10
119.9688769114
 20
21.4730047434
 11
119.9688769114
 21
20.055337333
  0
LINE
  5
367
100
AcDbEntity
  8
0
100
AcDbLine
 62
7
  6
CONTINUOUS
 10
120.1988769114
 20
183.8353373151
 11
120.1988769114
 21
177.115337315
  0
LINE
  5
368
100
AcDbEntity
  8
0
100
AcDbLine
 62
7
  6
CONTINUOUS
 10
120.1988769114
 20
165.935337333
 11
120.1988769114
 21
141.935337333
  0
LINE
  5
369
100
AcDbEntity
  8
0
100
AcDbLine
 62
7
  6
CONTINUOUS
 10
120.4773721944
 20
24.705337333
 11
120.4773721944
 21
22.355337333
  0
LINE
  5
36A
100
AcDbEntity
  8
0
100
AcDbLine
 62
7
  6
CONTINUOUS
 10
120.6788769114
 20
176.6353373151
 11
120.6788769114
 21
176.1353373151
  0
LINE
  5
36B
100
AcDbEntity
  8
0
100
AcDbLine
 62
7
  6
CONTINUOUS
 10
120.6788769115
 20
165.935337333
 11
120.6788769115
 21
141.435337333
  0
LINE
  5
36C
100
AcDbEntity
  8
0
100
AcDbLine
 62
7
  6
CONTINUOUS
 10
120.7988769114
 20
184.9353373151
 11
120.7988769114
 21
184.4353373151
  0
LINE
  5
36D
100
AcDbEntity
  8
0
100
AcDbLine
 62
7
  6
CONTINUOUS
 10
120.7988769114
 20
99.5508933128
 11
120.7988769114
 21
101.535337333
  0
LINE
  5
36E
100
AcDbEntity
  8
0
100
AcDbLine
 62
7
  6
CONTINUOUS
 10
120.8403816284
 20
22.355337333
 11
120.8403816284
 21
24.705337333
  0
LINE
  5
36F
100
AcDbEntity
  8
0
100
AcDbLine
 62
7
  6
CONTINUOUS
 10
120.9488769114
 20
20.055337333
 11
120.9488769114
 21
21.555337333
  0
LINE
  5
370
100
AcDbEntity
  8
0
100
AcDbLine
 62
7
  6
CONTINUOUS
 10
120.9488784569
 20
229.935337333
 11
120.9488784569
 21
239.935337333
  0
LINE
  5
371
100
AcDbEntity
  8
0
100
AcDbLine
 62
7
  6
CONTINUOUS
 10
121.0488769114
 20
19.485337333
 11
121.0488769114
 21
21.555337333
  0
LINE
  5
372
100
AcDbEntity
  8
0
100
AcDbLine
 62
7
  6
CONTINUOUS
 10
113.0824911339
 20
72.035337333
 11
112.5531931712
 21
47.023613719
  0
LINE
  5
373
100
AcDbEntity
  8
0
100
AcDbLine
 62
7
  6
CONTINUOUS
 10
113.4825806769
 20
72.0402241333
 11
112.9531097284
 21
47.0203862025
  0
LINE
  5
374
100
AcDbEntity
  8
0
100
AcDbLine
 62
7
  6
CONTINUOUS
 10
132.031495648
 20
196.6603316863
 11
129.2844661077
 21
183.8353373327
  0
LINE
  5
375
100
AcDbEntity
  8
0
100
AcDbLine
 62
7
  6
CONTINUOUS
 10
130.401159962
 20
183.8353373327
 11
133.1481895023
 21
196.6603316867
  0
LINE
  5
376
100
AcDbEntity
  8
0
100
AcDbLine
 62
7
  6
CONTINUOUS
 10
154.5957435701
 20
165.935337333
 11
155.0931324063
 21
166.435337333
  0
LINE
  5
377
100
AcDbEntity
  8
0
100
AcDbLine
 62
7
  6
CONTINUOUS
 10
157.5988769114
 20
165.935337333
 11
158.0988769114
 21
166.435337333
  0
LINE
  5
378
100
AcDbEntity
  8
0
100
AcDbLine
 62
7
  6
CONTINUOUS
 10
39.0612726044
 20
153.804237333
 11
57.5364812184
 21
153.804237333
  0
LINE
  5
379
100
AcDbEntity
  8
0
100
AcDbLine
 62
7
  6
CONTINUOUS
 10
84.0612726044
 20
153.804237333
 11
102.5364812184
 21
153.804237333
  0
LINE
  5
37A
100
AcDbEntity
  8
0
100
AcDbLine
 62
7
  6
CONTINUOUS
 10
129.0612726044
 20
153.804237333
 11
147.5364812184
 21
153.804237333
  0
LINE
  5
37B
100
AcDbEntity
  8
0
100
AcDbLine
 62
7
  6
CONTINUOUS
 10
68.1615111336
 20
156.435337333
 11
69.2936138046
 21
156.435337333
  0
LINE
  5
37C
100
AcDbEntity
  8
0
100
AcDbLine
 62
7
  6
CONTINUOUS
 10
72.3041400183
 20
156.435337333
 11
73.4362426892
 21
156.435337333
  0
LINE
  5
37D
100
AcDbEntity
  8
0
100
AcDbLine
 62
7
  6
CONTINUOUS
 10
113.1615111336
 20
156.435337333
 11
114.2936138046
 21
156.435337333
  0
LINE
  5
37E
100
AcDbEntity
  8
0
100
AcDbLine
 62
7
  6
CONTINUOUS
 10
117.3041400183
 20
156.435337333
 11
118.4362426892
 21
156.435337333
  0
LINE
  5
37F
100
AcDbEntity
  8
0
100
AcDbLine
 62
7
  6
CONTINUOUS
 10
39.0612726044
 20
159.604237333
 11
57.5364812184
 21
159.604237333
  0
LINE
  5
380
100
AcDbEntity
  8
0
100
AcDbLine
 62
7
  6
CONTINUOUS
 10
84.0612726044
 20
159.604237333
 11
102.5364812184
 21
159.604237333
  0
LINE
  5
381
100
AcDbEntity
  8
0
100
AcDbLine
 62
7
  6
CONTINUOUS
 10
129.0612726044
 20
159.604237333
 11
147.5364812184
 21
159.604237333
  0
LINE
  5
382
100
AcDbEntity
  8
0
100
AcDbLine
 62
7
  6
CONTINUOUS
 10
78.0988769114
 20
183.8353373327
 11
78.6988769114
 21
183.2353373327
  0
LINE
  5
383
100
AcDbEntity
  8
0
100
AcDbLine
 62
7
  6
CONTINUOUS
 10
102.3132877151
 20
183.8353373327
 11
99.5662581748
 21
196.6603316864
  0
LINE
  5
384
100
AcDbEntity
  8
0
100
AcDbLine
 62
7
  6
CONTINUOUS
 10
121.2988769114
 20
96.0508933128
 11
121.2988769114
 21
101.035337333
  0
LINE
  5
385
100
AcDbEntity
  8
0
100
AcDbLine
 62
7
  6
CONTINUOUS
 10
121.3968624219
 20
141.935337333
 11
121.3968624219
 21
165.935337333
  0
LINE
  5
386
100
AcDbEntity
  8
0
100
AcDbLine
 62
7
  6
CONTINUOUS
 10
121.4988769114
 20
183.2353373327
 11
121.4988769114
 21
184.4353373151
  0
LINE
  5
387
100
AcDbEntity
  8
0
100
AcDbLine
 62
7
  6
CONTINUOUS
 10
121.5554109618
 20
176.1353373151
 11
121.5554109618
 21
176.6353373151
  0
LINE
  5
388
100
AcDbEntity
  8
0
100
AcDbLine
 62
7
  6
CONTINUOUS
 10
121.5988769114
 20
184.4353373151
 11
121.5988769125
 21
241.335337355
  0
LINE
  5
389
100
AcDbEntity
  8
0
100
AcDbLine
 62
7
  6
CONTINUOUS
 10
121.8737273804
 20
141.4353678917
 11
121.8737273804
 21
165.935337333
  0
LINE
  5
38A
100
AcDbEntity
  8
0
100
AcDbLine
 62
7
  6
CONTINUOUS
 10
122.0988769114
 20
241.33533733
 11
122.0988769114
 21
183.8353373327
  0
LINE
  5
38B
100
AcDbEntity
  8
0
100
AcDbLine
 62
7
  6
CONTINUOUS
 10
122.6988769114
 20
242.435337333
 11
122.6988769114
 21
241.935337333
  0
LINE
  5
38C
100
AcDbEntity
  8
0
100
AcDbLine
 62
7
  6
CONTINUOUS
 10
123.0988769114
 20
175.2762036627
 11
123.0988769114
 21
183.2353373327
  0
LINE
  5
38D
100
AcDbEntity
  8
0
100
AcDbLine
 62
7
  6
CONTINUOUS
 10
123.2988769114
 20
161.935337333
 11
123.2988769114
 21
165.9353373326
  0
LINE
  5
38E
100
AcDbEntity
  8
0
100
AcDbLine
 62
7
  6
CONTINUOUS
 10
123.6988770408
 20
174.6762036627
 11
123.6988769114
 21
183.8353373327
  0
LINE
  5
38F
100
AcDbEntity
  8
0
100
AcDbLine
 62
7
  6
CONTINUOUS
 10
124.9488769114
 20
19.485337333
 11
124.9488769114
 21
21.555337333
  0
LINE
  5
390
100
AcDbEntity
  8
0
100
AcDbLine
 62
7
  6
CONTINUOUS
 10
125.0488769114
 20
21.4730047434
 11
125.0488769114
 21
20.055337333
  0
LINE
  5
391
100
AcDbEntity
  8
0
100
AcDbLine
 62
7
  6
CONTINUOUS
 10
125.5573721944
 20
24.705337333
 11
125.5573721944
 21
22.355337333
  0
LINE
  5
392
100
AcDbEntity
  8
0
100
AcDbLine
 62
7
  6
CONTINUOUS
 10
125.8488769114
 20
20.055337333
 11
125.8488769114
 21
36.535337333
  0
LINE
  5
393
100
AcDbEntity
  8
0
100
AcDbLine
 62
7
  6
CONTINUOUS
 10
127.1902769114
 20
161.935337333
 11
127.1902769114
 21
160.335337333
  0
LINE
  5
394
100
AcDbEntity
  8
0
100
AcDbLine
 62
7
  6
CONTINUOUS
 10
129.0612726044
 20
153.804237333
 11
129.0612726044
 21
159.604237333
  0
LINE
  5
395
100
AcDbEntity
  8
0
100
AcDbLine
 62
7
  6
CONTINUOUS
 10
129.5888769114
 20
28.985337333
 11
129.5888769114
 21
36.535337333
  0
LINE
  5
396
100
AcDbEntity
  8
0
100
AcDbLine
 62
7
  6
CONTINUOUS
 10
121.5046214165
 20
166.435337333
 11
121.5554109618
 21
176.1353373151
  0
LINE
  5
397
100
AcDbEntity
  8
0
100
AcDbLine
 62
7
  6
CONTINUOUS
 10
122.0554304281
 20
176.1377460639
 11
122.0020102527
 21
165.935337333
  0
LINE
  5
398
100
AcDbEntity
  8
0
100
AcDbLine
 62
7
  6
CONTINUOUS
 10
37.1902769114
 20
160.335337333
 11
59.4074769114
 21
160.335337333
  0
LINE
  5
399
100
AcDbEntity
  8
0
100
AcDbLine
 62
7
  6
CONTINUOUS
 10
82.1902769114
 20
160.335337333
 11
104.4074769114
 21
160.335337333
  0
LINE
  5
39A
100
AcDbEntity
  8
0
100
AcDbLine
 62
7
  6
CONTINUOUS
 10
127.1902769114
 20
160.335337333
 11
149.4074769114
 21
160.335337333
  0
LINE
  5
39B
100
AcDbEntity
  8
0
100
AcDbLine
 62
7
  6
CONTINUOUS
 10
33.2988769114
 20
161.935337333
 11
63.2988769114
 21
161.935337333
  0
LINE
  5
39C
100
AcDbEntity
  8
0
100
AcDbLine
 62
7
  6
CONTINUOUS
 10
78.2988769114
 20
161.935337333
 11
108.2988769114
 21
161.935337333
  0
LINE
  5
39D
100
AcDbEntity
  8
0
100
AcDbLine
 62
7
  6
CONTINUOUS
 10
123.2988769114
 20
161.935337333
 11
153.2988769114
 21
161.935337333
  0
LINE
  5
39E
100
AcDbEntity
  8
0
100
AcDbLine
 62
7
  6
CONTINUOUS
 10
28.9988769114
 20
165.935337333
 11
66.3988769115
 21
165.935337333
  0
LINE
  5
39F
100
AcDbEntity
  8
0
100
AcDbLine
 62
7
  6
CONTINUOUS
 10
75.1988769114
 20
165.935337333
 11
111.3988769115
 21
165.935337333
  0
LINE
  5
3A0
100
AcDbEntity
  8
0
100
AcDbLine
 62
7
  6
CONTINUOUS
 10
120.1988769114
 20
165.935337333
 11
157.5988769114
 21
165.935337333
  0
LINE
  5
3A1
100
AcDbEntity
  8
0
100
AcDbLine
 62
7
  6
CONTINUOUS
 10
28.4988769114
 20
166.435337333
 11
31.5046214165
 21
166.435337333
  0
LINE
  5
3A2
100
AcDbEntity
  8
0
100
AcDbLine
 62
7
  6
CONTINUOUS
 10
65.0931324063
 20
166.435337333
 11
66.8988769115
 21
166.435337333
  0
LINE
  5
3A3
100
AcDbEntity
  8
0
100
AcDbLine
 62
7
  6
CONTINUOUS
 10
74.6988769114
 20
166.435337333
 11
76.5046214165
 21
166.435337333
  0
LINE
  5
3A4
100
AcDbEntity
  8
0
100
AcDbLine
 62
7
  6
CONTINUOUS
 10
110.0931324063
 20
166.435337333
 11
111.8988769115
 21
166.435337333
  0
LINE
  5
3A5
100
AcDbEntity
  8
0
100
AcDbLine
 62
7
  6
CONTINUOUS
 10
119.6988769114
 20
166.435337333
 11
121.5046214165
 21
166.435337333
  0
LINE
  5
3A6
100
AcDbEntity
  8
0
100
AcDbLine
 62
7
  6
CONTINUOUS
 10
155.0931324063
 20
166.435337333
 11
158.0988769114
 21
166.435337333
  0
LINE
  5
3A7
100
AcDbEntity
  8
0
100
AcDbLine
 62
7
  6
CONTINUOUS
 10
130.5888769114
 20
36.535337333
 11
130.5888769114
 21
28.985337333
  0
LINE
  5
3A8
100
AcDbEntity
  8
0
100
AcDbLine
 62
7
  6
CONTINUOUS
 10
130.6188769114
 20
28.985337333
 11
130.6188769114
 21
36.535337333
  0
LINE
  5
3A9
100
AcDbEntity
  8
0
100
AcDbLine
 62
7
  6
CONTINUOUS
 10
130.6256718307
 20
161.935337333
 11
130.6256718307
 21
165.9353373326
  0
LINE
  5
3AA
100
AcDbEntity
  8
0
100
AcDbLine
 62
7
  6
CONTINUOUS
 10
131.1452870729
 20
165.9353373326
 11
131.1452870729
 21
161.935337333
  0
LINE
  5
3AB
100
AcDbEntity
  8
0
100
AcDbLine
 62
7
  6
CONTINUOUS
 10
131.3988769114
 20
193.7068389751
 11
131.3988769114
 21
196.535337333
  0
LINE
  5
3AC
100
AcDbEntity
  8
0
100
AcDbLine
 62
7
  6
CONTINUOUS
 10
131.8179488603
 20
196.535337333
 11
131.8179488603
 21
195.6633506542
  0
LINE
  5
3AD
100
AcDbEntity
  8
0
100
AcDbLine
 62
7
  6
CONTINUOUS
 10
133.1933671733
 20
183.8353373327
 11
133.1933671733
 21
196.535337333
  0
LINE
  5
3AE
100
AcDbEntity
  8
0
100
AcDbLine
 62
7
  6
CONTINUOUS
 10
133.2988769114
 20
174.6762036627
 11
133.2988769114
 21
165.9353373326
  0
LINE
  5
3AF
100
AcDbEntity
  8
0
100
AcDbLine
 62
7
  6
CONTINUOUS
 10
133.2988769114
 20
160.335337333
 11
133.2988769114
 21
159.604237333
  0
LINE
  5
3B0
100
AcDbEntity
  8
0
100
AcDbLine
 62
7
  6
CONTINUOUS
 10
133.6800747579
 20
153.804237333
 11
133.6800747579
 21
159.604237333
  0
LINE
  5
3B1
100
AcDbEntity
  8
0
100
AcDbLine
 62
7
  6
CONTINUOUS
 10
134.6988769114
 20
161.935337333
 11
134.6988769114
 21
165.9353373326
  0
LINE
  5
3B2
100
AcDbEntity
  8
0
100
AcDbLine
 62
7
  6
CONTINUOUS
 10
135.2988769114
 20
165.9353373326
 11
135.2988769114
 21
161.935337333
  0
LINE
  5
3B3
100
AcDbEntity
  8
0
100
AcDbLine
 62
7
  6
CONTINUOUS
 10
135.5988769114
 20
165.9353373326
 11
135.5988769114
 21
161.935337333
  0
LINE
  5
3B4
100
AcDbEntity
  8
0
100
AcDbLine
 62
7
  6
CONTINUOUS
 10
155.0528149322
 20
174.1353373151
 11
154.552821786
 21
174.1327193332
  0
LINE
  5
3B5
100
AcDbEntity
  8
0
100
AcDbLine
 62
7
  6
CONTINUOUS
 10
110.0528149322
 20
174.1353373151
 11
109.5528217861
 21
174.1327193332
  0
LINE
  5
3B6
100
AcDbEntity
  8
0
100
AcDbLine
 62
7
  6
CONTINUOUS
 10
65.0526009545
 20
174.1762036676
 11
64.5526078084
 21
174.1735856857
  0
LINE
  5
3B7
100
AcDbEntity
  8
0
100
AcDbLine
 62
7
  6
CONTINUOUS
 10
68.1615111336
 20
171.435337333
 11
73.4362426892
 21
171.435337333
  0
LINE
  5
3B8
100
AcDbEntity
  8
0
100
AcDbLine
 62
7
  6
CONTINUOUS
 10
113.1615111336
 20
171.435337333
 11
118.4362426892
 21
171.435337333
  0
LINE
  5
3B9
100
AcDbEntity
  8
0
100
AcDbLine
 62
7
  6
CONTINUOUS
 10
156.9988768803
 20
174.1353373153
 11
155.0528149322
 21
174.1353373151
  0
LINE
  5
3BA
100
AcDbEntity
  8
0
100
AcDbLine
 62
7
  6
CONTINUOUS
 10
110.7988769175
 20
174.1353373153
 11
110.0528149322
 21
174.1353373151
  0
LINE
  5
3BB
100
AcDbEntity
  8
0
100
AcDbLine
 62
7
  6
CONTINUOUS
 10
65.0526009545
 20
174.1762036676
 11
65.5018219498
 21
174.1762038816
  0
LINE
  5
3BC
100
AcDbEntity
  8
0
100
AcDbLine
 62
7
  6
CONTINUOUS
 10
77.0475637625
 20
174.6353373326
 11
109.5501900603
 21
174.6353373326
  0
LINE
  5
3BD
100
AcDbEntity
  8
0
100
AcDbLine
 62
7
  6
CONTINUOUS
 10
110.0521604367
 20
174.6353373151
 11
110.7988769118
 21
174.6353373151
  0
LINE
  5
3BE
100
AcDbEntity
  8
0
100
AcDbLine
 62
7
  6
CONTINUOUS
 10
155.0521604367
 20
174.6353373151
 11
156.9988768745
 21
174.6353373151
  0
LINE
  5
3BF
100
AcDbEntity
  8
0
100
AcDbLine
 62
7
  6
CONTINUOUS
 10
32.04777774
 20
174.6762036627
 11
64.5499760828
 21
174.6762036627
  0
LINE
  5
3C0
100
AcDbEntity
  8
0
100
AcDbLine
 62
7
  6
CONTINUOUS
 10
65.0519464591
 20
174.6762036676
 11
65.5812316592
 21
174.6762036676
  0
LINE
  5
3C1
100
AcDbEntity
  8
0
100
AcDbLine
 62
7
  6
CONTINUOUS
 10
122.04777774
 20
174.6762036627
 11
154.5499760828
 21
174.6762036627
  0
LINE
  5
3C2
100
AcDbEntity
  8
0
100
AcDbLine
 62
7
  6
CONTINUOUS
 10
107.8988768455
 20
175.1353373411
 11
78.6988769761
 21
175.1353373326
  0
LINE
  5
3C3
100
AcDbEntity
  8
0
100
AcDbLine
 62
7
  6
CONTINUOUS
 10
152.8988768455
 20
175.1762036713
 11
123.6988769761
 21
175.1762036627
  0
LINE
  5
3C4
100
AcDbEntity
  8
0
100
AcDbLine
 62
7
  6
CONTINUOUS
 10
62.8988768455
 20
175.1762036713
 11
33.6988769761
 21
175.1762036627
  0
LINE
  5
3C5
100
AcDbEntity
  8
0
100
AcDbLine
 62
7
  6
CONTINUOUS
 10
66.3988769114
 20
175.2353373151
 11
66.8988769114
 21
175.2353373151
  0
LINE
  5
3C6
100
AcDbEntity
  8
0
100
AcDbLine
 62
7
  6
CONTINUOUS
 10
77.0507053838
 20
175.2353373326
 11
78.0988769114
 21
175.2353373326
  0
LINE
  5
3C7
100
AcDbEntity
  8
0
100
AcDbLine
 62
7
  6
CONTINUOUS
 10
108.4988769114
 20
175.2353373326
 11
109.547048439
 21
175.2353373326
  0
LINE
  5
3C8
100
AcDbEntity
  8
0
100
AcDbLine
 62
7
  6
CONTINUOUS
 10
111.3988769114
 20
175.2353373151
 11
111.8988769114
 21
175.2353373151
  0
LINE
  5
3C9
100
AcDbEntity
  8
0
100
AcDbLine
 62
7
  6
CONTINUOUS
 10
157.5988768741
 20
175.2353373151
 11
158.0988768741
 21
175.2353373151
  0
LINE
  5
3CA
100
AcDbEntity
  8
0
100
AcDbLine
 62
7
  6
CONTINUOUS
 10
32.0509193614
 20
175.2762036627
 11
33.0988769114
 21
175.2762036627
  0
LINE
  5
3CB
100
AcDbEntity
  8
0
100
AcDbLine
 62
7
  6
CONTINUOUS
 10
63.4988769114
 20
175.2762036627
 11
64.5468344614
 21
175.2762036627
  0
LINE
  5
3CC
100
AcDbEntity
  8
0
100
AcDbLine
 62
7
  6
CONTINUOUS
 10
122.0509193614
 20
175.2762036627
 11
123.0988769114
 21
175.2762036627
  0
LINE
  5
3CD
100
AcDbEntity
  8
0
100
AcDbLine
 62
7
  6
CONTINUOUS
 10
153.4988769114
 20
175.2762036627
 11
154.5468344614
 21
175.2762036627
  0
LINE
  5
3CE
100
AcDbEntity
  8
0
100
AcDbLine
 62
7
  6
CONTINUOUS
 10
121.5554109618
 20
176.1353373151
 11
120.6788769109
 21
176.1353373151
  0
LINE
  5
3CF
100
AcDbEntity
  8
0
100
AcDbLine
 62
7
  6
CONTINUOUS
 10
76.4548860009
 20
176.1353373151
 11
75.7988769114
 21
176.1353373151
  0
LINE
  5
3D0
100
AcDbEntity
  8
0
100
AcDbLine
 62
7
  6
CONTINUOUS
 10
31.4548860044
 20
176.1353373151
 11
29.5988769114
 21
176.1353373151
  0
LINE
  5
3D1
100
AcDbEntity
  8
0
100
AcDbLine
 62
7
  6
CONTINUOUS
 10
29.5988769114
 20
176.6353373151
 11
31.4548860044
 21
176.6353373151
  0
LINE
  5
3D2
100
AcDbEntity
  8
0
100
AcDbLine
 62
7
  6
CONTINUOUS
 10
75.7988769114
 20
176.6353373151
 11
76.4548860009
 21
176.6353373151
  0
LINE
  5
3D3
100
AcDbEntity
  8
0
100
AcDbLine
 62
7
  6
CONTINUOUS
 10
120.6788769114
 20
176.6353373151
 11
121.5604377615
 21
176.6353373151
  0
LINE
  5
3D4
100
AcDbEntity
  8
0
100
AcDbLine
 62
7
  6
CONTINUOUS
 10
119.6988769114
 20
177.1153373151
 11
120.1988769114
 21
177.1153373151
  0
LINE
  5
3D5
100
AcDbEntity
  8
0
100
AcDbLine
 62
7
  6
CONTINUOUS
 10
28.4988769114
 20
177.2353373151
 11
28.9988769114
 21
177.2353373151
  0
LINE
  5
3D6
100
AcDbEntity
  8
0
100
AcDbLine
 62
7
  6
CONTINUOUS
 10
74.6988769114
 20
177.2353373151
 11
75.1988769114
 21
177.2353373151
  0
LINE
  5
3D7
100
AcDbEntity
  8
0
100
AcDbLine
 62
7
  6
CONTINUOUS
 10
32.0548777628
 20
176.0321957369
 11
31.5548846167
 21
176.0348137188
  0
LINE
  5
3D8
100
AcDbEntity
  8
0
100
AcDbLine
 62
7
  6
CONTINUOUS
 10
77.0548777628
 20
176.0321957368
 11
76.5548846167
 21
176.0348137188
  0
LINE
  5
3D9
100
AcDbEntity
  8
0
100
AcDbLine
 62
7
  6
CONTINUOUS
 10
122.0554041079
 20
176.1327193332
 11
121.5554109618
 21
176.1353373151
  0
LINE
  5
3DA
100
AcDbEntity
  8
0
100
AcDbLine
 62
7
  6
CONTINUOUS
 10
120.1988769114
 20
165.935337333
 11
119.6988769114
 21
166.435337333
  0
LINE
  5
3DB
100
AcDbEntity
  8
0
100
AcDbLine
 62
7
  6
CONTINUOUS
 10
122.0020102527
 20
165.935337333
 11
121.5046214165
 21
166.435337333
  0
LINE
  5
3DC
100
AcDbEntity
  8
0
100
AcDbLine
 62
7
  6
CONTINUOUS
 10
140.9988769114
 20
161.935337333
 11
140.9988769114
 21
165.9353373326
  0
LINE
  5
3DD
100
AcDbEntity
  8
0
100
AcDbLine
 62
7
  6
CONTINUOUS
 10
141.2988769114
 20
161.935337333
 11
141.2988769114
 21
165.9353373326
  0
LINE
  5
3DE
100
AcDbEntity
  8
0
100
AcDbLine
 62
7
  6
CONTINUOUS
 10
141.8988769114
 20
165.9353373326
 11
141.8988769114
 21
161.935337333
  0
LINE
  5
3DF
100
AcDbEntity
  8
0
100
AcDbLine
 62
7
  6
CONTINUOUS
 10
142.9176790649
 20
153.804237333
 11
142.9176790649
 21
159.604237333
  0
LINE
  5
3E0
100
AcDbEntity
  8
0
100
AcDbLine
 62
7
  6
CONTINUOUS
 10
143.2988769114
 20
174.6762036627
 11
143.2988769114
 21
165.9353373326
  0
LINE
  5
3E1
100
AcDbEntity
  8
0
100
AcDbLine
 62
7
  6
CONTINUOUS
 10
143.2988769114
 20
160.335337333
 11
143.2988769114
 21
159.604237333
  0
LINE
  5
3E2
100
AcDbEntity
  8
0
100
AcDbLine
 62
7
  6
CONTINUOUS
 10
143.3668887907
 20
82.785337333
 11
143.3668887842
 21
36.535337333
  0
LINE
  5
3E3
100
AcDbEntity
  8
0
100
AcDbLine
 62
7
  6
CONTINUOUS
 10
143.4043866495
 20
196.535337333
 11
143.4043866496
 21
183.8353373327
  0
LINE
  5
3E4
100
AcDbEntity
  8
0
100
AcDbLine
 62
7
  6
CONTINUOUS
 10
144.7798052374
 20
195.6633493706
 11
144.7798052374
 21
196.535337333
  0
LINE
  5
3E5
100
AcDbEntity
  8
0
100
AcDbLine
 62
7
  6
CONTINUOUS
 10
145.1988769114
 20
193.7068389751
 11
145.1988769114
 21
196.535337333
  0
LINE
  5
3E6
100
AcDbEntity
  8
0
100
AcDbLine
 62
7
  6
CONTINUOUS
 10
145.4524667499
 20
161.935337333
 11
145.4524667499
 21
165.9353373326
  0
LINE
  5
3E7
100
AcDbEntity
  8
0
100
AcDbLine
 62
7
  6
CONTINUOUS
 10
145.9720819922
 20
165.9353373326
 11
145.9720819922
 21
161.935337333
  0
LINE
  5
3E8
100
AcDbEntity
  8
0
100
AcDbLine
 62
7
  6
CONTINUOUS
 10
147.5364812184
 20
153.804237333
 11
147.5364812184
 21
159.604237333
  0
LINE
  5
3E9
100
AcDbEntity
  8
0
100
AcDbLine
 62
7
  6
CONTINUOUS
 10
155.0988769114
 20
183.2353373327
 11
121.4988769114
 21
183.2353373327
  0
LINE
  5
3EA
100
AcDbEntity
  8
0
100
AcDbLine
 62
7
  6
CONTINUOUS
 10
110.0988769114
 20
183.2353373327
 11
108.4988769114
 21
183.2353373327
  0
LINE
  5
3EB
100
AcDbEntity
  8
0
100
AcDbLine
 62
7
  6
CONTINUOUS
 10
107.8988769114
 20
183.2353373327
 11
78.6988769114
 21
183.2353373327
  0
LINE
  5
3EC
100
AcDbEntity
  8
0
100
AcDbLine
 62
7
  6
CONTINUOUS
 10
78.0988769114
 20
183.2353373327
 11
76.4988769114
 21
183.2353373327
  0
LINE
  5
3ED
100
AcDbEntity
  8
0
100
AcDbLine
 62
7
  6
CONTINUOUS
 10
65.0988769114
 20
183.2353373327
 11
63.4988769114
 21
183.2353373327
  0
LINE
  5
3EE
100
AcDbEntity
  8
0
100
AcDbLine
 62
7
  6
CONTINUOUS
 10
33.0988769114
 20
183.2353373327
 11
31.4988769114
 21
183.2353373327
  0
LINE
  5
3EF
100
AcDbEntity
  8
0
100
AcDbLine
 62
7
  6
CONTINUOUS
 10
33.6988769773
 20
183.3353373242
 11
62.8988768467
 21
183.3353373327
  0
LINE
  5
3F0
100
AcDbEntity
  8
0
100
AcDbLine
 62
7
  6
CONTINUOUS
 10
158.0988768741
 20
183.8353373151
 11
157.5988768741
 21
183.8353373151
  0
LINE
  5
3F1
100
AcDbEntity
  8
0
100
AcDbLine
 62
7
  6
CONTINUOUS
 10
120.1988769114
 20
183.8353373151
 11
119.6988769114
 21
183.8353373151
  0
LINE
  5
3F2
100
AcDbEntity
  8
0
100
AcDbLine
 62
7
  6
CONTINUOUS
 10
111.8988769114
 20
183.8353373151
 11
111.3988769114
 21
183.8353373151
  0
LINE
  5
3F3
100
AcDbEntity
  8
0
100
AcDbLine
 62
7
  6
CONTINUOUS
 10
75.1988769114
 20
183.8353373151
 11
74.6988769114
 21
183.8353373151
  0
LINE
  5
3F4
100
AcDbEntity
  8
0
100
AcDbLine
 62
7
  6
CONTINUOUS
 10
66.8988769114
 20
183.8353373151
 11
66.3988769114
 21
183.8353373151
  0
LINE
  5
3F5
100
AcDbEntity
  8
0
100
AcDbLine
 62
7
  6
CONTINUOUS
 10
32.0988769114
 20
183.8353373327
 11
64.4988769114
 21
183.8353373327
  0
LINE
  5
3F6
100
AcDbEntity
  8
0
100
AcDbLine
 62
7
  6
CONTINUOUS
 10
77.0988769114
 20
183.8353373327
 11
109.4988769114
 21
183.8353373327
  0
LINE
  5
3F7
100
AcDbEntity
  8
0
100
AcDbLine
 62
7
  6
CONTINUOUS
 10
122.0988769114
 20
183.8353373327
 11
154.4988769114
 21
183.8353373327
  0
LINE
  5
3F8
100
AcDbEntity
  8
0
100
AcDbLine
 62
7
  6
CONTINUOUS
 10
28.9988769114
 20
183.9553373151
 11
28.4988769114
 21
183.9553373151
  0
LINE
  5
3F9
100
AcDbEntity
  8
0
100
AcDbLine
 62
7
  6
CONTINUOUS
 10
156.9988768727
 20
184.4353373151
 11
154.9988769114
 21
184.4353373151
  0
LINE
  5
3FA
100
AcDbEntity
  8
0
100
AcDbLine
 62
7
  6
CONTINUOUS
 10
121.5988769114
 20
184.4353373151
 11
120.7988769114
 21
184.4353373151
  0
LINE
  5
3FB
100
AcDbEntity
  8
0
100
AcDbLine
 62
7
  6
CONTINUOUS
 10
110.7988769099
 20
184.4353373151
 11
109.9988769114
 21
184.4353373151
  0
LINE
  5
3FC
100
AcDbEntity
  8
0
100
AcDbLine
 62
7
  6
CONTINUOUS
 10
76.5988769114
 20
184.4353373151
 11
75.7988769114
 21
184.4353373151
  0
LINE
  5
3FD
100
AcDbEntity
  8
0
100
AcDbLine
 62
7
  6
CONTINUOUS
 10
65.7988769099
 20
184.4353373151
 11
64.9988769114
 21
184.4353373151
  0
LINE
  5
3FE
100
AcDbEntity
  8
0
100
AcDbLine
 62
7
  6
CONTINUOUS
 10
31.5988769114
 20
184.4353373151
 11
29.4788769114
 21
184.4353373151
  0
LINE
  5
3FF
100
AcDbEntity
  8
0
100
AcDbLine
 62
7
  6
CONTINUOUS
 10
29.4788769109
 20
184.935337315
 11
32.0988769114
 21
184.9353373151
  0
LINE
  5
400
100
AcDbEntity
  8
0
100
AcDbLine
 62
7
  6
CONTINUOUS
 10
64.4988769114
 20
184.9353373151
 11
65.7988769224
 21
184.935337314
  0
LINE
  5
401
100
AcDbEntity
  8
0
100
AcDbLine
 62
7
  6
CONTINUOUS
 10
75.7988769114
 20
184.9353373151
 11
77.0988769114
 21
184.9353373151
  0
LINE
  5
402
100
AcDbEntity
  8
0
100
AcDbLine
 62
7
  6
CONTINUOUS
 10
109.4988769114
 20
184.9353373151
 11
110.7988769334
 21
184.935337314
  0
LINE
  5
403
100
AcDbEntity
  8
0
100
AcDbLine
 62
7
  6
CONTINUOUS
 10
120.7988769114
 20
184.9353373151
 11
122.0988769114
 21
184.9353373151
  0
LINE
  5
404
100
AcDbEntity
  8
0
100
AcDbLine
 62
7
  6
CONTINUOUS
 10
154.4988769114
 20
184.9353373151
 11
156.9988768961
 21
184.935337314
  0
LINE
  5
405
100
AcDbEntity
  8
0
100
AcDbLine
 62
7
  6
CONTINUOUS
 10
28.2488769114
 20
186.435337333
 11
29.5488769114
 21
186.435337333
  0
LINE
  5
406
100
AcDbEntity
  8
0
100
AcDbLine
 62
7
  6
CONTINUOUS
 10
157.0488769114
 20
186.435337333
 11
158.3488769114
 21
186.435337333
  0
LINE
  5
407
100
AcDbEntity
  8
0
100
AcDbLine
 62
7
  6
CONTINUOUS
 10
110.0988769114
 20
183.2353373327
 11
109.4988769114
 21
183.8353373327
  0
LINE
  5
408
100
AcDbEntity
  8
0
100
AcDbLine
 62
7
  6
CONTINUOUS
 10
154.5957435701
 20
165.935337333
 11
154.5468344614
 21
175.2762036627
  0
LINE
  5
409
100
AcDbEntity
  8
0
100
AcDbLine
 62
7
  6
CONTINUOUS
 10
155.0528149322
 20
174.1353373151
 11
155.0931324063
 21
166.435337333
  0
LINE
  5
40A
100
AcDbEntity
  8
0
100
AcDbLine
 62
7
  6
CONTINUOUS
 10
149.4074769114
 20
161.935337333
 11
149.4074769114
 21
160.335337333
  0
LINE
  5
40B
100
AcDbEntity
  8
0
100
AcDbLine
 62
7
  6
CONTINUOUS
 10
152.7988769114
 20
82.785337333
 11
152.7988769114
 21
36.535337333
  0
LINE
  5
40C
100
AcDbEntity
  8
0
100
AcDbLine
 62
7
  6
CONTINUOUS
 10
152.898876782
 20
174.6762036627
 11
152.8988769114
 21
183.8353373327
  0
LINE
  5
40D
100
AcDbEntity
  8
0
100
AcDbLine
 62
7
  6
CONTINUOUS
 10
153.2988769114
 20
161.935337333
 11
153.2988769114
 21
165.9353373326
  0
LINE
  5
40E
100
AcDbEntity
  8
0
100
AcDbLine
 62
7
  6
CONTINUOUS
 10
153.4988769114
 20
183.2353373327
 11
153.4988769114
 21
175.2762036627
  0
LINE
  5
40F
100
AcDbEntity
  8
0
100
AcDbLine
 62
7
  6
CONTINUOUS
 10
153.8988769114
 20
241.935337333
 11
153.8988769114
 21
242.435337333
  0
LINE
  5
410
100
AcDbEntity
  8
0
100
AcDbLine
 62
7
  6
CONTINUOUS
 10
154.4988769114
 20
183.8353373327
 11
154.4988769114
 21
241.3353373332
  0
LINE
  5
411
100
AcDbEntity
  8
0
100
AcDbLine
 62
7
  6
CONTINUOUS
 10
154.5988769114
 20
48.302797872
 11
154.5988769114
 21
48.9027975144
  0
LINE
  5
412
100
AcDbEntity
  8
0
100
AcDbLine
 62
7
  6
CONTINUOUS
 10
154.5988769114
 20
69.8180689028
 11
154.5988769114
 21
70.4180685452
  0
LINE
  5
413
100
AcDbEntity
  8
0
100
AcDbLine
 62
7
  6
CONTINUOUS
 10
154.7240264424
 20
141.435337333
 11
154.7240264424
 21
165.935337333
  0
LINE
  5
414
100
AcDbEntity
  8
0
100
AcDbLine
 62
7
  6
CONTINUOUS
 10
154.9988769112
 20
241.335337337
 11
154.9988769114
 21
184.4353373151
  0
LINE
  5
415
100
AcDbEntity
  8
0
100
AcDbLine
 62
7
  6
CONTINUOUS
 10
155.0528149322
 20
174.6353373151
 11
155.0528149322
 21
174.1353373151
  0
LINE
  5
416
100
AcDbEntity
  8
0
100
AcDbLine
 62
7
  6
CONTINUOUS
 10
155.0988769114
 20
184.4353373151
 11
155.0988769114
 21
183.2353373327
  0
LINE
  5
417
100
AcDbEntity
  8
0
100
AcDbLine
 62
7
  6
CONTINUOUS
 10
155.2996247662
 20
165.935337333
 11
155.2996247662
 21
141.935337333
  0
LINE
  5
418
100
AcDbEntity
  8
0
100
AcDbLine
 62
7
  6
CONTINUOUS
 10
156.3222992508
 20
244.935337333
 11
156.3222992508
 21
243.435337333
  0
LINE
  5
419
100
AcDbEntity
  8
0
100
AcDbLine
 62
7
  6
CONTINUOUS
 10
156.4488769114
 20
233.335337333
 11
156.4488769114
 21
187.035337333
  0
LINE
  5
41A
100
AcDbEntity
  8
0
100
AcDbLine
 62
7
  6
CONTINUOUS
 10
143.4495643206
 20
196.6603316866
 11
146.1965938609
 21
183.8353373327
  0
LINE
  5
41B
100
AcDbEntity
  8
0
100
AcDbLine
 62
7
  6
CONTINUOUS
 10
156.3450579643
 20
240.3318103398
 11
156.3782349755
 21
236.5301014114
  0
LINE
  5
41C
100
AcDbEntity
  8
0
100
AcDbLine
 62
7
  6
CONTINUOUS
 10
156.9988768741
 20
174.1353373151
 11
156.9988768741
 21
174.6353373151
  0
LINE
  5
41D
100
AcDbEntity
  8
0
100
AcDbLine
 62
7
  6
CONTINUOUS
 10
156.9988768741
 20
184.4353373151
 11
156.9988768741
 21
184.9353373151
  0
LINE
  5
41E
100
AcDbEntity
  8
0
100
AcDbLine
 62
7
  6
CONTINUOUS
 10
157.1188769113
 20
141.435337333
 11
157.118876911
 21
165.935337333
  0
LINE
  5
41F
100
AcDbEntity
  8
0
100
AcDbLine
 62
7
  6
CONTINUOUS
 10
157.5988769114
 20
141.935337333
 11
157.5988769114
 21
165.935337333
  0
LINE
  5
420
100
AcDbEntity
  8
0
100
AcDbLine
 62
7
  6
CONTINUOUS
 10
157.5988768741
 20
175.2353373161
 11
157.5988768741
 21
183.8353373153
  0
LINE
  5
421
100
AcDbEntity
  8
0
100
AcDbLine
 62
7
  6
CONTINUOUS
 10
157.6988769114
 20
48.302797872
 11
157.6988769114
 21
48.9027975144
  0
LINE
  5
422
100
AcDbEntity
  8
0
100
AcDbLine
 62
7
  6
CONTINUOUS
 10
157.6988769114
 20
69.8180689028
 11
157.6988769114
 21
70.4180685452
  0
LINE
  5
423
100
AcDbEntity
  8
0
100
AcDbLine
 62
7
  6
CONTINUOUS
 10
158.0988768739
 20
183.8353373208
 11
158.098876873
 21
175.2353372934
  0
LINE
  5
424
100
AcDbEntity
  8
0
100
AcDbLine
 62
7
  6
CONTINUOUS
 10
158.0988769114
 20
166.435337333
 11
158.0988769114
 21
141.435337333
  0
LINE
  5
425
100
AcDbEntity
  8
0
100
AcDbLine
 62
7
  6
CONTINUOUS
 10
158.8988769114
 20
48.302797872
 11
158.8988769114
 21
48.9027975144
  0
LINE
  5
426
100
AcDbEntity
  8
0
100
AcDbLine
 62
7
  6
CONTINUOUS
 10
158.8988769114
 20
69.8180689028
 11
158.8988769114
 21
70.4180685452
  0
LINE
  5
427
100
AcDbEntity
  8
0
100
AcDbLine
 62
7
  6
CONTINUOUS
 10
158.9488769114
 20
187.035337333
 11
158.9488769114
 21
233.335337333
  0
LINE
  5
428
100
AcDbEntity
  8
0
100
AcDbLine
 62
7
  6
CONTINUOUS
 10
159.0754548371
 20
243.435337333
 11
159.0754548371
 21
244.935337333
  0
LINE
  5
429
100
AcDbEntity
  8
0
100
AcDbLine
 62
7
  6
CONTINUOUS
 10
160.1950043377
 20
141.435337333
 11
160.1950043364
 21
243.435337333
  0
LINE
  5
42A
100
AcDbEntity
  8
0
100
AcDbLine
 62
7
  6
CONTINUOUS
 10
160.7949842744
 20
141.935337333
 11
160.7950014965
 21
242.8352076617
  0
LINE
  5
42B
100
AcDbEntity
  8
0
100
AcDbLine
 62
7
  6
CONTINUOUS
 10
160.8947245694
 20
141.935337333
 11
160.8947245694
 21
242.8323642583
  0
LINE
  5
42C
100
AcDbEntity
  8
0
100
AcDbLine
 62
7
  6
CONTINUOUS
 10
161.3747062925
 20
243.435337333
 11
161.3747062925
 21
141.435337333
  0
LINE
  5
42D
100
AcDbEntity
  8
0
100
AcDbLine
 62
7
  6
CONTINUOUS
 10
161.9988769114
 20
48.302797872
 11
161.9988769114
 21
48.9027975144
  0
LINE
  5
42E
100
AcDbEntity
  8
0
100
AcDbLine
 62
7
  6
CONTINUOUS
 10
161.9988769114
 20
69.8180689028
 11
161.9988769114
 21
70.4180685452
  0
LINE
  5
42F
100
AcDbEntity
  8
0
100
AcDbLine
 62
7
  6
CONTINUOUS
 10
162.6988769114
 20
48.8726119249
 11
162.6988769114
 21
48.8881141083
  0
LINE
  5
430
100
AcDbEntity
  8
0
100
AcDbLine
 62
7
  6
CONTINUOUS
 10
163.2988769114
 20
82.785337333
 11
163.2988769114
 21
244.435337333
  0
LINE
  5
431
100
AcDbEntity
  8
0
100
AcDbLine
 62
7
  6
CONTINUOUS
 10
163.3988769114
 20
48.9100573398
 11
163.3988769114
 21
70.4113545714
  0
LINE
  5
432
100
AcDbEntity
  8
0
100
AcDbLine
 62
7
  6
CONTINUOUS
 10
163.3988769114
 20
70.4253283705
 11
163.3988769114
 21
104.7212744455
  0
LINE
  5
433
100
AcDbEntity
  8
0
100
AcDbLine
 62
7
  6
CONTINUOUS
 10
159.0195188473
 20
236.5301014115
 11
159.0526809449
 21
240.330101412
  0
LINE
  5
434
100
AcDbEntity
  8
0
100
AcDbLine
 62
7
  6
CONTINUOUS
 10
145.1988766563
 20
196.535337333
 11
144.5930311442
 21
196.535337333
  0
LINE
  5
435
100
AcDbEntity
  8
0
100
AcDbLine
 62
7
  6
CONTINUOUS
 10
143.4043866495
 20
196.535337333
 11
133.1933671733
 21
196.535337333
  0
LINE
  5
436
100
AcDbEntity
  8
0
100
AcDbLine
 62
7
  6
CONTINUOUS
 10
132.0047226786
 20
196.535337333
 11
131.3988769114
 21
196.535337333
  0
LINE
  5
437
100
AcDbEntity
  8
0
100
AcDbLine
 62
7
  6
CONTINUOUS
 10
100.1988766563
 20
196.535337333
 11
99.5930311442
 21
196.535337333
  0
LINE
  5
438
100
AcDbEntity
  8
0
100
AcDbLine
 62
7
  6
CONTINUOUS
 10
98.4043866495
 20
196.535337333
 11
88.1933671733
 21
196.535337333
  0
LINE
  5
439
100
AcDbEntity
  8
0
100
AcDbLine
 62
7
  6
CONTINUOUS
 10
87.0047226786
 20
196.535337333
 11
86.3988769114
 21
196.535337333
  0
LINE
  5
43A
100
AcDbEntity
  8
0
100
AcDbLine
 62
7
  6
CONTINUOUS
 10
55.1988766563
 20
196.535337333
 11
54.5930311442
 21
196.535337333
  0
LINE
  5
43B
100
AcDbEntity
  8
0
100
AcDbLine
 62
7
  6
CONTINUOUS
 10
53.4043866495
 20
196.535337333
 11
43.1933671733
 21
196.535337333
  0
LINE
  5
43C
100
AcDbEntity
  8
0
100
AcDbLine
 62
7
  6
CONTINUOUS
 10
42.0047226786
 20
196.535337333
 11
41.3988769114
 21
196.535337333
  0
LINE
  5
43D
100
AcDbEntity
  8
0
100
AcDbLine
 62
7
  6
CONTINUOUS
 10
144.5662581748
 20
196.6603316865
 11
143.4495643205
 21
196.6603316866
  0
LINE
  5
43E
100
AcDbEntity
  8
0
100
AcDbLine
 62
7
  6
CONTINUOUS
 10
133.1481895023
 20
196.6603316865
 11
132.031495648
 21
196.6603316865
  0
LINE
  5
43F
100
AcDbEntity
  8
0
100
AcDbLine
 62
7
  6
CONTINUOUS
 10
99.5662581748
 20
196.6603316865
 11
98.4495643205
 21
196.6603316866
  0
LINE
  5
440
100
AcDbEntity
  8
0
100
AcDbLine
 62
7
  6
CONTINUOUS
 10
88.1481895023
 20
196.6603316865
 11
87.031495648
 21
196.6603316865
  0
LINE
  5
441
100
AcDbEntity
  8
0
100
AcDbLine
 62
7
  6
CONTINUOUS
 10
54.5662581748
 20
196.6603316865
 11
53.4495643205
 21
196.6603316866
  0
LINE
  5
442
100
AcDbEntity
  8
0
100
AcDbLine
 62
7
  6
CONTINUOUS
 10
43.1481895023
 20
196.6603316865
 11
42.031495648
 21
196.6603316865
  0
LINE
  5
443
100
AcDbEntity
  8
0
100
AcDbLine
 62
7
  6
CONTINUOUS
 10
144.6984435362
 20
197.035337333
 11
143.2282418917
 21
197.035337333
  0
LINE
  5
444
100
AcDbEntity
  8
0
100
AcDbLine
 62
7
  6
CONTINUOUS
 10
143.1043932679
 20
197.035337333
 11
131.8993102866
 21
197.035337333
  0
LINE
  5
445
100
AcDbEntity
  8
0
100
AcDbLine
 62
7
  6
CONTINUOUS
 10
99.6984435362
 20
197.035337333
 11
98.2282418919
 21
197.035337333
  0
LINE
  5
446
100
AcDbEntity
  8
0
100
AcDbLine
 62
7
  6
CONTINUOUS
 10
98.1043932679
 20
197.035337333
 11
86.8993102866
 21
197.035337333
  0
LINE
  5
447
100
AcDbEntity
  8
0
100
AcDbLine
 62
7
  6
CONTINUOUS
 10
54.6984435362
 20
197.035337333
 11
53.2282418919
 21
197.035337333
  0
LINE
  5
448
100
AcDbEntity
  8
0
100
AcDbLine
 62
7
  6
CONTINUOUS
 10
53.1043932679
 20
197.035337333
 11
41.8993102866
 21
197.035337333
  0
LINE
  5
449
100
AcDbEntity
  8
0
100
AcDbLine
 62
7
  6
CONTINUOUS
 10
147.3132877151
 20
183.8353373327
 11
144.5662581748
 21
196.6603316863
  0
LINE
  5
44A
100
AcDbEntity
  8
0
100
AcDbLine
 62
7
  6
CONTINUOUS
 10
155.0988769114
 20
183.2353373327
 11
154.4988769114
 21
183.8353373327
  0
LINE
  5
44B
100
AcDbEntity
  8
0
100
AcDbLine
 62
7
  6
CONTINUOUS
 10
65.6318815456
 20
229.935337333
 11
69.8891056544
 21
229.935337333
  0
LINE
  5
44C
100
AcDbEntity
  8
0
100
AcDbLine
 62
7
  6
CONTINUOUS
 10
71.7086481684
 20
229.935337333
 11
75.9658722773
 21
229.935337333
  0
LINE
  5
44D
100
AcDbEntity
  8
0
100
AcDbLine
 62
7
  6
CONTINUOUS
 10
110.648875366
 20
229.935337333
 11
114.8891056544
 21
229.935337333
  0
LINE
  5
44E
100
AcDbEntity
  8
0
100
AcDbLine
 62
7
  6
CONTINUOUS
 10
116.7086481684
 20
229.935337333
 11
120.9488784569
 21
229.935337333
  0
LINE
  5
44F
100
AcDbEntity
  8
0
100
AcDbLine
 62
7
  6
CONTINUOUS
 10
158.3488769114
 20
233.935337333
 11
157.0488769114
 21
233.935337333
  0
LINE
  5
450
100
AcDbEntity
  8
0
100
AcDbLine
 62
7
  6
CONTINUOUS
 10
29.5488769114
 20
233.935337333
 11
28.2488769114
 21
233.935337333
  0
LINE
  5
451
100
AcDbEntity
  8
0
100
AcDbLine
 62
7
  6
CONTINUOUS
 10
28.1782121293
 20
235.935337333
 11
29.6195416935
 21
235.935337333
  0
LINE
  5
452
100
AcDbEntity
  8
0
100
AcDbLine
 62
7
  6
CONTINUOUS
 10
156.9782121293
 20
235.935337333
 11
158.4195416935
 21
235.935337333
  0
LINE
  5
453
100
AcDbEntity
  8
0
100
AcDbLine
 62
7
  6
CONTINUOUS
 10
65.648875366
 20
239.935337333
 11
70.1630410456
 21
239.935337333
  0
LINE
  5
454
100
AcDbEntity
  8
0
100
AcDbLine
 62
7
  6
CONTINUOUS
 10
71.4347127772
 20
239.935337333
 11
75.9488784569
 21
239.935337333
  0
LINE
  5
455
100
AcDbEntity
  8
0
100
AcDbLine
 62
7
  6
CONTINUOUS
 10
110.648875366
 20
239.935337333
 11
115.1630410456
 21
239.935337333
  0
LINE
  5
456
100
AcDbEntity
  8
0
100
AcDbLine
 62
7
  6
CONTINUOUS
 10
116.4347127772
 20
239.935337333
 11
120.9488784569
 21
239.935337333
  0
LINE
  5
457
100
AcDbEntity
  8
0
100
AcDbLine
 62
7
  6
CONTINUOUS
 10
158.4527037911
 20
240.935337333
 11
156.9450500317
 21
240.935337333
  0
LINE
  5
458
100
AcDbEntity
  8
0
100
AcDbLine
 62
7
  6
CONTINUOUS
 10
29.6527037911
 20
240.935337333
 11
28.1450500317
 21
240.935337333
  0
LINE
  5
459
100
AcDbEntity
  8
0
100
AcDbLine
 62
7
  6
CONTINUOUS
 10
154.9988769114
 20
241.335337333
 11
154.4988769114
 21
241.335337333
  0
LINE
  5
45A
100
AcDbEntity
  8
0
100
AcDbLine
 62
7
  6
CONTINUOUS
 10
122.0988769114
 20
241.335337333
 11
121.5988769114
 21
241.335337333
  0
LINE
  5
45B
100
AcDbEntity
  8
0
100
AcDbLine
 62
7
  6
CONTINUOUS
 10
109.9988769114
 20
241.335337333
 11
109.4988769114
 21
241.335337333
  0
LINE
  5
45C
100
AcDbEntity
  8
0
100
AcDbLine
 62
7
  6
CONTINUOUS
 10
77.0988769114
 20
241.335337333
 11
76.5988769114
 21
241.335337333
  0
LINE
  5
45D
100
AcDbEntity
  8
0
100
AcDbLine
 62
7
  6
CONTINUOUS
 10
64.9988769114
 20
241.335337333
 11
64.4988769114
 21
241.335337333
  0
LINE
  5
45E
100
AcDbEntity
  8
0
100
AcDbLine
 62
7
  6
CONTINUOUS
 10
32.0988769114
 20
241.335337333
 11
31.5988769114
 21
241.335337333
  0
LINE
  5
45F
100
AcDbEntity
  8
0
100
AcDbLine
 62
7
  6
CONTINUOUS
 10
153.8988769099
 20
241.935337333
 11
122.698876911
 21
241.935337333
  0
LINE
  5
460
100
AcDbEntity
  8
0
100
AcDbLine
 62
7
  6
CONTINUOUS
 10
108.8988769099
 20
241.935337333
 11
77.698876911
 21
241.935337333
  0
LINE
  5
461
100
AcDbEntity
  8
0
100
AcDbLine
 62
7
  6
CONTINUOUS
 10
63.8988769099
 20
241.935337333
 11
32.698876911
 21
241.935337333
  0
LINE
  5
462
100
AcDbEntity
  8
0
100
AcDbLine
 62
7
  6
CONTINUOUS
 10
32.6988769053
 20
242.4353373328
 11
63.8988769334
 21
242.4353373319
  0
LINE
  5
463
100
AcDbEntity
  8
0
100
AcDbLine
 62
7
  6
CONTINUOUS
 10
77.6988769053
 20
242.4353373328
 11
108.8988769334
 21
242.4353373319
  0
LINE
  5
464
100
AcDbEntity
  8
0
100
AcDbLine
 62
7
  6
CONTINUOUS
 10
122.6988769053
 20
242.4353373328
 11
153.8988769334
 21
242.4353373319
  0
LINE
  5
465
100
AcDbEntity
  8
0
100
AcDbLine
 62
7
  6
CONTINUOUS
 10
25.8027615149
 20
242.835337333
 11
25.2937529678
 21
242.835337333
  0
LINE
  5
466
100
AcDbEntity
  8
0
100
AcDbLine
 62
7
  6
CONTINUOUS
 10
160.1950043371
 20
242.935337333
 11
117.0450226516
 21
242.935337333
  0
LINE
  5
467
100
AcDbEntity
  8
0
100
AcDbLine
 62
7
  6
CONTINUOUS
 10
114.5527311712
 20
242.935337333
 11
72.0450226516
 21
242.935337333
  0
LINE
  5
468
100
AcDbEntity
  8
0
100
AcDbLine
 62
7
  6
CONTINUOUS
 10
69.5527311712
 20
242.935337333
 11
26.402749235
 21
242.935337333
  0
LINE
  5
469
100
AcDbEntity
  8
0
100
AcDbLine
 62
7
  6
CONTINUOUS
 10
160.1950043366
 20
243.435337333
 11
116.3013706925
 21
243.435337333
  0
LINE
  5
46A
100
AcDbEntity
  8
0
100
AcDbLine
 62
7
  6
CONTINUOUS
 10
70.2963831304
 20
243.435337333
 11
26.4027492255
 21
243.435337333
  0
LINE
  5
46B
100
AcDbEntity
  8
0
100
AcDbLine
 62
7
  6
CONTINUOUS
 10
23.2988769114
 20
243.4353373326
 11
25.2230475303
 21
243.4353373329
  0
LINE
  5
46C
100
AcDbEntity
  8
0
100
AcDbLine
 62
7
  6
CONTINUOUS
 10
71.3013706925
 20
243.435337333
 11
115.2963831304
 21
243.435337333
  0
LINE
  5
46D
100
AcDbEntity
  8
0
100
AcDbLine
 62
7
  6
CONTINUOUS
 10
161.3747062925
 20
243.435337333
 11
163.2988769114
 21
243.4353373326
  0
LINE
  5
46E
100
AcDbEntity
  8
0
100
AcDbLine
 62
7
  6
CONTINUOUS
 10
23.7988769114
 20
244.935337333
 11
162.7988769114
 21
244.935337333
  0
LINE
  5
46F
100
AcDbEntity
  8
0
100
AcDbLine
 62
7
  6
CONTINUOUS
 10
160.7949965751
 20
242.8353368834
 11
161.3031189397
 21
242.820191113
  0
ARC
  5
470
100
AcDbEntity
  8
0
100
AcDbCircle
 62
7
  6
CONTINUOUS
 10
48.7988769114
 20
107.465337333
 40
2.5
100
AcDbArc
 50
90.0000004135
 51
179.9999987269
  0
ARC
  5
471
100
AcDbEntity
  8
0
100
AcDbCircle
 62
7
  6
CONTINUOUS
 10
48.7988769114
 20
78.285337333
 40
2.5
100
AcDbArc
 50
180.0000005609
 51
269.9999982297
  0
ARC
  5
472
100
AcDbEntity
  8
0
100
AcDbCircle
 62
7
  6
CONTINUOUS
 10
57.5988769114
 20
107.465337333
 40
2.5
100
AcDbArc
 50
0.0
 51
89.9999990633
  0
ARC
  5
473
100
AcDbEntity
  8
0
100
AcDbCircle
 62
7
  6
CONTINUOUS
 10
57.5988769114
 20
78.285337333
 40
2.5
100
AcDbArc
 50
270.0000008396
 51
360.0
  0
ARC
  5
474
100
AcDbEntity
  8
0
100
AcDbCircle
 62
7
  6
CONTINUOUS
 10
57.5988769114
 20
107.465337333
 40
1.7
100
AcDbArc
 50
0.0
 51
89.9999994185
  0
ARC
  5
475
100
AcDbEntity
  8
0
100
AcDbCircle
 62
7
  6
CONTINUOUS
 10
48.7988769114
 20
107.465337333
 40
1.7
100
AcDbArc
 50
90.0000003378
 51
179.9999994017
  0
ARC
  5
476
100
AcDbEntity
  8
0
100
AcDbCircle
 62
7
  6
CONTINUOUS
 10
48.7988769114
 20
78.285337333
 40
1.7
100
AcDbArc
 50
179.9999999936
 51
269.9999994185
  0
ARC
  5
477
100
AcDbEntity
  8
0
100
AcDbCircle
 62
7
  6
CONTINUOUS
 10
57.5988769114
 20
78.285337333
 40
1.7
100
AcDbArc
 50
270.0000003378
 51
359.9999994017
  0
ARC
  5
478
100
AcDbEntity
  8
0
100
AcDbCircle
 62
7
  6
CONTINUOUS
 10
73.9088769114
 20
141.635337333
 40
0.5
100
AcDbArc
 50
270.0
 51
336.0
  0
ARC
  5
479
100
AcDbEntity
  8
0
100
AcDbCircle
 62
7
  6
CONTINUOUS
 10
67.6888769114
 20
141.635337333
 40
0.5
100
AcDbArc
 50
204.0
 51
270.0
  0
ARC
  5
47A
100
AcDbEntity
  8
0
100
AcDbCircle
 62
7
  6
CONTINUOUS
 10
68.7988769114
 20
101.035337333
 40
0.5
100
AcDbArc
 50
0.0
 51
90.0
  0
ARC
  5
47B
100
AcDbEntity
  8
0
100
AcDbCircle
 62
7
  6
CONTINUOUS
 10
65.7988769114
 20
101.035337333
 40
0.5
100
AcDbArc
 50
90.0
 51
180.0
  0
ARC
  5
47C
100
AcDbEntity
  8
0
100
AcDbCircle
 62
7
  6
CONTINUOUS
 10
66.8988769115
 20
141.935337333
 40
0.5
100
AcDbArc
 50
180.0
 51
270.0
  0
ARC
  5
47D
100
AcDbEntity
  8
0
100
AcDbCircle
 62
7
  6
CONTINUOUS
 10
28.4988769114
 20
141.935337333
 40
0.5
100
AcDbArc
 50
270.0
 51
360.0
  0
ARC
  5
47E
100
AcDbEntity
  8
0
100
AcDbCircle
 62
7
  6
CONTINUOUS
 10
74.6988769114
 20
141.935337333
 40
0.5
100
AcDbArc
 50
269.9999999999
 51
360.0
  0
ARC
  5
47F
100
AcDbEntity
  8
0
100
AcDbCircle
 62
7
  6
CONTINUOUS
 10
29.5988769114
 20
177.2353373151
 40
1.1
100
AcDbArc
 50
180.0000000029
 51
270.0
  0
ARC
  5
480
100
AcDbEntity
  8
0
100
AcDbCircle
 62
7
  6
CONTINUOUS
 10
29.4788769114
 20
183.9553373151
 40
0.98
100
AcDbArc
 50
90.0000000279
 51
179.9999999698
  0
ARC
  5
481
100
AcDbEntity
  8
0
100
AcDbCircle
 62
7
  6
CONTINUOUS
 10
28.2488769114
 20
187.035337333
 40
0.6
100
AcDbArc
 50
180.0
 51
270.0
  0
ARC
  5
482
100
AcDbEntity
  8
0
100
AcDbCircle
 62
7
  6
CONTINUOUS
 10
29.5488769114
 20
187.035337333
 40
0.6
100
AcDbArc
 50
270.0
 51
360.0
  0
ARC
  5
483
100
AcDbEntity
  8
0
100
AcDbCircle
 62
7
  6
CONTINUOUS
 10
33.6988769114
 20
183.2353373327
 40
0.6
100
AcDbArc
 50
90.0
 51
180.0
  0
ARC
  5
484
100
AcDbEntity
  8
0
100
AcDbCircle
 62
7
  6
CONTINUOUS
 10
33.6988769114
 20
175.2762036627
 40
0.6
100
AcDbArc
 50
180.0
 51
270.0
  0
ARC
  5
485
100
AcDbEntity
  8
0
100
AcDbCircle
 62
7
  6
CONTINUOUS
 10
31.4548860044
 20
176.0353373151
 40
0.6
100
AcDbArc
 50
359.7750008741
 51
90.0000000004
  0
ARC
  5
486
100
AcDbEntity
  8
0
100
AcDbCircle
 62
7
  6
CONTINUOUS
 10
29.5988769114
 20
177.2353373151
 40
0.6
100
AcDbArc
 50
180.0
 51
270.0
  0
ARC
  5
487
100
AcDbEntity
  8
0
100
AcDbCircle
 62
7
  6
CONTINUOUS
 10
41.8988769114
 20
196.535337333
 40
0.5
100
AcDbArc
 50
90.0
 51
180.0
  0
ARC
  5
488
100
AcDbEntity
  8
0
100
AcDbCircle
 62
7
  6
CONTINUOUS
 10
54.6988769114
 20
196.535337333
 40
0.5
100
AcDbArc
 50
0.0
 51
90.0
  0
ARC
  5
489
100
AcDbEntity
  8
0
100
AcDbCircle
 62
7
  6
CONTINUOUS
 10
31.5988769114
 20
184.9353373151
 40
0.5
100
AcDbArc
 50
270.0
 51
360.0
  0
ARC
  5
48A
100
AcDbEntity
  8
0
100
AcDbCircle
 62
7
  6
CONTINUOUS
 10
29.4788769114
 20
183.9553373151
 40
0.48
100
AcDbArc
 50
90.000000004
 51
179.9999999985
  0
ARC
  5
48B
100
AcDbEntity
  8
0
100
AcDbCircle
 62
7
  6
CONTINUOUS
 10
31.4548860044
 20
176.0353373151
 40
0.099995245
100
AcDbArc
 50
359.7991024484
 51
90.0
  0
ARC
  5
48C
100
AcDbEntity
  8
0
100
AcDbCircle
 62
7
  6
CONTINUOUS
 10
32.6988769114
 20
241.335337333
 40
1.1
100
AcDbArc
 50
90.0000003161
 51
179.9999988532
  0
ARC
  5
48D
100
AcDbEntity
  8
0
100
AcDbCircle
 62
7
  6
CONTINUOUS
 10
29.5488769114
 20
233.335337333
 40
0.6
100
AcDbArc
 50
0.0
 51
90.0
  0
ARC
  5
48E
100
AcDbEntity
  8
0
100
AcDbCircle
 62
7
  6
CONTINUOUS
 10
28.2488769114
 20
233.335337333
 40
0.6
100
AcDbArc
 50
90.0
 51
180.0
  0
ARC
  5
48F
100
AcDbEntity
  8
0
100
AcDbCircle
 62
7
  6
CONTINUOUS
 10
29.6527037911
 20
240.335337333
 40
0.6
100
AcDbArc
 50
359.5000000001
 51
90.0
  0
ARC
  5
490
100
AcDbEntity
  8
0
100
AcDbCircle
 62
7
  6
CONTINUOUS
 10
28.1450500317
 20
240.335337333
 40
0.6
100
AcDbArc
 50
90.0
 51
180.3368036206
  0
ARC
  5
491
100
AcDbEntity
  8
0
100
AcDbCircle
 62
7
  6
CONTINUOUS
 10
28.1782121293
 20
236.535337333
 40
0.6
100
AcDbArc
 50
180.5000000002
 51
270.0
  0
ARC
  5
492
100
AcDbEntity
  8
0
100
AcDbCircle
 62
7
  6
CONTINUOUS
 10
29.6195416935
 20
236.535337333
 40
0.6
100
AcDbArc
 50
270.0
 51
359.4999999995
  0
ARC
  5
493
100
AcDbEntity
  8
0
100
AcDbCircle
 62
7
  6
CONTINUOUS
 10
32.6988769114
 20
241.335337333
 40
0.6
100
AcDbArc
 50
90.0000000264
 51
180.0000002095
  0
ARC
  5
494
100
AcDbEntity
  8
0
100
AcDbCircle
 62
7
  6
CONTINUOUS
 10
26.4027609171
 20
242.8353487412
 40
0.5999885919
100
AcDbArc
 50
90.0011164864
 51
180.0314194805
  0
ARC
  5
495
100
AcDbEntity
  8
0
100
AcDbCircle
 62
7
  6
CONTINUOUS
 10
23.7988769114
 20
244.435337333
 40
0.5
100
AcDbArc
 50
90.0
 51
180.0
  0
ARC
  5
496
100
AcDbEntity
  8
0
100
AcDbCircle
 62
7
  6
CONTINUOUS
 10
75.7988769114
 20
183.8353373151
 40
1.1
100
AcDbArc
 50
90.0000000001
 51
180.0000000001
  0
ARC
  5
497
100
AcDbEntity
  8
0
100
AcDbCircle
 62
7
  6
CONTINUOUS
 10
75.7988769114
 20
177.2353373151
 40
1.1
100
AcDbArc
 50
180.0000000001
 51
270.0
  0
ARC
  5
498
100
AcDbEntity
  8
0
100
AcDbCircle
 62
7
  6
CONTINUOUS
 10
65.7988769114
 20
183.8353373151
 40
1.1
100
AcDbArc
 50
0.0000001947
 51
89.9999994279
  0
ARC
  5
499
100
AcDbEntity
  8
0
100
AcDbCircle
 62
7
  6
CONTINUOUS
 10
65.7988769114
 20
175.2353373151
 40
1.0999993619
100
AcDbArc
 50
254.332794973
 51
0.0002956216
  0
ARC
  5
49A
100
AcDbEntity
  8
0
100
AcDbCircle
 62
7
  6
CONTINUOUS
 10
65.7988769114
 20
183.8353373151
 40
0.6
100
AcDbArc
 50
0.0
 51
90.0000001043
  0
ARC
  5
49B
100
AcDbEntity
  8
0
100
AcDbCircle
 62
7
  6
CONTINUOUS
 10
62.8988769114
 20
183.2353373327
 40
0.6
100
AcDbArc
 50
0.0
 51
90.0
  0
ARC
  5
49C
100
AcDbEntity
  8
0
100
AcDbCircle
 62
7
  6
CONTINUOUS
 10
62.8988769114
 20
175.2762036627
 40
0.6
100
AcDbArc
 50
270.0
 51
360.0
  0
ARC
  5
49D
100
AcDbEntity
  8
0
100
AcDbCircle
 62
7
  6
CONTINUOUS
 10
78.6988769114
 20
175.2353373326
 40
0.6
100
AcDbArc
 50
180.0
 51
270.0
  0
ARC
  5
49E
100
AcDbEntity
  8
0
100
AcDbCircle
 62
7
  6
CONTINUOUS
 10
75.7988769114
 20
177.2353373151
 40
0.6
100
AcDbArc
 50
180.0
 51
270.0
  0
ARC
  5
49F
100
AcDbEntity
  8
0
100
AcDbCircle
 62
7
  6
CONTINUOUS
 10
75.7988769114
 20
183.8353373151
 40
0.6
100
AcDbArc
 50
90.0
 51
180.0
  0
ARC
  5
4A0
100
AcDbEntity
  8
0
100
AcDbCircle
 62
7
  6
CONTINUOUS
 10
76.4548860009
 20
176.0353373151
 40
0.6
100
AcDbArc
 50
359.775000873
 51
90.0000000003
  0
ARC
  5
4A1
100
AcDbEntity
  8
0
100
AcDbCircle
 62
7
  6
CONTINUOUS
 10
65.7988769114
 20
175.2353373151
 40
0.5999993619
100
AcDbArc
 50
248.7312921702
 51
360.0
  0
ARC
  5
4A2
100
AcDbEntity
  8
0
100
AcDbCircle
 62
7
  6
CONTINUOUS
 10
86.8988769114
 20
196.535337333
 40
0.5
100
AcDbArc
 50
90.0
 51
180.0
  0
ARC
  5
4A3
100
AcDbEntity
  8
0
100
AcDbCircle
 62
7
  6
CONTINUOUS
 10
65.0526009545
 20
174.1762036676
 40
0.5
100
AcDbArc
 50
90.0749998711
 51
180.3
  0
ARC
  5
4A4
100
AcDbEntity
  8
0
100
AcDbCircle
 62
7
  6
CONTINUOUS
 10
64.9988769114
 20
184.9353373151
 40
0.5
100
AcDbArc
 50
180.0
 51
270.0
  0
ARC
  5
4A5
100
AcDbEntity
  8
0
100
AcDbCircle
 62
7
  6
CONTINUOUS
 10
76.5988769114
 20
184.9353373151
 40
0.5
100
AcDbArc
 50
270.0
 51
360.0
  0
ARC
  5
4A6
100
AcDbEntity
  8
0
100
AcDbCircle
 62
7
  6
CONTINUOUS
 10
76.4548860009
 20
176.0353373151
 40
0.099995245
100
AcDbArc
 50
359.7991012968
 51
89.9999999999
  0
ARC
  5
4A7
100
AcDbEntity
  8
0
100
AcDbCircle
 62
7
  6
CONTINUOUS
 10
77.6988769114
 20
241.335337333
 40
1.1
100
AcDbArc
 50
90.0000003161
 51
179.9999988537
  0
ARC
  5
4A8
100
AcDbEntity
  8
0
100
AcDbCircle
 62
7
  6
CONTINUOUS
 10
63.8988769114
 20
241.335337333
 40
1.1
100
AcDbArc
 50
0.0000001947
 51
89.9999988534
  0
ARC
  5
4A9
100
AcDbEntity
  8
0
100
AcDbCircle
 62
7
  6
CONTINUOUS
 10
63.8988769114
 20
241.335337333
 40
0.6
100
AcDbArc
 50
0.0
 51
90.0000001043
  0
ARC
  5
4AA
100
AcDbEntity
  8
0
100
AcDbCircle
 62
7
  6
CONTINUOUS
 10
77.6988769114
 20
241.335337333
 40
0.6
100
AcDbArc
 50
90.0000000261
 51
180.0000002095
  0
ARC
  5
4AB
100
AcDbEntity
  8
0
100
AcDbCircle
 62
7
  6
CONTINUOUS
 10
68.5690523255
 20
242.9360335866
 40
0.4993037464
100
AcDbArc
 50
28.8853899079
 51
89.9990823673
  0
ARC
  5
4AC
100
AcDbEntity
  8
0
100
AcDbCircle
 62
7
  6
CONTINUOUS
 10
73.0286999259
 20
242.9360534206
 40
0.4992839124
100
AcDbArc
 50
90.000737315
 51
180.0080050327
  0
ARC
  5
4AD
100
AcDbEntity
  8
0
100
AcDbCircle
 62
7
  6
CONTINUOUS
 10
118.9088769114
 20
141.635337333
 40
0.5
100
AcDbArc
 50
270.0
 51
336.0
  0
ARC
  5
4AE
100
AcDbEntity
  8
0
100
AcDbCircle
 62
7
  6
CONTINUOUS
 10
158.0988769114
 20
141.935337333
 40
0.5
100
AcDbArc
 50
180.0
 51
270.0
  0
ARC
  5
4AF
100
AcDbEntity
  8
0
100
AcDbCircle
 62
7
  6
CONTINUOUS
 10
117.7988769114
 20
101.035337333
 40
0.5
100
AcDbArc
 50
90.0
 51
180.0
  0
ARC
  5
4B0
100
AcDbEntity
  8
0
100
AcDbCircle
 62
7
  6
CONTINUOUS
 10
120.7988769114
 20
101.035337333
 40
0.5
100
AcDbArc
 50
0.0
 51
90.0
  0
ARC
  5
4B1
100
AcDbEntity
  8
0
100
AcDbCircle
 62
7
  6
CONTINUOUS
 10
112.6888769114
 20
141.635337333
 40
0.5
100
AcDbArc
 50
204.0
 51
270.0
  0
ARC
  5
4B2
100
AcDbEntity
  8
0
100
AcDbCircle
 62
7
  6
CONTINUOUS
 10
119.6988769114
 20
141.935337333
 40
0.5
100
AcDbArc
 50
270.0000000037
 51
360.0
  0
ARC
  5
4B3
100
AcDbEntity
  8
0
100
AcDbCircle
 62
7
  6
CONTINUOUS
 10
111.8988769115
 20
141.935337333
 40
0.5
100
AcDbArc
 50
180.0
 51
270.0000000001
  0
ARC
  5
4B4
100
AcDbEntity
  8
0
100
AcDbCircle
 62
7
  6
CONTINUOUS
 10
160.2951730027
 20
141.9351458287
 40
0.4998085254
100
AcDbArc
 50
269.9802285043
 51
0.0219531851
  0
ARC
  5
4B5
100
AcDbEntity
  8
0
100
AcDbCircle
 62
7
  6
CONTINUOUS
 10
120.7988769114
 20
183.8353373151
 40
1.1
100
AcDbArc
 50
90.0000000001
 51
179.9999999979
  0
ARC
  5
4B6
100
AcDbEntity
  8
0
100
AcDbCircle
 62
7
  6
CONTINUOUS
 10
110.7988769114
 20
175.2353373151
 40
1.1
100
AcDbArc
 50
270.0000003177
 51
359.9999988539
  0
ARC
  5
4B7
100
AcDbEntity
  8
0
100
AcDbCircle
 62
7
  6
CONTINUOUS
 10
110.7988769114
 20
183.8353373151
 40
1.1
100
AcDbArc
 50
0.0000003155
 51
89.9999988544
  0
ARC
  5
4B8
100
AcDbEntity
  8
0
100
AcDbCircle
 62
7
  6
CONTINUOUS
 10
120.6788769114
 20
177.1153373151
 40
0.98
100
AcDbArc
 50
180.0000000279
 51
269.9999999684
  0
ARC
  5
4B9
100
AcDbEntity
  8
0
100
AcDbCircle
 62
7
  6
CONTINUOUS
 10
120.7988769114
 20
183.8353373151
 40
0.6
100
AcDbArc
 50
90.0
 51
180.0
  0
ARC
  5
4BA
100
AcDbEntity
  8
0
100
AcDbCircle
 62
7
  6
CONTINUOUS
 10
123.6988769114
 20
183.2353373327
 40
0.6
100
AcDbArc
 50
90.0
 51
180.0
  0
ARC
  5
4BB
100
AcDbEntity
  8
0
100
AcDbCircle
 62
7
  6
CONTINUOUS
 10
123.6988769114
 20
175.2762036627
 40
0.6
100
AcDbArc
 50
180.0
 51
270.0
  0
ARC
  5
4BC
100
AcDbEntity
  8
0
100
AcDbCircle
 62
7
  6
CONTINUOUS
 10
107.8988769114
 20
175.2353373326
 40
0.6
100
AcDbArc
 50
270.0
 51
360.0
  0
ARC
  5
4BD
100
AcDbEntity
  8
0
100
AcDbCircle
 62
7
  6
CONTINUOUS
 10
110.7988769114
 20
175.2353373151
 40
0.6
100
AcDbArc
 50
270.0000000261
 51
360.0
  0
ARC
  5
4BE
100
AcDbEntity
  8
0
100
AcDbCircle
 62
7
  6
CONTINUOUS
 10
110.7988769114
 20
183.8353373151
 40
0.6
100
AcDbArc
 50
0.0
 51
90.0000001043
  0
ARC
  5
4BF
100
AcDbEntity
  8
0
100
AcDbCircle
 62
7
  6
CONTINUOUS
 10
99.6988769114
 20
196.535337333
 40
0.5
100
AcDbArc
 50
0.0
 51
90.0
  0
ARC
  5
4C0
100
AcDbEntity
  8
0
100
AcDbCircle
 62
7
  6
CONTINUOUS
 10
110.0528149322
 20
174.1353373151
 40
0.5
100
AcDbArc
 50
90.0749998711
 51
180.3
  0
ARC
  5
4C1
100
AcDbEntity
  8
0
100
AcDbCircle
 62
7
  6
CONTINUOUS
 10
121.5988769114
 20
184.9353373151
 40
0.5
100
AcDbArc
 50
270.0
 51
360.0
  0
ARC
  5
4C2
100
AcDbEntity
  8
0
100
AcDbCircle
 62
7
  6
CONTINUOUS
 10
109.9988769114
 20
184.9353373151
 40
0.5
100
AcDbArc
 50
180.0
 51
270.0
  0
ARC
  5
4C3
100
AcDbEntity
  8
0
100
AcDbCircle
 62
7
  6
CONTINUOUS
 10
120.6788769114
 20
177.1153373151
 40
0.48
100
AcDbArc
 50
180.0000000032
 51
269.9999999985
  0
ARC
  5
4C4
100
AcDbEntity
  8
0
100
AcDbCircle
 62
7
  6
CONTINUOUS
 10
121.5755159568
 20
176.1553373151
 40
0.48
100
AcDbArc
 50
357.9006661289
 51
91.7993338796
  0
ARC
  5
4C5
100
AcDbEntity
  8
0
100
AcDbCircle
 62
7
  6
CONTINUOUS
 10
122.6988769114
 20
241.335337333
 40
1.1
100
AcDbArc
 50
90.0000003161
 51
179.9999988537
  0
ARC
  5
4C6
100
AcDbEntity
  8
0
100
AcDbCircle
 62
7
  6
CONTINUOUS
 10
108.8988769114
 20
241.335337333
 40
1.1
100
AcDbArc
 50
0.0000001947
 51
89.9999988534
  0
ARC
  5
4C7
100
AcDbEntity
  8
0
100
AcDbCircle
 62
7
  6
CONTINUOUS
 10
122.6988769114
 20
241.335337333
 40
0.6
100
AcDbArc
 50
90.0000000261
 51
180.0000002095
  0
ARC
  5
4C8
100
AcDbEntity
  8
0
100
AcDbCircle
 62
7
  6
CONTINUOUS
 10
108.8988769114
 20
241.335337333
 40
0.6
100
AcDbArc
 50
0.0
 51
90.0000001043
  0
ARC
  5
4C9
100
AcDbEntity
  8
0
100
AcDbCircle
 62
7
  6
CONTINUOUS
 10
117.5605928077
 20
242.9009370112
 40
0.5344006453
100
AcDbArc
 50
89.9369601951
 51
107.176027176
  0
ARC
  5
4CA
100
AcDbEntity
  8
0
100
AcDbCircle
 62
7
  6
CONTINUOUS
 10
113.5690523256
 20
242.9360335866
 40
0.4993037464
100
AcDbArc
 50
28.885389909
 51
89.9990823979
  0
ARC
  5
4CB
100
AcDbEntity
  8
0
100
AcDbCircle
 62
7
  6
CONTINUOUS
 10
118.0286999259
 20
242.9360534206
 40
0.4992839124
100
AcDbArc
 50
90.0007373151
 51
180.0080050326
  0
ARC
  5
4CC
100
AcDbEntity
  8
0
100
AcDbCircle
 62
7
  6
CONTINUOUS
 10
156.9988768741
 20
175.2353373151
 40
1.1
100
AcDbArc
 50
270.0000003197
 51
359.9999988696
  0
ARC
  5
4CD
100
AcDbEntity
  8
0
100
AcDbCircle
 62
7
  6
CONTINUOUS
 10
156.9988768741
 20
183.8353373151
 40
1.1
100
AcDbArc
 50
0.0000002999
 51
89.999998855
  0
ARC
  5
4CE
100
AcDbEntity
  8
0
100
AcDbCircle
 62
7
  6
CONTINUOUS
 10
157.0488769114
 20
187.035337333
 40
0.6
100
AcDbArc
 50
180.0
 51
270.0
  0
ARC
  5
4CF
100
AcDbEntity
  8
0
100
AcDbCircle
 62
7
  6
CONTINUOUS
 10
158.3488769114
 20
187.035337333
 40
0.6
100
AcDbArc
 50
270.0
 51
360.0
  0
ARC
  5
4D0
100
AcDbEntity
  8
0
100
AcDbCircle
 62
7
  6
CONTINUOUS
 10
152.8988769114
 20
183.2353373327
 40
0.6
100
AcDbArc
 50
0.0
 51
90.0
  0
ARC
  5
4D1
100
AcDbEntity
  8
0
100
AcDbCircle
 62
7
  6
CONTINUOUS
 10
152.8988769114
 20
175.2762036627
 40
0.6
100
AcDbArc
 50
270.0
 51
360.0
  0
ARC
  5
4D2
100
AcDbEntity
  8
0
100
AcDbCircle
 62
7
  6
CONTINUOUS
 10
156.9988768741
 20
175.2353373151
 40
0.6
100
AcDbArc
 50
270.0000000287
 51
360.0
  0
ARC
  5
4D3
100
AcDbEntity
  8
0
100
AcDbCircle
 62
7
  6
CONTINUOUS
 10
156.9988768741
 20
183.8353373151
 40
0.6
100
AcDbArc
 50
0.0
 51
90.000000098
  0
ARC
  5
4D4
100
AcDbEntity
  8
0
100
AcDbCircle
 62
7
  6
CONTINUOUS
 10
131.8988769114
 20
196.535337333
 40
0.5
100
AcDbArc
 50
90.0
 51
180.0
  0
ARC
  5
4D5
100
AcDbEntity
  8
0
100
AcDbCircle
 62
7
  6
CONTINUOUS
 10
144.6988769114
 20
196.535337333
 40
0.5
100
AcDbArc
 50
0.0
 51
90.0
  0
ARC
  5
4D6
100
AcDbEntity
  8
0
100
AcDbCircle
 62
7
  6
CONTINUOUS
 10
155.0528149322
 20
174.1353373151
 40
0.5
100
AcDbArc
 50
90.0749998711
 51
180.3
  0
ARC
  5
4D7
100
AcDbEntity
  8
0
100
AcDbCircle
 62
7
  6
CONTINUOUS
 10
154.9988769114
 20
184.9353373151
 40
0.5
100
AcDbArc
 50
180.0
 51
270.0
  0
ARC
  5
4D8
100
AcDbEntity
  8
0
100
AcDbCircle
 62
7
  6
CONTINUOUS
 10
153.8988769114
 20
241.335337333
 40
1.1
100
AcDbArc
 50
0.0000002077
 51
89.9999988539
  0
ARC
  5
4D9
100
AcDbEntity
  8
0
100
AcDbCircle
 62
7
  6
CONTINUOUS
 10
157.0488769114
 20
233.335337333
 40
0.6
100
AcDbArc
 50
90.0
 51
180.0
  0
ARC
  5
4DA
100
AcDbEntity
  8
0
100
AcDbCircle
 62
7
  6
CONTINUOUS
 10
158.3488769114
 20
233.335337333
 40
0.6
100
AcDbArc
 50
0.0
 51
90.0
  0
ARC
  5
4DB
100
AcDbEntity
  8
0
100
AcDbCircle
 62
7
  6
CONTINUOUS
 10
158.4527037911
 20
240.335337333
 40
0.6
100
AcDbArc
 50
359.5000000301
 51
90.0
  0
ARC
  5
4DC
100
AcDbEntity
  8
0
100
AcDbCircle
 62
7
  6
CONTINUOUS
 10
156.9450500317
 20
240.335337333
 40
0.6
100
AcDbArc
 50
90.0
 51
180.336803613
  0
ARC
  5
4DD
100
AcDbEntity
  8
0
100
AcDbCircle
 62
7
  6
CONTINUOUS
 10
156.9782121293
 20
236.535337333
 40
0.6
100
AcDbArc
 50
180.5000000297
 51
270.0
  0
ARC
  5
4DE
100
AcDbEntity
  8
0
100
AcDbCircle
 62
7
  6
CONTINUOUS
 10
158.4195416935
 20
236.535337333
 40
0.6
100
AcDbArc
 50
270.0
 51
359.4999999782
  0
ARC
  5
4DF
100
AcDbEntity
  8
0
100
AcDbCircle
 62
7
  6
CONTINUOUS
 10
153.8988769114
 20
241.335337333
 40
0.6
100
AcDbArc
 50
0.0
 51
90.0000001068
  0
ARC
  5
4E0
100
AcDbEntity
  8
0
100
AcDbCircle
 62
7
  6
CONTINUOUS
 10
160.1949929121
 20
242.8353487519
 40
0.5999885812
100
AcDbArc
 50
359.9907662856
 51
89.9989089797
  0
ARC
  5
4E1
100
AcDbEntity
  8
0
100
AcDbCircle
 62
7
  6
CONTINUOUS
 10
162.7988769114
 20
244.435337333
 40
0.5
100
AcDbArc
 50
0.0
 51
90.0
  0
SPLINE
  5
4E2
100
AcDbEntity
  8
0
100
AcDbSpline
 62
7
  6
CONTINUOUS
 70
0
 71
3
 72
11
 73
7
 74
0
 42
0.0000001
 43
0.0000001
 44
0.0000000001
 40
0.0
 40
0.0
 40
0.0
 40
0.0
 40
0.2501286812
 40
0.5002748339
 40
0.7502126682
 40
1.0
 40
1.0
 40
1.0
 40
1.0
 10
111.8817344611
 20
46.0366025687
 30
0.0
 10
112.0151722485
 20
46.036577541
 30
0.0
 10
112.2844931151
 20
46.0839723638
 30
0.0
 10
112.6364288608
 20
46.2926453104
 30
0.0
 10
112.8860154588
 20
46.6185575194
 30
0.0
 10
112.9503422625
 20
46.8871592546
 30
0.0
 10
112.9531134783
 20
47.020386124
 30
0.0
  0
SPLINE
  5
4E3
100
AcDbEntity
  8
0
100
AcDbSpline
 62
7
  6
CONTINUOUS
 70
0
 71
3
 72
11
 73
7
 74
0
 42
0.0000001
 43
0.0000001
 44
0.0000000001
 40
0.0
 40
0.0
 40
0.0
 40
0.0
 40
0.2497097019
 40
0.4996914517
 40
0.7498707513
 40
1.0
 40
1.0
 40
1.0
 40
1.0
 10
108.6446978691
 20
47.0166240631
 30
0.0
 10
108.6473818933
 20
46.8837450971
 30
0.0
 10
108.7132339309
 20
46.6159888589
 30
0.0
 10
108.9629950292
 20
46.2918008969
 30
0.0
 10
109.3141460707
 20
46.0835725737
 30
0.0
 10
109.5829146352
 20
46.0365781808
 30
0.0
 10
109.7160440041
 20
46.0366026125
 30
0.0
  0
SPLINE
  5
4E4
100
AcDbEntity
  8
0
100
AcDbSpline
 62
7
  6
CONTINUOUS
 70
0
 71
3
 72
11
 73
7
 74
0
 42
0.0000001
 43
0.0000001
 44
0.0000000001
 40
0.0
 40
0.0
 40
0.0
 40
0.0
 40
0.2497097019
 40
0.4996914517
 40
0.7498707513
 40
1.0
 40
1.0
 40
1.0
 40
1.0
 10
73.6446978691
 20
47.0166240631
 30
0.0
 10
73.6473818933
 20
46.883745097
 30
0.0
 10
73.7132339309
 20
46.6159888589
 30
0.0
 10
73.9629950292
 20
46.2918008968
 30
0.0
 10
74.3141460707
 20
46.0835725737
 30
0.0
 10
74.5829146352
 20
46.0365781808
 30
0.0
 10
74.7160440041
 20
46.0366026125
 30
0.0
  0
SPLINE
  5
4E5
100
AcDbEntity
  8
0
100
AcDbSpline
 62
7
  6
CONTINUOUS
 70
0
 71
3
 72
11
 73
7
 74
0
 42
0.0000001
 43
0.0000001
 44
0.0000000001
 40
0.0
 40
0.0
 40
0.0
 40
0.0
 40
0.2501286812
 40
0.5002748338
 40
0.7502126682
 40
1.0
 40
1.0
 40
1.0
 40
1.0
 10
76.8817344611
 20
46.0366025687
 30
0.0
 10
77.0151722483
 20
46.0365775411
 30
0.0
 10
77.2844931145
 20
46.0839723637
 30
0.0
 10
77.6364288599
 20
46.2926453098
 30
0.0
 10
77.886015458
 20
46.618557518
 30
0.0
 10
77.9503422621
 20
46.8871592527
 30
0.0
 10
77.9531134782
 20
47.0203861219
 30
0.0
  0
SPLINE
  5
4E6
100
AcDbEntity
  8
0
100
AcDbSpline
 62
7
  6
CONTINUOUS
 70
0
 71
3
 72
9
 73
5
 74
0
 42
0.0000001
 43
0.0000001
 44
0.0000000001
 40
0.0
 40
0.0
 40
0.0
 40
0.0
 40
0.4836764312
 40
1.0
 40
1.0
 40
1.0
 40
1.0
 10
42.4542672712
 20
197.0384708749
 30
0.0
 10
42.390447259
 20
197.0401799934
 30
0.0
 10
42.2555703369
 20
197.0071916384
 30
0.0
 10
42.1548698684
 20
196.9132816698
 30
0.0
 10
42.1158530617
 20
196.8574031868
 30
0.0
  0
SPLINE
  5
4E7
100
AcDbEntity
  8
0
100
AcDbSpline
 62
7
  6
CONTINUOUS
 70
0
 71
3
 72
8
 73
4
 74
0
 42
0.0000001
 43
0.0000001
 44
0.0000000001
 40
0.0
 40
0.0
 40
0.0
 40
0.0
 40
1.0
 40
1.0
 40
1.0
 40
1.0
 10
42.1158530617
 20
196.8574031868
 30
0.0
 10
42.0749449467
 20
196.7988160393
 30
0.0
 10
42.0464615465
 20
196.7302026362
 30
0.0
 10
42.0314956481
 20
196.6603316865
 30
0.0
  0
SPLINE
  5
4E8
100
AcDbEntity
  8
0
100
AcDbSpline
 62
7
  6
CONTINUOUS
 70
0
 71
3
 72
9
 73
5
 74
0
 42
0.0000001
 43
0.0000001
 44
0.0000000001
 40
0.0
 40
0.0
 40
0.0
 40
0.0
 40
0.1860494595
 40
1.0
 40
1.0
 40
1.0
 40
1.0
 10
43.494216833
 20
197.0353372187
 30
0.0
 10
43.4692515573
 20
197.0352951931
 30
0.0
 10
43.3350859065
 20
197.0321448936
 30
0.0
 10
43.2008867964
 20
197.035337333
 30
0.0
 10
43.0916656868
 20
197.035337333
 30
0.0
  0
SPLINE
  5
4E9
100
AcDbEntity
  8
0
100
AcDbSpline
 62
7
  6
CONTINUOUS
 70
0
 71
3
 72
9
 73
5
 74
0
 42
0.0000001
 43
0.0000001
 44
0.0000000001
 40
0.0
 40
0.0
 40
0.0
 40
0.0
 40
0.5187400134
 40
1.0
 40
1.0
 40
1.0
 40
1.0
 10
54.5662581748
 20
196.6603316864
 30
0.0
 10
54.5515622091
 20
196.7289424076
 30
0.0
 10
54.4994732317
 20
196.8580802026
 30
0.0
 10
54.3976959676
 20
196.9546580732
 30
0.0
 10
54.3415323709
 20
196.9875716421
 30
0.0
  0
SPLINE
  5
4EA
100
AcDbEntity
  8
0
100
AcDbSpline
 62
7
  6
CONTINUOUS
 70
0
 71
3
 72
9
 73
5
 74
0
 42
0.0000001
 43
0.0000001
 44
0.0000000001
 40
0.0
 40
0.0
 40
0.0
 40
0.0
 40
0.2568151275
 40
1.0
 40
1.0
 40
1.0
 40
1.0
 10
54.3415323709
 20
196.9875716421
 30
0.0
 10
54.3258695237
 20
196.9967505449
 30
0.0
 10
54.2627714751
 20
197.0286435583
 30
0.0
 10
54.1907472736
 20
197.0438703831
 30
0.0
 10
54.138230377
 20
197.0424639643
 30
0.0
  0
SPLINE
  5
4EB
100
AcDbEntity
  8
0
100
AcDbSpline
 62
7
  6
CONTINUOUS
 70
0
 71
3
 72
9
 73
5
 74
0
 42
0.0000001
 43
0.0000001
 44
0.0000000001
 40
0.0
 40
0.0
 40
0.0
 40
0.0
 40
0.4836764312
 40
1.0
 40
1.0
 40
1.0
 40
1.0
 10
132.4542672711
 20
197.0384708749
 30
0.0
 10
132.390447259
 20
197.0401799934
 30
0.0
 10
132.2555703369
 20
197.0071916384
 30
0.0
 10
132.1548698685
 20
196.9132816698
 30
0.0
 10
132.1158530617
 20
196.8574031868
 30
0.0
  0
SPLINE
  5
4EC
100
AcDbEntity
  8
0
100
AcDbSpline
 62
7
  6
CONTINUOUS
 70
0
 71
3
 72
8
 73
4
 74
0
 42
0.0000001
 43
0.0000001
 44
0.0000000001
 40
0.0
 40
0.0
 40
0.0
 40
0.0
 40
1.0
 40
1.0
 40
1.0
 40
1.0
 10
132.1158530617
 20
196.8574031868
 30
0.0
 10
132.0749449467
 20
196.7988160393
 30
0.0
 10
132.0464615464
 20
196.730202636
 30
0.0
 10
132.031495648
 20
196.6603316863
 30
0.0
  0
SPLINE
  5
4ED
100
AcDbEntity
  8
0
100
AcDbSpline
 62
7
  6
CONTINUOUS
 70
0
 71
3
 72
9
 73
5
 74
0
 42
0.0000001
 43
0.0000001
 44
0.0000000001
 40
0.0
 40
0.0
 40
0.0
 40
0.0
 40
0.1860494595
 40
1.0
 40
1.0
 40
1.0
 40
1.0
 10
133.494216833
 20
197.0353372187
 30
0.0
 10
133.4692515573
 20
197.0352951931
 30
0.0
 10
133.3350859064
 20
197.0321448936
 30
0.0
 10
133.2008867963
 20
197.035337333
 30
0.0
 10
133.0916656866
 20
197.035337333
 30
0.0
  0
SPLINE
  5
4EE
100
AcDbEntity
  8
0
100
AcDbSpline
 62
7
  6
CONTINUOUS
 70
0
 71
3
 72
9
 73
5
 74
0
 42
0.0000001
 43
0.0000001
 44
0.0000000001
 40
0.0
 40
0.0
 40
0.0
 40
0.0
 40
0.5187400134
 40
1.0
 40
1.0
 40
1.0
 40
1.0
 10
144.5662581748
 20
196.6603316863
 30
0.0
 10
144.5515622091
 20
196.7289424076
 30
0.0
 10
144.4994732317
 20
196.8580802026
 30
0.0
 10
144.3976959675
 20
196.9546580732
 30
0.0
 10
144.3415323708
 20
196.9875716421
 30
0.0
  0
SPLINE
  5
4EF
100
AcDbEntity
  8
0
100
AcDbSpline
 62
7
  6
CONTINUOUS
 70
0
 71
3
 72
9
 73
5
 74
0
 42
0.0000001
 43
0.0000001
 44
0.0000000001
 40
0.0
 40
0.0
 40
0.0
 40
0.0
 40
0.2568151275
 40
1.0
 40
1.0
 40
1.0
 40
1.0
 10
144.3415323708
 20
196.9875716421
 30
0.0
 10
144.3258695236
 20
196.9967505449
 30
0.0
 10
144.2627714751
 20
197.0286435583
 30
0.0
 10
144.1907472736
 20
197.0438703831
 30
0.0
 10
144.138230377
 20
197.0424639643
 30
0.0
  0
SPLINE
  5
4F0
100
AcDbEntity
  8
0
100
AcDbSpline
 62
7
  6
CONTINUOUS
 70
0
 71
3
 72
8
 73
4
 74
0
 42
0.0000001
 43
0.0000001
 44
0.0000000001
 40
0.0
 40
0.0
 40
0.0
 40
0.0
 40
1.0
 40
1.0
 40
1.0
 40
1.0
 10
25.7030292534
 20
141.935337333
 30
0.0
 10
25.7030292534
 20
141.849064538
 30
0.0
 10
25.7270350125
 20
141.7601424245
 30
0.0
 10
25.7700140008
 20
141.685337333
 30
0.0
  0
SPLINE
  5
4F1
100
AcDbEntity
  8
0
100
AcDbSpline
 62
7
  6
CONTINUOUS
 70
0
 71
3
 72
8
 73
4
 74
0
 42
0.0000001
 43
0.0000001
 44
0.0000000001
 40
0.0
 40
0.0
 40
0.0
 40
0.0
 40
1.0
 40
1.0
 40
1.0
 40
1.0
 10
25.7700140008
 20
141.685337333
 30
0.0
 10
25.8129922806
 20
141.6105334749
 30
0.0
 10
25.8782172899
 20
141.5453053716
 30
0.0
 10
25.9530197342
 20
141.5023246311
 30
0.0
  0
SPLINE
  5
4F2
100
AcDbEntity
  8
0
100
AcDbSpline
 62
7
  6
CONTINUOUS
 70
0
 71
3
 72
8
 73
4
 74
0
 42
0.0000001
 43
0.0000001
 44
0.0000000001
 40
0.0
 40
0.0
 40
0.0
 40
0.0
 40
1.0
 40
1.0
 40
1.0
 40
1.0
 10
25.9530197342
 20
141.5023246311
 30
0.0
 10
26.0278209451
 20
141.4593445993
 30
0.0
 10
26.1167402648
 20
141.435337333
 30
0.0
 10
26.2030102149
 20
141.435337333
 30
0.0
  0
SPLINE
  5
4F3
100
AcDbEntity
  8
0
100
AcDbSpline
 62
7
  6
CONTINUOUS
 70
0
 71
3
 72
8
 73
4
 74
0
 42
0.0000001
 43
0.0000001
 44
0.0000000001
 40
0.0
 40
0.0
 40
0.0
 40
0.0
 40
1.0
 40
1.0
 40
1.0
 40
1.0
 10
26.3027532928
 20
141.435337333
 30
0.0
 10
26.2186233127
 20
141.435337333
 30
0.0
 10
26.1320287382
 20
141.4580962669
 30
0.0
 10
26.0585355081
 20
141.4990425572
 30
0.0
  0
SPLINE
  5
4F4
100
AcDbEntity
  8
0
100
AcDbSpline
 62
7
  6
CONTINUOUS
 70
0
 71
3
 72
9
 73
5
 74
0
 42
0.0000001
 43
0.0000001
 44
0.0000000001
 40
0.0
 40
0.0
 40
0.0
 40
0.0
 40
0.4997908636
 40
1.0
 40
1.0
 40
1.0
 40
1.0
 10
26.0585355081
 20
141.4990425572
 30
0.0
 10
25.9822704205
 20
141.5415331705
 30
0.0
 10
25.8503914289
 20
141.67013647
 30
0.0
 10
25.8027723313
 20
141.847961258
 30
0.0
 10
25.8027723313
 20
141.935337333
 30
0.0
  0
SPLINE
  5
4F5
100
AcDbEntity
  8
0
100
AcDbSpline
 62
7
  6
CONTINUOUS
 70
0
 71
3
 72
9
 73
5
 74
0
 42
0.0000001
 43
0.0000001
 44
0.0000000001
 40
0.0
 40
0.0
 40
0.0
 40
0.0
 40
0.5187400134
 40
1.0
 40
1.0
 40
1.0
 40
1.0
 10
99.5662581748
 20
196.6603316864
 30
0.0
 10
99.5515622091
 20
196.7289424076
 30
0.0
 10
99.4994732317
 20
196.8580802026
 30
0.0
 10
99.3976959676
 20
196.9546580732
 30
0.0
 10
99.3415323709
 20
196.9875716421
 30
0.0
  0
SPLINE
  5
4F6
100
AcDbEntity
  8
0
100
AcDbSpline
 62
7
  6
CONTINUOUS
 70
0
 71
3
 72
9
 73
5
 74
0
 42
0.0000001
 43
0.0000001
 44
0.0000000001
 40
0.0
 40
0.0
 40
0.0
 40
0.0
 40
0.2568151275
 40
1.0
 40
1.0
 40
1.0
 40
1.0
 10
99.3415323709
 20
196.9875716421
 30
0.0
 10
99.3258695237
 20
196.9967505449
 30
0.0
 10
99.2627714751
 20
197.0286435583
 30
0.0
 10
99.1907472736
 20
197.0438703831
 30
0.0
 10
99.138230377
 20
197.0424639643
 30
0.0
  0
SPLINE
  5
4F7
100
AcDbEntity
  8
0
100
AcDbSpline
 62
7
  6
CONTINUOUS
 70
0
 71
3
 72
9
 73
5
 74
0
 42
0.0000001
 43
0.0000001
 44
0.0000000001
 40
0.0
 40
0.0
 40
0.0
 40
0.0
 40
0.1860494594
 40
1.0
 40
1.0
 40
1.0
 40
1.0
 10
88.494216833
 20
197.0353372187
 30
0.0
 10
88.4692515573
 20
197.0352951931
 30
0.0
 10
88.3350859065
 20
197.0321448936
 30
0.0
 10
88.2008867964
 20
197.035337333
 30
0.0
 10
88.0916656868
 20
197.035337333
 30
0.0
  0
SPLINE
  5
4F8
100
AcDbEntity
  8
0
100
AcDbSpline
 62
7
  6
CONTINUOUS
 70
0
 71
3
 72
9
 73
5
 74
0
 42
0.0000001
 43
0.0000001
 44
0.0000000001
 40
0.0
 40
0.0
 40
0.0
 40
0.0
 40
0.4836764312
 40
1.0
 40
1.0
 40
1.0
 40
1.0
 10
87.4542672712
 20
197.0384708749
 30
0.0
 10
87.390447259
 20
197.0401799934
 30
0.0
 10
87.2555703369
 20
197.0071916384
 30
0.0
 10
87.1548698684
 20
196.9132816698
 30
0.0
 10
87.1158530617
 20
196.8574031868
 30
0.0
  0
SPLINE
  5
4F9
100
AcDbEntity
  8
0
100
AcDbSpline
 62
7
  6
CONTINUOUS
 70
0
 71
3
 72
8
 73
4
 74
0
 42
0.0000001
 43
0.0000001
 44
0.0000000001
 40
0.0
 40
0.0
 40
0.0
 40
0.0
 40
1.0
 40
1.0
 40
1.0
 40
1.0
 10
87.1158530617
 20
196.8574031868
 30
0.0
 10
87.0749449467
 20
196.7988160393
 30
0.0
 10
87.0464615465
 20
196.7302026361
 30
0.0
 10
87.0314956481
 20
196.6603316865
 30
0.0
  0
SPLINE
  5
4FA
100
AcDbEntity
  8
0
100
AcDbSpline
 62
7
  6
CONTINUOUS
 70
0
 71
3
 72
9
 73
5
 74
0
 42
0.0000001
 43
0.0000001
 44
0.0000000001
 40
0.0
 40
0.0
 40
0.0
 40
0.0
 40
0.4999958779
 40
1.0
 40
1.0
 40
1.0
 40
1.0
 10
160.3947436079
 20
141.435337333
 30
0.0
 10
160.481013558
 20
141.435337333
 30
0.0
 10
160.6565831314
 20
141.4817153026
 30
0.0
 10
160.7847615422
 20
141.6105334749
 30
0.0
 10
160.827739822
 20
141.685337333
 30
0.0
  0
SPLINE
  5
4FB
100
AcDbEntity
  8
0
100
AcDbSpline
 62
7
  6
CONTINUOUS
 70
0
 71
3
 72
8
 73
4
 74
0
 42
0.0000001
 43
0.0000001
 44
0.0000000001
 40
0.0
 40
0.0
 40
0.0
 40
0.0
 40
1.0
 40
1.0
 40
1.0
 40
1.0
 10
160.827739822
 20
141.685337333
 30
0.0
 10
160.8707188103
 20
141.7601424245
 30
0.0
 10
160.8947245694
 20
141.849064538
 30
0.0
 10
160.8947245694
 20
141.935337333
 30
0.0
  0
SPLINE
  5
4FC
100
AcDbEntity
  8
0
100
AcDbSpline
 62
7
  6
CONTINUOUS
 70
0
 71
3
 72
10
 73
6
 74
0
 42
0.0000001
 43
0.0000001
 44
0.0000000001
 40
0.0
 40
0.0
 40
0.0
 40
0.0
 40
0.4510036055
 40
0.7170503622
 40
1.0
 40
1.0
 40
1.0
 40
1.0
 10
114.0365730397
 20
243.435337333
 30
0.0
 10
114.1550310278
 20
243.435337333
 30
0.0
 10
114.3511357913
 20
243.3670098026
 30
0.0
 10
114.5181366819
 20
243.1560277712
 30
0.0
 10
114.5527311712
 20
243.0096552418
 30
0.0
 10
114.5527311712
 20
242.935337333
 30
0.0
  0
SPLINE
  5
4FD
100
AcDbEntity
  8
0
100
AcDbSpline
 62
7
  6
CONTINUOUS
 70
0
 71
3
 72
8
 73
4
 74
0
 42
0.0000001
 43
0.0000001
 44
0.0000000001
 40
0.0
 40
0.0
 40
0.0
 40
0.0
 40
1.0
 40
1.0
 40
1.0
 40
1.0
 10
114.006543983
 20
243.1767558913
 30
0.0
 10
114.0466565211
 20
243.1039874463
 30
0.0
 10
114.0686361761
 20
243.0184292237
 30
0.0
 10
114.0686361761
 20
242.935337333
 30
0.0
  0
SPLINE
  5
4FE
100
AcDbEntity
  8
0
100
AcDbSpline
 62
7
  6
CONTINUOUS
 70
0
 71
3
 72
12
 73
8
 74
0
 42
0.0000001
 43
0.0000001
 44
0.0000000001
 40
0.0
 40
0.0
 40
0.0
 40
0.0
 40
0.3726579954
 40
0.6886264315
 40
0.9014023386
 40
0.9635804029
 40
1.0
 40
1.0
 40
1.0
 40
1.0
 10
123.6988769113
 20
175.1761855104
 30
0.0
 10
123.6217227257
 20
175.1761858972
 30
0.0
 10
123.478915559
 20
175.1810177406
 30
0.0
 10
123.293724146
 20
175.1992280763
 30
0.0
 10
123.1722670296
 20
175.2253026391
 30
0.0
 10
123.1140441545
 20
175.25081831
 30
0.0
 10
123.0989076598
 20
175.2686488833
 30
0.0
 10
123.0988769187
 20
175.2761890436
 30
0.0
  0
SPLINE
  5
4FF
100
AcDbEntity
  8
0
100
AcDbSpline
 62
7
  6
CONTINUOUS
 70
0
 71
3
 72
16
 73
12
 74
0
 42
0.0000001
 43
0.0000001
 44
0.0000000001
 40
0.0
 40
0.0
 40
0.0
 40
0.0
 40
0.3702642138
 40
0.5491100821
 40
0.7070323048
 40
0.8333787555
 40
0.9250827495
 40
0.9575795717
 40
0.9809806367
 40
0.9951483765
 40
1.0
 40
1.0
 40
1.0
 40
1.0
 10
112.5531922782
 20
47.0236315466
 30
0.0
 10
112.6025507597
 20
47.0225871712
 30
0.0
 10
112.6757641551
 20
47.0212142869
 30
0.0
 10
112.7700018974
 20
47.0198092498
 30
0.0
 10
112.8318071714
 20
47.0190391836
 30
0.0
 10
112.8817759496
 20
47.0188119065
 30
0.0
 10
112.9155248259
 20
47.0186299419
 30
0.0
 10
112.9347391108
 20
47.0191615727
 30
0.0
 10
112.9448550122
 20
47.0189201604
 30
0.0
 10
112.9491179806
 20
47.020035992
 30
0.0
 10
112.9531046598
 20
47.0194097497
 30
0.0
 10
112.9531046598
 20
47.0200566455
 30
0.0
  0
SPLINE
  5
500
100
AcDbEntity
  8
0
100
AcDbSpline
 62
7
  6
CONTINUOUS
 70
0
 71
3
 72
12
 73
8
 74
0
 42
0.0000001
 43
0.0000001
 44
0.0000000001
 40
0.0
 40
0.0
 40
0.0
 40
0.0
 40
0.3712629585
 40
0.6868103568
 40
0.9013910225
 40
0.9633597242
 40
1.0
 40
1.0
 40
1.0
 40
1.0
 10
152.8988769114
 20
175.1762036713
 30
0.0
 10
152.9757614574
 20
175.1751776061
 30
0.0
 10
153.1182156587
 20
175.1811525243
 30
0.0
 10
153.3036032145
 20
175.1993164837
 30
0.0
 10
153.4250133688
 20
175.2253382438
 30
0.0
 10
153.4841683675
 20
175.2504631718
 30
0.0
 10
153.4988769114
 20
175.2686151819
 30
0.0
 10
153.4988769114
 20
175.2762036627
 30
0.0
  0
SPLINE
  5
501
100
AcDbEntity
  8
0
100
AcDbSpline
 62
7
  6
CONTINUOUS
 70
0
 71
3
 72
16
 73
12
 74
0
 42
0.0000001
 43
0.0000001
 44
0.0000000001
 40
0.0
 40
0.0
 40
0.0
 40
0.0
 40
0.0048516856
 40
0.0190196121
 40
0.0424209736
 40
0.0749181886
 40
0.1666232046
 40
0.292970905
 40
0.450894115
 40
0.6297400328
 40
1.0
 40
1.0
 40
1.0
 40
1.0
 10
108.6447285889
 20
47.0157732611
 30
0.0
 10
108.6447285888
 20
47.0151263389
 30
0.0
 10
108.6487154365
 20
47.0157526277
 30
0.0
 10
108.6529785755
 20
47.0146367448
 30
0.0
 10
108.6630948894
 20
47.0148781831
 30
0.0
 10
108.6823099348
 20
47.0143465406
 30
0.0
 10
108.7160601172
 20
47.014528532
 30
0.0
 10
108.7660307291
 20
47.014755838
 30
0.0
 10
108.8278380412
 20
47.0155259517
 30
0.0
 10
108.9220779976
 20
47.0169310494
 30
0.0
 10
108.9952928859
 20
47.0183039807
 30
0.0
 10
109.044652185
 20
47.0193483922
 30
0.0
  0
SPLINE
  5
502
100
AcDbEntity
  8
0
100
AcDbSpline
 62
7
  6
CONTINUOUS
 70
0
 71
3
 72
9
 73
5
 74
0
 42
0.0000001
 43
0.0000001
 44
0.0000000001
 40
0.0
 40
0.0
 40
0.0
 40
0.0
 40
0.5135664937
 40
1.0
 40
1.0
 40
1.0
 40
1.0
 10
109.7158319599
 20
46.4316855186
 30
0.0
 10
109.5512451223
 20
46.4316912068
 30
0.0
 10
109.2172580145
 20
46.5405355669
 30
0.0
 10
109.0479452136
 20
46.8634729183
 30
0.0
 10
109.044638437
 20
47.0193291507
 30
0.0
  0
SPLINE
  5
503
100
AcDbEntity
  8
0
100
AcDbSpline
 62
7
  6
CONTINUOUS
 70
0
 71
3
 72
9
 73
5
 74
0
 42
0.0000001
 43
0.0000001
 44
0.0000000001
 40
0.0
 40
0.0
 40
0.0
 40
0.0
 40
0.4868132397
 40
1.0
 40
1.0
 40
1.0
 40
1.0
 10
112.5531976299
 20
47.023613624
 30
0.0
 10
112.5498622185
 20
46.8669822747
 30
0.0
 10
112.3835331219
 20
46.5410337766
 30
0.0
 10
112.0471173511
 20
46.4316846293
 30
0.0
 10
111.8819629325
 20
46.4316827003
 30
0.0
  0
SPLINE
  5
504
100
AcDbEntity
  8
0
100
AcDbSpline
 62
7
  6
CONTINUOUS
 70
0
 71
3
 72
10
 73
6
 74
0
 42
0.0000001
 43
0.0000001
 44
0.0000000001
 40
0.0
 40
0.0
 40
0.0
 40
0.0
 40
0.2501022585
 40
0.6249957926
 40
1.0
 40
1.0
 40
1.0
 40
1.0
 10
25.2230475303
 20
243.4353373329
 30
0.0
 10
25.2368407125
 20
243.3867909705
 30
0.0
 10
25.2658517783
 20
243.263609505
 30
0.0
 10
25.2787832835
 20
243.0617033572
 30
0.0
 10
25.2893263502
 20
242.9108793805
 30
0.0
 10
25.2937529678
 20
242.835337333
 30
0.0
  0
SPLINE
  5
505
100
AcDbEntity
  8
0
100
AcDbSpline
 62
7
  6
CONTINUOUS
 70
0
 71
3
 72
8
 73
4
 74
0
 42
0.0000001
 43
0.0000001
 44
0.0000000001
 40
0.0
 40
0.0
 40
0.0
 40
0.0
 40
1.0
 40
1.0
 40
1.0
 40
1.0
 10
69.0065439829
 20
243.1767558913
 30
0.0
 10
69.0466565211
 20
243.1039874463
 30
0.0
 10
69.0686361761
 20
243.0184292237
 30
0.0
 10
69.0686361761
 20
242.935337333
 30
0.0
  0
SPLINE
  5
506
100
AcDbEntity
  8
0
100
AcDbSpline
 62
7
  6
CONTINUOUS
 70
0
 71
3
 72
16
 73
12
 74
0
 42
0.0000001
 43
0.0000001
 44
0.0000000001
 40
0.0
 40
0.0
 40
0.0
 40
0.0
 40
0.0048516855
 40
0.0190196121
 40
0.0424209736
 40
0.0749181886
 40
0.1666232047
 40
0.292970905
 40
0.450894115
 40
0.6297400328
 40
1.0
 40
1.0
 40
1.0
 40
1.0
 10
73.6447285889
 20
47.0157732611
 30
0.0
 10
73.6447285888
 20
47.0151263389
 30
0.0
 10
73.6487154365
 20
47.0157526277
 30
0.0
 10
73.6529785755
 20
47.0146367448
 30
0.0
 10
73.6630948894
 20
47.0148781831
 30
0.0
 10
73.6823099348
 20
47.0143465406
 30
0.0
 10
73.7160601172
 20
47.014528532
 30
0.0
 10
73.7660307291
 20
47.014755838
 30
0.0
 10
73.8278380412
 20
47.0155259517
 30
0.0
 10
73.9220779976
 20
47.0169310495
 30
0.0
 10
73.9952928859
 20
47.0183039807
 30
0.0
 10
74.044652185
 20
47.0193483922
 30
0.0
  0
SPLINE
  5
507
100
AcDbEntity
  8
0
100
AcDbSpline
 62
7
  6
CONTINUOUS
 70
0
 71
3
 72
12
 73
8
 74
0
 42
0.0000001
 43
0.0000001
 44
0.0000000001
 40
0.0
 40
0.0
 40
0.0
 40
0.0
 40
0.3726579954
 40
0.6886264315
 40
0.9014023386
 40
0.9635804029
 40
1.0
 40
1.0
 40
1.0
 40
1.0
 10
33.6988769113
 20
175.1761855104
 30
0.0
 10
33.6217227257
 20
175.1761858972
 30
0.0
 10
33.478915559
 20
175.1810177406
 30
0.0
 10
33.2937241459
 20
175.1992280763
 30
0.0
 10
33.1722670296
 20
175.2253026391
 30
0.0
 10
33.1140441545
 20
175.25081831
 30
0.0
 10
33.0989076598
 20
175.2686488833
 30
0.0
 10
33.0988769187
 20
175.2761890436
 30
0.0
  0
SPLINE
  5
508
100
AcDbEntity
  8
0
100
AcDbSpline
 62
7
  6
CONTINUOUS
 70
0
 71
3
 72
12
 73
8
 74
0
 42
0.0000001
 43
0.0000001
 44
0.0000000001
 40
0.0
 40
0.0
 40
0.0
 40
0.0
 40
0.3712629585
 40
0.6868103568
 40
0.9013910225
 40
0.9633597242
 40
1.0
 40
1.0
 40
1.0
 40
1.0
 10
33.6988769114
 20
183.3353373242
 30
0.0
 10
33.6219923654
 20
183.3363633893
 30
0.0
 10
33.4795381641
 20
183.3303884711
 30
0.0
 10
33.2941506083
 20
183.3122245118
 30
0.0
 10
33.172740454
 20
183.2862027517
 30
0.0
 10
33.1135854553
 20
183.2610778236
 30
0.0
 10
33.0988769114
 20
183.2429258135
 30
0.0
 10
33.0988769114
 20
183.2353373327
 30
0.0
  0
SPLINE
  5
509
100
AcDbEntity
  8
0
100
AcDbSpline
 62
7
  6
CONTINUOUS
 70
0
 71
3
 72
12
 73
8
 74
0
 42
0.0000001
 43
0.0000001
 44
0.0000000001
 40
0.0
 40
0.0
 40
0.0
 40
0.0
 40
0.3726579954
 40
0.6886264315
 40
0.9014023386
 40
0.9635804029
 40
1.0
 40
1.0
 40
1.0
 40
1.0
 10
62.8988769115
 20
183.335355485
 30
0.0
 10
62.9760310971
 20
183.3353550983
 30
0.0
 10
63.1188382638
 20
183.3305232548
 30
0.0
 10
63.3040296769
 20
183.3123129192
 30
0.0
 10
63.4254867932
 20
183.2862383563
 30
0.0
 10
63.4837096683
 20
183.2607226854
 30
0.0
 10
63.498846163
 20
183.2428921121
 30
0.0
 10
63.4988769041
 20
183.2353519519
 30
0.0
  0
SPLINE
  5
50A
100
AcDbEntity
  8
0
100
AcDbSpline
 62
7
  6
CONTINUOUS
 70
0
 71
3
 72
12
 73
8
 74
0
 42
0.0000001
 43
0.0000001
 44
0.0000000001
 40
0.0
 40
0.0
 40
0.0
 40
0.0
 40
0.3712629585
 40
0.6868103568
 40
0.9013910225
 40
0.9633597242
 40
1.0
 40
1.0
 40
1.0
 40
1.0
 10
62.8988769114
 20
175.1762036713
 30
0.0
 10
62.9757614574
 20
175.1751776061
 30
0.0
 10
63.1182156587
 20
175.1811525243
 30
0.0
 10
63.3036032145
 20
175.1993164837
 30
0.0
 10
63.4250133688
 20
175.2253382438
 30
0.0
 10
63.4841683675
 20
175.2504631718
 30
0.0
 10
63.4988769114
 20
175.2686151819
 30
0.0
 10
63.4988769114
 20
175.2762036627
 30
0.0
  0
SPLINE
  5
50B
100
AcDbEntity
  8
0
100
AcDbSpline
 62
7
  6
CONTINUOUS
 70
0
 71
3
 72
10
 73
6
 74
0
 42
0.0000001
 43
0.0000001
 44
0.0000000001
 40
0.0
 40
0.0
 40
0.0
 40
0.0
 40
0.2826371843
 40
0.5485917815
 40
1.0
 40
1.0
 40
1.0
 40
1.0
 10
72.0450226516
 20
242.935337333
 30
0.0
 10
72.0450226516
 20
243.009570894
 30
0.0
 10
72.0795578476
 20
243.1558257006
 30
0.0
 10
72.2464285382
 20
243.3668873667
 30
0.0
 10
72.4426201641
 20
243.435337333
 30
0.0
 10
72.5611807831
 20
243.435337333
 30
0.0
  0
SPLINE
  5
50C
100
AcDbEntity
  8
0
100
AcDbSpline
 62
7
  6
CONTINUOUS
 70
0
 71
3
 72
9
 73
5
 74
0
 42
0.0000001
 43
0.0000001
 44
0.0000000001
 40
0.0
 40
0.0
 40
0.0
 40
0.0
 40
0.5135664938
 40
1.0
 40
1.0
 40
1.0
 40
1.0
 10
74.7158319598
 20
46.4316855198
 30
0.0
 10
74.5512451224
 20
46.431691208
 30
0.0
 10
74.2172579148
 20
46.5405355659
 30
0.0
 10
74.0479454046
 20
46.8634729231
 30
0.0
 10
74.0446384382
 20
47.0193291513
 30
0.0
  0
SPLINE
  5
50D
100
AcDbEntity
  8
0
100
AcDbSpline
 62
7
  6
CONTINUOUS
 70
0
 71
3
 72
9
 73
5
 74
0
 42
0.0000001
 43
0.0000001
 44
0.0000000001
 40
0.0
 40
0.0
 40
0.0
 40
0.0
 40
0.4868132396
 40
1.0
 40
1.0
 40
1.0
 40
1.0
 10
77.5531976298
 20
47.023613624
 30
0.0
 10
77.5498622184
 20
46.8669822748
 30
0.0
 10
77.3835331217
 20
46.5410337767
 30
0.0
 10
77.047117351
 20
46.4316846294
 30
0.0
 10
76.8819629325
 20
46.4316827004
 30
0.0
  0
SPLINE
  5
50E
100
AcDbEntity
  8
0
100
AcDbSpline
 62
7
  6
CONTINUOUS
 70
0
 71
3
 72
9
 73
5
 74
0
 42
0.0000001
 43
0.0000001
 44
0.0000000001
 40
0.0
 40
0.0
 40
0.0
 40
0.0
 40
0.5652905943
 40
1.0
 40
1.0
 40
1.0
 40
1.0
 10
31.4203662574
 20
141.935337333
 30
0.0
 10
31.5060648577
 20
141.84818194
 30
0.0
 10
31.6577509077
 20
141.6941168097
 30
0.0
 10
31.8098430277
 20
141.5403481019
 30
0.0
 10
31.8737273804
 20
141.471399238
 30
0.0
  0
SPLINE
  5
50F
100
AcDbEntity
  8
0
100
AcDbSpline
 62
7
  6
CONTINUOUS
 70
0
 71
3
 72
16
 73
12
 74
0
 42
0.0000001
 43
0.0000001
 44
0.0000000001
 40
0.0
 40
0.0
 40
0.0
 40
0.0
 40
0.3702642139
 40
0.5491100822
 40
0.7070323049
 40
0.8333787556
 40
0.9250827496
 40
0.9575795718
 40
0.9809806367
 40
0.9951483765
 40
1.0
 40
1.0
 40
1.0
 40
1.0
 10
77.5531922782
 20
47.0236315465
 30
0.0
 10
77.6025507597
 20
47.0225871712
 30
0.0
 10
77.6757641551
 20
47.0212142869
 30
0.0
 10
77.7700018974
 20
47.0198092497
 30
0.0
 10
77.8318071715
 20
47.0190391836
 30
0.0
 10
77.8817759496
 20
47.0188119065
 30
0.0
 10
77.915524826
 20
47.0186299419
 30
0.0
 10
77.9347391108
 20
47.0191615727
 30
0.0
 10
77.9448550123
 20
47.0189201604
 30
0.0
 10
77.9491179806
 20
47.020035992
 30
0.0
 10
77.9531046598
 20
47.0194097497
 30
0.0
 10
77.9531046598
 20
47.0200566455
 30
0.0
  0
SPLINE
  5
510
100
AcDbEntity
  8
0
100
AcDbSpline
 62
7
  6
CONTINUOUS
 70
0
 71
3
 72
10
 73
6
 74
0
 42
0.0000001
 43
0.0000001
 44
0.0000000001
 40
0.0
 40
0.0
 40
0.0
 40
0.0
 40
0.1173971737
 40
0.3161329614
 40
1.0
 40
1.0
 40
1.0
 40
1.0
 10
25.8027611799
 20
242.8352046765
 30
0.0
 10
25.8030400115
 20
242.8431292174
 30
0.0
 10
25.8188523892
 20
242.8616089931
 30
0.0
 10
25.880534902
 20
242.8872737333
 30
0.0
 10
25.9398652895
 20
242.899846386
 30
0.0
 10
25.9854571537
 20
242.9072615745
 30
0.0
  0
SPLINE
  5
511
100
AcDbEntity
  8
0
100
AcDbSpline
 62
7
  6
CONTINUOUS
 70
0
 71
3
 72
9
 73
5
 74
0
 42
0.0000001
 43
0.0000001
 44
0.0000000001
 40
0.0
 40
0.0
 40
0.0
 40
0.0
 40
0.216409473
 40
1.0
 40
1.0
 40
1.0
 40
1.0
 10
25.9854571537
 20
242.9072615745
 30
0.0
 10
26.0152532687
 20
242.912107698
 30
0.0
 10
26.1536824494
 20
242.9298114008
 30
0.0
 10
26.2934439164
 20
242.9352257507
 30
0.0
 10
26.4027493601
 20
242.9353373369
 30
0.0
  0
SPLINE
  5
512
100
AcDbEntity
  8
0
100
AcDbSpline
 62
7
  6
CONTINUOUS
 70
0
 71
3
 72
9
 73
5
 74
0
 42
0.0000001
 43
0.0000001
 44
0.0000000001
 40
0.0
 40
0.0
 40
0.0
 40
0.0
 40
0.5101757371
 40
1.0
 40
1.0
 40
1.0
 40
1.0
 10
41.8179488604
 20
196.535337333
 30
0.0
 10
41.8179488604
 20
196.6211038307
 30
0.0
 10
41.8578142613
 20
196.7918875709
 30
0.0
 10
41.9754530312
 20
196.924088693
 30
0.0
 10
42.0450415071
 20
196.9681133706
 30
0.0
  0
SPLINE
  5
513
100
AcDbEntity
  8
0
100
AcDbSpline
 62
7
  6
CONTINUOUS
 70
0
 71
3
 72
9
 73
5
 74
0
 42
0.0000001
 43
0.0000001
 44
0.0000000001
 40
0.0
 40
0.0
 40
0.0
 40
0.0
 40
0.2548330968
 40
1.0
 40
1.0
 40
1.0
 40
1.0
 10
42.0450415071
 20
196.9681133706
 30
0.0
 10
42.0622342516
 20
196.9789902439
 30
0.0
 10
42.1325515571
 20
197.0169560891
 30
0.0
 10
42.2135980467
 20
197.035337333
 30
0.0
 10
42.2730880206
 20
197.035337333
 30
0.0
  0
SPLINE
  5
514
100
AcDbEntity
  8
0
100
AcDbSpline
 62
7
  6
CONTINUOUS
 70
0
 71
3
 72
9
 73
5
 74
0
 42
0.0000001
 43
0.0000001
 44
0.0000000001
 40
0.0
 40
0.0
 40
0.0
 40
0.0
 40
0.4824493065
 40
1.0
 40
1.0
 40
1.0
 40
1.0
 10
43.4653074883
 20
197.0192663161
 30
0.0
 10
43.4156269321
 20
197.006659816
 30
0.0
 10
43.3143573701
 20
196.9643268417
 30
0.0
 10
43.2444851118
 20
196.8792716151
 30
0.0
 10
43.2160501488
 20
196.8322108446
 30
0.0
  0
SPLINE
  5
515
100
AcDbEntity
  8
0
100
AcDbSpline
 62
7
  6
CONTINUOUS
 70
0
 71
3
 72
8
 73
4
 74
0
 42
0.0000001
 43
0.0000001
 44
0.0000000001
 40
0.0
 40
0.0
 40
0.0
 40
0.0
 40
1.0
 40
1.0
 40
1.0
 40
1.0
 10
43.2160501488
 20
196.8322108446
 30
0.0
 10
43.1841954895
 20
196.7794903674
 30
0.0
 10
43.1610905132
 20
196.7205623429
 30
0.0
 10
43.1481895023
 20
196.6603316866
 30
0.0
  0
SPLINE
  5
516
100
AcDbEntity
  8
0
100
AcDbSpline
 62
7
  6
CONTINUOUS
 70
0
 71
3
 72
9
 73
5
 74
0
 42
0.0000001
 43
0.0000001
 44
0.0000000001
 40
0.0
 40
0.0
 40
0.0
 40
0.0
 40
0.5121023761
 40
1.0
 40
1.0
 40
1.0
 40
1.0
 10
43.1933671733
 20
196.535337333
 30
0.0
 10
43.1933671733
 20
196.6032301328
 30
0.0
 10
43.2146106695
 20
196.7380943934
 30
0.0
 10
43.2874053645
 20
196.8522865099
 30
0.0
 10
43.3281040488
 20
196.9025618827
 30
0.0
  0
SPLINE
  5
517
100
AcDbEntity
  8
0
100
AcDbSpline
 62
7
  6
CONTINUOUS
 70
0
 71
3
 72
9
 73
5
 74
0
 42
0.0000001
 43
0.0000001
 44
0.0000000001
 40
0.0
 40
0.0
 40
0.0
 40
0.0
 40
0.2612117705
 40
1.0
 40
1.0
 40
1.0
 40
1.0
 10
43.3281040488
 20
196.9025618827
 30
0.0
 10
43.3380138626
 20
196.9148035458
 30
0.0
 10
43.3769689223
 20
196.9604932013
 30
0.0
 10
43.4244245087
 20
197.0015767312
 30
0.0
 10
43.4653074883
 20
197.0192663161
 30
0.0
  0
SPLINE
  5
518
100
AcDbEntity
  8
0
100
AcDbSpline
 62
7
  6
CONTINUOUS
 70
0
 71
3
 72
9
 73
5
 74
0
 42
0.0000001
 43
0.0000001
 44
0.0000000001
 40
0.0
 40
0.0
 40
0.0
 40
0.0
 40
0.681995443
 40
1.0
 40
1.0
 40
1.0
 40
1.0
 10
43.4640624987
 20
197.0246134497
 30
0.0
 10
43.4704450377
 20
197.0281519312
 30
0.0
 10
43.4731820699
 20
197.0316181188
 30
0.0
 10
43.4976187092
 20
197.0354186517
 30
0.0
 10
43.494216833
 20
197.0353372187
 30
0.0
  0
SPLINE
  5
519
100
AcDbEntity
  8
0
100
AcDbSpline
 62
7
  6
CONTINUOUS
 70
0
 71
3
 72
9
 73
5
 74
0
 42
0.0000001
 43
0.0000001
 44
0.0000000001
 40
0.0
 40
0.0
 40
0.0
 40
0.0
 40
0.4848811378
 40
1.0
 40
1.0
 40
1.0
 40
1.0
 10
53.1322415895
 20
197.0196306847
 30
0.0
 10
53.1882577768
 20
196.9954450152
 30
0.0
 10
53.279438706
 20
196.9003559853
 30
0.0
 10
53.3475507499
 20
196.7938787439
 30
0.0
 10
53.3701831349
 20
196.7331389438
 30
0.0
  0
SPLINE
  5
51A
100
AcDbEntity
  8
0
100
AcDbSpline
 62
7
  6
CONTINUOUS
 70
0
 71
3
 72
8
 73
4
 74
0
 42
0.0000001
 43
0.0000001
 44
0.0000000001
 40
0.0
 40
0.0
 40
0.0
 40
0.0
 40
1.0
 40
1.0
 40
1.0
 40
1.0
 10
53.3701831349
 20
196.7331389438
 30
0.0
 10
53.3935463121
 20
196.6704378759
 30
0.0
 10
53.4043866496
 20
196.6022496784
 30
0.0
 10
53.4043866496
 20
196.535337333
 30
0.0
  0
SPLINE
  5
51B
100
AcDbEntity
  8
0
100
AcDbSpline
 62
7
  6
CONTINUOUS
 70
0
 71
3
 72
9
 73
5
 74
0
 42
0.0000001
 43
0.0000001
 44
0.0000000001
 40
0.0
 40
0.0
 40
0.0
 40
0.0
 40
0.2621785557
 40
1.0
 40
1.0
 40
1.0
 40
1.0
 10
53.4495643206
 20
196.6603316865
 30
0.0
 10
53.4430803926
 20
196.6906030535
 30
0.0
 10
53.4089813303
 20
196.803345827
 30
0.0
 10
53.3384923419
 20
196.9090271868
 30
0.0
 10
53.2675079179
 20
196.9595387606
 30
0.0
  0
SPLINE
  5
51C
100
AcDbEntity
  8
0
100
AcDbSpline
 62
7
  6
CONTINUOUS
 70
0
 71
3
 72
8
 73
4
 74
0
 42
0.0000001
 43
0.0000001
 44
0.0000000001
 40
0.0
 40
0.0
 40
0.0
 40
0.0
 40
1.0
 40
1.0
 40
1.0
 40
1.0
 10
53.2675079179
 20
196.9595387606
 30
0.0
 10
53.2465789007
 20
196.9744315714
 30
0.0
 10
53.2237714515
 20
196.9868818447
 30
0.0
 10
53.2001477433
 20
196.9969684687
 30
0.0
  0
SPLINE
  5
51D
100
AcDbEntity
  8
0
100
AcDbSpline
 62
7
  6
CONTINUOUS
 70
0
 71
3
 72
8
 73
4
 74
0
 42
0.0000001
 43
0.0000001
 44
0.0000000001
 40
0.0
 40
0.0
 40
0.0
 40
0.0
 40
1.0
 40
1.0
 40
1.0
 40
1.0
 10
53.2001477433
 20
196.9969684687
 30
0.0
 10
53.1782018329
 20
197.0063387227
 30
0.0
 10
53.1553756066
 20
197.0137790275
 30
0.0
 10
53.1322415895
 20
197.0196306847
 30
0.0
  0
SPLINE
  5
51E
100
AcDbEntity
  8
0
100
AcDbSpline
 62
7
  6
CONTINUOUS
 70
0
 71
3
 72
9
 73
5
 74
0
 42
0.0000001
 43
0.0000001
 44
0.0000000001
 40
0.0
 40
0.0
 40
0.0
 40
0.0
 40
0.8090333345
 40
1.0
 40
1.0
 40
1.0
 40
1.0
 10
53.1334317867
 20
197.0246792411
 30
0.0
 10
53.1258156217
 20
197.0279939655
 30
0.0
 10
53.1238160335
 20
197.0291761792
 30
0.0
 10
53.1026027698
 20
197.035343128
 30
0.0
 10
53.104562503
 20
197.0354022974
 30
0.0
  0
SPLINE
  5
51F
100
AcDbEntity
  8
0
100
AcDbSpline
 62
7
  6
CONTINUOUS
 70
0
 71
3
 72
9
 73
5
 74
0
 42
0.0000001
 43
0.0000001
 44
0.0000000001
 40
0.0
 40
0.0
 40
0.0
 40
0.0
 40
0.5101807969
 40
1.0
 40
1.0
 40
1.0
 40
1.0
 10
54.7798052374
 20
196.535337333
 30
0.0
 10
54.7798052374
 20
196.6211452109
 30
0.0
 10
54.7399004273
 20
196.7920126692
 30
0.0
 10
54.6221496366
 20
196.9242392595
 30
0.0
 10
54.5525053698
 20
196.9682469192
 30
0.0
  0
SPLINE
  5
520
100
AcDbEntity
  8
0
100
AcDbSpline
 62
7
  6
CONTINUOUS
 70
0
 71
3
 72
9
 73
5
 74
0
 42
0.0000001
 43
0.0000001
 44
0.0000000001
 40
0.0
 40
0.0
 40
0.0
 40
0.0
 40
0.2548262601
 40
1.0
 40
1.0
 40
1.0
 40
1.0
 10
54.5525053698
 20
196.9682469192
 30
0.0
 10
54.5353245902
 20
196.9791033176
 30
0.0
 10
54.4650599211
 20
197.016997075
 30
0.0
 10
54.384096608
 20
197.035337333
 30
0.0
 10
54.3246660622
 20
197.035337333
 30
0.0
  0
SPLINE
  5
521
100
AcDbEntity
  8
0
100
AcDbSpline
 62
7
  6
CONTINUOUS
 70
0
 71
3
 72
10
 73
6
 74
0
 42
0.0000001
 43
0.0000001
 44
0.0000000001
 40
0.0
 40
0.0
 40
0.0
 40
0.0
 40
0.4510036055
 40
0.7170503622
 40
1.0
 40
1.0
 40
1.0
 40
1.0
 10
69.03657304
 20
243.435337333
 30
0.0
 10
69.155031028
 20
243.4353373329
 30
0.0
 10
69.3511357914
 20
243.3670098025
 30
0.0
 10
69.5181366819
 20
243.1560277711
 30
0.0
 10
69.5527311712
 20
243.0096552417
 30
0.0
 10
69.5527311712
 20
242.935337333
 30
0.0
  0
SPLINE
  5
522
100
AcDbEntity
  8
0
100
AcDbSpline
 62
7
  6
CONTINUOUS
 70
0
 71
3
 72
11
 73
7
 74
0
 42
0.0000001
 43
0.0000001
 44
0.0000000001
 40
0.0
 40
0.0
 40
0.0
 40
0.0
 40
0.1235450792
 40
0.3460584114
 40
0.6454344022
 40
1.0
 40
1.0
 40
1.0
 40
1.0
 10
72.6115412437
 20
141.435337333
 30
0.0
 10
72.6216645738
 20
141.435337333
 30
0.0
 10
72.6473374957
 20
141.4516453329
 30
0.0
 10
72.6897463682
 20
141.4809647221
 30
0.0
 10
72.745792519
 20
141.5268919081
 30
0.0
 10
72.7864252615
 20
141.5615585381
 30
0.0
 10
72.8083365839
 20
141.5806369185
 30
0.0
  0
SPLINE
  5
523
100
AcDbEntity
  8
0
100
AcDbSpline
 62
7
  6
CONTINUOUS
 70
0
 71
3
 72
9
 73
5
 74
0
 42
0.0000001
 43
0.0000001
 44
0.0000000001
 40
0.0
 40
0.0
 40
0.0
 40
0.0
 40
0.2312822594
 40
1.0
 40
1.0
 40
1.0
 40
1.0
 10
72.8083365839
 20
141.5806369185
 30
0.0
 10
72.8390655476
 20
141.6073928965
 30
0.0
 10
72.9705231817
 20
141.7246813703
 30
0.0
 10
73.1009105108
 20
141.843164713
 30
0.0
 10
73.2001279777
 20
141.935337333
 30
0.0
  0
SPLINE
  5
524
100
AcDbEntity
  8
0
100
AcDbSpline
 62
7
  6
CONTINUOUS
 70
0
 71
3
 72
9
 73
5
 74
0
 42
0.0000001
 43
0.0000001
 44
0.0000000001
 40
0.0
 40
0.0
 40
0.0
 40
0.0
 40
0.2620973022
 40
1.0
 40
1.0
 40
1.0
 40
1.0
 10
68.3976258452
 20
141.935337333
 30
0.0
 10
68.4314329426
 20
141.9038614544
 30
0.0
 10
68.5612195364
 20
141.7846369229
 30
0.0
 10
68.6916155665
 20
141.6660352854
 30
0.0
 10
68.7896875427
 20
141.5806306929
 30
0.0
  0
SPLINE
  5
525
100
AcDbEntity
  8
0
100
AcDbSpline
 62
7
  6
CONTINUOUS
 70
0
 71
3
 72
11
 73
7
 74
0
 42
0.0000001
 43
0.0000001
 44
0.0000000001
 40
0.0
 40
0.0
 40
0.0
 40
0.0
 40
0.3546003297
 40
0.6538496273
 40
0.8762766312
 40
1.0
 40
1.0
 40
1.0
 40
1.0
 10
68.7896875427
 20
141.5806306929
 30
0.0
 10
68.8115704955
 20
141.5615742331
 30
0.0
 10
68.8521020575
 20
141.5269099569
 30
0.0
 10
68.9079636985
 20
141.480938033
 30
0.0
 10
68.9502739509
 20
141.4515869555
 30
0.0
 10
68.9759384362
 20
141.435337333
 30
0.0
 10
68.9860628949
 20
141.435337333
 30
0.0
  0
SPLINE
  5
526
100
AcDbEntity
  8
0
100
AcDbSpline
 62
7
  6
CONTINUOUS
 70
0
 71
3
 72
10
 73
6
 74
0
 42
0.0000001
 43
0.0000001
 44
0.0000000001
 40
0.0
 40
0.0
 40
0.0
 40
0.0
 40
0.250008028
 40
0.6251464831
 40
1.0
 40
1.0
 40
1.0
 40
1.0
 10
161.3031189395
 20
242.8201911131
 30
0.0
 10
161.3061054829
 20
242.8718077841
 30
0.0
 10
161.3155845121
 20
243.0007315397
 30
0.0
 10
161.3242820658
 20
243.2075265255
 30
0.0
 10
161.3537778215
 20
243.3606940782
 30
0.0
 10
161.3747062925
 20
243.435337333
 30
0.0
  0
SPLINE
  5
527
100
AcDbEntity
  8
0
100
AcDbSpline
 62
7
  6
CONTINUOUS
 70
0
 71
3
 72
11
 73
7
 74
0
 42
0.0000001
 43
0.0000001
 44
0.0000000001
 40
0.0
 40
0.0
 40
0.0
 40
0.0
 40
0.3718428258
 40
0.6875249378
 40
0.902911429
 40
1.0
 40
1.0
 40
1.0
 40
1.0
 10
160.1950043374
 20
242.935337333
 30
0.0
 10
160.2717486881
 20
242.9350870893
 30
0.0
 10
160.4119383412
 20
242.9316875858
 30
0.0
 10
160.603777037
 20
242.9105344278
 30
0.0
 10
160.7180872098
 20
242.8884970002
 30
0.0
 10
160.7942575491
 20
242.8553949856
 30
0.0
 10
160.7949914649
 20
242.8353702894
 30
0.0
  0
SPLINE
  5
528
100
AcDbEntity
  8
0
100
AcDbSpline
 62
7
  6
CONTINUOUS
 70
0
 71
3
 72
17
 73
13
 74
0
 42
0.0000001
 43
0.0000001
 44
0.0000000001
 40
0.0
 40
0.0
 40
0.0
 40
0.0
 40
0.0074939828
 40
0.0284150848
 40
0.0615019846
 40
0.1052400399
 40
0.1579650894
 40
0.2179115283
 40
0.3540525908
 40
0.5051790915
 40
0.6656207335
 40
1.0
 40
1.0
 40
1.0
 40
1.0
 10
64.7238044887
 20
141.4354373935
 30
0.0
 10
64.7225162644
 20
141.4365873743
 30
0.0
 10
64.7302407337
 20
141.4434072264
 30
0.0
 10
64.7359530611
 20
141.4527762869
 30
0.0
 10
64.752762682
 20
141.470381005
 30
0.0
 10
64.7722461403
 20
141.4920125775
 30
0.0
 10
64.7972346666
 20
141.5183512929
 30
0.0
 10
64.8366514538
 20
141.5598350167
 30
0.0
 10
64.8921364652
 20
141.6175664642
 30
0.0
 10
64.9638384281
 20
141.6917103447
 30
0.0
 10
65.0676570173
 20
141.7983838044
 30
0.0
 10
65.1475363968
 20
141.8797485228
 30
0.0
 10
65.2008914009
 20
141.935337333
 30
0.0
  0
SPLINE
  5
529
100
AcDbEntity
  8
0
100
AcDbSpline
 62
7
  6
CONTINUOUS
 70
0
 71
3
 72
11
 73
7
 74
0
 42
0.0000001
 43
0.0000001
 44
0.0000000001
 40
0.0
 40
0.0
 40
0.0
 40
0.0
 40
0.1235442132
 40
0.3460616464
 40
0.6454383376
 40
1.0
 40
1.0
 40
1.0
 40
1.0
 10
117.6115412437
 20
141.435337333
 30
0.0
 10
117.6216666527
 20
141.435337333
 30
0.0
 10
117.6473446854
 20
141.4516503723
 30
0.0
 10
117.6897629342
 20
141.4809755451
 30
0.0
 10
117.7458221754
 20
141.526911287
 30
0.0
 10
117.786464142
 20
141.5615841433
 30
0.0
 10
117.8083801536
 20
141.5806660425
 30
0.0
  0
SPLINE
  5
52A
100
AcDbEntity
  8
0
100
AcDbSpline
 62
7
  6
CONTINUOUS
 70
0
 71
3
 72
9
 73
5
 74
0
 42
0.0000001
 43
0.0000001
 44
0.0000000001
 40
0.0
 40
0.0
 40
0.0
 40
0.0
 40
0.2312913025
 40
1.0
 40
1.0
 40
1.0
 40
1.0
 10
117.8083801536
 20
141.5806660425
 30
0.0
 10
117.8391076978
 20
141.6074199936
 30
0.0
 10
117.9705531379
 20
141.7246962322
 30
0.0
 10
118.1009214051
 20
141.8431748337
 30
0.0
 10
118.2001279777
 20
141.935337333
 30
0.0
  0
SPLINE
  5
52B
100
AcDbEntity
  8
0
100
AcDbSpline
 62
7
  6
CONTINUOUS
 70
0
 71
3
 72
9
 73
5
 74
0
 42
0.0000001
 43
0.0000001
 44
0.0000000001
 40
0.0
 40
0.0
 40
0.0
 40
0.0
 40
0.5301525938
 40
1.0
 40
1.0
 40
1.0
 40
1.0
 10
117.0450226516
 20
242.935337333
 30
0.0
 10
117.0450226516
 20
243.0461314916
 30
0.0
 10
117.1223467164
 20
243.2616356924
 30
0.0
 10
117.3089755551
 20
243.3824824398
 30
0.0
 10
117.402779845
 20
243.4115044587
 30
0.0
  0
SPLINE
  5
52C
100
AcDbEntity
  8
0
100
AcDbSpline
 62
7
  6
CONTINUOUS
 70
0
 71
3
 72
11
 73
7
 74
0
 42
0.0000001
 43
0.0000001
 44
0.0000000001
 40
0.0
 40
0.0
 40
0.0
 40
0.0
 40
0.1673289769
 40
0.4154531508
 40
0.7004983203
 40
1.0
 40
1.0
 40
1.0
 40
1.0
 10
154.7240264424
 20
141.4428729518
 30
0.0
 10
154.7613526908
 20
141.462731739
 30
0.0
 10
154.8426136019
 20
141.5308340061
 30
0.0
 10
154.9772723353
 20
141.644824493
 30
0.0
 10
155.1338534135
 20
141.7856903996
 30
0.0
 10
155.2437311683
 20
141.8843180979
 30
0.0
 10
155.2996247662
 20
141.935337333
 30
0.0
  0
SPLINE
  5
52D
100
AcDbEntity
  8
0
100
AcDbSpline
 62
7
  6
CONTINUOUS
 70
0
 71
3
 72
16
 73
12
 74
0
 42
0.0000001
 43
0.0000001
 44
0.0000000001
 40
0.0
 40
0.0
 40
0.0
 40
0.0
 40
0.0067397858
 40
0.0270375135
 40
0.0596405139
 40
0.1030601822
 40
0.215535189
 40
0.3518628657
 40
0.5034009602
 40
0.6643795611
 40
1.0
 40
1.0
 40
1.0
 40
1.0
 10
109.7238357932
 20
141.4353781493
 30
0.0
 10
109.722405568
 20
141.4359837576
 30
0.0
 10
109.730043883
 20
141.4436741051
 30
0.0
 10
109.7352016065
 20
141.4515987952
 30
0.0
 10
109.7519400675
 20
141.4696091201
 30
0.0
 10
109.7802650062
 20
141.5007891348
 30
0.0
 10
109.827426994
 20
141.550077453
 30
0.0
 10
109.8910010115
 20
141.6164410848
 30
0.0
 10
109.963015936
 20
141.6908455198
 30
0.0
 10
110.067140541
 20
141.797869099
 30
0.0
 10
110.1473345833
 20
141.87953826
 30
0.0
 10
110.2008914009
 20
141.935337333
 30
0.0
  0
SPLINE
  5
52E
100
AcDbEntity
  8
0
100
AcDbSpline
 62
7
  6
CONTINUOUS
 70
0
 71
3
 72
16
 73
12
 74
0
 42
0.0000001
 43
0.0000001
 44
0.0000000001
 40
0.0
 40
0.0
 40
0.0
 40
0.0
 40
0.3347518616
 40
0.495653938
 40
0.6469439303
 40
0.7835045454
 40
0.8962853717
 40
0.9397987155
 40
0.972596419
 40
0.9931094496
 40
1.0
 40
1.0
 40
1.0
 40
1.0
 10
121.3968624219
 20
141.935337333
 30
0.0
 10
121.450292075
 20
141.8796880624
 30
0.0
 10
121.5302497425
 20
141.7980851779
 30
0.0
 10
121.6342862545
 20
141.6913473216
 30
0.0
 10
121.7062617591
 20
141.6169300054
 30
0.0
 10
121.7699008515
 20
141.5505200185
 30
0.0
 10
121.8170877823
 20
141.5010698448
 30
0.0
 10
121.8456328939
 20
141.4698772832
 30
0.0
 10
121.8625521279
 20
141.4519078336
 30
0.0
 10
121.8678457815
 20
141.4438951957
 30
0.0
 10
121.8753806742
 20
141.4359976036
 30
0.0
 10
121.8739185001
 20
141.4353781311
 30
0.0
  0
SPLINE
  5
52F
100
AcDbEntity
  8
0
100
AcDbSpline
 62
7
  6
CONTINUOUS
 70
0
 71
3
 72
9
 73
5
 74
0
 42
0.0000001
 43
0.0000001
 44
0.0000000001
 40
0.0
 40
0.0
 40
0.0
 40
0.0
 40
0.5101771077
 40
1.0
 40
1.0
 40
1.0
 40
1.0
 10
131.8179488604
 20
196.535337333
 30
0.0
 10
131.8179488604
 20
196.6211471168
 30
0.0
 10
131.8578522469
 20
196.7920218371
 30
0.0
 10
131.9756154629
 20
196.9242453289
 30
0.0
 10
132.0452634452
 20
196.9682528111
 30
0.0
  0
SPLINE
  5
530
100
AcDbEntity
  8
0
100
AcDbSpline
 62
7
  6
CONTINUOUS
 70
0
 71
3
 72
9
 73
5
 74
0
 42
0.0000001
 43
0.0000001
 44
0.0000000001
 40
0.0
 40
0.0
 40
0.0
 40
0.0
 40
0.2548281963
 40
1.0
 40
1.0
 40
1.0
 40
1.0
 10
132.0452634452
 20
196.9682528111
 30
0.0
 10
132.0624434834
 20
196.9791081181
 30
0.0
 10
132.1327038501
 20
197.0169984378
 30
0.0
 10
132.2136616184
 20
197.035337333
 30
0.0
 10
132.2730880207
 20
197.035337333
 30
0.0
  0
SPLINE
  5
531
100
AcDbEntity
  8
0
100
AcDbSpline
 62
7
  6
CONTINUOUS
 70
0
 71
3
 72
16
 73
12
 74
0
 42
0.0000001
 43
0.0000001
 44
0.0000000001
 40
0.0
 40
0.0
 40
0.0
 40
0.0
 40
0.335619913
 40
0.4965971821
 40
0.6481349187
 40
0.7844628982
 40
0.8969409797
 40
0.9403610631
 40
0.9729627565
 40
0.9932598313
 40
1.0
 40
1.0
 40
1.0
 40
1.0
 10
76.3968624219
 20
141.935337333
 30
0.0
 10
76.4504280481
 20
141.8795464406
 30
0.0
 10
76.5306214137
 20
141.7978766946
 30
0.0
 10
76.6347316485
 20
141.6908389533
 30
0.0
 10
76.7067496225
 20
141.6164373477
 30
0.0
 10
76.7703261092
 20
141.5500745735
 30
0.0
 10
76.8174922521
 20
141.50078864
 30
0.0
 10
76.8458187464
 20
141.4696090617
 30
0.0
 10
76.862556885
 20
141.4515990707
 30
0.0
 10
76.8677129513
 20
141.4436728337
 30
0.0
 10
76.8753527226
 20
141.4359840669
 30
0.0
 10
76.873922533
 20
141.4353781318
 30
0.0
  0
SPLINE
  5
532
100
AcDbEntity
  8
0
100
AcDbSpline
 62
7
  6
CONTINUOUS
 70
0
 71
3
 72
9
 73
5
 74
0
 42
0.0000001
 43
0.0000001
 44
0.0000000001
 40
0.0
 40
0.0
 40
0.0
 40
0.0
 40
0.0774569626
 40
1.0
 40
1.0
 40
1.0
 40
1.0
 10
65.5812316592
 20
174.6762036676
 30
0.0
 10
65.578818429
 20
174.6633566929
 30
0.0
 10
65.5481207761
 20
174.4974122662
 30
0.0
 10
65.5230528873
 20
174.3304388286
 30
0.0
 10
65.5018339699
 20
174.1762036676
 30
0.0
  0
SPLINE
  5
533
100
AcDbEntity
  8
0
100
AcDbSpline
 62
7
  6
CONTINUOUS
 70
0
 71
3
 72
9
 73
5
 74
0
 42
0.0000001
 43
0.0000001
 44
0.0000000001
 40
0.0
 40
0.0
 40
0.0
 40
0.0
 40
0.4824493065
 40
1.0
 40
1.0
 40
1.0
 40
1.0
 10
133.4653074882
 20
197.019266316
 30
0.0
 10
133.4156269321
 20
197.0066598159
 30
0.0
 10
133.3143573701
 20
196.9643268417
 30
0.0
 10
133.2444851117
 20
196.8792716151
 30
0.0
 10
133.2160501488
 20
196.8322108445
 30
0.0
  0
SPLINE
  5
534
100
AcDbEntity
  8
0
100
AcDbSpline
 62
7
  6
CONTINUOUS
 70
0
 71
3
 72
8
 73
4
 74
0
 42
0.0000001
 43
0.0000001
 44
0.0000000001
 40
0.0
 40
0.0
 40
0.0
 40
0.0
 40
1.0
 40
1.0
 40
1.0
 40
1.0
 10
133.2160501488
 20
196.8322108445
 30
0.0
 10
133.1841954895
 20
196.7794903674
 30
0.0
 10
133.1610905132
 20
196.7205623428
 30
0.0
 10
133.1481895023
 20
196.6603316867
 30
0.0
  0
SPLINE
  5
535
100
AcDbEntity
  8
0
100
AcDbSpline
 62
7
  6
CONTINUOUS
 70
0
 71
3
 72
9
 73
5
 74
0
 42
0.0000001
 43
0.0000001
 44
0.0000000001
 40
0.0
 40
0.0
 40
0.0
 40
0.0
 40
0.5101756102
 40
1.0
 40
1.0
 40
1.0
 40
1.0
 10
99.7798052374
 20
196.535337333
 30
0.0
 10
99.7798052374
 20
196.6211023481
 30
0.0
 10
99.7399411453
 20
196.7918829781
 30
0.0
 10
99.6223066835
 20
196.9240834371
 30
0.0
 10
99.5527202105
 20
196.9681086962
 30
0.0
  0
SPLINE
  5
536
100
AcDbEntity
  8
0
100
AcDbSpline
 62
7
  6
CONTINUOUS
 70
0
 71
3
 72
9
 73
5
 74
0
 42
0.0000001
 43
0.0000001
 44
0.0000000001
 40
0.0
 40
0.0
 40
0.0
 40
0.0
 40
0.2548332415
 40
1.0
 40
1.0
 40
1.0
 40
1.0
 10
99.5527202105
 20
196.9681086962
 30
0.0
 10
99.5355270293
 20
196.9789863026
 30
0.0
 10
99.4652077484
 20
197.0169546945
 30
0.0
 10
99.3841582161
 20
197.035337333
 30
0.0
 10
99.3246660622
 20
197.035337333
 30
0.0
  0
SPLINE
  5
537
100
AcDbEntity
  8
0
100
AcDbSpline
 62
7
  6
CONTINUOUS
 70
0
 71
3
 72
9
 73
5
 74
0
 42
0.0000001
 43
0.0000001
 44
0.0000000001
 40
0.0
 40
0.0
 40
0.0
 40
0.0
 40
0.4848811378
 40
1.0
 40
1.0
 40
1.0
 40
1.0
 10
143.1322415896
 20
197.0196306846
 30
0.0
 10
143.1882577768
 20
196.9954450151
 30
0.0
 10
143.279438706
 20
196.9003559853
 30
0.0
 10
143.34755075
 20
196.7938787439
 30
0.0
 10
143.370183135
 20
196.7331389438
 30
0.0
  0
SPLINE
  5
538
100
AcDbEntity
  8
0
100
AcDbSpline
 62
7
  6
CONTINUOUS
 70
0
 71
3
 72
8
 73
4
 74
0
 42
0.0000001
 43
0.0000001
 44
0.0000000001
 40
0.0
 40
0.0
 40
0.0
 40
0.0
 40
1.0
 40
1.0
 40
1.0
 40
1.0
 10
143.370183135
 20
196.7331389438
 30
0.0
 10
143.3935463121
 20
196.6704378759
 30
0.0
 10
143.4043866495
 20
196.6022496783
 30
0.0
 10
143.4043866495
 20
196.535337333
 30
0.0
  0
SPLINE
  5
539
100
AcDbEntity
  8
0
100
AcDbSpline
 62
7
  6
CONTINUOUS
 70
0
 71
3
 72
9
 73
5
 74
0
 42
0.0000001
 43
0.0000001
 44
0.0000000001
 40
0.0
 40
0.0
 40
0.0
 40
0.0
 40
0.6819954427
 40
1.0
 40
1.0
 40
1.0
 40
1.0
 10
133.4640624986
 20
197.0246134497
 30
0.0
 10
133.4704450377
 20
197.0281519312
 30
0.0
 10
133.4731820699
 20
197.0316181188
 30
0.0
 10
133.4976187092
 20
197.0354186517
 30
0.0
 10
133.494216833
 20
197.0353372187
 30
0.0
  0
SPLINE
  5
53A
100
AcDbEntity
  8
0
100
AcDbSpline
 62
7
  6
CONTINUOUS
 70
0
 71
3
 72
9
 73
5
 74
0
 42
0.0000001
 43
0.0000001
 44
0.0000000001
 40
0.0
 40
0.0
 40
0.0
 40
0.0
 40
0.8090333345
 40
1.0
 40
1.0
 40
1.0
 40
1.0
 10
98.1334317867
 20
197.0246792411
 30
0.0
 10
98.1258156217
 20
197.0279939655
 30
0.0
 10
98.1238160335
 20
197.0291761792
 30
0.0
 10
98.1026027698
 20
197.035343128
 30
0.0
 10
98.104562503
 20
197.0354022974
 30
0.0
  0
SPLINE
  5
53B
100
AcDbEntity
  8
0
100
AcDbSpline
 62
7
  6
CONTINUOUS
 70
0
 71
3
 72
9
 73
5
 74
0
 42
0.0000001
 43
0.0000001
 44
0.0000000001
 40
0.0
 40
0.0
 40
0.0
 40
0.0
 40
0.2621785557
 40
1.0
 40
1.0
 40
1.0
 40
1.0
 10
98.4495643206
 20
196.6603316865
 30
0.0
 10
98.4430803926
 20
196.6906030535
 30
0.0
 10
98.4089813303
 20
196.803345827
 30
0.0
 10
98.3384923419
 20
196.9090271868
 30
0.0
 10
98.2675079179
 20
196.9595387606
 30
0.0
  0
SPLINE
  5
53C
100
AcDbEntity
  8
0
100
AcDbSpline
 62
7
  6
CONTINUOUS
 70
0
 71
3
 72
8
 73
4
 74
0
 42
0.0000001
 43
0.0000001
 44
0.0000000001
 40
0.0
 40
0.0
 40
0.0
 40
0.0
 40
1.0
 40
1.0
 40
1.0
 40
1.0
 10
98.2675079179
 20
196.9595387606
 30
0.0
 10
98.2465789007
 20
196.9744315714
 30
0.0
 10
98.2237714515
 20
196.9868818447
 30
0.0
 10
98.2001477433
 20
196.9969684687
 30
0.0
  0
SPLINE
  5
53D
100
AcDbEntity
  8
0
100
AcDbSpline
 62
7
  6
CONTINUOUS
 70
0
 71
3
 72
8
 73
4
 74
0
 42
0.0000001
 43
0.0000001
 44
0.0000000001
 40
0.0
 40
0.0
 40
0.0
 40
0.0
 40
1.0
 40
1.0
 40
1.0
 40
1.0
 10
98.2001477433
 20
196.9969684687
 30
0.0
 10
98.1782018329
 20
197.0063387227
 30
0.0
 10
98.1553756066
 20
197.0137790275
 30
0.0
 10
98.1322415895
 20
197.0196306847
 30
0.0
  0
SPLINE
  5
53E
100
AcDbEntity
  8
0
100
AcDbSpline
 62
7
  6
CONTINUOUS
 70
0
 71
3
 72
9
 73
5
 74
0
 42
0.0000001
 43
0.0000001
 44
0.0000000001
 40
0.0
 40
0.0
 40
0.0
 40
0.0
 40
0.5121023761
 40
1.0
 40
1.0
 40
1.0
 40
1.0
 10
133.1933671733
 20
196.535337333
 30
0.0
 10
133.1933671733
 20
196.6032301328
 30
0.0
 10
133.2146106695
 20
196.7380943934
 30
0.0
 10
133.2874053645
 20
196.8522865099
 30
0.0
 10
133.3281040487
 20
196.9025618826
 30
0.0
  0
SPLINE
  5
53F
100
AcDbEntity
  8
0
100
AcDbSpline
 62
7
  6
CONTINUOUS
 70
0
 71
3
 72
9
 73
5
 74
0
 42
0.0000001
 43
0.0000001
 44
0.0000000001
 40
0.0
 40
0.0
 40
0.0
 40
0.0
 40
0.2612117705
 40
1.0
 40
1.0
 40
1.0
 40
1.0
 10
133.3281040487
 20
196.9025618826
 30
0.0
 10
133.3380138625
 20
196.9148035458
 30
0.0
 10
133.3769689223
 20
196.9604932012
 30
0.0
 10
133.4244245087
 20
197.0015767312
 30
0.0
 10
133.4653074882
 20
197.019266316
 30
0.0
  0
SPLINE
  5
540
100
AcDbEntity
  8
0
100
AcDbSpline
 62
7
  6
CONTINUOUS
 70
0
 71
3
 72
9
 73
5
 74
0
 42
0.0000001
 43
0.0000001
 44
0.0000000001
 40
0.0
 40
0.0
 40
0.0
 40
0.0
 40
0.4848811378
 40
1.0
 40
1.0
 40
1.0
 40
1.0
 10
98.1322415895
 20
197.0196306847
 30
0.0
 10
98.1882577768
 20
196.9954450152
 30
0.0
 10
98.279438706
 20
196.9003559853
 30
0.0
 10
98.3475507499
 20
196.7938787439
 30
0.0
 10
98.3701831349
 20
196.7331389438
 30
0.0
  0
SPLINE
  5
541
100
AcDbEntity
  8
0
100
AcDbSpline
 62
7
  6
CONTINUOUS
 70
0
 71
3
 72
8
 73
4
 74
0
 42
0.0000001
 43
0.0000001
 44
0.0000000001
 40
0.0
 40
0.0
 40
0.0
 40
0.0
 40
1.0
 40
1.0
 40
1.0
 40
1.0
 10
98.3701831349
 20
196.7331389438
 30
0.0
 10
98.3935463121
 20
196.6704378759
 30
0.0
 10
98.4043866496
 20
196.6022496784
 30
0.0
 10
98.4043866496
 20
196.535337333
 30
0.0
  0
SPLINE
  5
542
100
AcDbEntity
  8
0
100
AcDbSpline
 62
7
  6
CONTINUOUS
 70
0
 71
3
 72
9
 73
5
 74
0
 42
0.0000001
 43
0.0000001
 44
0.0000000001
 40
0.0
 40
0.0
 40
0.0
 40
0.0
 40
0.6819954426
 40
1.0
 40
1.0
 40
1.0
 40
1.0
 10
88.4640624987
 20
197.0246134497
 30
0.0
 10
88.4704450377
 20
197.0281519312
 30
0.0
 10
88.4731820699
 20
197.0316181188
 30
0.0
 10
88.4976187092
 20
197.0354186517
 30
0.0
 10
88.494216833
 20
197.0353372187
 30
0.0
  0
SPLINE
  5
543
100
AcDbEntity
  8
0
100
AcDbSpline
 62
7
  6
CONTINUOUS
 70
0
 71
3
 72
9
 73
5
 74
0
 42
0.0000001
 43
0.0000001
 44
0.0000000001
 40
0.0
 40
0.0
 40
0.0
 40
0.0
 40
0.5121023761
 40
1.0
 40
1.0
 40
1.0
 40
1.0
 10
88.1933671733
 20
196.535337333
 30
0.0
 10
88.1933671733
 20
196.6032301327
 30
0.0
 10
88.2146106695
 20
196.7380943934
 30
0.0
 10
88.2874053645
 20
196.8522865099
 30
0.0
 10
88.3281040488
 20
196.9025618827
 30
0.0
  0
SPLINE
  5
544
100
AcDbEntity
  8
0
100
AcDbSpline
 62
7
  6
CONTINUOUS
 70
0
 71
3
 72
9
 73
5
 74
0
 42
0.0000001
 43
0.0000001
 44
0.0000000001
 40
0.0
 40
0.0
 40
0.0
 40
0.0
 40
0.2612117705
 40
1.0
 40
1.0
 40
1.0
 40
1.0
 10
88.3281040488
 20
196.9025618827
 30
0.0
 10
88.3380138626
 20
196.9148035458
 30
0.0
 10
88.3769689223
 20
196.9604932013
 30
0.0
 10
88.4244245087
 20
197.0015767312
 30
0.0
 10
88.4653074883
 20
197.0192663161
 30
0.0
  0
SPLINE
  5
545
100
AcDbEntity
  8
0
100
AcDbSpline
 62
7
  6
CONTINUOUS
 70
0
 71
3
 72
9
 73
5
 74
0
 42
0.0000001
 43
0.0000001
 44
0.0000000001
 40
0.0
 40
0.0
 40
0.0
 40
0.0
 40
0.4824493065
 40
1.0
 40
1.0
 40
1.0
 40
1.0
 10
88.4653074883
 20
197.0192663161
 30
0.0
 10
88.4156269321
 20
197.006659816
 30
0.0
 10
88.3143573701
 20
196.9643268417
 30
0.0
 10
88.2444851118
 20
196.8792716151
 30
0.0
 10
88.2160501488
 20
196.8322108446
 30
0.0
  0
SPLINE
  5
546
100
AcDbEntity
  8
0
100
AcDbSpline
 62
7
  6
CONTINUOUS
 70
0
 71
3
 72
8
 73
4
 74
0
 42
0.0000001
 43
0.0000001
 44
0.0000000001
 40
0.0
 40
0.0
 40
0.0
 40
0.0
 40
1.0
 40
1.0
 40
1.0
 40
1.0
 10
88.2160501488
 20
196.8322108446
 30
0.0
 10
88.1841954895
 20
196.7794903674
 30
0.0
 10
88.1610905132
 20
196.7205623428
 30
0.0
 10
88.1481895023
 20
196.6603316866
 30
0.0
  0
SPLINE
  5
547
100
AcDbEntity
  8
0
100
AcDbSpline
 62
7
  6
CONTINUOUS
 70
0
 71
3
 72
9
 73
5
 74
0
 42
0.0000001
 43
0.0000001
 44
0.0000000001
 40
0.0
 40
0.0
 40
0.0
 40
0.0
 40
0.8090333337
 40
1.0
 40
1.0
 40
1.0
 40
1.0
 10
143.1334317868
 20
197.0246792411
 30
0.0
 10
143.1258156218
 20
197.0279939655
 30
0.0
 10
143.1238160336
 20
197.0291761792
 30
0.0
 10
143.1026027698
 20
197.035343128
 30
0.0
 10
143.1045625031
 20
197.0354022974
 30
0.0
  0
SPLINE
  5
548
100
AcDbEntity
  8
0
100
AcDbSpline
 62
7
  6
CONTINUOUS
 70
0
 71
3
 72
9
 73
5
 74
0
 42
0.0000001
 43
0.0000001
 44
0.0000000001
 40
0.0
 40
0.0
 40
0.0
 40
0.0
 40
0.2621785557
 40
1.0
 40
1.0
 40
1.0
 40
1.0
 10
143.4495643206
 20
196.6603316866
 30
0.0
 10
143.4430803926
 20
196.6906030535
 30
0.0
 10
143.4089813303
 20
196.8033458269
 30
0.0
 10
143.338492342
 20
196.9090271867
 30
0.0
 10
143.267507918
 20
196.9595387605
 30
0.0
  0
SPLINE
  5
549
100
AcDbEntity
  8
0
100
AcDbSpline
 62
7
  6
CONTINUOUS
 70
0
 71
3
 72
8
 73
4
 74
0
 42
0.0000001
 43
0.0000001
 44
0.0000000001
 40
0.0
 40
0.0
 40
0.0
 40
0.0
 40
1.0
 40
1.0
 40
1.0
 40
1.0
 10
143.267507918
 20
196.9595387605
 30
0.0
 10
143.2465789007
 20
196.9744315713
 30
0.0
 10
143.2237714514
 20
196.9868818447
 30
0.0
 10
143.2001477431
 20
196.9969684687
 30
0.0
  0
SPLINE
  5
54A
100
AcDbEntity
  8
0
100
AcDbSpline
 62
7
  6
CONTINUOUS
 70
0
 71
3
 72
8
 73
4
 74
0
 42
0.0000001
 43
0.0000001
 44
0.0000000001
 40
0.0
 40
0.0
 40
0.0
 40
0.0
 40
1.0
 40
1.0
 40
1.0
 40
1.0
 10
143.2001477431
 20
196.9969684687
 30
0.0
 10
143.1782018329
 20
197.0063387227
 30
0.0
 10
143.1553756066
 20
197.0137790275
 30
0.0
 10
143.1322415896
 20
197.0196306846
 30
0.0
  0
SPLINE
  5
54B
100
AcDbEntity
  8
0
100
AcDbSpline
 62
7
  6
CONTINUOUS
 70
0
 71
3
 72
9
 73
5
 74
0
 42
0.0000001
 43
0.0000001
 44
0.0000000001
 40
0.0
 40
0.0
 40
0.0
 40
0.0
 40
0.5101771077
 40
1.0
 40
1.0
 40
1.0
 40
1.0
 10
86.8179488604
 20
196.535337333
 30
0.0
 10
86.8179488604
 20
196.6211471168
 30
0.0
 10
86.8578522468
 20
196.792021837
 30
0.0
 10
86.9756154628
 20
196.9242453289
 30
0.0
 10
87.0452634451
 20
196.9682528111
 30
0.0
  0
SPLINE
  5
54C
100
AcDbEntity
  8
0
100
AcDbSpline
 62
7
  6
CONTINUOUS
 70
0
 71
3
 72
9
 73
5
 74
0
 42
0.0000001
 43
0.0000001
 44
0.0000000001
 40
0.0
 40
0.0
 40
0.0
 40
0.0
 40
0.2548281963
 40
1.0
 40
1.0
 40
1.0
 40
1.0
 10
87.0452634451
 20
196.9682528111
 30
0.0
 10
87.0624434833
 20
196.979108118
 30
0.0
 10
87.13270385
 20
197.0169984378
 30
0.0
 10
87.2136616184
 20
197.035337333
 30
0.0
 10
87.2730880206
 20
197.035337333
 30
0.0
  0
SPLINE
  5
54D
100
AcDbEntity
  8
0
100
AcDbSpline
 62
7
  6
CONTINUOUS
 70
0
 71
3
 72
9
 73
5
 74
0
 42
0.0000001
 43
0.0000001
 44
0.0000000001
 40
0.0
 40
0.0
 40
0.0
 40
0.0
 40
0.5101756102
 40
1.0
 40
1.0
 40
1.0
 40
1.0
 10
144.7798052374
 20
196.535337333
 30
0.0
 10
144.7798052374
 20
196.621102348
 30
0.0
 10
144.7399411453
 20
196.7918829781
 30
0.0
 10
144.6223066835
 20
196.9240834371
 30
0.0
 10
144.5527202105
 20
196.9681086962
 30
0.0
  0
SPLINE
  5
54E
100
AcDbEntity
  8
0
100
AcDbSpline
 62
7
  6
CONTINUOUS
 70
0
 71
3
 72
9
 73
5
 74
0
 42
0.0000001
 43
0.0000001
 44
0.0000000001
 40
0.0
 40
0.0
 40
0.0
 40
0.0
 40
0.2548332415
 40
1.0
 40
1.0
 40
1.0
 40
1.0
 10
144.5527202105
 20
196.9681086962
 30
0.0
 10
144.5355270293
 20
196.9789863025
 30
0.0
 10
144.4652077484
 20
197.0169546945
 30
0.0
 10
144.3841582161
 20
197.035337333
 30
0.0
 10
144.3246660622
 20
197.035337333
 30
0.0
  0
SPLINE
  5
54F
100
AcDbEntity
  8
0
100
AcDbSpline
 62
7
  6
CONTINUOUS
 70
0
 71
3
 72
9
 73
5
 74
0
 42
0.0000001
 43
0.0000001
 44
0.0000000001
 40
0.0
 40
0.0
 40
0.0
 40
0.0
 40
0.2620716156
 40
1.0
 40
1.0
 40
1.0
 40
1.0
 10
113.3976258452
 20
141.935337333
 30
0.0
 10
113.4313982981
 20
141.90389371
 30
0.0
 10
113.5610605315
 20
141.7847751653
 30
0.0
 10
113.6913489333
 20
141.6662985093
 30
0.0
 10
113.7893245439
 20
141.5809599114
 30
0.0
  0
SPLINE
  5
550
100
AcDbEntity
  8
0
100
AcDbSpline
 62
7
  6
CONTINUOUS
 70
0
 71
3
 72
11
 73
7
 74
0
 42
0.0000001
 43
0.0000001
 44
0.0000000001
 40
0.0
 40
0.0
 40
0.0
 40
0.0
 40
0.3545780853
 40
0.6538407362
 40
0.8762902792
 40
1.0
 40
1.0
 40
1.0
 40
1.0
 10
113.7893245439
 20
141.5809599114
 30
0.0
 10
113.8112477397
 20
141.5618643959
 30
0.0
 10
113.8518541189
 20
141.5271256707
 30
0.0
 10
113.9078177014
 20
141.4810474938
 30
0.0
 10
113.9502075815
 20
141.4516315473
 30
0.0
 10
113.9759193808
 20
141.435337333
 30
0.0
 10
113.9860628949
 20
141.435337333
 30
0.0
  0
SPLINE
  5
551
100
AcDbEntity
  8
0
100
AcDbSpline
 62
7
  6
CONTINUOUS
 70
0
 71
3
 72
12
 73
8
 74
0
 42
0.0000001
 43
0.0000001
 44
0.0000000001
 40
0.0
 40
0.0
 40
0.0
 40
0.0
 40
0.3726579954
 40
0.6886264315
 40
0.9014023386
 40
0.9635804029
 40
1.0
 40
1.0
 40
1.0
 40
1.0
 10
78.6988769113
 20
175.1353191803
 30
0.0
 10
78.6217227258
 20
175.135319567
 30
0.0
 10
78.478915559
 20
175.1401514105
 30
0.0
 10
78.293724146
 20
175.1583617461
 30
0.0
 10
78.1722670296
 20
175.184436309
 30
0.0
 10
78.1140441545
 20
175.2099519799
 30
0.0
 10
78.0989076598
 20
175.2277825532
 30
0.0
 10
78.0988769187
 20
175.2353227134
 30
0.0
  0
SPLINE
  5
552
100
AcDbEntity
  8
0
100
AcDbSpline
 62
7
  6
CONTINUOUS
 70
0
 71
3
 72
12
 73
8
 74
0
 42
0.0000001
 43
0.0000001
 44
0.0000000001
 40
0.0
 40
0.0
 40
0.0
 40
0.0
 40
0.3712629585
 40
0.6868103568
 40
0.9013910225
 40
0.9633597242
 40
1.0
 40
1.0
 40
1.0
 40
1.0
 10
107.8988769114
 20
175.1353373411
 30
0.0
 10
107.9757614574
 20
175.134311276
 30
0.0
 10
108.1182156587
 20
175.1402861942
 30
0.0
 10
108.3036032145
 20
175.1584501535
 30
0.0
 10
108.4250133688
 20
175.1844719136
 30
0.0
 10
108.4841683675
 20
175.2095968417
 30
0.0
 10
108.4988769114
 20
175.2277488518
 30
0.0
 10
108.4988769114
 20
175.2353373326
 30
0.0
  0
ELLIPSE
  5
553
100
AcDbEntity
  8
0
100
AcDbEllipse
 62
7
  6
CONTINUOUS
 10
108.5152626889
 20
72.0402241333
 30
0.0
 11
0.400089543
 21
0.0
 31
0.0
 40
0.0122142666
 41
3.1415926535
 42
4.7123889804
  0
ELLIPSE
  5
554
100
AcDbEntity
  8
0
100
AcDbEllipse
 62
7
  6
CONTINUOUS
 10
113.0824911339
 20
72.0402241333
 30
0.0
 11
0.400089543
 21
0.0
 31
0.0
 40
0.0122142666
 41
-1.5707963269
 42
0.0000000003
  0
ELLIPSE
  5
555
100
AcDbEntity
  8
0
100
AcDbEllipse
 62
7
  6
CONTINUOUS
 10
70.7988769114
 20
-43.0362879903
 30
0.0
 11
-0.0
 21
292.2010578297
 31
0.0
 40
0.0087268678
 41
0.2520063096
 42
0.3648113246
  0
ELLIPSE
  5
556
100
AcDbEntity
  8
0
100
AcDbEllipse
 62
7
  6
CONTINUOUS
 10
70.7988769114
 20
-43.0362879903
 30
0.0
 11
-0.0
 21
292.2010578297
 31
0.0
 40
0.0087268678
 41
0.170349317
 42
0.1983545222
  0
ELLIPSE
  5
557
100
AcDbEntity
  8
0
100
AcDbEllipse
 62
7
  6
CONTINUOUS
 10
70.7988769114
 20
-43.0362879903
 30
0.0
 11
-0.0
 21
292.2010578297
 31
0.0
 40
0.0087268678
 41
-0.3648113246
 42
-0.2520063096
  0
ELLIPSE
  5
558
100
AcDbEntity
  8
0
100
AcDbEllipse
 62
7
  6
CONTINUOUS
 10
78.0824911339
 20
72.0402241333
 30
0.0
 11
0.400089543
 21
0.0
 31
0.0
 40
0.0122142666
 41
-1.5707963269
 42
0.0000000002
  0
ELLIPSE
  5
559
100
AcDbEntity
  8
0
100
AcDbEllipse
 62
7
  6
CONTINUOUS
 10
73.5152626889
 20
72.0402241333
 30
0.0
 11
0.400089543
 21
-0.0
 31
0.0
 40
0.0122142666
 41
3.1415926535
 42
4.7123889804
  0
ELLIPSE
  5
55A
100
AcDbEntity
  8
0
100
AcDbEllipse
 62
7
  6
CONTINUOUS
 10
115.7988769114
 20
-43.0362879903
 30
0.0
 11
-0.0
 21
292.2010578297
 31
0.0
 40
0.0087268678
 41
0.2520063096
 42
0.3648113246
  0
ELLIPSE
  5
55B
100
AcDbEntity
  8
0
100
AcDbEllipse
 62
7
  6
CONTINUOUS
 10
117.7988769114
 20
98.7175599795
 30
0.0
 11
-0.0
 21
0.8333333333
 31
0.0
 40
0.6
 41
0.0
 42
1.5707963269
  0
ELLIPSE
  5
55C
100
AcDbEntity
  8
0
100
AcDbEllipse
 62
7
  6
CONTINUOUS
 10
120.7988769114
 20
98.7175599795
 30
0.0
 11
0.0
 21
0.8333333333
 31
0.0
 40
0.6
 41
-1.5707963269
 42
0.0
  0
ELLIPSE
  5
55D
100
AcDbEntity
  8
0
100
AcDbEllipse
 62
7
  6
CONTINUOUS
 10
115.7988769114
 20
-43.0362879903
 30
0.0
 11
-0.0
 21
292.2010578297
 31
0.0
 40
0.0087268678
 41
-0.3648113246
 42
-0.2520063096
  0
ELLIPSE
  5
55E
100
AcDbEntity
  8
0
100
AcDbEllipse
 62
7
  6
CONTINUOUS
 10
68.7988769114
 20
98.7175599795
 30
0.0
 11
0.0
 21
0.8333333333
 31
0.0
 40
0.6
 41
-1.5707963269
 42
0.0
  0
ELLIPSE
  5
55F
100
AcDbEntity
  8
0
100
AcDbEllipse
 62
7
  6
CONTINUOUS
 10
115.7988769114
 20
-43.0362879903
 30
0.0
 11
-0.0
 21
292.2010578297
 31
0.0
 40
0.0087268678
 41
-0.1983545222
 42
-0.170349317
  0
ELLIPSE
  5
560
100
AcDbEntity
  8
0
100
AcDbEllipse
 62
7
  6
CONTINUOUS
 10
115.7988769114
 20
-43.0362879903
 30
0.0
 11
-0.0
 21
292.2010578297
 31
0.0
 40
0.0087268678
 41
0.170349317
 42
0.1983545222
  0
ELLIPSE
  5
561
100
AcDbEntity
  8
0
100
AcDbEllipse
 62
7
  6
CONTINUOUS
 10
70.7988769114
 20
-43.0362879903
 30
0.0
 11
-0.0
 21
292.2010578297
 31
0.0
 40
0.0087268678
 41
-0.1983545222
 42
-0.170349317
  0
ELLIPSE
  5
562
100
AcDbEntity
  8
0
100
AcDbEllipse
 62
7
  6
CONTINUOUS
 10
65.7988769114
 20
98.7175599795
 30
0.0
 11
-0.0
 21
0.8333333333
 31
0.0
 40
0.6
 41
0.0
 42
1.5707963269
  0
ENDSEC
  0
SECTION
  2
OBJECTS
  0
DICTIONARY
  5
C
100
AcDbDictionary
280
0
281
1
  3
ACAD_GROUP
350
D
  3
ACAD_MLINESTYLE
350
17
  3
ACAD_LAYOUT
350
1A
  3
ACAD_PLOTSETTINGS
350
19
  3
ACAD_PLOTSTYLENAME
350
E
  0
DICTIONARY
  5
D
102
{ACAD_REACTORS
330
C
102
}
100
AcDbDictionary
280
0
281
1
  0
ACDBDICTIONARYWDFLT
  5
E
102
{ACAD_REACTORS
330
C
102
}
100
AcDbDictionary
281
1
  3
Normal
350
F
100
AcDbDictionaryWithDefault
340
F
  0
DICTIONARY
  5
17
102
{ACAD_REACTORS
330
C
102
}
100
AcDbDictionary
280
0
281
1
  3
Standard
350
18
  0
DICTIONARY
  5
19
102
{ACAD_REACTORS
330
C
102
}
100
AcDbDictionary
281
1
  0
DICTIONARY
  5
1A
102
{ACAD_REACTORS
330
C
102
}
100
AcDbDictionary
281
1
  3
Model
350
563
  3
Layout1
350
564
  0
ACDBPLACEHOLDER
  5
F
102
{ACAD_REACTORS
330
E
102
}
  0
MLINESTYLE
  5
18
102
{ACAD_REACTORS
330
17
102
}
100
AcDbMlineStyle
  2
STANDARD
 70
0
  3

 62
256
 51
90.0
 52
90.0
 71
2
 49
0.5
 62
256
  6
BYLAYER
 49
-0.5
 62
256
  6
BYLAYER
  0
LAYOUT
  5
563
102
{ACAD_REACTORS
330
1A
102
}
100
AcDbPlotSettings
  1

  2
none_device
  4

  6

 40
0.0
 41
0.0
 42
0.0
 43
0.0
 44
210.0
 45
297.0
 46
0.0
 47
0.0
 48
0.0
 49
0.0
140
0.0
141
0.0
142
1.0
143
1.0
 70
1024
 72
1
 73
0
 74
0
  7

 75
0
147
1.0
148
0.0
149
0.0
100
AcDbLayout
  1
Model
 70
0
 71
0
 10
0.0
 20
0.0
 11
210.0
 21
297.0
 12
0.0
 22
0.0
 32
0.0
 14
0.0
 24
0.0
 34
0.0
 15
0.0
 25
0.0
 35
0.0
146
0.0
 13
0.0
 23
0.0
 33
0.0
 16
1.0
 26
0.0
 36
0.0
 17
0.0
 27
1.0
 37
0.0
 76
0
330
213
345
0
346
0
  0
LAYOUT
  5
564
102
{ACAD_REACTORS
330
1A
102
}
100
AcDbPlotSettings
  1

  2
none_device
  4

  6

 40
0.0
 41
0.0
 42
0.0
 43
0.0
 44
210.0
 45
297.0
 46
0.0
 47
0.0
 48
0.0
 49
0.0
140
0.0
141
0.0
142
1.0
143
1.0
 70
0
 72
1
 73
0
 74
0
  7

 75
0
147
1.0
148
0.0
149
0.0
100
AcDbLayout
  1
Layout1
 70
0
 71
1
 10
0.0
 20
0.0
 11
210.0
 21
297.0
 12
0.0
 22
0.0
 32
0.0
 14
0.0
 24
0.0
 34
0.0
 15
0.0
 25
0.0
 35
0.0
146
0.0
 13
0.0
 23
0.0
 33
0.0
 16
1.0
 26
0.0
 36
0.0
 17
0.0
 27
1.0
 37
0.0
 76
0
330
214
345
0
346
0
  0
ENDSEC
  0
EOF
