999
DXF file: C:\Users\sesa63760\Dev\_Creo\CAD\MCADPD0004508_3D-CAD\drw0001_1.dxf
999
Pro/ENGINEER 2019471 by Parametric Technology Corporation
  0
SECTION
  2
HEADER
  9
$ACADVER
  1
AC1024
  9
$DWGCODEPAGE
  3
ANSI_1252
  9
$EXTMAX
 10
264.4286934563
 20
373.9777236025
 30
0.0
  9
$EXTMIN
 10
-0.0
 20
0.0
 30
0.0
  9
$LIMMIN
 10
-0.0
 20
0.0
  9
$LIMMAX
 10
264.4286934563
 20
373.9777236025
  9
$VIEWCTR
 10
132.2143467282
 20
186.9888618013
  9
$VIEWSIZE
 40
373.9777236025
  9
$CLAYER
  8
0
  9
$LTSCALE
 40
24.3778071682
  9
$CELTYPE
  6
BYLAYER
  9
$DIMSCALE
 40
1.0
  9
$DIMASZ
 40
3.1479606364
  9
$DIMEXO
 40
1.0
  9
$DIMDLI
 40
16.8428485889
  9
$DIMEXE
 40
1.0
  9
$DIMCEN
 40
3.9890957184
  9
$DIMLFAC
 40
1.0
  9
$DIMBLK
  1
_FILLED
  9
$DIMALT
 70
0
  9
$DIMALTF
 40
0.0393700787
  9
$DIMTXT
 40
4.4071448909
  9
$DIMTOL
 70
1
  9
$DIMLIM
 70
0
  9
$DIMTFAC
 40
1.0
  9
$DIMTP
 40
0.01
  9
$DIMTM
 40
0.01
  9
$DIMGAP
 40
0.625
  9
$DIMDSEP
 70
46
  9
$AUNITS
 70
0
  9
$PDMODE
 70
3
  9
$PDSIZE
 40
0.3125
  9
$HANDSEED
  5
493
  9
$TILEMODE
 70
1
  9
$MEASUREMENT
 70
1
  9
$INSUNITS
 70
4
  0
ENDSEC
  0
SECTION
  2
CLASSES
  0
CLASS
  1
ACDBDICTIONARYWDFLT
  2
AcDbDictionaryWithDefault
  3
AutoCAD 2000
 90
0
 91
1
280
0
281
0
  0
CLASS
  1
ACDBPLACEHOLDER
  2
AcDbPlaceHolder
  3
AutoCAD 2000
 90
0
 91
1
280
0
281
0
  0
CLASS
  1
LAYOUT
  2
AcDbLayout
  3
AutoCAD 2000
 90
0
 91
0
280
0
281
0
  0
ENDSEC
  0
SECTION
  2
TABLES
  0
TABLE
  2
VPORT
  5
8
100
AcDbSymbolTable
 70
2
  0
VPORT
  5
1F4
100
AcDbSymbolTableRecord
100
AcDbViewportTableRecord
  2
*ACTIVE
 70
0
 10
0.0
 20
0.0
 11
1.0
 21
1.0
 12
132.2143467282
 22
186.9888618013
 13
0.0
 23
0.0
 14
1.0
 24
1.0
 15
0.0
 25
0.0
 16
0.0
 26
0.0
 36
1.0
 17
0.0
 27
0.0
 37
0.0
 40
373.9777236025
 41
0.7070707071
 42
50.0
 43
0.0
 44
0.0
 50
0.0
 51
0.0
 71
0
 72
100
 73
1
 74
1
 75
0
 76
0
 77
0
 78
0
  0
ENDTAB
  0
TABLE
  2
LTYPE
  5
5
100
AcDbSymbolTable
 70
6
  0
LTYPE
  5
14
100
AcDbSymbolTableRecord
100
AcDbLinetypeTableRecord
  2
BYBLOCK
 70
0
  3

 72
65
 73
0
 40
0.0
  0
LTYPE
  5
15
100
AcDbSymbolTableRecord
100
AcDbLinetypeTableRecord
  2
BYLAYER
 70
0
  3

 72
65
 73
0
 40
0.0
  0
LTYPE
  5
16
100
AcDbSymbolTableRecord
100
AcDbLinetypeTableRecord
  2
CONTINUOUS
 70
64
  3
Solid line
 72
65
 73
0
 40
0.0
  0
LTYPE
  5
1F5
100
AcDbSymbolTableRecord
100
AcDbLinetypeTableRecord
  2
CENTER
 70
64
  3
____ _ ____ _ ____ _ ____ _ ____ _ ____ _ ____
 72
65
 73
4
 40
0.6
 49
0.375
 74
0
 49
-0.075
 74
0
 49
0.075
 74
0
 49
-0.075
 74
0
  0
LTYPE
  5
1F6
100
AcDbSymbolTableRecord
100
AcDbLinetypeTableRecord
  2
HIDDEN
 70
64
  3
- - - - - - - - - - - - - - - - - - - -
 72
65
 73
2
 40
0.2
 49
0.1
 74
0
 49
-0.1
 74
0
  0
LTYPE
  5
1F7
100
AcDbSymbolTableRecord
100
AcDbLinetypeTableRecord
  2
PHANTOM
 70
64
  3
_____ _ _ _____ _ _ _____ _ _ _____
 72
65
 73
6
 40
0.8
 49
0.45
 74
0
 49
-0.05
 74
0
 49
0.1
 74
0
 49
-0.05
 74
0
 49
0.1
 74
0
 49
-0.05
 74
0
  0
LTYPE
  5
1F8
100
AcDbSymbolTableRecord
100
AcDbLinetypeTableRecord
  2
DOT
 70
64
  3
. . . . . . . . . . . . . . . . . . . .
 72
65
 73
2
 40
0.2
 49
0.1
 74
0
 49
-0.1
 74
0
  0
LTYPE
  5
1F9
100
AcDbSymbolTableRecord
100
AcDbLinetypeTableRecord
  2
DASHED
 70
64
  3
- - - - - - - - - - - - - - - - - - - -
 72
65
 73
2
 40
0.2
 49
0.1
 74
0
 49
-0.1
 74
0
  0
ENDTAB
  0
TABLE
  2
LAYER
  5
2
100
AcDbSymbolTable
 70
36
  0
LAYER
  5
10
100
AcDbSymbolTableRecord
100
AcDbLayerTableRecord
  2
0
 70
0
 62
7
  6
CONTINUOUS
370
-3
390
F
  0
LAYER
  5
1FA
100
AcDbSymbolTableRecord
100
AcDbLayerTableRecord
  2
DEFAULT_1
 70
0
 62
7
  6
CENTER
370
-3
390
F
  0
LAYER
  5
1FB
100
AcDbSymbolTableRecord
100
AcDbLayerTableRecord
  2
DEFAULT_2
 70
0
 62
7
  6
HIDDEN
370
-3
390
F
  0
LAYER
  5
1FC
100
AcDbSymbolTableRecord
100
AcDbLayerTableRecord
  2
DEFAULT_3
 70
0
 62
7
  6
PHANTOM
370
-3
390
F
  0
LAYER
  5
1FD
100
AcDbSymbolTableRecord
100
AcDbLayerTableRecord
  2
00_COMPONENTS
 70
0
 62
7
  6
CONTINUOUS
370
-3
390
F
  0
LAYER
  5
1FE
100
AcDbSymbolTableRecord
100
AcDbLayerTableRecord
  2
01_1_DEFAULT_DATUMS
 70
0
 62
7
  6
CONTINUOUS
370
-3
390
F
  0
LAYER
  5
1FF
100
AcDbSymbolTableRecord
100
AcDbLayerTableRecord
  2
01_PLANES
 70
0
 62
7
  6
CONTINUOUS
370
-3
390
F
  0
LAYER
  5
200
100
AcDbSymbolTableRecord
100
AcDbLayerTableRecord
  2
02_COORD_SYS
 70
0
 62
7
  6
CONTINUOUS
370
-3
390
F
  0
LAYER
  5
201
100
AcDbSymbolTableRecord
100
AcDbLayerTableRecord
  2
03_AXES
 70
0
 62
7
  6
CONTINUOUS
370
-3
390
F
  0
LAYER
  5
202
100
AcDbSymbolTableRecord
100
AcDbLayerTableRecord
  2
04_POINTS
 70
0
 62
7
  6
CONTINUOUS
370
-3
390
F
  0
LAYER
  5
203
100
AcDbSymbolTableRecord
100
AcDbLayerTableRecord
  2
05_CURVES
 70
0
 62
7
  6
CONTINUOUS
370
-3
390
F
  0
LAYER
  5
204
100
AcDbSymbolTableRecord
100
AcDbLayerTableRecord
  2
06_SURFS
 70
0
 62
7
  6
CONTINUOUS
370
-3
390
F
  0
LAYER
  5
205
100
AcDbSymbolTableRecord
100
AcDbLayerTableRecord
  2
07_COSMETICS
 70
0
 62
7
  6
CONTINUOUS
370
-3
390
F
  0
LAYER
  5
206
100
AcDbSymbolTableRecord
100
AcDbLayerTableRecord
  2
10_NOTES
 70
0
 62
7
  6
CONTINUOUS
370
-3
390
F
  0
LAYER
  5
207
100
AcDbSymbolTableRecord
100
AcDbLayerTableRecord
  2
11_NOTES_PUB
 70
0
 62
7
  6
CONTINUOUS
370
-3
390
F
  0
LAYER
  5
208
100
AcDbSymbolTableRecord
100
AcDbLayerTableRecord
  2
13_REF_GTOL
 70
0
 62
7
  6
CONTINUOUS
370
-3
390
F
  0
LAYER
  5
209
100
AcDbSymbolTableRecord
100
AcDbLayerTableRecord
  2
16_MISC
 70
0
 62
7
  6
CONTINUOUS
370
-3
390
F
  0
LAYER
  5
20A
100
AcDbSymbolTableRecord
100
AcDbLayerTableRecord
  2
17_NO_PRINT
 70
0
 62
7
  6
CONTINUOUS
370
-3
390
F
  0
LAYER
  5
20B
100
AcDbSymbolTableRecord
100
AcDbLayerTableRecord
  2
18_DATUM_CAMS_JOINTS
 70
0
 62
7
  6
CONTINUOUS
370
-3
390
F
  0
LAYER
  5
20C
100
AcDbSymbolTableRecord
100
AcDbLayerTableRecord
  2
19_DATUM_FUNCTIONAL
 70
0
 62
7
  6
CONTINUOUS
370
-3
390
F
  0
LAYER
  5
20D
100
AcDbSymbolTableRecord
100
AcDbLayerTableRecord
  2
20_DATUM_KINEMATIC_SCHEME
 70
0
 62
7
  6
CONTINUOUS
370
-3
390
F
  0
ENDTAB
  0
TABLE
  2
STYLE
  5
3
100
AcDbSymbolTable
 70
1
  0
STYLE
  5
11
100
AcDbSymbolTableRecord
100
AcDbTextStyleTableRecord
  2
STANDARD
 70
0
 40
0.0
 41
1.0
 50
0.0
 71
0
 42
0.2
  3
ARIAL.TTF
  4

  0
STYLE
  5
20E
100
AcDbSymbolTableRecord
100
AcDbTextStyleTableRecord
  2
TEXTSTYLE_1
 70
0
 40
0.0
 41
0.8
 50
0.0
 71
0
 42
0.2
  3
gdt
  4

  0
ENDTAB
  0
TABLE
  2
VIEW
  5
6
100
AcDbSymbolTable
 70
0
  0
ENDTAB
  0
TABLE
  2
UCS
  5
7
100
AcDbSymbolTable
 70
0
  0
ENDTAB
  0
TABLE
  2
APPID
  5
9
100
AcDbSymbolTable
 70
1
  0
APPID
  5
20F
100
AcDbSymbolTableRecord
100
AcDbRegAppTableRecord
  2
ACAD
 70
0
  0
ENDTAB
  0
TABLE
  2
BLOCK_RECORD
  5
1
100
AcDbSymbolTable
 70
0
  0
BLOCK_RECORD
  5
210
100
AcDbSymbolTableRecord
100
AcDbBlockTableRecord
  2
*Model_Space
  0
BLOCK_RECORD
  5
211
100
AcDbSymbolTableRecord
100
AcDbBlockTableRecord
  2
*Paper_Space
  0
BLOCK_RECORD
  5
212
100
AcDbSymbolTableRecord
100
AcDbBlockTableRecord
  2
_FILLED
  0
ENDTAB
  0
TABLE
  2
DIMSTYLE
  5
A
100
AcDbSymbolTable
 70
1
100
AcDbDimStyleTable
 71
0
  0
DIMSTYLE
105
213
100
AcDbSymbolTableRecord
100
AcDbDimStyleTableRecord
  2
STANDARD
 70
0
  3

  4

 40
1.0
 41
3.1479606364
 42
1.0
 43
0.38
 44
1.0
 45
0.0
 46
0.0
 47
0.01
 48
0.01
140
4.4071448909
141
0.09
142
0.0
143
25.4
144
1.0
145
0.0
146
1.0
147
0.625
 71
1
 72
0
 73
0
 74
0
 75
0
 76
0
 77
1
 78
8
 79
2
170
0
171
1
172
0
173
0
174
0
175
0
176
0
177
0
178
0
270
2
179
2
271
2
272
2
273
2
274
2
275
0
280
0
281
0
282
0
283
1
284
8
285
0
286
0
287
3
288
0
340
11
278
46
341
212
342
212
343
212
344
212
  0
ENDTAB
  0
ENDSEC
  0
SECTION
  2
BLOCKS
  0
BLOCK
  5
20
100
AcDbEntity
  8
0
100
AcDbBlockBegin
  2
*Model_Space
 70
0
 10
0.0
 20
0.0
 30
0.0
  3
*Model_Space
  1

  0
ENDBLK
  5
21
100
AcDbEntity
  8
0
100
AcDbBlockEnd
  0
BLOCK
  5
1C
100
AcDbEntity
  8
0
100
AcDbBlockBegin
  2
*Paper_Space
 70
0
 10
0.0
 20
0.0
 30
0.0
  3
*Paper_Space
  1

  0
ENDBLK
  5
1D
100
AcDbEntity
  8
0
100
AcDbBlockEnd
  0
BLOCK
  5
214
100
AcDbEntity
  8
0
100
AcDbBlockBegin
  2
_FILLED
 70
64
 10
0.0
 20
0.0
  3
_FILLED
  1

  0
SOLID
  5
215
100
AcDbEntity
  8
0
  6
BYBLOCK
 62
0
100
AcDbTrace
 10
0.0
 20
0.0
 11
-1.0
 21
0.25
 12
-1.0
 22
-0.25
 13
-1.0
 23
-0.25
  0
ENDBLK
  5
216
100
AcDbEntity
  8
0
  6
BYBLOCK
 62
0
100
AcDbBlockEnd
  0
ENDSEC
  0
SECTION
  2
ENTITIES
  0
LINE
  5
217
100
AcDbEntity
  8
0
100
AcDbLine
 62
7
  6
BYLAYER
 10
49.1990212965
 20
111.672531971
 11
48.8102037556
 21
112.0073704837
  0
LINE
  5
218
100
AcDbEntity
  8
0
100
AcDbLine
 62
7
  6
BYLAYER
 10
48.8138470656
 20
112.0033190322
 11
48.8135836813
 21
112.0036050736
  0
LINE
  5
219
100
AcDbEntity
  8
0
100
AcDbLine
 62
7
  6
BYLAYER
 10
30.6767707653
 20
154.3838295449
 11
30.6767707653
 21
151.9343222936
  0
LINE
  5
21A
100
AcDbEntity
  8
0
100
AcDbLine
 62
7
  6
BYLAYER
 10
117.7471500299
 20
72.2067124916
 11
100.0540974701
 21
82.4215700589
  0
LINE
  5
21B
100
AcDbEntity
  8
0
100
AcDbLine
 62
7
  6
BYLAYER
 10
117.3329253885
 20
73.1222847873
 11
99.6028787559
 21
83.3585005265
  0
LINE
  5
21C
100
AcDbEntity
  8
0
100
AcDbLine
 62
7
  6
BYLAYER
 10
48.3543769995
 20
113.8443388074
 11
50.475706175
 21
112.6196165439
  0
LINE
  5
21D
100
AcDbEntity
  8
0
100
AcDbLine
 62
7
  6
BYLAYER
 10
68.5070041662
 20
102.2094773036
 11
73.4567722423
 21
99.3517920219
  0
LINE
  5
21E
100
AcDbEntity
  8
0
100
AcDbLine
 62
7
  6
BYLAYER
 10
91.4880702335
 20
88.9416527817
 11
96.4378383095
 21
86.0839675
  0
LINE
  5
21F
100
AcDbEntity
  8
0
100
AcDbLine
 62
7
  6
BYLAYER
 10
114.4691363008
 20
75.6738282598
 11
116.5904654762
 21
74.4491059962
  0
LINE
  5
220
100
AcDbEntity
  8
0
100
AcDbLine
 62
7
  6
BYLAYER
 10
51.1120996285
 20
112.9870362823
 11
68.5070041662
 21
102.9443106617
  0
LINE
  5
221
100
AcDbEntity
  8
0
100
AcDbLine
 62
7
  6
BYLAYER
 10
74.0931656957
 20
99.7192117604
 11
91.4880702335
 21
89.6764861398
  0
LINE
  5
222
100
AcDbEntity
  8
0
100
AcDbLine
 62
7
  6
BYLAYER
 10
97.074231763
 20
86.4513872385
 11
114.4691363008
 21
76.4086616179
  0
LINE
  5
223
100
AcDbEntity
  8
0
100
AcDbLine
 62
7
  6
BYLAYER
 10
114.4691363008
 20
80.5727173142
 11
104.2160099585
 21
86.4922286507
  0
LINE
  5
224
100
AcDbEntity
  8
0
100
AcDbLine
 62
7
  6
BYLAYER
 10
91.4880702335
 20
93.8405418361
 11
81.2349438913
 21
99.7600531726
  0
LINE
  5
225
100
AcDbEntity
  8
0
100
AcDbLine
 62
7
  6
BYLAYER
 10
68.5070041662
 20
107.108366358
 11
58.253877824
 21
113.0278776945
  0
LINE
  5
226
100
AcDbEntity
  8
0
100
AcDbLine
 62
7
  6
BYLAYER
 10
48.8847006694
 20
112.5264470436
 11
49.9809800623
 21
111.8351102658
  0
LINE
  5
227
100
AcDbEntity
  8
0
100
AcDbLine
 62
7
  6
BYLAYER
 10
48.8847006694
 20
112.5264470436
 11
49.9793289435
 21
111.8076589648
  0
LWPOLYLINE
  5
228
100
AcDbEntity
  8
0
100
AcDbPolyline
 62
7
  6
BYLAYER
 90
3
 70
0
 10
48.1588305161
 20
113.2472699981
 10
48.5009227475
 20
112.4331933288
 10
48.8143750837
 20
112.0026514037
  0
LINE
  5
229
100
AcDbEntity
  8
0
100
AcDbLine
 62
7
  6
BYLAYER
 10
40.2226549039
 20
244.3214230272
 11
40.2226549039
 21
246.7709302786
  0
LINE
  5
22A
100
AcDbEntity
  8
0
100
AcDbLine
 62
7
  6
BYLAYER
 10
40.3438987043
 20
207.9868429707
 11
40.3438987043
 21
179.8175095594
  0
LINE
  5
22B
100
AcDbEntity
  8
0
100
AcDbLine
 62
7
  6
BYLAYER
 10
40.9296910299
 20
179.0010212516
 11
40.9296910299
 21
207.1703546531
  0
LINE
  5
22C
100
AcDbEntity
  8
0
100
AcDbLine
 62
7
  6
BYLAYER
 10
109.9026864476
 20
290.7679181674
 11
60.0518659665
 21
261.986705344
  0
LINE
  5
22D
100
AcDbEntity
  8
0
100
AcDbLine
 62
7
  6
BYLAYER
 10
60.551863728
 20
261.9371810649
 11
110.4026842271
 21
290.7183938988
  0
LINE
  5
22E
100
AcDbEntity
  8
0
100
AcDbLine
 62
7
  6
BYLAYER
 10
136.7423286836
 20
302.9045084906
 11
112.6060642672
 21
288.9695129133
  0
LINE
  5
22F
100
AcDbEntity
  8
0
100
AcDbLine
 62
7
  6
BYLAYER
 10
40.5762068225
 20
247.3833035641
 11
64.7124712388
 21
261.3182991414
  0
LINE
  5
230
100
AcDbEntity
  8
0
100
AcDbLine
 62
7
  6
BYLAYER
 10
65.324841125
 20
261.263597741
 11
111.9936943811
 21
288.2077118965
  0
LINE
  5
231
100
AcDbEntity
  8
0
100
AcDbLine
 62
7
  6
BYLAYER
 10
53.1273573404
 20
246.6689094385
 11
58.0770842009
 21
249.5266185156
  0
LINE
  5
232
100
AcDbEntity
  8
0
100
AcDbLine
 62
7
  6
BYLAYER
 10
133.0300909456
 20
292.800498826
 11
137.9798178061
 21
295.6582079031
  0
LINE
  5
233
100
AcDbEntity
  8
0
100
AcDbLine
 62
7
  6
BYLAYER
 10
48.0918089437
 20
113.7666621524
 11
48.1588305161
 21
113.2472699981
  0
LINE
  5
234
100
AcDbEntity
  8
0
100
AcDbLine
 62
7
  6
BYLAYER
 10
44.8189652682
 20
146.2190144545
 11
44.8189652682
 21
143.7695072031
  0
LINE
  5
235
100
AcDbEntity
  8
0
100
AcDbLine
 62
7
  6
BYLAYER
 10
47.4756885112
 20
115.069071269
 11
47.4756885112
 21
145.3033579268
  0
LINE
  5
236
100
AcDbEntity
  8
0
100
AcDbLine
 62
7
  6
BYLAYER
 10
47.4756885112
 20
152.3200265288
 11
47.4756885112
 21
154.0194629129
  0
LINE
  5
237
100
AcDbEntity
  8
0
100
AcDbLine
 62
7
  6
BYLAYER
 10
47.8292419018
 20
184.7167283
 11
47.8292419018
 21
161.3508677283
  0
LINE
  5
238
100
AcDbEntity
  8
0
100
AcDbLine
 62
7
  6
BYLAYER
 10
48.0918048875
 20
113.7660264553
 11
48.0918048875
 21
114.1420601639
  0
LINE
  5
239
100
AcDbEntity
  8
0
100
AcDbLine
 62
7
  6
BYLAYER
 10
48.3543769995
 20
113.8443388074
 11
48.3543769995
 21
145.8106659338
  0
LINE
  5
23A
100
AcDbEntity
  8
0
100
AcDbLine
 62
7
  6
BYLAYER
 10
48.3543769995
 20
152.8200368074
 11
48.3543769995
 21
153.5283839096
  0
LINE
  5
23B
100
AcDbEntity
  8
0
100
AcDbLine
 62
7
  6
BYLAYER
 10
48.5311491317
 20
113.1536602245
 11
48.5311491317
 21
113.7422816782
  0
LINE
  5
23C
100
AcDbEntity
  8
0
100
AcDbLine
 62
7
  6
BYLAYER
 10
48.7079303901
 20
161.323994608
 11
48.7079303901
 21
183.4919958384
  0
LINE
  5
23D
100
AcDbEntity
  8
0
100
AcDbLine
 62
7
  6
BYLAYER
 10
49.0614528691
 20
186.1455658418
 11
49.0614528691
 21
187.7785424573
  0
LINE
  5
23E
100
AcDbEntity
  8
0
100
AcDbLine
 62
7
  6
BYLAYER
 10
50.4756723194
 20
201.6591044566
 11
50.4756723194
 21
186.9620609483
  0
LINE
  5
23F
100
AcDbEntity
  8
0
100
AcDbLine
 62
7
  6
BYLAYER
 10
50.475706175
 20
112.6196165439
 11
50.475706175
 21
147.0354085936
  0
LINE
  5
240
100
AcDbEntity
  8
0
100
AcDbLine
 62
7
  6
BYLAYER
 10
50.6524821343
 20
161.3239992821
 11
50.6524821343
 21
182.3693337635
  0
LINE
  5
241
100
AcDbEntity
  8
0
100
AcDbLine
 62
7
  6
BYLAYER
 10
51.1828100122
 20
147.4436527475
 11
51.1828100122
 21
113.0278606977
  0
LINE
  5
242
100
AcDbEntity
  8
0
100
AcDbLine
 62
7
  6
BYLAYER
 10
51.2181648986
 20
182.6959289102
 11
51.2181643415
 21
161.3240006418
  0
LWPOLYLINE
  5
243
100
AcDbEntity
  8
0
100
AcDbPolyline
 62
7
  6
BYLAYER
 90
4
 70
0
 10
56.1014455657
 20
223.7154002154
 10
56.0240644981
 20
223.329772793
 10
55.8123680326
 20
223.0122171506
 10
55.6014594886
 20
222.8494729275
  0
LINE
  5
244
100
AcDbEntity
  8
0
100
AcDbLine
 62
7
  6
BYLAYER
 10
53.7719114002
 20
243.7750310086
 11
58.0770842009
 21
246.2606088471
  0
LINE
  5
245
100
AcDbEntity
  8
0
100
AcDbLine
 62
7
  6
BYLAYER
 10
133.6746450053
 20
289.906620396
 11
137.9798178061
 21
292.3921982345
  0
LINE
  5
246
100
AcDbEntity
  8
0
100
AcDbLine
 62
7
  6
BYLAYER
 10
142.5760310195
 20
293.0046429987
 11
137.626304159
 21
290.1469339216
  0
LINE
  5
247
100
AcDbEntity
  8
0
100
AcDbLine
 62
7
  6
BYLAYER
 10
62.6732974143
 20
246.8730536112
 11
57.7235705539
 21
244.0153445341
  0
LINE
  5
248
100
AcDbEntity
  8
0
100
AcDbLine
 62
7
  6
BYLAYER
 10
157.4999280435
 20
100.1508232306
 11
158.6634308272
 21
100.0468905699
  0
LINE
  5
249
100
AcDbEntity
  8
0
100
AcDbLine
 62
7
  6
BYLAYER
 10
73.1033542741
 20
127.4398770223
 11
58.9611597712
 21
135.6046921127
  0
LINE
  5
24A
100
AcDbEntity
  8
0
100
AcDbLine
 62
7
  6
BYLAYER
 10
44.8189652682
 20
143.7695072031
 11
30.6767707653
 21
151.9343222936
  0
LINE
  5
24B
100
AcDbEntity
  8
0
100
AcDbLine
 62
7
  6
BYLAYER
 10
87.2455487771
 20
119.2750619319
 11
101.38774328
 21
111.1102468415
  0
LINE
  5
24C
100
AcDbEntity
  8
0
100
AcDbLine
 62
7
  6
BYLAYER
 10
53.1273573404
 20
244.1441628196
 11
53.1273573404
 21
246.6689094385
  0
LINE
  5
24D
100
AcDbEntity
  8
0
100
AcDbLine
 62
7
  6
BYLAYER
 10
54.75369911
 20
161.3240091402
 11
54.75369911
 21
182.695937585
  0
LINE
  5
24E
100
AcDbEntity
  8
0
100
AcDbLine
 62
7
  6
BYLAYER
 10
56.1014630417
 20
225.8171882733
 11
56.1014630417
 21
223.7155874642
  0
LINE
  5
24F
100
AcDbEntity
  8
0
100
AcDbLine
 62
7
  6
BYLAYER
 10
56.369409235
 20
223.7721361607
 11
56.3694174403
 21
225.4607863077
  0
LINE
  5
250
100
AcDbEntity
  8
0
100
AcDbLine
 62
7
  6
BYLAYER
 10
56.4860549357
 20
199.4306585712
 11
56.4860549357
 21
190.4321362562
  0
LINE
  5
251
100
AcDbEntity
  8
0
100
AcDbLine
 62
7
  6
BYLAYER
 10
58.0770842009
 20
249.5266185156
 11
58.0770842009
 21
246.2606088471
  0
LINE
  5
252
100
AcDbEntity
  8
0
100
AcDbLine
 62
7
  6
BYLAYER
 10
58.253877824
 20
113.0278776945
 11
58.253877824
 21
151.5261112831
  0
LINE
  5
253
100
AcDbEntity
  8
0
100
AcDbLine
 62
7
  6
BYLAYER
 10
58.8447598909
 20
259.8959320278
 11
58.8447598909
 21
257.930594637
  0
LINE
  5
254
100
AcDbEntity
  8
0
100
AcDbLine
 62
7
  6
BYLAYER
 10
58.8447598909
 20
246.4842451427
 11
58.8447598909
 21
244.6626596357
  0
LINE
  5
255
100
AcDbEntity
  8
0
100
AcDbLine
 62
7
  6
BYLAYER
 10
58.8447598909
 20
233.4010826761
 11
58.8447598909
 21
219.7240131541
  0
LINE
  5
256
100
AcDbEntity
  8
0
100
AcDbLine
 62
7
  6
BYLAYER
 10
58.9611597712
 20
138.0541993641
 11
58.9611597712
 21
135.6046921127
  0
LINE
  5
257
100
AcDbEntity
  8
0
100
AcDbLine
 62
7
  6
BYLAYER
 10
59.1376560537
 20
219.3157690002
 11
59.1376560537
 21
233.2319828232
  0
LINE
  5
258
100
AcDbEntity
  8
0
100
AcDbLine
 62
7
  6
BYLAYER
 10
59.1376560537
 20
244.8317623047
 11
59.1376560537
 21
246.5695705134
  0
LINE
  5
259
100
AcDbEntity
  8
0
100
AcDbLine
 62
7
  6
BYLAYER
 10
59.1376560537
 20
258.099697306
 11
59.1376560537
 21
259.4876879094
  0
LINE
  5
25A
100
AcDbEntity
  8
0
100
AcDbLine
 62
7
  6
BYLAYER
 10
59.6662786097
 20
154.7910636408
 11
59.6662786097
 21
152.3415563894
  0
LINE
  5
25B
100
AcDbEntity
  8
0
100
AcDbLine
 62
7
  6
BYLAYER
 10
61.787595295
 20
152.8488601722
 11
61.787595295
 21
155.2983674236
  0
LINE
  5
25C
100
AcDbEntity
  8
0
100
AcDbLine
 62
7
  6
BYLAYER
 10
56.7967138141
 20
200.4760480816
 11
65.2541425171
 21
215.1248256139
  0
LINE
  5
25D
100
AcDbEntity
  8
0
100
AcDbLine
 62
7
  6
BYLAYER
 10
51.8376628297
 20
186.7605127873
 11
52.6931901702
 21
188.2423378342
  0
LINE
  5
25E
100
AcDbEntity
  8
0
100
AcDbLine
 62
7
  6
BYLAYER
 10
111.9936943811
 20
288.2077118965
 11
112.6060642672
 21
288.9695129133
  0
LWPOLYLINE
  5
25F
100
AcDbEntity
  8
0
100
AcDbPolyline
 62
7
  6
BYLAYER
 90
4
 70
0
 10
56.6016691026
 20
226.6929969675
 10
56.3882829486
 20
226.5278557194
 10
56.1770423928
 20
226.2082729098
 10
56.1015246301
 20
225.8156368539
  0
LINE
  5
260
100
AcDbEntity
  8
0
100
AcDbLine
 62
7
  6
BYLAYER
 10
58.8447598909
 20
227.9879845332
 11
56.6018090482
 21
226.6930239903
  0
LINE
  5
261
100
AcDbEntity
  8
0
100
AcDbLine
 62
7
  6
BYLAYER
 10
57.3694153123
 20
226.4598061818
 11
58.8447598909
 21
227.3115916879
  0
LINE
  5
262
100
AcDbEntity
  8
0
100
AcDbLine
 62
7
  6
BYLAYER
 10
73.1033542741
 20
129.8893842737
 11
58.9611597712
 21
138.0541993641
  0
LINE
  5
263
100
AcDbEntity
  8
0
100
AcDbLine
 62
7
  6
BYLAYER
 10
44.8189652682
 20
146.2190144545
 11
30.6767707653
 21
154.3838295449
  0
LINE
  5
264
100
AcDbEntity
  8
0
100
AcDbLine
 62
7
  6
BYLAYER
 10
87.2455487771
 20
121.7245691833
 11
101.38774328
 21
113.5597540929
  0
LINE
  5
265
100
AcDbEntity
  8
0
100
AcDbLine
 62
7
  6
BYLAYER
 10
63.7338692671
 20
230.5784179188
 11
63.7338692671
 21
216.6622040958
  0
LINE
  5
266
100
AcDbEntity
  8
0
100
AcDbLine
 62
7
  6
BYLAYER
 10
64.1106400328
 20
155.2983730075
 11
64.1106400328
 21
152.8488657561
  0
LINE
  5
267
100
AcDbEntity
  8
0
100
AcDbLine
 62
7
  6
BYLAYER
 10
65.2541425171
 20
215.1248256139
 11
65.2541425171
 21
229.7007076052
  0
LINE
  5
268
100
AcDbEntity
  8
0
100
AcDbLine
 62
7
  6
BYLAYER
 10
66.2442321436
 20
149.2807460421
 11
66.2442321436
 21
155.7311151375
  0
LINE
  5
269
100
AcDbEntity
  8
0
100
AcDbLine
 62
7
  6
BYLAYER
 10
68.5070041662
 20
102.2094773036
 11
68.5070041662
 21
130.093520961
  0
LINE
  5
26A
100
AcDbEntity
  8
0
100
AcDbLine
 62
7
  6
BYLAYER
 10
68.5070041662
 20
143.5654622974
 11
68.5070041662
 21
145.0758542029
  0
LINE
  5
26B
100
AcDbEntity
  8
0
100
AcDbLine
 62
7
  6
BYLAYER
 10
68.6837801255
 20
145.1779152414
 11
68.6837801255
 21
171.9591945232
  0
LINE
  5
26C
100
AcDbEntity
  8
0
100
AcDbLine
 62
7
  6
BYLAYER
 10
69.2494484755
 20
174.3270021173
 11
69.2494484755
 21
172.2857898463
  0
LINE
  5
26D
100
AcDbEntity
  8
0
100
AcDbLine
 62
7
  6
BYLAYER
 10
73.1033542741
 20
129.8893842737
 11
73.1033542741
 21
127.4398770223
  0
LINE
  5
26E
100
AcDbEntity
  8
0
100
AcDbLine
 62
7
  6
BYLAYER
 10
73.4567722423
 20
99.3517920219
 11
73.4567722423
 21
127.6439217634
  0
LINE
  5
26F
100
AcDbEntity
  8
0
100
AcDbLine
 62
7
  6
BYLAYER
 10
73.4567722423
 20
135.5465658811
 11
73.4567722423
 21
138.1933725907
  0
LINE
  5
270
100
AcDbEntity
  8
0
100
AcDbLine
 62
7
  6
BYLAYER
 10
73.4568119858
 20
225.1341075647
 11
73.4568119858
 21
227.5836148161
  0
LINE
  5
271
100
AcDbEntity
  8
0
100
AcDbLine
 62
7
  6
BYLAYER
 10
55.6014468742
 20
222.8494583989
 11
45.5865262062
 21
217.0673757697
  0
LINE
  5
272
100
AcDbEntity
  8
0
100
AcDbLine
 62
7
  6
BYLAYER
 10
46.5865217287
 20
216.9683272113
 11
55.9053197586
 21
222.3485056552
  0
LINE
  5
273
100
AcDbEntity
  8
0
100
AcDbLine
 62
7
  6
BYLAYER
 10
58.4935288775
 20
219.7603584199
 11
58.4305404406
 21
219.723992246
  0
LINE
  5
274
100
AcDbEntity
  8
0
100
AcDbLine
 62
7
  6
BYLAYER
 10
77.3458992823
 20
227.9918753729
 11
86.3614732068
 21
233.1969883348
  0
LINE
  5
275
100
AcDbEntity
  8
0
100
AcDbLine
 62
7
  6
BYLAYER
 10
161.3144799514
 20
276.4708686451
 11
170.3300538759
 21
281.675981607
  0
LINE
  5
276
100
AcDbEntity
  8
0
100
AcDbLine
 62
7
  6
BYLAYER
 10
77.3458992823
 20
224.7258657044
 11
86.3614732068
 21
229.9309786662
  0
LINE
  5
277
100
AcDbEntity
  8
0
100
AcDbLine
 62
7
  6
BYLAYER
 10
161.9590340112
 20
273.5769902152
 11
170.3300538759
 21
278.4099719385
  0
LINE
  5
278
100
AcDbEntity
  8
0
100
AcDbLine
 62
7
  6
BYLAYER
 10
151.592392455
 20
96.7401263275
 11
120.4795645486
 21
114.7027195264
  0
LINE
  5
279
100
AcDbEntity
  8
0
100
AcDbLine
 62
7
  6
BYLAYER
 10
68.5070041662
 20
145.0758542029
 11
69.8150606258
 21
144.3206645385
  0
LINE
  5
27A
100
AcDbEntity
  8
0
100
AcDbLine
 62
7
  6
BYLAYER
 10
91.4880702335
 20
131.808029681
 11
96.4378383095
 21
128.9503443993
  0
LINE
  5
27B
100
AcDbEntity
  8
0
100
AcDbLine
 62
7
  6
BYLAYER
 10
114.4691363008
 20
118.5402051591
 11
116.5904654762
 21
117.3154828955
  0
LINE
  5
27C
100
AcDbEntity
  8
0
100
AcDbLine
 62
7
  6
BYLAYER
 10
68.6837801255
 20
145.1779152414
 11
69.9918365851
 21
144.422725577
  0
LINE
  5
27D
100
AcDbEntity
  8
0
100
AcDbLine
 62
7
  6
BYLAYER
 10
91.6648461928
 20
131.9100907194
 11
96.6146142688
 21
129.0524054378
  0
LINE
  5
27E
100
AcDbEntity
  8
0
100
AcDbLine
 62
7
  6
BYLAYER
 10
114.6459122601
 20
118.6422661975
 11
116.5904640042
 21
117.5196041226
  0
LINE
  5
27F
100
AcDbEntity
  8
0
100
AcDbLine
 62
7
  6
BYLAYER
 10
149.9660400872
 20
99.4753853806
 11
151.592392455
 21
98.5364316452
  0
LINE
  5
280
100
AcDbEntity
  8
0
100
AcDbLine
 62
7
  6
BYLAYER
 10
120.4795645486
 20
116.5806750858
 11
119.0653450983
 21
117.3971565948
  0
LINE
  5
281
100
AcDbEntity
  8
0
100
AcDbLine
 62
7
  6
BYLAYER
 10
66.2442321436
 20
149.2807460421
 11
68.6837801255
 21
147.8723042213
  0
LINE
  5
282
100
AcDbEntity
  8
0
100
AcDbLine
 62
7
  6
BYLAYER
 10
89.2252982109
 20
136.0129215202
 11
91.6648461928
 21
134.6044796994
  0
LINE
  5
283
100
AcDbEntity
  8
0
100
AcDbLine
 62
7
  6
BYLAYER
 10
114.8227102991
 20
122.1328779249
 11
114.2871741636
 21
122.4420628622
  0
LINE
  5
284
100
AcDbEntity
  8
0
100
AcDbLine
 62
7
  6
BYLAYER
 10
45.5259572347
 20
162.1404718678
 11
46.0614933703
 21
161.8312869305
  0
LINE
  5
285
100
AcDbEntity
  8
0
100
AcDbLine
 62
7
  6
BYLAYER
 10
89.2252982109
 20
138.0133012175
 11
88.5454077539
 21
138.4058272757
  0
LINE
  5
286
100
AcDbEntity
  8
0
100
AcDbLine
 62
7
  6
BYLAYER
 10
66.2442321436
 20
151.2811257394
 11
63.5287677735
 21
152.8488643575
  0
LINE
  5
287
100
AcDbEntity
  8
0
100
AcDbLine
 62
7
  6
BYLAYER
 10
113.4084508109
 20
128.501456811
 11
103.7210475764
 21
134.0943551479
  0
LINE
  5
288
100
AcDbEntity
  8
0
100
AcDbLine
 62
7
  6
BYLAYER
 10
89.303801535
 20
142.4179677256
 11
80.661478185
 21
147.4075025598
  0
LINE
  5
289
100
AcDbEntity
  8
0
100
AcDbLine
 62
7
  6
BYLAYER
 10
66.2442321436
 20
155.7311151375
 11
56.5568289091
 21
161.3240134744
  0
LINE
  5
28A
100
AcDbEntity
  8
0
100
AcDbLine
 62
7
  6
BYLAYER
 10
40.3262164874
 20
244.0925393467
 11
40.2226549039
 21
244.3214230272
  0
LINE
  5
28B
100
AcDbEntity
  8
0
100
AcDbLine
 62
7
  6
BYLAYER
 10
73.6335482016
 20
146.2874764727
 11
73.6335482016
 21
169.1015092416
  0
LINE
  5
28C
100
AcDbEntity
  8
0
100
AcDbLine
 62
7
  6
BYLAYER
 10
74.1638760795
 20
138.0387882331
 11
74.1638760795
 21
135.6354556234
  0
LINE
  5
28D
100
AcDbEntity
  8
0
100
AcDbLine
 62
7
  6
BYLAYER
 10
74.1638760795
 20
128.0521659173
 11
74.1638760795
 21
99.7600361758
  0
LINE
  5
28E
100
AcDbEntity
  8
0
100
AcDbLine
 62
7
  6
BYLAYER
 10
74.1992309659
 20
169.4281043883
 11
74.1992303653
 21
146.3886336799
  0
LINE
  5
28F
100
AcDbEntity
  8
0
100
AcDbLine
 62
7
  6
BYLAYER
 10
77.3458992823
 20
224.7258657044
 11
77.3458992823
 21
227.9918753729
  0
LINE
  5
290
100
AcDbEntity
  8
0
100
AcDbLine
 62
7
  6
BYLAYER
 10
77.7347651772
 20
146.9355841082
 11
77.7347651772
 21
169.428113063
  0
LINE
  5
291
100
AcDbEntity
  8
0
100
AcDbLine
 62
7
  6
BYLAYER
 10
81.2349438913
 20
99.7600531726
 11
81.2349438913
 21
132.1346244529
  0
LINE
  5
292
100
AcDbEntity
  8
0
100
AcDbLine
 62
7
  6
BYLAYER
 10
81.9421124958
 20
225.3383104685
 11
81.9421278252
 21
220.0661238346
  0
LINE
  5
293
100
AcDbEntity
  8
0
100
AcDbLine
 62
7
  6
BYLAYER
 10
63.0267654299
 20
215.4374575248
 11
56.1325030171
 21
211.4570770246
  0
LINE
  5
294
100
AcDbEntity
  8
0
100
AcDbLine
 62
7
  6
BYLAYER
 10
174.9262670894
 20
279.0224167026
 11
165.9106931649
 21
273.8173037408
  0
LINE
  5
295
100
AcDbEntity
  8
0
100
AcDbLine
 62
7
  6
BYLAYER
 10
90.9576864202
 20
230.5434234304
 11
81.9421124958
 21
225.3383104685
  0
LINE
  5
296
100
AcDbEntity
  8
0
100
AcDbLine
 62
7
  6
BYLAYER
 10
206.9971966485
 20
128.7279140016
 11
208.1606994322
 21
128.6239813409
  0
LINE
  5
297
100
AcDbEntity
  8
0
100
AcDbLine
 62
7
  6
BYLAYER
 10
41.3439156713
 20
178.085448956
 11
47.8292419018
 21
174.3412288167
  0
LINE
  5
298
100
AcDbEntity
  8
0
100
AcDbLine
 62
7
  6
BYLAYER
 10
47.8292419018
 20
175.0176538143
 11
40.9296910299
 21
179.0010212516
  0
LINE
  5
299
100
AcDbEntity
  8
0
100
AcDbLine
 62
7
  6
BYLAYER
 10
115.115584769
 20
121.724633771
 11
114.8227102991
 21
122.1328779249
  0
LINE
  5
29A
100
AcDbEntity
  8
0
100
AcDbLine
 62
7
  6
BYLAYER
 10
86.3614732068
 20
233.1969883348
 11
86.3614732068
 21
229.9309786662
  0
LINE
  5
29B
100
AcDbEntity
  8
0
100
AcDbLine
 62
7
  6
BYLAYER
 10
86.677027312
 20
137.7261012771
 11
86.677027312
 21
135.2765940257
  0
LINE
  5
29C
100
AcDbEntity
  8
0
100
AcDbLine
 62
7
  6
BYLAYER
 10
87.2455487771
 20
119.2750619319
 11
87.2455487771
 21
121.7245691833
  0
LINE
  5
29D
100
AcDbEntity
  8
0
100
AcDbLine
 62
7
  6
BYLAYER
 10
87.4534788481
 20
136.0530419273
 11
87.4534788481
 21
138.5025491787
  0
LINE
  5
29E
100
AcDbEntity
  8
0
100
AcDbLine
 62
7
  6
BYLAYER
 10
89.159666382
 20
142.1788810444
 11
89.159666382
 21
139.729373793
  0
LINE
  5
29F
100
AcDbEntity
  8
0
100
AcDbLine
 62
7
  6
BYLAYER
 10
89.2252982109
 20
136.0129215202
 11
89.2252982109
 21
139.8507649324
  0
LINE
  5
2A0
100
AcDbEntity
  8
0
100
AcDbLine
 62
7
  6
BYLAYER
 10
89.303801535
 20
139.9684604742
 11
89.303801535
 21
142.4179677256
  0
LINE
  5
2A1
100
AcDbEntity
  8
0
100
AcDbLine
 62
7
  6
BYLAYER
 10
91.4880702335
 20
88.9416527817
 11
91.4880702335
 21
116.8256964391
  0
LINE
  5
2A2
100
AcDbEntity
  8
0
100
AcDbLine
 62
7
  6
BYLAYER
 10
91.4880702335
 20
124.1739754672
 11
91.4880702335
 21
131.808029681
  0
LINE
  5
2A3
100
AcDbEntity
  8
0
100
AcDbLine
 62
7
  6
BYLAYER
 10
91.6648461928
 20
131.9100907194
 11
91.6648461928
 21
158.6913700013
  0
LINE
  5
2A4
100
AcDbEntity
  8
0
100
AcDbLine
 62
7
  6
BYLAYER
 10
92.2305145427
 20
161.0591775954
 11
92.2305145427
 21
159.0179653244
  0
LINE
  5
2A5
100
AcDbEntity
  8
0
100
AcDbLine
 62
7
  6
BYLAYER
 10
56.4860549357
 20
190.4321362562
 11
48.7079127263
 21
185.9414505636
  0
LINE
  5
2A6
100
AcDbEntity
  8
0
100
AcDbLine
 62
7
  6
BYLAYER
 10
154.3921846223
 20
137.8038875888
 11
157.0666867897
 21
137.296322874
  0
LINE
  5
2A7
100
AcDbEntity
  8
0
100
AcDbLine
 62
7
  6
BYLAYER
 10
172.4519556529
 20
108.8241539876
 11
173.1590594901
 21
108.4158957243
  0
LINE
  5
2A8
100
AcDbEntity
  8
0
100
AcDbLine
 62
7
  6
BYLAYER
 10
48.7079303901
 20
183.4919958384
 11
50.6524821343
 21
182.3693337635
  0
LINE
  5
2A9
100
AcDbEntity
  8
0
100
AcDbLine
 62
7
  6
BYLAYER
 10
68.6837801255
 20
171.9591945232
 11
73.6335482016
 21
169.1015092416
  0
LINE
  5
2AA
100
AcDbEntity
  8
0
100
AcDbLine
 62
7
  6
BYLAYER
 10
91.6648461928
 20
158.6913700013
 11
96.6146142688
 21
155.8336847197
  0
LINE
  5
2AB
100
AcDbEntity
  8
0
100
AcDbLine
 62
7
  6
BYLAYER
 10
114.6459122601
 20
145.4235454794
 11
116.5904640042
 21
144.3008834045
  0
LINE
  5
2AC
100
AcDbEntity
  8
0
100
AcDbLine
 62
7
  6
BYLAYER
 10
150.8852132523
 20
125.9706958036
 11
147.7032052447
 21
127.8077874227
  0
LINE
  5
2AD
100
AcDbEntity
  8
0
100
AcDbLine
 62
7
  6
BYLAYER
 10
147.9126191045
 20
128.8299591223
 11
151.8751586244
 21
126.542237619
  0
LINE
  5
2AE
100
AcDbEntity
  8
0
100
AcDbLine
 62
7
  6
BYLAYER
 10
54.75369911
 20
182.695937585
 11
69.2494484755
 21
174.3270021173
  0
LINE
  5
2AF
100
AcDbEntity
  8
0
100
AcDbLine
 62
7
  6
BYLAYER
 10
77.7347651772
 20
169.428113063
 11
92.2305145427
 21
161.0591775954
  0
LINE
  5
2B0
100
AcDbEntity
  8
0
100
AcDbLine
 62
7
  6
BYLAYER
 10
100.7158312445
 20
156.1602885411
 11
115.21158061
 21
147.7913530735
  0
LINE
  5
2B1
100
AcDbEntity
  8
0
100
AcDbLine
 62
7
  6
BYLAYER
 10
50.4756723194
 20
186.9620609483
 11
49.0614528691
 21
187.7785424573
  0
LINE
  5
2B2
100
AcDbEntity
  8
0
100
AcDbLine
 62
7
  6
BYLAYER
 10
50.829224238
 20
187.1661830252
 11
119.0653450983
 21
147.7709315177
  0
LINE
  5
2B3
100
AcDbEntity
  8
0
100
AcDbLine
 62
7
  6
BYLAYER
 10
119.0653450983
 20
147.9474704009
 11
51.8376628297
 21
186.7605127873
  0
LINE
  5
2B4
100
AcDbEntity
  8
0
100
AcDbLine
 62
7
  6
BYLAYER
 10
96.4378383095
 20
86.0839675
 11
96.4378383095
 21
113.9680111574
  0
LINE
  5
2B5
100
AcDbEntity
  8
0
100
AcDbLine
 62
7
  6
BYLAYER
 10
96.4378383095
 20
127.03170834
 11
96.4378383095
 21
128.9503443993
  0
LINE
  5
2B6
100
AcDbEntity
  8
0
100
AcDbLine
 62
7
  6
BYLAYER
 10
96.6146142688
 20
129.0524054378
 11
96.6146142688
 21
155.8336847197
  0
LINE
  5
2B7
100
AcDbEntity
  8
0
100
AcDbLine
 62
7
  6
BYLAYER
 10
97.1449421467
 20
129.3585885532
 11
97.1449421467
 21
127.4399524939
  0
LINE
  5
2B8
100
AcDbEntity
  8
0
100
AcDbLine
 62
7
  6
BYLAYER
 10
97.1449421467
 20
113.5597738022
 11
97.1449421467
 21
86.4922116539
  0
LINE
  5
2B9
100
AcDbEntity
  8
0
100
AcDbLine
 62
7
  6
BYLAYER
 10
97.1802970332
 20
156.1602798664
 11
97.180296335
 21
129.3790001815
  0
LINE
  5
2BA
100
AcDbEntity
  8
0
100
AcDbLine
 62
7
  6
BYLAYER
 10
100.7158312445
 20
129.5015939694
 11
100.7158312445
 21
156.1602885411
  0
LINE
  5
2BB
100
AcDbEntity
  8
0
100
AcDbLine
 62
7
  6
BYLAYER
 10
101.38774328
 20
111.1102468415
 11
101.38774328
 21
113.5597540929
  0
LINE
  5
2BC
100
AcDbEntity
  8
0
100
AcDbLine
 62
7
  6
BYLAYER
 10
102.9715232713
 20
132.8625391752
 11
102.9715329431
 21
131.5213478442
  0
LINE
  5
2BD
100
AcDbEntity
  8
0
100
AcDbLine
 62
7
  6
BYLAYER
 10
103.7210475764
 20
134.0530663054
 11
103.7210475764
 21
134.0943551479
  0
LINE
  5
2BE
100
AcDbEntity
  8
0
100
AcDbLine
 62
7
  6
BYLAYER
 10
104.2160099585
 20
86.4922286507
 11
104.2160099585
 21
112.7431376227
  0
LINE
  5
2BF
100
AcDbEntity
  8
0
100
AcDbLine
 62
7
  6
BYLAYER
 10
104.2160099585
 20
119.7348279187
 11
104.2160099585
 21
121.2806883138
  0
LINE
  5
2C0
100
AcDbEntity
  8
0
100
AcDbLine
 62
7
  6
BYLAYER
 10
50.6524821343
 20
182.3693337635
 11
51.2181648986
 21
182.6959289102
  0
LINE
  5
2C1
100
AcDbEntity
  8
0
100
AcDbLine
 62
7
  6
BYLAYER
 10
109.6961353522
 20
214.0096490769
 11
114.6458622127
 21
216.867358154
  0
LINE
  5
2C2
100
AcDbEntity
  8
0
100
AcDbLine
 62
7
  6
BYLAYER
 10
189.5988689573
 20
260.1412384643
 11
194.5485958178
 21
262.9989475414
  0
LINE
  5
2C3
100
AcDbEntity
  8
0
100
AcDbLine
 62
7
  6
BYLAYER
 10
110.3406894119
 20
211.1157706469
 11
114.6458622127
 21
213.6013484854
  0
LINE
  5
2C4
100
AcDbEntity
  8
0
100
AcDbLine
 62
7
  6
BYLAYER
 10
190.2434230171
 20
257.2473600344
 11
194.5485958178
 21
259.7329378729
  0
LINE
  5
2C5
100
AcDbEntity
  8
0
100
AcDbLine
 62
7
  6
BYLAYER
 10
199.1448090313
 20
260.3453826371
 11
194.1950821708
 21
257.48767356
  0
LINE
  5
2C6
100
AcDbEntity
  8
0
100
AcDbLine
 62
7
  6
BYLAYER
 10
119.2420754261
 20
214.2137932496
 11
114.2923485656
 21
211.3560841725
  0
LINE
  5
2C7
100
AcDbEntity
  8
0
100
AcDbLine
 62
7
  6
BYLAYER
 10
80.2473631857
 20
147.3242852892
 11
73.8796927846
 21
146.3392009276
  0
LINE
  5
2C8
100
AcDbEntity
  8
0
100
AcDbLine
 62
7
  6
BYLAYER
 10
64.1106400328
 20
152.8488657561
 11
61.787595295
 21
152.8488601722
  0
LINE
  5
2C9
100
AcDbEntity
  8
0
100
AcDbLine
 62
7
  6
BYLAYER
 10
61.787595295
 20
155.2983674236
 11
64.1106400328
 21
155.2983730075
  0
LINE
  5
2CA
100
AcDbEntity
  8
0
100
AcDbLine
 62
7
  6
BYLAYER
 10
53.4002541847
 20
188.6505589965
 11
119.0653450983
 21
150.7396587403
  0
LINE
  5
2CB
100
AcDbEntity
  8
0
100
AcDbLine
 62
7
  6
BYLAYER
 10
54.7182681819
 20
189.4115101903
 11
119.0653450983
 21
152.2615484555
  0
LINE
  5
2CC
100
AcDbEntity
  8
0
100
AcDbLine
 62
7
  6
BYLAYER
 10
119.0653450983
 20
153.8945323817
 11
56.1324939635
 21
190.2280089522
  0
LINE
  5
2CD
100
AcDbEntity
  8
0
100
AcDbLine
 62
7
  6
BYLAYER
 10
119.0653450983
 20
157.9773267262
 11
140.1724200387
 21
145.7914270094
  0
LINE
  5
2CE
100
AcDbEntity
  8
0
100
AcDbLine
 62
7
  6
BYLAYER
 10
58.4935288775
 20
219.7603584199
 11
55.9053197586
 21
222.3485056552
  0
LINE
  5
2CF
100
AcDbEntity
  8
0
100
AcDbLine
 62
7
  6
BYLAYER
 10
56.3694133376
 20
225.4607829628
 11
56.1014747205
 21
225.8152435894
  0
LINE
  5
2D0
100
AcDbEntity
  8
0
100
AcDbLine
 62
7
  6
BYLAYER
 10
149.9660400872
 20
99.4753853806
 11
142.5413879732
 21
112.3351886829
  0
LINE
  5
2D1
100
AcDbEntity
  8
0
100
AcDbLine
 62
7
  6
BYLAYER
 10
109.6961353522
 20
211.484902458
 11
109.6961353522
 21
214.0096490769
  0
LINE
  5
2D2
100
AcDbEntity
  8
0
100
AcDbLine
 62
7
  6
BYLAYER
 10
113.4084856752
 20
123.6667881127
 11
113.4084508109
 21
128.501456811
  0
LINE
  5
2D3
100
AcDbEntity
  8
0
100
AcDbLine
 62
7
  6
BYLAYER
 10
114.4691363008
 20
75.6738282598
 11
114.4691363008
 21
118.5402051591
  0
LINE
  5
2D4
100
AcDbEntity
  8
0
100
AcDbLine
 62
7
  6
BYLAYER
 10
114.6458622127
 20
216.867358154
 11
114.6458622127
 21
213.6013484854
  0
LINE
  5
2D5
100
AcDbEntity
  8
0
100
AcDbLine
 62
7
  6
BYLAYER
 10
114.6459122601
 20
118.6422661975
 11
114.6459122601
 21
118.7648085796
  0
LINE
  5
2D6
100
AcDbEntity
  8
0
100
AcDbLine
 62
7
  6
BYLAYER
 10
114.6459122601
 20
122.2349500111
 11
114.6459122601
 21
145.4235454794
  0
LINE
  5
2D7
100
AcDbEntity
  8
0
100
AcDbLine
 62
7
  6
BYLAYER
 10
114.8227161871
 20
121.3163930165
 11
114.8227161871
 21
118.8668857651
  0
LINE
  5
2D8
100
AcDbEntity
  8
0
100
AcDbLine
 62
7
  6
BYLAYER
 10
87.4534788481
 20
138.5025491787
 11
89.159666382
 21
142.1788810444
  0
LINE
  5
2D9
100
AcDbEntity
  8
0
100
AcDbLine
 62
7
  6
BYLAYER
 10
89.159666382
 20
139.729373793
 11
87.4534788481
 21
136.0530419273
  0
LINE
  5
2DA
100
AcDbEntity
  8
0
100
AcDbLine
 62
7
  6
BYLAYER
 10
211.6959595492
 20
259.6309885115
 11
187.5596951328
 21
245.6959929341
  0
LINE
  5
2DB
100
AcDbEntity
  8
0
100
AcDbLine
 62
7
  6
BYLAYER
 10
115.5298376881
 20
204.1097835849
 11
139.6661021044
 21
218.0447791622
  0
LINE
  5
2DC
100
AcDbEntity
  8
0
100
AcDbLine
 62
7
  6
BYLAYER
 10
186.9473252467
 20
244.9341919174
 11
140.2784719906
 21
217.9900777619
  0
LINE
  5
2DD
100
AcDbEntity
  8
0
100
AcDbLine
 62
7
  6
BYLAYER
 10
30.6767707653
 20
154.3838295449
 11
44.1117436724
 21
162.1404684685
  0
LINE
  5
2DE
100
AcDbEntity
  8
0
100
AcDbLine
 62
7
  6
BYLAYER
 10
142.4704938859
 20
217.4593293212
 11
184.7553033513
 21
241.8723297227
  0
LINE
  5
2DF
100
AcDbEntity
  8
0
100
AcDbLine
 62
7
  6
BYLAYER
 10
138.1571604789
 20
213.9075868403
 11
115.5298376881
 21
200.8437739164
  0
LINE
  5
2E0
100
AcDbEntity
  8
0
100
AcDbLine
 62
7
  6
BYLAYER
 10
189.0686367583
 20
243.301165919
 11
211.6959595492
 21
256.3649788429
  0
LINE
  5
2E1
100
AcDbEntity
  8
0
100
AcDbLine
 62
7
  6
BYLAYER
 10
68.6837801255
 20
171.9591945232
 11
69.2494630453
 21
172.2857897597
  0
LINE
  5
2E2
100
AcDbEntity
  8
0
100
AcDbLine
 62
7
  6
BYLAYER
 10
56.5568289091
 20
161.3240134744
 11
48.1828173721
 21
161.3239933458
  0
LINE
  5
2E3
100
AcDbEntity
  8
0
100
AcDbLine
 62
7
  6
BYLAYER
 10
40.9296910299
 20
207.1703546531
 11
50.4756723194
 21
201.6591044564
  0
LINE
  5
2E4
100
AcDbEntity
  8
0
100
AcDbLine
 62
7
  6
BYLAYER
 10
56.4860549357
 20
199.4306585712
 11
120.2509496347
 21
162.6168122923
  0
LINE
  5
2E5
100
AcDbEntity
  8
0
100
AcDbLine
 62
7
  6
BYLAYER
 10
120.7544114522
 20
163.5508894922
 11
56.7967138141
 21
200.4760480816
  0
LINE
  5
2E6
100
AcDbEntity
  8
0
100
AcDbLine
 62
7
  6
BYLAYER
 10
144.8317905535
 20
156.1652704546
 11
124.722175796
 21
167.7752992942
  0
LINE
  5
2E7
100
AcDbEntity
  8
0
100
AcDbLine
 62
7
  6
BYLAYER
 10
58.8447598909
 20
221.3803135384
 11
56.7713430766
 21
223.4536792146
  0
LINE
  5
2E8
100
AcDbEntity
  8
0
100
AcDbLine
 62
7
  6
BYLAYER
 10
56.5034051245
 20
225.3546163396
 11
58.8447598909
 21
223.0133184769
  0
LINE
  5
2E9
100
AcDbEntity
  8
0
100
AcDbLine
 62
7
  6
BYLAYER
 10
57.3694153123
 20
226.4598061818
 11
58.8447598909
 21
224.9844970209
  0
LINE
  5
2EA
100
AcDbEntity
  8
0
100
AcDbLine
 62
7
  6
BYLAYER
 10
115.1156064619
 20
119.2751265196
 11
115.1156064619
 21
121.724633771
  0
LINE
  5
2EB
100
AcDbEntity
  8
0
100
AcDbLine
 62
7
  6
BYLAYER
 10
115.1762857695
 20
201.047903048
 11
115.1762857695
 21
203.4974102994
  0
LINE
  5
2EC
100
AcDbEntity
  8
0
100
AcDbLine
 62
7
  6
BYLAYER
 10
115.21158061
 20
147.7913530735
 11
115.21158061
 21
145.7501408025
  0
LINE
  5
2ED
100
AcDbEntity
  8
0
100
AcDbLine
 62
7
  6
BYLAYER
 10
116.5904640042
 20
144.3008834045
 11
116.5904640042
 21
117.5196041226
  0
LINE
  5
2EE
100
AcDbEntity
  8
0
100
AcDbLine
 62
7
  6
BYLAYER
 10
116.5904654762
 20
117.3154828955
 11
116.5904654762
 21
74.4491059962
  0
LINE
  5
2EF
100
AcDbEntity
  8
0
100
AcDbLine
 62
7
  6
BYLAYER
 10
117.6864802511
 20
74.1268925149
 11
117.6864802511
 21
73.3264156186
  0
LINE
  5
2F0
100
AcDbEntity
  8
0
100
AcDbLine
 62
7
  6
BYLAYER
 10
119.0653450983
 20
117.3971565948
 11
119.0653450983
 21
157.9773267262
  0
LINE
  5
2F1
100
AcDbEntity
  8
0
100
AcDbLine
 62
7
  6
BYLAYER
 10
119.8078005946
 20
73.3264207176
 11
119.8078005946
 21
74.1477057809
  0
LINE
  5
2F2
100
AcDbEntity
  8
0
100
AcDbLine
 62
7
  6
BYLAYER
 10
120.4795645486
 20
114.7027195264
 11
120.4795645486
 21
116.5806750858
  0
LINE
  5
2F3
100
AcDbEntity
  8
0
100
AcDbLine
 62
7
  6
BYLAYER
 10
120.8331061633
 20
74.4491161943
 11
120.8331061633
 21
114.4986067976
  0
LINE
  5
2F4
100
AcDbEntity
  8
0
100
AcDbLine
 62
7
  6
BYLAYER
 10
185.8159591071
 20
234.1971964196
 11
178.6742103513
 21
230.0739304655
  0
LINE
  5
2F5
100
AcDbEntity
  8
0
100
AcDbLine
 62
7
  6
BYLAYER
 10
141.4098381301
 20
208.5594635565
 11
148.551586886
 21
212.6827295106
  0
LINE
  5
2F6
100
AcDbEntity
  8
0
100
AcDbLine
 62
7
  6
BYLAYER
 10
73.6335482016
 20
169.1015092416
 11
74.1992312713
 21
169.4281045647
  0
LINE
  5
2F7
100
AcDbEntity
  8
0
100
AcDbLine
 62
7
  6
BYLAYER
 10
148.551586886
 20
210.6414734678
 11
141.4098381301
 21
206.5182075137
  0
LINE
  5
2F8
100
AcDbEntity
  8
0
100
AcDbLine
 62
7
  6
BYLAYER
 10
178.6742103513
 20
228.0326744227
 11
185.8159591071
 21
232.1559403768
  0
LINE
  5
2F9
100
AcDbEntity
  8
0
100
AcDbLine
 62
7
  6
BYLAYER
 10
59.6662786097
 20
154.7910636408
 11
44.8189652682
 21
146.2190144545
  0
LINE
  5
2FA
100
AcDbEntity
  8
0
100
AcDbLine
 62
7
  6
BYLAYER
 10
56.1325030174
 20
211.4570770248
 11
46.5865217287
 21
216.9683272113
  0
LINE
  5
2FB
100
AcDbEntity
  8
0
100
AcDbLine
 62
7
  6
BYLAYER
 10
192.7457604153
 20
132.7472482279
 11
200.1704125294
 21
128.4607203054
  0
LINE
  5
2FC
100
AcDbEntity
  8
0
100
AcDbLine
 62
7
  6
BYLAYER
 10
135.1496012544
 20
173.7955402536
 11
155.259216012
 21
162.185511414
  0
LINE
  5
2FD
100
AcDbEntity
  8
0
100
AcDbLine
 62
7
  6
BYLAYER
 10
58.4305522165
 20
218.0910224292
 11
63.0267654299
 21
215.4374575248
  0
LINE
  5
2FE
100
AcDbEntity
  8
0
100
AcDbLine
 62
7
  6
BYLAYER
 10
65.2541425171
 20
215.1248256139
 11
138.7935539324
 21
172.6677871438
  0
LINE
  5
2FF
100
AcDbEntity
  8
0
100
AcDbLine
 62
7
  6
BYLAYER
 10
63.7338692671
 20
216.6622040958
 11
59.1376560537
 21
219.3157690002
  0
LINE
  5
300
100
AcDbEntity
  8
0
100
AcDbLine
 62
7
  6
BYLAYER
 10
58.8447598909
 20
259.8959296241
 11
59.1376560537
 21
259.4876878739
  0
LINE
  5
301
100
AcDbEntity
  8
0
100
AcDbLine
 62
7
  6
BYLAYER
 10
115.1762857695
 20
201.047903048
 11
115.279847353
 21
200.8190193675
  0
LINE
  5
302
100
AcDbEntity
  8
0
100
AcDbLine
 62
7
  6
BYLAYER
 10
133.0300909456
 20
290.2757522071
 11
133.0300909456
 21
292.800498826
  0
LINE
  5
303
100
AcDbEntity
  8
0
100
AcDbLine
 62
7
  6
BYLAYER
 10
59.6662786097
 20
152.3415563894
 11
44.8189652682
 21
143.7695072031
  0
LINE
  5
304
100
AcDbEntity
  8
0
100
AcDbLine
 62
7
  6
BYLAYER
 10
192.2824527592
 20
189.2264018826
 11
192.7824144165
 21
189.2758778673
  0
LINE
  5
305
100
AcDbEntity
  8
0
100
AcDbLine
 62
7
  6
BYLAYER
 10
203.6771879606
 20
182.6477972747
 11
204.2136867585
 21
182.6762199074
  0
LINE
  5
306
100
AcDbEntity
  8
0
100
AcDbLine
 62
7
  6
BYLAYER
 10
221.9492242578
 20
137.4012447586
 11
222.656328095
 21
136.9929864953
  0
LINE
  5
307
100
AcDbEntity
  8
0
100
AcDbLine
 62
7
  6
BYLAYER
 10
159.4160630982
 20
157.0937774577
 11
155.259216012
 21
162.185511414
  0
LINE
  5
308
100
AcDbEntity
  8
0
100
AcDbLine
 62
7
  6
BYLAYER
 10
142.5413879732
 20
128.9101877506
 11
140.1724200387
 21
145.7914270094
  0
LINE
  5
309
100
AcDbEntity
  8
0
100
AcDbLine
 62
7
  6
BYLAYER
 10
137.9798178061
 20
295.6582079031
 11
137.9798178061
 21
292.3921982345
  0
LINE
  5
30A
100
AcDbEntity
  8
0
100
AcDbLine
 62
7
  6
BYLAYER
 10
138.1571604789
 20
212.9940821777
 11
138.1571604789
 21
213.9075868403
  0
LINE
  5
30B
100
AcDbEntity
  8
0
100
AcDbLine
 62
7
  6
BYLAYER
 10
138.7935539324
 20
172.6677871438
 11
138.7935539324
 21
212.2389966767
  0
LINE
  5
30C
100
AcDbEntity
  8
0
100
AcDbLine
 62
7
  6
BYLAYER
 10
140.3491823743
 20
213.7850896082
 11
140.3491823743
 21
209.1718509514
  0
LINE
  5
30D
100
AcDbEntity
  8
0
100
AcDbLine
 62
7
  6
BYLAYER
 10
140.3491823743
 20
204.6810876572
 11
140.3491823743
 21
170.7936286067
  0
LINE
  5
30E
100
AcDbEntity
  8
0
100
AcDbLine
 62
7
  6
BYLAYER
 10
142.5413879732
 20
128.9101877506
 11
142.5413879732
 21
112.3351886829
  0
LINE
  5
30F
100
AcDbEntity
  8
0
100
AcDbLine
 62
7
  6
BYLAYER
 10
138.7935539324
 20
172.6677871438
 11
138.3709171622
 21
171.935754721
  0
LINE
  5
310
100
AcDbEntity
  8
0
100
AcDbLine
 62
7
  6
BYLAYER
 10
187.5596951328
 20
245.6959929341
 11
186.9473252467
 21
244.9341919174
  0
LINE
  5
311
100
AcDbEntity
  8
0
100
AcDbLine
 62
7
  6
BYLAYER
 10
91.6648461928
 20
158.6913700013
 11
92.2305291126
 21
159.0179652378
  0
LINE
  5
312
100
AcDbEntity
  8
0
100
AcDbLine
 62
7
  6
BYLAYER
 10
68.5070041662
 20
145.0758542029
 11
68.6837801255
 21
145.1779152414
  0
LINE
  5
313
100
AcDbEntity
  8
0
100
AcDbLine
 62
7
  6
BYLAYER
 10
58.9611597712
 20
138.0541993641
 11
72.534832809
 21
145.8909163675
  0
LINE
  5
314
100
AcDbEntity
  8
0
100
AcDbLine
 62
7
  6
BYLAYER
 10
96.6146142688
 20
155.8336847197
 11
97.1802973386
 21
156.1602800428
  0
LINE
  5
315
100
AcDbEntity
  8
0
100
AcDbLine
 62
7
  6
BYLAYER
 10
115.2798419298
 20
200.8190099741
 11
81.9421278253
 21
220.0661127589
  0
LINE
  5
316
100
AcDbEntity
  8
0
100
AcDbLine
 62
7
  6
BYLAYER
 10
73.6639251688
 20
224.8454271685
 11
40.3262110643
 21
244.0925299533
  0
LINE
  5
317
100
AcDbEntity
  8
0
100
AcDbLine
 62
7
  6
BYLAYER
 10
115.1762857695
 20
201.047903048
 11
81.9421286876
 21
220.2352185105
  0
LINE
  5
318
100
AcDbEntity
  8
0
100
AcDbLine
 62
7
  6
BYLAYER
 10
73.4568119858
 20
225.1341075647
 11
40.2226549039
 21
244.3214230272
  0
LINE
  5
319
100
AcDbEntity
  8
0
100
AcDbLine
 62
7
  6
BYLAYER
 10
140.3491823743
 20
188.6708027527
 11
156.1474607116
 21
179.5498688451
  0
LINE
  5
31A
100
AcDbEntity
  8
0
100
AcDbLine
 62
7
  6
BYLAYER
 10
156.2939131131
 20
179.6344226739
 11
140.3491823743
 21
188.8399090022
  0
LINE
  5
31B
100
AcDbEntity
  8
0
100
AcDbLine
 62
7
  6
BYLAYER
 10
40.2226549039
 20
246.7709302786
 11
73.4568119858
 21
227.5836148161
  0
LINE
  5
31C
100
AcDbEntity
  8
0
100
AcDbLine
 62
7
  6
BYLAYER
 10
81.9421286876
 20
222.6847257619
 11
115.1762857695
 21
203.4974102994
  0
LINE
  5
31D
100
AcDbEntity
  8
0
100
AcDbLine
 62
7
  6
BYLAYER
 10
115.5298376881
 20
204.1097835849
 11
81.9421257436
 21
223.5012194246
  0
LINE
  5
31E
100
AcDbEntity
  8
0
100
AcDbLine
 62
7
  6
BYLAYER
 10
74.163918767
 20
227.9918677244
 11
40.5762068225
 21
247.3833035641
  0
LINE
  5
31F
100
AcDbEntity
  8
0
100
AcDbLine
 62
7
  6
BYLAYER
 10
140.3491823743
 20
190.1870532627
 11
157.460590944
 21
180.3080004128
  0
LINE
  5
320
100
AcDbEntity
  8
0
100
AcDbLine
 62
7
  6
BYLAYER
 10
157.956056145
 20
180.5940556725
 11
179.0381945809
 21
168.4225527277
  0
LINE
  5
321
100
AcDbEntity
  8
0
100
AcDbLine
 62
7
  6
BYLAYER
 10
160.2890696679
 20
179.4915063663
 11
140.3491823743
 21
191.0035452258
  0
LINE
  5
322
100
AcDbEntity
  8
0
100
AcDbLine
 62
7
  6
BYLAYER
 10
140.3491823743
 20
195.9024342802
 11
164.5316926912
 21
181.9409712896
  0
LINE
  5
323
100
AcDbEntity
  8
0
100
AcDbLine
 62
7
  6
BYLAYER
 10
178.6036836711
 20
133.1556405303
 11
186.0283357851
 21
120.295837228
  0
LINE
  5
324
100
AcDbEntity
  8
0
100
AcDbLine
 62
7
  6
BYLAYER
 10
148.9051388046
 20
212.478600379
 11
148.9051388046
 21
211.2538467533
  0
LINE
  5
325
100
AcDbEntity
  8
0
100
AcDbLine
 62
7
  6
BYLAYER
 10
151.592392455
 20
98.5364316452
 11
151.592392455
 21
96.7401263275
  0
LINE
  5
326
100
AcDbEntity
  8
0
100
AcDbLine
 62
7
  6
BYLAYER
 10
124.722175796
 20
167.7752992942
 11
135.1496012544
 21
173.7955402536
  0
LINE
  5
327
100
AcDbEntity
  8
0
100
AcDbLine
 62
7
  6
BYLAYER
 10
189.2477570822
 20
205.0289386452
 11
199.6751825407
 21
211.0491796046
  0
LINE
  5
328
100
AcDbEntity
  8
0
100
AcDbLine
 62
7
  6
BYLAYER
 10
185.4623954127
 20
196.4747532581
 11
166.4413021916
 21
185.492985519
  0
LINE
  5
329
100
AcDbEntity
  8
0
100
AcDbLine
 62
7
  6
BYLAYER
 10
157.956056145
 20
180.5940556725
 11
140.6651524206
 21
170.6112073423
  0
LINE
  5
32A
100
AcDbEntity
  8
0
100
AcDbLine
 62
7
  6
BYLAYER
 10
187.4776531246
 20
196.0052792799
 11
186.876614863
 21
195.6582717491
  0
LINE
  5
32B
100
AcDbEntity
  8
0
100
AcDbLine
 62
7
  6
BYLAYER
 10
86.677027312
 20
137.7261012771
 11
73.1033542741
 21
129.8893842737
  0
LINE
  5
32C
100
AcDbEntity
  8
0
100
AcDbLine
 62
7
  6
BYLAYER
 10
166.4413021916
 20
183.0434782676
 11
160.0774219782
 21
179.3693122451
  0
LINE
  5
32D
100
AcDbEntity
  8
0
100
AcDbLine
 62
7
  6
BYLAYER
 10
86.677027312
 20
135.2765940257
 11
73.1033542741
 21
127.4398770223
  0
LINE
  5
32E
100
AcDbEntity
  8
0
100
AcDbLine
 62
7
  6
BYLAYER
 10
115.279847353
 20
200.8190193675
 11
115.5298376881
 21
200.8437739164
  0
LINE
  5
32F
100
AcDbEntity
  8
0
100
AcDbLine
 62
7
  6
BYLAYER
 10
141.4098381301
 20
208.5594635565
 11
140.6598671248
 21
208.4851999098
  0
LINE
  5
330
100
AcDbEntity
  8
0
100
AcDbLine
 62
7
  6
BYLAYER
 10
166.4413021916
 20
183.0434782676
 11
187.8974881961
 21
170.6560237438
  0
LINE
  5
331
100
AcDbEntity
  8
0
100
AcDbLine
 62
7
  6
BYLAYER
 10
166.4413021916
 20
183.2879585614
 11
140.3491823743
 21
198.3519101695
  0
LINE
  5
332
100
AcDbEntity
  8
0
100
AcDbLine
 62
7
  6
BYLAYER
 10
140.3491823743
 20
199.6467086289
 11
166.4413021916
 21
184.5827570207
  0
LINE
  5
333
100
AcDbEntity
  8
0
100
AcDbLine
 62
7
  6
BYLAYER
 10
166.4413021916
 20
185.399253314
 11
140.3491823743
 21
200.4632049222
  0
LINE
  5
334
100
AcDbEntity
  8
0
100
AcDbLine
 62
7
  6
BYLAYER
 10
166.4413021916
 20
185.492985519
 11
187.5234406275
 21
173.3214825741
  0
LINE
  5
335
100
AcDbEntity
  8
0
100
AcDbLine
 62
7
  6
BYLAYER
 10
140.3491823743
 20
202.7725929378
 11
168.3601438411
 21
186.600822649
  0
LINE
  5
336
100
AcDbEntity
  8
0
100
AcDbLine
 62
7
  6
BYLAYER
 10
169.067260482
 20
187.009074195
 11
140.3491823743
 21
203.589089231
  0
LINE
  5
337
100
AcDbEntity
  8
0
100
AcDbLine
 62
7
  6
BYLAYER
 10
236.2327082273
 20
149.2811721529
 11
237.8590605951
 21
148.3422184175
  0
LINE
  5
338
100
AcDbEntity
  8
0
100
AcDbLine
 62
7
  6
BYLAYER
 10
140.597422397
 20
205.516381969
 11
170.8604877928
 21
188.0443882856
  0
LINE
  5
339
100
AcDbEntity
  8
0
100
AcDbLine
 62
7
  6
BYLAYER
 10
140.7159479059
 20
205.7856812861
 11
171.1529734377
 21
188.2132539434
  0
LINE
  5
33A
100
AcDbEntity
  8
0
100
AcDbLine
 62
7
  6
BYLAYER
 10
141.4098381301
 20
208.5594635565
 11
140.3491687943
 21
209.1718274296
  0
LINE
  5
33B
100
AcDbEntity
  8
0
100
AcDbLine
 62
7
  6
BYLAYER
 10
206.1894099716
 20
165.6712254187
 11
206.2015666004
 21
165.6641896259
  0
LINE
  5
33C
100
AcDbEntity
  8
0
100
AcDbLine
 62
7
  6
BYLAYER
 10
140.6598671248
 20
208.4851999098
 11
140.3491823743
 21
209.1718509514
  0
LINE
  5
33D
100
AcDbEntity
  8
0
100
AcDbLine
 62
7
  6
BYLAYER
 10
161.3144799514
 20
273.9461220263
 11
161.3144799514
 21
276.4708686451
  0
LINE
  5
33E
100
AcDbEntity
  8
0
100
AcDbLine
 62
7
  6
BYLAYER
 10
166.4413021916
 20
185.492985519
 11
166.4413021916
 21
183.0434782676
  0
LINE
  5
33F
100
AcDbEntity
  8
0
100
AcDbLine
 62
7
  6
BYLAYER
 10
114.8227161871
 20
121.3163930165
 11
115.115584769
 21
121.724633771
  0
LINE
  5
340
100
AcDbEntity
  8
0
100
AcDbLine
 62
7
  6
BYLAYER
 10
115.115584769
 20
119.2751265196
 11
114.8227161871
 21
118.8668857651
  0
LINE
  5
341
100
AcDbEntity
  8
0
100
AcDbLine
 62
7
  6
BYLAYER
 10
50.475706175
 20
112.6196165439
 11
51.1828100122
 21
113.0278606977
  0
LINE
  5
342
100
AcDbEntity
  8
0
100
AcDbLine
 62
7
  6
BYLAYER
 10
114.6459122601
 20
145.4235454794
 11
115.2115951799
 21
145.7501407159
  0
LINE
  5
343
100
AcDbEntity
  8
0
100
AcDbLine
 62
7
  6
BYLAYER
 10
91.4880702335
 20
131.808029681
 11
91.6648461928
 21
131.9100907194
  0
LINE
  5
344
100
AcDbEntity
  8
0
100
AcDbLine
 62
7
  6
BYLAYER
 10
192.2824527592
 20
189.2264018826
 11
195.7508369088
 21
191.228862452
  0
LINE
  5
345
100
AcDbEntity
  8
0
100
AcDbLine
 62
7
  6
BYLAYER
 10
97.180296335
 20
129.3790001815
 11
97.1449421467
 21
129.3585885532
  0
LINE
  5
346
100
AcDbEntity
  8
0
100
AcDbLine
 62
7
  6
BYLAYER
 10
96.4378383095
 20
128.9503443993
 11
96.6146142688
 21
129.0524054378
  0
LINE
  5
347
100
AcDbEntity
  8
0
100
AcDbLine
 62
7
  6
BYLAYER
 10
144.8317905535
 20
156.1652704546
 11
155.259216012
 21
162.185511414
  0
LINE
  5
348
100
AcDbEntity
  8
0
100
AcDbLine
 62
7
  6
BYLAYER
 10
209.3573718398
 20
193.4189098055
 11
219.7847972982
 21
199.4391507649
  0
LINE
  5
349
100
AcDbEntity
  8
0
100
AcDbLine
 62
7
  6
BYLAYER
 10
148.8015772211
 20
212.7074840595
 11
148.551586886
 21
212.6827295106
  0
LINE
  5
34A
100
AcDbEntity
  8
0
100
AcDbLine
 62
7
  6
BYLAYER
 10
140.2784719906
 20
217.9900777619
 11
139.6661021044
 21
218.0447791622
  0
LINE
  5
34B
100
AcDbEntity
  8
0
100
AcDbLine
 62
7
  6
BYLAYER
 10
57.0524373974
 20
226.6437907698
 11
56.6018090482
 21
226.6930239903
  0
LINE
  5
34C
100
AcDbEntity
  8
0
100
AcDbLine
 62
7
  6
BYLAYER
 10
138.1571604789
 20
212.9940821777
 11
138.48286071
 21
212.9256329485
  0
LINE
  5
34D
100
AcDbEntity
  8
0
100
AcDbLine
 62
7
  6
BYLAYER
 10
214.7427508455
 20
168.1911657034
 11
202.7379617421
 21
175.1219771279
  0
LINE
  5
34E
100
AcDbEntity
  8
0
100
AcDbLine
 62
7
  6
BYLAYER
 10
219.474285462
 20
165.5703787291
 11
216.2922774545
 21
167.4074703483
  0
LINE
  5
34F
100
AcDbEntity
  8
0
100
AcDbLine
 62
7
  6
BYLAYER
 10
137.0302924275
 20
213.256993151
 11
138.7935539324
 21
212.2389966767
  0
LINE
  5
350
100
AcDbEntity
  8
0
100
AcDbLine
 62
7
  6
BYLAYER
 10
138.1571604789
 20
212.9940821777
 11
137.3660309248
 21
213.4508307057
  0
LINE
  5
351
100
AcDbEntity
  8
0
100
AcDbLine
 62
7
  6
BYLAYER
 10
216.5016913142
 20
168.4296420479
 11
220.4642308341
 21
166.1419205445
  0
LINE
  5
352
100
AcDbEntity
  8
0
100
AcDbLine
 62
7
  6
BYLAYER
 10
59.1376560537
 20
259.4876879094
 11
60.3397083647
 21
258.7936983887
  0
LINE
  5
353
100
AcDbEntity
  8
0
100
AcDbLine
 62
7
  6
BYLAYER
 10
63.1681599356
 20
260.4266959169
 11
60.551863728
 21
261.9371810649
  0
LINE
  5
354
100
AcDbEntity
  8
0
100
AcDbLine
 62
7
  6
BYLAYER
 10
141.6433039745
 20
216.6711382794
 11
148.551586886
 21
212.6827295106
  0
LINE
  5
355
100
AcDbEntity
  8
0
100
AcDbLine
 62
7
  6
BYLAYER
 10
148.8015826442
 20
212.7074934529
 11
141.7538103071
 21
216.7764346572
  0
LINE
  5
356
100
AcDbEntity
  8
0
100
AcDbLine
 62
7
  6
BYLAYER
 10
64.7124712388
 20
261.3182991414
 11
139.6661021044
 21
218.0447791622
  0
LINE
  5
357
100
AcDbEntity
  8
0
100
AcDbLine
 62
7
  6
BYLAYER
 10
65.324841125
 20
261.263597741
 11
140.2784719906
 21
217.9900777619
  0
LINE
  5
358
100
AcDbEntity
  8
0
100
AcDbLine
 62
7
  6
BYLAYER
 10
192.2824527592
 20
189.2264018826
 11
203.6771879606
 21
182.6477972747
  0
LINE
  5
359
100
AcDbEntity
  8
0
100
AcDbLine
 62
7
  6
BYLAYER
 10
143.0824200488
 20
217.8126229472
 11
182.7519855672
 21
194.9099067451
  0
LINE
  5
35A
100
AcDbEntity
  8
0
100
AcDbLine
 62
7
  6
BYLAYER
 10
204.2136970137
 20
182.6762422266
 11
192.7824442757
 21
189.2759297672
  0
LINE
  5
35B
100
AcDbEntity
  8
0
100
AcDbLine
 62
7
  6
BYLAYER
 10
219.0733312144
 20
175.0134346883
 11
205.5336457474
 21
182.830398894
  0
LINE
  5
35C
100
AcDbEntity
  8
0
100
AcDbLine
 62
7
  6
BYLAYER
 10
200.1704125294
 20
128.4607203054
 11
192.7457604153
 21
141.3205236078
  0
LINE
  5
35D
100
AcDbEntity
  8
0
100
AcDbLine
 62
7
  6
BYLAYER
 10
148.9051388046
 20
212.478600379
 11
148.8015772211
 21
212.7074840595
  0
LINE
  5
35E
100
AcDbEntity
  8
0
100
AcDbLine
 62
7
  6
BYLAYER
 10
170.3300538759
 20
278.4099719385
 11
170.3300385462
 21
283.6822396503
  0
LINE
  5
35F
100
AcDbEntity
  8
0
100
AcDbLine
 62
7
  6
BYLAYER
 10
102.0928621186
 20
130.2966183695
 11
87.2455487771
 21
121.7245691833
  0
LINE
  5
360
100
AcDbEntity
  8
0
100
AcDbLine
 62
7
  6
BYLAYER
 10
203.6771879606
 20
182.6477972747
 11
187.5234406275
 21
173.3214825741
  0
LINE
  5
361
100
AcDbEntity
  8
0
100
AcDbLine
 62
7
  6
BYLAYER
 10
179.0381945809
 20
168.4225527277
 11
159.4160630982
 21
157.0937774577
  0
LINE
  5
362
100
AcDbEntity
  8
0
100
AcDbLine
 62
7
  6
BYLAYER
 10
187.8974881961
 20
170.6560237438
 11
179.4122421495
 21
165.7570938973
  0
LINE
  5
363
100
AcDbEntity
  8
0
100
AcDbLine
 62
7
  6
BYLAYER
 10
178.4242200162
 20
228.0079198738
 11
178.6742103513
 21
228.0326744227
  0
LINE
  5
364
100
AcDbEntity
  8
0
100
AcDbLine
 62
7
  6
BYLAYER
 10
185.8159591071
 20
232.1559403768
 11
186.5659301125
 21
232.2302040235
  0
LINE
  5
365
100
AcDbEntity
  8
0
100
AcDbLine
 62
7
  6
BYLAYER
 10
77.3458992823
 20
224.7258657044
 11
74.163918767
 21
224.7258580558
  0
LINE
  5
366
100
AcDbEntity
  8
0
100
AcDbLine
 62
7
  6
BYLAYER
 10
74.163918767
 20
227.9918677244
 11
77.3458992823
 21
227.9918753729
  0
LINE
  5
367
100
AcDbEntity
  8
0
100
AcDbLine
 62
7
  6
BYLAYER
 10
185.3542322714
 20
196.4123056121
 11
145.6846667529
 21
219.3150218142
  0
LINE
  5
368
100
AcDbEntity
  8
0
100
AcDbLine
 62
7
  6
BYLAYER
 10
186.876614863
 20
195.6582717491
 11
185.4623954127
 21
196.4747532581
  0
LINE
  5
369
100
AcDbEntity
  8
0
100
AcDbLine
 62
7
  6
BYLAYER
 10
187.4776531246
 20
196.0052792799
 11
195.7508369088
 21
191.228862452
  0
LINE
  5
36A
100
AcDbEntity
  8
0
100
AcDbLine
 62
7
  6
BYLAYER
 10
196.9794840687
 20
193.1851678229
 11
208.1838060536
 21
186.7164958498
  0
LINE
  5
36B
100
AcDbEntity
  8
0
100
AcDbLine
 62
7
  6
BYLAYER
 10
207.9209214363
 20
187.7241204086
 11
196.8671056991
 21
194.1058995249
  0
LINE
  5
36C
100
AcDbEntity
  8
0
100
AcDbLine
 62
7
  6
BYLAYER
 10
189.339107049
 20
200.8029337488
 11
188.4322433048
 21
201.3265267456
  0
LINE
  5
36D
100
AcDbEntity
  8
0
100
AcDbLine
 62
7
  6
BYLAYER
 10
189.2477570822
 20
205.0289386452
 11
209.3573718398
 21
193.4189098055
  0
LINE
  5
36E
100
AcDbEntity
  8
0
100
AcDbLine
 62
7
  6
BYLAYER
 10
179.0381945809
 20
168.4225527277
 11
179.4122421495
 21
165.7570938973
  0
LINE
  5
36F
100
AcDbEntity
  8
0
100
AcDbLine
 62
7
  6
BYLAYER
 10
178.3206584327
 20
229.46155718
 11
178.3206584327
 21
228.2368035543
  0
LINE
  5
370
100
AcDbEntity
  8
0
100
AcDbLine
 62
7
  6
BYLAYER
 10
186.876614863
 20
240.6475549329
 11
186.876614863
 21
236.0343162761
  0
LINE
  5
371
100
AcDbEntity
  8
0
100
AcDbLine
 62
7
  6
BYLAYER
 10
186.876614863
 20
231.5435529819
 11
186.876614863
 21
195.6582717491
  0
LINE
  5
372
100
AcDbEntity
  8
0
100
AcDbLine
 62
7
  6
BYLAYER
 10
188.4322433048
 20
202.9270583529
 11
189.2477570822
 21
205.0289386452
  0
LINE
  5
373
100
AcDbEntity
  8
0
100
AcDbLine
 62
7
  6
BYLAYER
 10
187.4776531246
 20
196.0052792799
 11
189.339107049
 21
200.8029337488
  0
LINE
  5
374
100
AcDbEntity
  8
0
100
AcDbLine
 62
7
  6
BYLAYER
 10
73.4567722423
 20
99.3517920219
 11
74.1638760795
 21
99.7600361758
  0
LINE
  5
375
100
AcDbEntity
  8
0
100
AcDbLine
 62
7
  6
BYLAYER
 10
101.38774328
 20
113.5597540929
 11
114.8227161871
 21
121.3163930165
  0
LINE
  5
376
100
AcDbEntity
  8
0
100
AcDbLine
 62
7
  6
BYLAYER
 10
101.38774328
 20
111.1102468415
 11
114.8227161871
 21
118.8668857651
  0
LINE
  5
377
100
AcDbEntity
  8
0
100
AcDbLine
 62
7
  6
BYLAYER
 10
114.4691363008
 20
118.5402051591
 11
114.6459122601
 21
118.6422661975
  0
LINE
  5
378
100
AcDbEntity
  8
0
100
AcDbLine
 62
7
  6
BYLAYER
 10
187.8974881961
 20
170.6560237438
 11
187.5234406275
 21
173.3214825741
  0
LINE
  5
379
100
AcDbEntity
  8
0
100
AcDbLine
 62
7
  6
BYLAYER
 10
188.4322433048
 20
201.3265267456
 11
188.4322433048
 21
240.8977362784
  0
LINE
  5
37A
100
AcDbEntity
  8
0
100
AcDbLine
 62
7
  6
BYLAYER
 10
189.0686367583
 20
242.3876612564
 11
189.0686367583
 21
243.301165919
  0
LINE
  5
37B
100
AcDbEntity
  8
0
100
AcDbLine
 62
7
  6
BYLAYER
 10
189.5988689573
 20
257.6164918455
 11
189.5988689573
 21
260.1412384643
  0
LINE
  5
37C
100
AcDbEntity
  8
0
100
AcDbLine
 62
7
  6
BYLAYER
 10
192.7457604153
 20
132.7472482279
 11
192.7457604153
 21
141.3205236078
  0
LINE
  5
37D
100
AcDbEntity
  8
0
100
AcDbLine
 62
7
  6
BYLAYER
 10
194.5485958178
 20
262.9989475414
 11
194.5485958178
 21
259.7329378729
  0
LINE
  5
37E
100
AcDbEntity
  8
0
100
AcDbLine
 62
7
  6
BYLAYER
 10
196.8671056991
 20
194.1058995249
 11
195.7508369088
 21
191.228862452
  0
LINE
  5
37F
100
AcDbEntity
  8
0
100
AcDbLine
 62
7
  6
BYLAYER
 10
142.5413879732
 20
128.9101877506
 11
157.0666867897
 21
137.296322874
  0
LINE
  5
380
100
AcDbEntity
  8
0
100
AcDbLine
 62
7
  6
BYLAYER
 10
161.2499695056
 20
139.7115278593
 11
206.2015666004
 21
165.6641896259
  0
LINE
  5
381
100
AcDbEntity
  8
0
100
AcDbLine
 62
7
  6
BYLAYER
 10
216.0101982694
 20
171.3271719569
 11
228.8080561133
 21
178.715974523
  0
LINE
  5
382
100
AcDbEntity
  8
0
100
AcDbLine
 62
7
  6
BYLAYER
 10
220.4642308341
 20
173.4904422987
 11
219.474285462
 21
172.9189004833
  0
LINE
  5
383
100
AcDbEntity
  8
0
100
AcDbLine
 62
7
  6
BYLAYER
 10
151.8751586244
 20
133.8907593732
 11
150.8852132523
 21
133.3192175577
  0
LINE
  5
384
100
AcDbEntity
  8
0
100
AcDbLine
 62
7
  6
BYLAYER
 10
150.8852132523
 20
125.9706958036
 11
151.8751586244
 21
126.542237619
  0
LINE
  5
385
100
AcDbEntity
  8
0
100
AcDbLine
 62
7
  6
BYLAYER
 10
219.474285462
 20
165.5703787291
 11
220.4642308341
 21
166.1419205445
  0
LINE
  5
386
100
AcDbEntity
  8
0
100
AcDbLine
 62
7
  6
BYLAYER
 10
199.6751825407
 20
211.0491796046
 11
219.7847972982
 21
199.4391507649
  0
LINE
  5
387
100
AcDbEntity
  8
0
100
AcDbLine
 62
7
  6
BYLAYER
 10
224.0768697232
 20
199.6667103802
 11
203.6751146726
 21
211.445402681
  0
LINE
  5
388
100
AcDbEntity
  8
0
100
AcDbLine
 62
7
  6
BYLAYER
 10
169.5826744068
 20
233.1124606066
 11
178.424214593
 21
228.0079104804
  0
LINE
  5
389
100
AcDbEntity
  8
0
100
AcDbLine
 62
7
  6
BYLAYER
 10
178.3206584327
 20
228.2368035543
 11
169.7291268084
 21
233.1970144354
  0
LINE
  5
38A
100
AcDbEntity
  8
0
100
AcDbLine
 62
7
  6
BYLAYER
 10
170.789809725
 20
233.8093963474
 11
178.3206584327
 21
229.46155718
  0
LINE
  5
38B
100
AcDbEntity
  8
0
100
AcDbLine
 62
7
  6
BYLAYER
 10
178.6742103513
 20
230.0739304655
 11
171.4969226158
 21
234.2176457283
  0
LINE
  5
38C
100
AcDbEntity
  8
0
100
AcDbLine
 62
7
  6
BYLAYER
 10
178.3206584327
 20
228.2368035543
 11
178.4242200162
 21
228.0079198738
  0
LINE
  5
38D
100
AcDbEntity
  8
0
100
AcDbLine
 62
7
  6
BYLAYER
 10
203.7410260719
 20
122.3157403462
 11
203.7410260719
 21
121.7850017822
  0
LINE
  5
38E
100
AcDbEntity
  8
0
100
AcDbLine
 62
7
  6
BYLAYER
 10
203.9178070359
 20
126.9500381924
 11
203.9178070359
 21
122.4178042742
  0
LINE
  5
38F
100
AcDbEntity
  8
0
100
AcDbLine
 62
7
  6
BYLAYER
 10
204.1803614842
 20
122.3973629139
 11
204.1803614842
 21
122.7154902738
  0
LINE
  5
390
100
AcDbEntity
  8
0
100
AcDbLine
 62
7
  6
BYLAYER
 10
204.7964778605
 20
123.6425265377
 11
204.7964778605
 21
127.4573360013
  0
LINE
  5
391
100
AcDbEntity
  8
0
100
AcDbLine
 62
7
  6
BYLAYER
 10
209.3573718398
 20
193.4189098055
 11
207.9209214363
 21
187.7241204086
  0
LINE
  5
392
100
AcDbEntity
  8
0
100
AcDbLine
 62
7
  6
BYLAYER
 10
166.7951249551
 20
104.7416983395
 11
167.5022287924
 21
105.9664449105
  0
LINE
  5
393
100
AcDbEntity
  8
0
100
AcDbLine
 62
7
  6
BYLAYER
 10
96.4378383095
 20
86.0839675
 11
97.1449421467
 21
86.4922116539
  0
LINE
  5
394
100
AcDbEntity
  8
0
100
AcDbLine
 62
7
  6
BYLAYER
 10
142.5413879732
 20
112.3351886829
 11
178.6036836711
 21
133.1556405303
  0
LINE
  5
395
100
AcDbEntity
  8
0
100
AcDbLine
 62
7
  6
BYLAYER
 10
192.7457604153
 20
141.3205236078
 11
228.8080561133
 21
162.1409754552
  0
LINE
  5
396
100
AcDbEntity
  8
0
100
AcDbLine
 62
7
  6
BYLAYER
 10
211.9459498843
 20
259.6557430604
 11
211.6959595492
 21
259.6309885115
  0
LINE
  5
397
100
AcDbEntity
  8
0
100
AcDbLine
 62
7
  6
BYLAYER
 10
64.7124712388
 20
261.3182991414
 11
65.324841125
 21
261.263597741
  0
LINE
  5
398
100
AcDbEntity
  8
0
100
AcDbLine
 62
7
  6
BYLAYER
 10
60.5518637281
 20
261.937181065
 11
60.0518659665
 21
261.986705344
  0
LINE
  5
399
100
AcDbEntity
  8
0
100
AcDbLine
 62
7
  6
BYLAYER
 10
185.8159455271
 20
232.155916855
 11
186.876614863
 21
231.5435529819
  0
LINE
  5
39A
100
AcDbEntity
  8
0
100
AcDbLine
 62
7
  6
BYLAYER
 10
178.6386713716
 20
238.3409116824
 11
185.8159591071
 21
234.1971964196
  0
LINE
  5
39B
100
AcDbEntity
  8
0
100
AcDbLine
 62
7
  6
BYLAYER
 10
186.876614863
 20
236.0343162761
 11
180.760010044
 21
239.5656598252
  0
LINE
  5
39C
100
AcDbEntity
  8
0
100
AcDbLine
 62
7
  6
BYLAYER
 10
184.7552761913
 20
241.872282679
 11
186.876614863
 21
240.6475549329
  0
LINE
  5
39D
100
AcDbEntity
  8
0
100
AcDbLine
 62
7
  6
BYLAYER
 10
228.8080561133
 20
162.1409754552
 11
236.2327082273
 21
149.2811721529
  0
LINE
  5
39E
100
AcDbEntity
  8
0
100
AcDbLine
 62
7
  6
BYLAYER
 10
186.5659301125
 20
232.2302040235
 11
186.876614863
 21
231.5435529819
  0
LINE
  5
39F
100
AcDbEntity
  8
0
100
AcDbLine
 62
7
  6
BYLAYER
 10
212.0495114678
 20
256.9773521284
 11
212.0495114678
 21
259.4268593798
  0
LINE
  5
3A0
100
AcDbEntity
  8
0
100
AcDbLine
 62
7
  6
BYLAYER
 10
204.1225766237
 20
121.9241229339
 11
204.1803578323
 21
122.3973301748
  0
LINE
  5
3A1
100
AcDbEntity
  8
0
100
AcDbLine
 62
7
  6
BYLAYER
 10
181.290753618
 20
113.1107034938
 11
182.4542564017
 21
114.5581254257
  0
LINE
  5
3A2
100
AcDbEntity
  8
0
100
AcDbLine
 62
7
  6
BYLAYER
 10
182.3160418033
 20
126.7256833236
 11
192.7457604153
 21
132.7472482279
  0
LINE
  5
3A3
100
AcDbEntity
  8
0
100
AcDbLine
 62
7
  6
BYLAYER
 10
149.9660400872
 20
99.4753853806
 11
186.0283357851
 21
120.295837228
  0
LINE
  5
3A4
100
AcDbEntity
  8
0
100
AcDbLine
 62
7
  6
BYLAYER
 10
200.1704125294
 20
128.4607203054
 11
236.2327082273
 21
149.2811721529
  0
LINE
  5
3A5
100
AcDbEntity
  8
0
100
AcDbLine
 62
7
  6
BYLAYER
 10
111.9936943811
 20
288.2077118965
 11
186.9473252467
 21
244.9341919174
  0
LINE
  5
3A6
100
AcDbEntity
  8
0
100
AcDbLine
 62
7
  6
BYLAYER
 10
112.6060642672
 20
288.9695129133
 11
187.5596951328
 21
245.6959929341
  0
LINE
  5
3A7
100
AcDbEntity
  8
0
100
AcDbLine
 62
7
  6
BYLAYER
 10
110.4026842271
 20
290.7183938988
 11
113.0189804537
 21
289.2079087617
  0
LINE
  5
3A8
100
AcDbEntity
  8
0
100
AcDbLine
 62
7
  6
BYLAYER
 10
111.4026672846
 20
290.8174496821
 11
113.6047538513
 21
289.5461031717
  0
LINE
  5
3A9
100
AcDbEntity
  8
0
100
AcDbLine
 62
7
  6
BYLAYER
 10
151.592392455
 20
98.5364316452
 11
237.8590605951
 21
148.3422184175
  0
LINE
  5
3AA
100
AcDbEntity
  8
0
100
AcDbLine
 62
7
  6
BYLAYER
 10
167.5022287924
 20
105.9664449105
 11
172.4519556529
 21
108.8241539876
  0
LINE
  5
3AB
100
AcDbEntity
  8
0
100
AcDbLine
 62
7
  6
BYLAYER
 10
216.9994973973
 20
134.5435356815
 11
221.9492242578
 21
137.4012447586
  0
LINE
  5
3AC
100
AcDbEntity
  8
0
100
AcDbLine
 62
7
  6
BYLAYER
 10
151.592392455
 20
96.7401263275
 11
157.4999280435
 21
100.1508232306
  0
LINE
  5
3AD
100
AcDbEntity
  8
0
100
AcDbLine
 62
7
  6
BYLAYER
 10
182.4542564017
 20
114.5581254257
 11
206.9971966485
 21
128.7279140016
  0
LINE
  5
3AE
100
AcDbEntity
  8
0
100
AcDbLine
 62
7
  6
BYLAYER
 10
231.9515250067
 20
143.1352161967
 11
237.8590605951
 21
146.5459130998
  0
LINE
  5
3AF
100
AcDbEntity
  8
0
100
AcDbLine
 62
7
  6
BYLAYER
 10
158.6634308272
 20
100.0468905699
 11
166.7951249551
 21
104.7416983395
  0
LINE
  5
3B0
100
AcDbEntity
  8
0
100
AcDbLine
 62
7
  6
BYLAYER
 10
173.1590594901
 20
108.4158957243
 11
181.290753618
 21
113.1107034938
  0
LINE
  5
3B1
100
AcDbEntity
  8
0
100
AcDbLine
 62
7
  6
BYLAYER
 10
208.1606994322
 20
128.6239813409
 11
216.2923935601
 21
133.3187891105
  0
LINE
  5
3B2
100
AcDbEntity
  8
0
100
AcDbLine
 62
7
  6
BYLAYER
 10
222.656328095
 20
136.9929864953
 11
230.788022223
 21
141.6877942648
  0
LINE
  5
3B3
100
AcDbEntity
  8
0
100
AcDbLine
 62
7
  6
BYLAYER
 10
120.8331061633
 20
74.4491161943
 11
203.9178070359
 21
122.4178042742
  0
LINE
  5
3B4
100
AcDbEntity
  8
0
100
AcDbLine
 62
7
  6
BYLAYER
 10
203.3874741533
 20
121.1726284966
 11
120.1613525132
 21
73.122291586
  0
LINE
  5
3B5
100
AcDbEntity
  8
0
100
AcDbLine
 62
7
  6
BYLAYER
 10
119.747128586
 20
72.2067197027
 11
202.9732502261
 21
120.2570566134
  0
LINE
  5
3B6
100
AcDbEntity
  8
0
100
AcDbLine
 62
7
  6
BYLAYER
 10
178.1082476047
 20
279.0224243512
 11
174.9262670894
 21
279.0224167026
  0
LINE
  5
3B7
100
AcDbEntity
  8
0
100
AcDbLine
 62
7
  6
BYLAYER
 10
226.4390881788
 20
195.5972137817
 11
228.8080561133
 21
178.715974523
  0
LINE
  5
3B8
100
AcDbEntity
  8
0
100
AcDbLine
 62
7
  6
BYLAYER
 10
228.8080561133
 20
178.715974523
 11
228.8080561133
 21
162.1409754552
  0
LINE
  5
3B9
100
AcDbEntity
  8
0
100
AcDbLine
 62
7
  6
BYLAYER
 10
237.8590605951
 20
148.3422184175
 11
237.8590605951
 21
146.5459130998
  0
LINE
  5
3BA
100
AcDbEntity
  8
0
100
AcDbLine
 62
7
  6
BYLAYER
 10
216.2923935601
 20
133.3187891105
 11
216.9994973973
 21
134.5435356815
  0
LWPOLYLINE
  5
3BB
100
AcDbEntity
  8
0
100
AcDbPolyline
 62
7
  6
BYLAYER
 90
3
 70
0
 10
203.4136003358
 20
120.6014926563
 10
203.7460742556
 20
121.0375130799
 10
204.1225766237
 20
121.9241229339
  0
LINE
  5
3BC
100
AcDbEntity
  8
0
100
AcDbLine
 62
7
  6
BYLAYER
 10
230.788022223
 20
141.6877942648
 11
231.9515250067
 21
143.1352161967
  0
LINE
  5
3BD
100
AcDbEntity
  8
0
100
AcDbLine
 62
7
  6
BYLAYER
 10
203.4134074063
 20
120.6013203752
 11
203.4132964349
 21
120.6012077789
  0
LINE
  5
3BE
100
AcDbEntity
  8
0
100
AcDbLine
 62
7
  6
BYLAYER
 10
203.4132964349
 20
120.6012077789
 11
202.9732184348
 21
120.25703826
  0
LINE
  5
3BF
100
AcDbEntity
  8
0
100
AcDbLine
 62
7
  6
BYLAYER
 10
109.9026864476
 20
290.7679181674
 11
110.4026842092
 21
290.7183938884
  0
LINE
  5
3C0
100
AcDbEntity
  8
0
100
AcDbLine
 62
7
  6
BYLAYER
 10
178.608234832
 20
278.902847841
 11
178.1082476047
 21
279.0224243512
  0
LINE
  5
3C1
100
AcDbEntity
  8
0
100
AcDbLine
 62
7
  6
BYLAYER
 10
136.7423286836
 20
302.9045084906
 11
170.3300406281
 21
283.5130726509
  0
LINE
  5
3C2
100
AcDbEntity
  8
0
100
AcDbLine
 62
7
  6
BYLAYER
 10
178.1082476047
 20
279.0224243512
 11
211.6959595492
 21
259.6309885115
  0
LINE
  5
3C3
100
AcDbEntity
  8
0
100
AcDbLine
 62
7
  6
BYLAYER
 10
136.9923244418
 20
302.9292724329
 11
170.3300385464
 21
283.6821696481
  0
LINE
  5
3C4
100
AcDbEntity
  8
0
100
AcDbLine
 62
7
  6
BYLAYER
 10
178.6082412028
 20
278.9028552385
 11
211.9459553074
 21
259.6557524537
  0
LINE
  5
3C5
100
AcDbEntity
  8
0
100
AcDbLine
 62
7
  6
BYLAYER
 10
212.0495114678
 20
259.4268593798
 11
211.9459498843
 21
259.6557430604
  0
LINE
  5
3C6
100
AcDbEntity
  8
0
100
AcDbLine
 62
7
  6
BYLAYER
 10
136.7423286836
 20
302.9045084906
 11
136.9923190187
 21
302.9292630395
  0
ARC
  5
3C7
100
AcDbEntity
  8
0
100
AcDbCircle
 62
7
  6
BYLAYER
 10
210.3183307576
 20
175.3187790355
 40
8.9123649824
100
AcDbArc
 50
129.0233142746
 51
131.4395822283
  0
ARC
  5
3C8
100
AcDbEntity
  8
0
100
AcDbCircle
 62
7
  6
BYLAYER
 10
118.7197245198
 20
122.0886427421
 40
5.076002114
100
AcDbArc
 50
273.9250648322
 51
275.1971182221
  0
ARC
  5
3C9
100
AcDbEntity
  8
0
100
AcDbCircle
 62
7
  6
BYLAYER
 10
118.7209678377
 20
121.8684151237
 40
5.0598484625
100
AcDbArc
 50
273.9237126458
 51
275.7841652235
  0
ARC
  5
3CA
100
AcDbEntity
  8
0
100
AcDbCircle
 62
7
  6
BYLAYER
 10
79.5486792493
 20
151.8731447827
 40
4.6022040301
100
AcDbArc
 50
278.7321273143
 51
283.9926225914
  0
ARC
  5
3CB
100
AcDbEntity
  8
0
100
AcDbCircle
 62
7
  6
BYLAYER
 10
49.6971629007
 20
116.1716775929
 40
2.686927576
100
AcDbArc
 50
237.2347908184
 51
240.0166900158
  0
ARC
  5
3CC
100
AcDbEntity
  8
0
100
AcDbCircle
 62
7
  6
BYLAYER
 10
105.1763136933
 20
131.7847872836
 40
2.6570386018
100
AcDbArc
 50
121.3850305412
 51
122.083491181
  0
ARC
  5
3CD
100
AcDbEntity
  8
0
100
AcDbCircle
 62
7
  6
BYLAYER
 10
202.5942287358
 20
124.7132604635
 40
2.6497129342
100
AcDbArc
 50
299.968091163
 51
303.8553944135
  0
ARC
  5
3CE
100
AcDbEntity
  8
0
100
AcDbCircle
 62
7
  6
BYLAYER
 10
98.4010572722
 20
127.2633855332
 40
2.4425565717
100
AcDbArc
 50
117.6466173073
 51
119.9859785494
  0
ARC
  5
3CF
100
AcDbEntity
  8
0
100
AcDbCircle
 62
7
  6
BYLAYER
 10
118.7471330629
 20
73.938773095
 40
2.0
100
AcDbArc
 50
239.9994201698
 51
299.9998519061
  0
ARC
  5
3D0
100
AcDbEntity
  8
0
100
AcDbCircle
 62
7
  6
BYLAYER
 10
42.3438987043
 20
179.8175095594
 40
2.0
100
AcDbArc
 50
180.0
 51
240.0005612632
  0
ARC
  5
3D1
100
AcDbEntity
  8
0
100
AcDbCircle
 62
7
  6
BYLAYER
 10
90.4411074214
 20
139.1150857075
 40
1.4218696044
100
AcDbArc
 50
143.1173574455
 51
148.8338321219
  0
ARC
  5
3D2
100
AcDbEntity
  8
0
100
AcDbCircle
 62
7
  6
BYLAYER
 10
58.0402540603
 20
221.0184008238
 40
1.3393553603
100
AcDbArc
 50
300.6189971043
 51
308.4447996719
  0
ARC
  5
3D3
100
AcDbEntity
  8
0
100
AcDbCircle
 62
7
  6
BYLAYER
 10
90.3518499149
 20
139.1704466313
 40
1.3168446737
100
AcDbArc
 50
148.8850855879
 51
150.9241010518
  0
ARC
  5
3D4
100
AcDbEntity
  8
0
100
AcDbCircle
 62
7
  6
BYLAYER
 10
58.0709609003
 20
220.9675517492
 40
1.2799563019
100
AcDbArc
 50
297.1531271004
 51
300.5954205037
  0
ARC
  5
3D5
100
AcDbEntity
  8
0
100
AcDbCircle
 62
7
  6
BYLAYER
 10
90.2924430269
 20
139.2030620235
 40
1.2490744598
100
AcDbArc
 50
150.9073701819
 51
155.0794314395
  0
ARC
  5
3D6
100
AcDbEntity
  8
0
100
AcDbCircle
 62
7
  6
BYLAYER
 10
55.3158489339
 20
223.4945817608
 40
0.9783431802
100
AcDbArc
 50
292.2557813322
 51
298.2238276352
  0
ARC
  5
3D7
100
AcDbEntity
  8
0
100
AcDbCircle
 62
7
  6
BYLAYER
 10
55.4014022337
 20
223.6405308777
 40
0.976887472
100
AcDbArc
 50
1.7689645061
 51
7.7429980203
  0
ARC
  5
3D8
100
AcDbEntity
  8
0
100
AcDbCircle
 62
7
  6
BYLAYER
 10
49.5219941272
 20
112.1621270652
 40
0.5864412028
100
AcDbArc
 50
223.4906509631
 51
236.5882199938
  0
ARC
  5
3D9
100
AcDbEntity
  8
0
100
AcDbCircle
 62
7
  6
BYLAYER
 10
48.5961450783
 20
113.7662498289
 40
0.5043365911
100
AcDbArc
 50
180.0257728299
 51
188.5780699833
  0
SPLINE
  5
3DA
100
AcDbEntity
  8
0
100
AcDbSpline
 62
7
  6
BYLAYER
 70
0
 71
3
 72
11
 73
7
 74
0
 42
0.0000001
 43
0.0000001
 44
0.0000000001
 40
0.0
 40
0.0
 40
0.0
 40
0.0
 40
0.2177648073
 40
0.4508950352
 40
0.7103684932
 40
1.0
 40
1.0
 40
1.0
 40
1.0
 10
49.3188120607
 20
154.3838638422
 30
0.0
 10
49.3187439849
 20
154.2124820683
 30
0.0
 10
49.2556785852
 20
153.8552235556
 30
0.0
 10
48.9847006339
 20
153.3574259986
 30
0.0
 10
48.5564960259
 20
152.9075595426
 30
0.0
 10
48.1983032919
 20
152.6607502187
 30
0.0
 10
48.0009001521
 20
152.5467801431
 30
0.0
  0
SPLINE
  5
3DB
100
AcDbEntity
  8
0
100
AcDbSpline
 62
7
  6
BYLAYER
 70
0
 71
3
 72
12
 73
8
 74
0
 42
0.0000001
 43
0.0000001
 44
0.0000000001
 40
0.0
 40
0.0
 40
0.0
 40
0.0
 40
0.2155813909
 40
0.342481804
 40
0.477388639
 40
0.7515239864
 40
1.0
 40
1.0
 40
1.0
 40
1.0
 10
48.8236493804
 20
153.1191048409
 30
0.0
 10
48.4592474297
 20
153.5295990157
 30
0.0
 10
47.6799133085
 20
153.9996048151
 30
0.0
 10
46.5217736116
 20
154.3644843845
 30
0.0
 10
45.1681877506
 20
154.5793639244
 30
0.0
 10
43.4784219021
 20
154.5072872331
 30
0.0
 10
42.1848108619
 20
154.0877669883
 30
0.0
 10
41.6369126258
 20
153.7714396824
 30
0.0
  0
SPLINE
  5
3DC
100
AcDbEntity
  8
0
100
AcDbSpline
 62
7
  6
BYLAYER
 70
0
 71
3
 72
11
 73
7
 74
0
 42
0.0000001
 43
0.0000001
 44
0.0000000001
 40
0.0
 40
0.0
 40
0.0
 40
0.0
 40
0.2177438688
 40
0.4508811915
 40
0.7104582954
 40
1.0
 40
1.0
 40
1.0
 40
1.0
 10
69.981549
 20
173.3063917335
 30
0.0
 10
69.9815489789
 20
173.2111903269
 30
0.0
 10
69.9465892828
 20
173.0127044488
 30
0.0
 10
69.7960225189
 20
172.7361058666
 30
0.0
 10
69.5580428129
 20
172.4862664647
 30
0.0
 10
69.3590958264
 20
172.3490858975
 30
0.0
 10
69.2494631953
 20
172.2857898463
 30
0.0
  0
SPLINE
  5
3DD
100
AcDbEntity
  8
0
100
AcDbSpline
 62
7
  6
BYLAYER
 70
0
 71
3
 72
11
 73
7
 74
0
 42
0.0000001
 43
0.0000001
 44
0.0000000001
 40
0.0
 40
0.0
 40
0.0
 40
0.0
 40
0.2372436391
 40
0.5000005261
 40
0.7627571268
 40
1.0
 40
1.0
 40
1.0
 40
1.0
 10
45.5259572347
 20
162.1404718678
 30
0.0
 10
45.4255665069
 20
162.1984311704
 30
0.0
 10
45.1921090911
 20
162.2829967388
 30
0.0
 10
44.8188493419
 20
162.3235155361
 30
0.0
 10
44.4455901559
 20
162.2829950354
 30
0.0
 10
44.2121336581
 20
162.1984283078
 30
0.0
 10
44.1117436724
 20
162.1404684685
 30
0.0
  0
SPLINE
  5
3DE
100
AcDbEntity
  8
0
100
AcDbSpline
 62
7
  6
BYLAYER
 70
0
 71
3
 72
9
 73
5
 74
0
 42
0.0000001
 43
0.0000001
 44
0.0000000001
 40
0.0
 40
0.0
 40
0.0
 40
0.0
 40
0.5255657768
 40
1.0
 40
1.0
 40
1.0
 40
1.0
 10
48.1828173721
 20
161.3239933458
 30
0.0
 10
47.7976161235
 20
161.3239924198
 30
0.0
 10
47.0627171936
 20
161.4036560571
 30
0.0
 10
46.3626342438
 20
161.6574270994
 30
0.0
 10
46.0614933703
 20
161.8312869305
 30
0.0
  0
SPLINE
  5
3DF
100
AcDbEntity
  8
0
100
AcDbSpline
 62
7
  6
BYLAYER
 70
0
 71
3
 72
16
 73
12
 74
0
 42
0.0000001
 43
0.0000001
 44
0.0000000001
 40
0.0
 40
0.0
 40
0.0
 40
0.0
 40
0.1287443602
 40
0.2703971121
 40
0.4176139114
 40
0.5620190713
 40
0.6957499754
 40
0.8130650626
 40
0.9124721117
 40
0.9571211941
 40
1.0
 40
1.0
 40
1.0
 40
1.0
 10
48.0009001521
 20
152.5467801431
 30
0.0
 10
47.6677953521
 20
152.3544631452
 30
0.0
 10
46.9135816692
 20
152.0432834971
 30
0.0
 10
45.6844045757
 20
151.7973261646
 30
0.0
 10
44.3842259115
 20
151.7614270692
 30
0.0
 10
43.1196014736
 20
151.9388397617
 30
0.0
 10
41.9915437728
 20
152.3164055188
 30
0.0
 10
41.0877087119
 20
152.8649352983
 30
0.0
 10
40.5611776423
 20
153.4695751873
 30
0.0
 10
40.3532293425
 20
153.9931406059
 30
0.0
 10
40.3189498319
 20
154.2557588351
 30
0.0
 10
40.3190007172
 20
154.3838632348
 30
0.0
  0
SPLINE
  5
3E0
100
AcDbEntity
  8
0
100
AcDbSpline
 62
7
  6
BYLAYER
 70
0
 71
3
 72
11
 73
7
 74
0
 42
0.0000001
 43
0.0000001
 44
0.0000000001
 40
0.0
 40
0.0
 40
0.0
 40
0.0
 40
0.2177648073
 40
0.4508950352
 40
0.7103684932
 40
1.0
 40
1.0
 40
1.0
 40
1.0
 10
77.6032010665
 20
138.0542336613
 30
0.0
 10
77.6031329908
 20
137.8828518875
 30
0.0
 10
77.5400675911
 20
137.5255933748
 30
0.0
 10
77.2690896398
 20
137.0277958177
 30
0.0
 10
76.8408850318
 20
136.5779293618
 30
0.0
 10
76.4826922977
 20
136.3311200379
 30
0.0
 10
76.285289158
 20
136.2171499623
 30
0.0
  0
SPLINE
  5
3E1
100
AcDbEntity
  8
0
100
AcDbSpline
 62
7
  6
BYLAYER
 70
0
 71
3
 72
12
 73
8
 74
0
 42
0.0000001
 43
0.0000001
 44
0.0000000001
 40
0.0
 40
0.0
 40
0.0
 40
0.0
 40
0.2155813909
 40
0.342481804
 40
0.477388639
 40
0.7515239864
 40
1.0
 40
1.0
 40
1.0
 40
1.0
 10
77.1080383863
 20
136.78947466
 30
0.0
 10
76.7436364356
 20
137.1999688349
 30
0.0
 10
75.9643023143
 20
137.6699746343
 30
0.0
 10
74.8061626175
 20
138.0348542036
 30
0.0
 10
73.4525767565
 20
138.2497337436
 30
0.0
 10
71.762810908
 20
138.1776570523
 30
0.0
 10
70.4691998677
 20
137.7581368075
 30
0.0
 10
69.9213016316
 20
137.4418095016
 30
0.0
  0
SPLINE
  5
3E2
100
AcDbEntity
  8
0
100
AcDbSpline
 62
7
  6
BYLAYER
 70
0
 71
3
 72
11
 73
7
 74
0
 42
0.0000001
 43
0.0000001
 44
0.0000000001
 40
0.0
 40
0.0
 40
0.0
 40
0.0
 40
0.2177438688
 40
0.4508811915
 40
0.7104582954
 40
1.0
 40
1.0
 40
1.0
 40
1.0
 10
92.9626150673
 20
160.0385672116
 30
0.0
 10
92.9626150461
 20
159.943365805
 30
0.0
 10
92.9276553501
 20
159.7448799269
 30
0.0
 10
92.7770885861
 20
159.4682813447
 30
0.0
 10
92.5391088801
 20
159.2184419428
 30
0.0
 10
92.3401618937
 20
159.0812613756
 30
0.0
 10
92.2305292626
 20
159.0179653244
 30
0.0
  0
SPLINE
  5
3E3
100
AcDbEntity
  8
0
100
AcDbSpline
 62
7
  6
BYLAYER
 70
0
 71
3
 72
9
 73
5
 74
0
 42
0.0000001
 43
0.0000001
 44
0.0000000001
 40
0.0
 40
0.0
 40
0.0
 40
0.0
 40
0.5255663101
 40
1.0
 40
1.0
 40
1.0
 40
1.0
 10
61.787595295
 20
152.8488601722
 30
0.0
 10
61.4023944662
 20
152.8488592463
 30
0.0
 10
60.6674974529
 20
152.7691923522
 30
0.0
 10
59.9674172572
 20
152.5154178307
 30
0.0
 10
59.6662786097
 20
152.3415563894
 30
0.0
  0
SPLINE
  5
3E4
100
AcDbEntity
  8
0
100
AcDbSpline
 62
7
  6
BYLAYER
 70
0
 71
3
 72
9
 73
5
 74
0
 42
0.0000001
 43
0.0000001
 44
0.0000000001
 40
0.0
 40
0.0
 40
0.0
 40
0.0
 40
0.4744336899
 40
1.0
 40
1.0
 40
1.0
 40
1.0
 10
66.2319567181
 20
153.3561695389
 30
0.0
 10
65.9308180706
 20
153.1823080976
 30
0.0
 10
65.2307378749
 20
152.9285335761
 30
0.0
 10
64.4958408616
 20
152.848866682
 30
0.0
 10
64.1106400328
 20
152.8488657561
 30
0.0
  0
SPLINE
  5
3E5
100
AcDbEntity
  8
0
100
AcDbSpline
 62
7
  6
BYLAYER
 70
0
 71
3
 72
9
 73
5
 74
0
 42
0.0000001
 43
0.0000001
 44
0.0000000001
 40
0.0
 40
0.0
 40
0.0
 40
0.0
 40
0.2629033482
 40
1.0
 40
1.0
 40
1.0
 40
1.0
 10
41.6369126258
 20
153.7714396824
 30
0.0
 10
41.5703206926
 20
153.7329930414
 30
0.0
 10
41.321191772
 20
153.5798474724
 30
0.0
 10
41.0888166719
 20
153.3980208141
 30
0.0
 10
40.935265358
 20
153.2466969473
 30
0.0
  0
SPLINE
  5
3E6
100
AcDbEntity
  8
0
100
AcDbSpline
 62
7
  6
BYLAYER
 70
0
 71
3
 72
9
 73
5
 74
0
 42
0.0000001
 43
0.0000001
 44
0.0000000001
 40
0.0
 40
0.0
 40
0.0
 40
0.0
 40
0.2433349201
 40
1.0
 40
1.0
 40
1.0
 40
1.0
 10
100.0539221327
 20
82.4198952386
 30
0.0
 10
95.7824475954
 20
84.5213769418
 30
0.0
 10
78.3757773861
 20
93.4552657482
 30
0.0
 10
61.5623827154
 20
103.5317692879
 30
0.0
 10
49.1990212965
 20
111.672531971
 30
0.0
  0
SPLINE
  5
3E7
100
AcDbEntity
  8
0
100
AcDbSpline
 62
7
  6
BYLAYER
 70
0
 71
3
 72
9
 73
5
 74
0
 42
0.0000001
 43
0.0000001
 44
0.0000000001
 40
0.0
 40
0.0
 40
0.0
 40
0.0
 40
0.2460888041
 40
1.0
 40
1.0
 40
1.0
 40
1.0
 10
204.7963100016
 20
123.6425265388
 30
0.0
 10
204.7963099936
 20
123.6064601488
 30
0.0
 10
204.7885202714
 20
123.4599362251
 30
0.0
 10
204.7481132984
 20
123.3157088103
 30
0.0
 10
204.7034743225
 20
123.2146353032
 30
0.0
  0
SPLINE
  5
3E8
100
AcDbEntity
  8
0
100
AcDbSpline
 62
7
  6
BYLAYER
 70
0
 71
3
 72
9
 73
5
 74
0
 42
0.0000001
 43
0.0000001
 44
0.0000000001
 40
0.0
 40
0.0
 40
0.0
 40
0.0
 40
0.2275815986
 40
1.0
 40
1.0
 40
1.0
 40
1.0
 10
204.7034743225
 20
123.2146353032
 30
0.0
 10
204.6742778328
 20
123.1485273437
 30
0.0
 10
204.519341925
 20
122.8696049342
 30
0.0
 10
204.273994296
 20
122.649578598
 30
0.0
 10
204.0703805352
 20
122.5128163041
 30
0.0
  0
SPLINE
  5
3E9
100
AcDbEntity
  8
0
100
AcDbSpline
 62
7
  6
BYLAYER
 70
0
 71
3
 72
12
 73
8
 74
0
 42
0.0000001
 43
0.0000001
 44
0.0000000001
 40
0.0
 40
0.0
 40
0.0
 40
0.0
 40
0.2155813909
 40
0.342481804
 40
0.477388639
 40
0.7515239864
 40
1.0
 40
1.0
 40
1.0
 40
1.0
 10
105.3924273922
 20
120.4598444792
 30
0.0
 10
105.0280254414
 20
120.8703386541
 30
0.0
 10
104.2486913202
 20
121.3403444535
 30
0.0
 10
103.0905516234
 20
121.7052240228
 30
0.0
 10
101.7369657624
 20
121.9201035628
 30
0.0
 10
100.0471999139
 20
121.8480268714
 30
0.0
 10
98.7535888736
 20
121.4285066267
 30
0.0
 10
98.2056906375
 20
121.1121793208
 30
0.0
  0
SPLINE
  5
3EA
100
AcDbEntity
  8
0
100
AcDbSpline
 62
7
  6
BYLAYER
 70
0
 71
3
 72
11
 73
7
 74
0
 42
0.0000001
 43
0.0000001
 44
0.0000000001
 40
0.0
 40
0.0
 40
0.0
 40
0.0
 40
0.2177648073
 40
0.4508950352
 40
0.7103684932
 40
1.0
 40
1.0
 40
1.0
 40
1.0
 10
105.8875900724
 20
121.7246034805
 30
0.0
 10
105.8875219967
 20
121.5532217067
 30
0.0
 10
105.8244565969
 20
121.195963194
 30
0.0
 10
105.5534786456
 20
120.6981656369
 30
0.0
 10
105.1252740377
 20
120.248299181
 30
0.0
 10
104.7670813036
 20
120.0014898571
 30
0.0
 10
104.5696781638
 20
119.8875197815
 30
0.0
  0
SPLINE
  5
3EB
100
AcDbEntity
  8
0
100
AcDbSpline
 62
7
  6
BYLAYER
 70
0
 71
3
 72
11
 73
7
 74
0
 42
0.0000001
 43
0.0000001
 44
0.0000000001
 40
0.0
 40
0.0
 40
0.0
 40
0.0
 40
0.2177438688
 40
0.4508811915
 40
0.7104582954
 40
1.0
 40
1.0
 40
1.0
 40
1.0
 10
115.9436811346
 20
146.7707426897
 30
0.0
 10
115.9436811134
 20
146.6755412831
 30
0.0
 10
115.9087214174
 20
146.477055405
 30
0.0
 10
115.7581546534
 20
146.2004568228
 30
0.0
 10
115.5201749474
 20
145.9506174209
 30
0.0
 10
115.3212279609
 20
145.8134368537
 30
0.0
 10
115.2115953299
 20
145.7501408025
 30
0.0
  0
SPLINE
  5
3EC
100
AcDbEntity
  8
0
100
AcDbSpline
 62
7
  6
BYLAYER
 70
0
 71
3
 72
11
 73
7
 74
0
 42
0.0000001
 43
0.0000001
 44
0.0000000001
 40
0.0
 40
0.0
 40
0.0
 40
0.0
 40
0.2177227832
 40
0.4508712161
 40
0.7104668615
 40
1.0
 40
1.0
 40
1.0
 40
1.0
 10
63.6250488043
 20
248.1998358284
 30
0.0
 10
63.6250535826
 20
248.0760855431
 30
0.0
 10
63.5795450753
 20
247.8180694236
 30
0.0
 10
63.3838445327
 20
247.4584742437
 30
0.0
 10
63.0744493955
 20
247.1336761155
 30
0.0
 10
62.8158161266
 20
246.9553363369
 30
0.0
 10
62.6732974143
 20
246.8730536112
 30
0.0
  0
SPLINE
  5
3ED
100
AcDbEntity
  8
0
100
AcDbSpline
 62
7
  6
BYLAYER
 70
0
 71
3
 72
11
 73
7
 74
0
 42
0.0000001
 43
0.0000001
 44
0.0000000001
 40
0.0
 40
0.0
 40
0.0
 40
0.0
 40
0.2503175381
 40
0.5128518051
 40
0.7685584828
 40
1.0
 40
1.0
 40
1.0
 40
1.0
 10
62.0672453623
 20
246.5357727615
 30
0.0
 10
61.7443411363
 20
246.6495252231
 30
0.0
 10
61.0535382669
 20
246.8029878417
 30
0.0
 10
59.9969283824
 20
246.8308846919
 30
0.0
 10
58.9790886761
 20
246.6652605244
 30
0.0
 10
58.3512148549
 20
246.4188773092
 30
0.0
 10
58.0770842009
 20
246.2606088471
 30
0.0
  0
SPLINE
  5
3EE
100
AcDbEntity
  8
0
100
AcDbSpline
 62
7
  6
BYLAYER
 70
0
 71
3
 72
11
 73
7
 74
0
 42
0.0000001
 43
0.0000001
 44
0.0000000001
 40
0.0
 40
0.0
 40
0.0
 40
0.0
 40
0.2177227832
 40
0.4508712161
 40
0.7104668615
 40
1.0
 40
1.0
 40
1.0
 40
1.0
 10
120.193826816
 20
215.5405754667
 30
0.0
 10
120.1938315944
 20
215.4168251814
 30
0.0
 10
120.1483230871
 20
215.158809062
 30
0.0
 10
119.9526225444
 20
214.799213882
 30
0.0
 10
119.6432274073
 20
214.4744157539
 30
0.0
 10
119.3845941384
 20
214.2960759753
 30
0.0
 10
119.2420754261
 20
214.2137932496
 30
0.0
  0
SPLINE
  5
3EF
100
AcDbEntity
  8
0
100
AcDbSpline
 62
7
  6
BYLAYER
 70
0
 71
3
 72
11
 73
7
 74
0
 42
0.0000001
 43
0.0000001
 44
0.0000000001
 40
0.0
 40
0.0
 40
0.0
 40
0.0
 40
0.2503175381
 40
0.5128518051
 40
0.7685584828
 40
1.0
 40
1.0
 40
1.0
 40
1.0
 10
118.636023374
 20
213.8765123999
 30
0.0
 10
118.3131191481
 20
213.9902648615
 30
0.0
 10
117.6223162787
 20
214.1437274801
 30
0.0
 10
116.5657063941
 20
214.1716243303
 30
0.0
 10
115.5478666878
 20
214.0060001628
 30
0.0
 10
114.9199928666
 20
213.7596169476
 30
0.0
 10
114.6458622127
 20
213.6013484854
 30
0.0
  0
SPLINE
  5
3F0
100
AcDbEntity
  8
0
100
AcDbSpline
 62
7
  6
BYLAYER
 70
0
 71
3
 72
11
 73
7
 74
0
 42
0.0000001
 43
0.0000001
 44
0.0000000001
 40
0.0
 40
0.0
 40
0.0
 40
0.0
 40
0.2177227832
 40
0.4508712161
 40
0.7104668615
 40
1.0
 40
1.0
 40
1.0
 40
1.0
 10
200.0965604212
 20
261.6721648542
 30
0.0
 10
200.0965651995
 20
261.5484145689
 30
0.0
 10
200.0510566922
 20
261.2903984494
 30
0.0
 10
199.8553561496
 20
260.9308032695
 30
0.0
 10
199.5459610125
 20
260.6060051413
 30
0.0
 10
199.2873277436
 20
260.4276653628
 30
0.0
 10
199.1448090313
 20
260.3453826371
 30
0.0
  0
SPLINE
  5
3F1
100
AcDbEntity
  8
0
100
AcDbSpline
 62
7
  6
BYLAYER
 70
0
 71
3
 72
11
 73
7
 74
0
 42
0.0000001
 43
0.0000001
 44
0.0000000001
 40
0.0
 40
0.0
 40
0.0
 40
0.0
 40
0.2503175381
 40
0.5128518051
 40
0.7685584828
 40
1.0
 40
1.0
 40
1.0
 40
1.0
 10
198.5387569792
 20
260.0081017874
 30
0.0
 10
198.2158527533
 20
260.1218542489
 30
0.0
 10
197.5250498838
 20
260.2753168676
 30
0.0
 10
196.4684399993
 20
260.3032137178
 30
0.0
 10
195.450600293
 20
260.1375895503
 30
0.0
 10
194.8227264718
 20
259.891206335
 30
0.0
 10
194.5485958178
 20
259.7329378729
 30
0.0
  0
SPLINE
  5
3F2
100
AcDbEntity
  8
0
100
AcDbSpline
 62
7
  6
BYLAYER
 70
0
 71
3
 72
11
 73
7
 74
0
 42
0.0000001
 43
0.0000001
 44
0.0000000001
 40
0.0
 40
0.0
 40
0.0
 40
0.0
 40
0.2177227832
 40
0.4508712161
 40
0.7104668615
 40
1.0
 40
1.0
 40
1.0
 40
1.0
 10
143.5277824094
 20
294.3314252158
 30
0.0
 10
143.5277871878
 20
294.2076749305
 30
0.0
 10
143.4822786805
 20
293.9496588111
 30
0.0
 10
143.2865781378
 20
293.5900636312
 30
0.0
 10
142.9771830007
 20
293.265265503
 30
0.0
 10
142.7185497318
 20
293.0869257244
 30
0.0
 10
142.5760310195
 20
293.0046429987
 30
0.0
  0
SPLINE
  5
3F3
100
AcDbEntity
  8
0
100
AcDbSpline
 62
7
  6
BYLAYER
 70
0
 71
3
 72
11
 73
7
 74
0
 42
0.0000001
 43
0.0000001
 44
0.0000000001
 40
0.0
 40
0.0
 40
0.0
 40
0.0
 40
0.2503175381
 40
0.5128518051
 40
0.7685584828
 40
1.0
 40
1.0
 40
1.0
 40
1.0
 10
141.9699789675
 20
292.667362149
 30
0.0
 10
141.6470747415
 20
292.7811146106
 30
0.0
 10
140.9562718721
 20
292.9345772292
 30
0.0
 10
139.8996619875
 20
292.9624740794
 30
0.0
 10
138.8818222812
 20
292.7968499119
 30
0.0
 10
138.25394846
 20
292.5504666967
 30
0.0
 10
137.9798178061
 20
292.3921982345
 30
0.0
  0
SPLINE
  5
3F4
100
AcDbEntity
  8
0
100
AcDbSpline
 62
7
  6
BYLAYER
 70
0
 71
3
 72
11
 73
7
 74
0
 42
0.0000001
 43
0.0000001
 44
0.0000000001
 40
0.0
 40
0.0
 40
0.0
 40
0.0
 40
0.2177227832
 40
0.4508712161
 40
0.7104668615
 40
1.0
 40
1.0
 40
1.0
 40
1.0
 10
91.9094378101
 20
231.8702056476
 30
0.0
 10
91.9094425885
 20
231.7464553622
 30
0.0
 10
91.8639340812
 20
231.4884392428
 30
0.0
 10
91.6682335385
 20
231.1288440629
 30
0.0
 10
91.3588384014
 20
230.8040459347
 30
0.0
 10
91.1002051325
 20
230.6257061561
 30
0.0
 10
90.9576864202
 20
230.5434234304
 30
0.0
  0
SPLINE
  5
3F5
100
AcDbEntity
  8
0
100
AcDbSpline
 62
7
  6
BYLAYER
 70
0
 71
3
 72
11
 73
7
 74
0
 42
0.0000001
 43
0.0000001
 44
0.0000000001
 40
0.0
 40
0.0
 40
0.0
 40
0.0
 40
0.2503175381
 40
0.5128518051
 40
0.7685584828
 40
1.0
 40
1.0
 40
1.0
 40
1.0
 10
90.3516343682
 20
230.2061425807
 30
0.0
 10
90.0287301422
 20
230.3198950423
 30
0.0
 10
89.3379272728
 20
230.4733576609
 30
0.0
 10
88.2813173882
 20
230.5012545111
 30
0.0
 10
87.2634776819
 20
230.3356303436
 30
0.0
 10
86.6356038607
 20
230.0892471284
 30
0.0
 10
86.3614732068
 20
229.9309786662
 30
0.0
  0
SPLINE
  5
3F6
100
AcDbEntity
  8
0
100
AcDbSpline
 62
7
  6
BYLAYER
 70
0
 71
3
 72
11
 73
7
 74
0
 42
0.0000001
 43
0.0000001
 44
0.0000000001
 40
0.0
 40
0.0
 40
0.0
 40
0.0
 40
0.2177825102
 40
0.4509091639
 40
0.7102957096
 40
1.0
 40
1.0
 40
1.0
 40
1.0
 10
148.6352626551
 20
125.7478397692
 30
0.0
 10
148.4868227692
 20
125.8335396558
 30
0.0
 10
148.2090974595
 20
126.0670205957
 30
0.0
 10
147.913426344
 20
126.5504553489
 30
0.0
 10
147.7378151895
 20
127.146228436
 30
0.0
 10
147.7032459848
 20
127.5798503093
 30
0.0
 10
147.7032459848
 20
127.8078579882
 30
0.0
  0
SPLINE
  5
3F7
100
AcDbEntity
  8
0
100
AcDbSpline
 62
7
  6
BYLAYER
 70
0
 71
3
 72
11
 73
7
 74
0
 42
0.0000001
 43
0.0000001
 44
0.0000000001
 40
0.0
 40
0.0
 40
0.0
 40
0.0
 40
0.2177825102
 40
0.4509091639
 40
0.7102957096
 40
1.0
 40
1.0
 40
1.0
 40
1.0
 10
217.2243348649
 20
165.3475226948
 30
0.0
 10
217.0758949789
 20
165.4332225813
 30
0.0
 10
216.7981696692
 20
165.6667035212
 30
0.0
 10
216.5024985537
 20
166.1501382745
 30
0.0
 10
216.3268873992
 20
166.7459113615
 30
0.0
 10
216.2923181946
 20
167.1795332348
 30
0.0
 10
216.2923181946
 20
167.4075409138
 30
0.0
  0
SPLINE
  5
3F8
100
AcDbEntity
  8
0
100
AcDbSpline
 62
7
  6
BYLAYER
 70
0
 71
3
 72
10
 73
6
 74
0
 42
0.0000001
 43
0.0000001
 44
0.0000000001
 40
0.0
 40
0.0
 40
0.0
 40
0.0
 40
0.4976828517
 40
0.748142009
 40
1.0
 40
1.0
 40
1.0
 40
1.0
 10
109.9026864371
 20
290.7679181614
 30
0.0
 10
110.1272731128
 20
290.8975825745
 30
0.0
 10
110.5162720443
 20
291.0252493879
 30
0.0
 10
111.0411150743
 20
290.9806758962
 30
0.0
 10
111.2890122024
 20
290.88306699
 30
0.0
 10
111.4026672846
 20
290.8174496821
 30
0.0
  0
SPLINE
  5
3F9
100
AcDbEntity
  8
0
100
AcDbSpline
 62
7
  6
BYLAYER
 70
0
 71
3
 72
9
 73
5
 74
0
 42
0.0000001
 43
0.0000001
 44
0.0000000001
 40
0.0
 40
0.0
 40
0.0
 40
0.0
 40
0.5000359875
 40
1.0
 40
1.0
 40
1.0
 40
1.0
 10
58.8447598909
 20
259.8959320157
 30
0.0
 10
58.8447598778
 20
260.3108200604
 30
0.0
 10
59.1030236968
 20
261.1407130933
 30
0.0
 10
59.6926135619
 20
261.7792921096
 30
0.0
 10
60.0518659665
 20
261.986705344
 30
0.0
  0
SPLINE
  5
3FA
100
AcDbEntity
  8
0
100
AcDbSpline
 62
7
  6
BYLAYER
 70
0
 71
3
 72
9
 73
5
 74
0
 42
0.0000001
 43
0.0000001
 44
0.0000000001
 40
0.0
 40
0.0
 40
0.0
 40
0.0
 40
0.5000016721
 40
1.0
 40
1.0
 40
1.0
 40
1.0
 10
40.2226549039
 20
246.7709302786
 30
0.0
 10
40.2226549039
 20
246.8921045046
 30
0.0
 10
40.3054645849
 20
247.131368379
 30
0.0
 10
40.4712674098
 20
247.3227171275
 30
0.0
 10
40.5762068225
 20
247.3833035641
 30
0.0
  0
SPLINE
  5
3FB
100
AcDbEntity
  8
0
100
AcDbSpline
 62
7
  6
BYLAYER
 70
0
 71
3
 72
11
 73
7
 74
0
 42
0.0000001
 43
0.0000001
 44
0.0000000001
 40
0.0
 40
0.0
 40
0.0
 40
0.0
 40
0.2895416688
 40
0.549118971
 40
0.7822562702
 40
1.0
 40
1.0
 40
1.0
 40
1.0
 10
48.7079127263
 20
185.9414505636
 30
0.0
 10
48.5763535874
 20
185.8654953127
 30
0.0
 10
48.3376172503
 20
185.7008784499
 30
0.0
 10
48.0520413913
 20
185.4010712594
 30
0.0
 10
47.871361436
 20
185.0691528644
 30
0.0
 10
47.8294097252
 20
184.8309699145
 30
0.0
 10
47.8294097606
 20
184.7167283012
 30
0.0
  0
SPLINE
  5
3FC
100
AcDbEntity
  8
0
100
AcDbSpline
 62
7
  6
BYLAYER
 70
0
 71
3
 72
11
 73
7
 74
0
 42
0.0000001
 43
0.0000001
 44
0.0000000001
 40
0.0
 40
0.0
 40
0.0
 40
0.0
 40
0.2419346663
 40
0.5000084347
 40
0.7580784832
 40
1.0
 40
1.0
 40
1.0
 40
1.0
 10
40.3438987043
 20
207.9868429729
 30
0.0
 10
40.3438987069
 20
208.8645362519
 30
0.0
 10
40.6513395189
 20
210.6819029316
 30
0.0
 10
41.7645349408
 20
213.2204106543
 30
0.0
 10
43.4063407678
 20
215.4536662345
 30
0.0
 10
44.8264617085
 20
216.628554947
 30
0.0
 10
45.5865262064
 20
217.0673757698
 30
0.0
  0
SPLINE
  5
3FD
100
AcDbEntity
  8
0
100
AcDbSpline
 62
7
  6
BYLAYER
 70
0
 71
3
 72
11
 73
7
 74
0
 42
0.0000001
 43
0.0000001
 44
0.0000000001
 40
0.0
 40
0.0
 40
0.0
 40
0.0
 40
0.1957235062
 40
0.2841176712
 40
0.5784246414
 40
1.0
 40
1.0
 40
1.0
 40
1.0
 10
58.8358456091
 20
219.6087938559
 30
0.0
 10
58.8268963062
 20
219.6011345293
 30
0.0
 10
58.8015328284
 20
219.5717910157
 30
0.0
 10
58.8286316216
 20
219.6135764149
 30
0.0
 10
58.8366892549
 20
219.6528262969
 30
0.0
 10
58.8447598909
 20
219.6986410179
 30
0.0
 10
58.8447598909
 20
219.7240131541
 30
0.0
  0
SPLINE
  5
3FE
100
AcDbEntity
  8
0
100
AcDbSpline
 62
7
  6
BYLAYER
 70
0
 71
3
 72
11
 73
7
 74
0
 42
0.0000001
 43
0.0000001
 44
0.0000000001
 40
0.0
 40
0.0
 40
0.0
 40
0.0
 40
0.2897757032
 40
0.5490693955
 40
0.7822254653
 40
1.0
 40
1.0
 40
1.0
 40
1.0
 10
199.6751825407
 20
211.0491796046
 30
0.0
 10
200.0262989829
 20
211.2518955669
 30
0.0
 10
200.7245321885
 20
211.5842324984
 30
0.0
 10
201.7979041152
 20
211.8432092228
 30
0.0
 10
202.8048895491
 20
211.8178203034
 30
0.0
 10
203.4112103639
 20
211.5976965684
 30
0.0
 10
203.6750852699
 20
211.445351753
 30
0.0
  0
SPLINE
  5
3FF
100
AcDbEntity
  8
0
100
AcDbSpline
 62
7
  6
BYLAYER
 70
0
 71
3
 72
11
 73
7
 74
0
 42
0.0000001
 43
0.0000001
 44
0.0000000001
 40
0.0
 40
0.0
 40
0.0
 40
0.0
 40
0.2296939639
 40
0.4661334526
 40
0.7208090122
 40
1.0
 40
1.0
 40
1.0
 40
1.0
 10
216.0732197583
 20
187.6775169384
 30
0.0
 10
215.5598446252
 20
187.9739716545
 30
0.0
 10
214.4090377558
 20
188.4070839874
 30
0.0
 10
212.5184006594
 20
188.4518546435
 30
0.0
 10
210.5812538914
 20
187.9061542639
 30
0.0
 10
209.3763100098
 20
187.2102638837
 30
0.0
 10
208.7906850385
 20
186.7904227077
 30
0.0
  0
SPLINE
  5
400
100
AcDbEntity
  8
0
100
AcDbSpline
 62
7
  6
BYLAYER
 70
0
 71
3
 72
11
 73
7
 74
0
 42
0.0000001
 43
0.0000001
 44
0.0000000001
 40
0.0
 40
0.0
 40
0.0
 40
0.0
 40
0.2372297508
 40
0.500001618
 40
0.7627726046
 40
1.0
 40
1.0
 40
1.0
 40
1.0
 10
119.0653450983
 20
157.9773267262
 30
0.0
 10
119.0653450983
 20
158.9046420677
 30
0.0
 10
119.4131474639
 20
160.8603813809
 30
0.0
 10
120.6255179695
 20
163.6085481633
 30
0.0
 10
122.3992968387
 20
166.032577009
 30
0.0
 10
123.9191039281
 20
167.3116483027
 30
0.0
 10
124.722175796
 20
167.7752992942
 30
0.0
  0
SPLINE
  5
401
100
AcDbEntity
  8
0
100
AcDbSpline
 62
7
  6
BYLAYER
 70
0
 71
3
 72
16
 73
12
 74
0
 42
0.0000001
 43
0.0000001
 44
0.0000000001
 40
0.0
 40
0.0
 40
0.0
 40
0.0
 40
0.1287443602
 40
0.2703971121
 40
0.4176139114
 40
0.5620190713
 40
0.6957499754
 40
0.8130650626
 40
0.9124721117
 40
0.9571211941
 40
1.0
 40
1.0
 40
1.0
 40
1.0
 10
76.285289158
 20
136.2171499623
 30
0.0
 10
75.952184358
 20
136.0248329644
 30
0.0
 10
75.1979706751
 20
135.7136533163
 30
0.0
 10
73.9687935815
 20
135.4676959838
 30
0.0
 10
72.6686149174
 20
135.4317968884
 30
0.0
 10
71.4039904795
 20
135.6092095808
 30
0.0
 10
70.2759327787
 20
135.986775338
 30
0.0
 10
69.3720977178
 20
136.5353051175
 30
0.0
 10
68.8455666481
 20
137.1399450065
 30
0.0
 10
68.6376183484
 20
137.6635104251
 30
0.0
 10
68.6033388378
 20
137.9261286543
 30
0.0
 10
68.603389723
 20
138.0542330539
 30
0.0
  0
SPLINE
  5
402
100
AcDbEntity
  8
0
100
AcDbSpline
 62
7
  6
BYLAYER
 70
0
 71
3
 72
9
 73
5
 74
0
 42
0.0000001
 43
0.0000001
 44
0.0000000001
 40
0.0
 40
0.0
 40
0.0
 40
0.0
 40
0.266282923
 40
1.0
 40
1.0
 40
1.0
 40
1.0
 10
73.8796927846
 20
146.3392009276
 30
0.0
 10
73.7549727628
 20
146.3199066276
 30
0.0
 10
73.2900773226
 20
146.2292117358
 30
0.0
 10
72.8359866494
 20
146.0647865805
 30
0.0
 10
72.534832809
 20
145.8909163675
 30
0.0
  0
SPLINE
  5
403
100
AcDbEntity
  8
0
100
AcDbSpline
 62
7
  6
BYLAYER
 70
0
 71
3
 72
9
 73
5
 74
0
 42
0.0000001
 43
0.0000001
 44
0.0000000001
 40
0.0
 40
0.0
 40
0.0
 40
0.0
 40
0.2245233449
 40
1.0
 40
1.0
 40
1.0
 40
1.0
 10
87.4534788481
 20
136.0530419273
 30
0.0
 10
87.4185601724
 20
135.9778024607
 30
0.0
 10
87.2280520005
 20
135.6586406325
 30
0.0
 10
86.9251359676
 20
135.4198387698
 30
0.0
 10
86.677027312
 20
135.2765940257
 30
0.0
  0
SPLINE
  5
404
100
AcDbEntity
  8
0
100
AcDbSpline
 62
7
  6
BYLAYER
 70
0
 71
3
 72
9
 73
5
 74
0
 42
0.0000001
 43
0.0000001
 44
0.0000000001
 40
0.0
 40
0.0
 40
0.0
 40
0.0
 40
0.2629033482
 40
1.0
 40
1.0
 40
1.0
 40
1.0
 10
69.9213016316
 20
137.4418095016
 30
0.0
 10
69.8547096985
 20
137.4033628606
 30
0.0
 10
69.6055807778
 20
137.2502172916
 30
0.0
 10
69.3732056777
 20
137.0683906333
 30
0.0
 10
69.2196543638
 20
136.9170667665
 30
0.0
  0
SPLINE
  5
405
100
AcDbEntity
  8
0
100
AcDbSpline
 62
7
  6
BYLAYER
 70
0
 71
3
 72
11
 73
7
 74
0
 42
0.0000001
 43
0.0000001
 44
0.0000000001
 40
0.0
 40
0.0
 40
0.0
 40
0.0
 40
0.23959329
 40
0.5008179078
 40
0.7616306561
 40
1.0
 40
1.0
 40
1.0
 40
1.0
 10
100.604474833
 20
129.4394447562
 30
0.0
 10
100.3597235766
 20
129.5643197037
 30
0.0
 10
99.8071462182
 20
129.7466024325
 30
0.0
 10
98.9321269912
 20
129.8320520122
 30
0.0
 10
98.0592022987
 20
129.740271411
 30
0.0
 10
97.5097919897
 20
129.5539694012
 30
0.0
 10
97.2676696961
 20
129.4270664728
 30
0.0
  0
SPLINE
  5
406
100
AcDbEntity
  8
0
100
AcDbSpline
 62
7
  6
BYLAYER
 70
0
 71
3
 72
16
 73
12
 74
0
 42
0.0000001
 43
0.0000001
 44
0.0000000001
 40
0.0
 40
0.0
 40
0.0
 40
0.0
 40
0.1287443602
 40
0.2703971121
 40
0.4176139114
 40
0.5620190713
 40
0.6957499754
 40
0.8130650626
 40
0.9124721117
 40
0.9571211941
 40
1.0
 40
1.0
 40
1.0
 40
1.0
 10
104.5696781638
 20
119.8875197815
 30
0.0
 10
104.2365733639
 20
119.6952027835
 30
0.0
 10
103.482359681
 20
119.3840231355
 30
0.0
 10
102.2531825874
 20
119.138065803
 30
0.0
 10
100.9530039232
 20
119.1021667075
 30
0.0
 10
99.6883794854
 20
119.2795794
 30
0.0
 10
98.5603217846
 20
119.6571451572
 30
0.0
 10
97.6564867237
 20
120.2056749367
 30
0.0
 10
97.129955654
 20
120.8103148257
 30
0.0
 10
96.9220073542
 20
121.3338802443
 30
0.0
 10
96.8877278437
 20
121.5964984734
 30
0.0
 10
96.8877787289
 20
121.7246028731
 30
0.0
  0
SPLINE
  5
407
100
AcDbEntity
  8
0
100
AcDbSpline
 62
7
  6
BYLAYER
 70
0
 71
3
 72
11
 73
7
 74
0
 42
0.0000001
 43
0.0000001
 44
0.0000000001
 40
0.0
 40
0.0
 40
0.0
 40
0.0
 40
0.2177164324
 40
0.4509408358
 40
0.7102939719
 40
1.0
 40
1.0
 40
1.0
 40
1.0
 10
102.9715329431
 20
131.5213478442
 30
0.0
 10
102.9715337668
 20
131.407117891
 30
0.0
 10
102.9292336
 20
131.1689617955
 30
0.0
 10
102.7488193268
 20
130.8370504962
 30
0.0
 10
102.463275142
 20
130.5371312008
 30
0.0
 10
102.224499005
 20
130.3726185077
 30
0.0
 10
102.0928621186
 20
130.2966183695
 30
0.0
  0
SPLINE
  5
408
100
AcDbEntity
  8
0
100
AcDbSpline
 62
7
  6
BYLAYER
 70
0
 71
3
 72
11
 73
7
 74
0
 42
0.0000001
 43
0.0000001
 44
0.0000000001
 40
0.0
 40
0.0
 40
0.0
 40
0.0
 40
0.2897062311
 40
0.5490596185
 40
0.7822840529
 40
1.0
 40
1.0
 40
1.0
 40
1.0
 10
114.2871741636
 20
122.4420628622
 30
0.0
 10
114.1555361334
 20
122.518062395
 30
0.0
 10
113.9167576238
 20
122.6825739621
 30
0.0
 10
113.6312092662
 20
122.9824917242
 30
0.0
 10
113.4507902627
 20
123.3144018644
 30
0.0
 10
113.408486499
 20
123.5525579773
 30
0.0
 10
113.4084856752
 20
123.6667881127
 30
0.0
  0
SPLINE
  5
409
100
AcDbEntity
  8
0
100
AcDbSpline
 62
7
  6
BYLAYER
 70
0
 71
3
 72
11
 73
7
 74
0
 42
0.0000001
 43
0.0000001
 44
0.0000000001
 40
0.0
 40
0.0
 40
0.0
 40
0.0
 40
0.2873582689
 40
0.5458135719
 40
0.7800113384
 40
1.0
 40
1.0
 40
1.0
 40
1.0
 10
103.7650157538
 20
134.0360296645
 30
0.0
 10
103.6452951172
 20
133.9609740772
 30
0.0
 10
103.4284322897
 20
133.7999501582
 30
0.0
 10
103.1709011553
 20
133.5112910443
 30
0.0
 10
103.0091889929
 20
133.1954129466
 30
0.0
 10
102.9715224913
 20
132.9707139943
 30
0.0
 10
102.9715232713
 20
132.8625391752
 30
0.0
  0
SPLINE
  5
40A
100
AcDbEntity
  8
0
100
AcDbSpline
 62
7
  6
BYLAYER
 70
0
 71
3
 72
9
 73
5
 74
0
 42
0.0000001
 43
0.0000001
 44
0.0000000001
 40
0.0
 40
0.0
 40
0.0
 40
0.0
 40
0.2629033482
 40
1.0
 40
1.0
 40
1.0
 40
1.0
 10
98.2056906375
 20
121.1121793208
 30
0.0
 10
98.1390987044
 20
121.0737326798
 30
0.0
 10
97.8899697837
 20
120.9205871108
 30
0.0
 10
97.6575946836
 20
120.7387604525
 30
0.0
 10
97.5040433697
 20
120.5874365857
 30
0.0
  0
SPLINE
  5
40B
100
AcDbEntity
  8
0
100
AcDbSpline
 62
7
  6
BYLAYER
 70
0
 71
3
 72
11
 73
7
 74
0
 42
0.0000001
 43
0.0000001
 44
0.0000000001
 40
0.0
 40
0.0
 40
0.0
 40
0.0
 40
0.2895396729
 40
0.5491163863
 40
0.7822545095
 40
1.0
 40
1.0
 40
1.0
 40
1.0
 10
184.7553033513
 20
241.8723297227
 30
0.0
 10
184.8868612569
 20
241.9482842615
 30
0.0
 10
185.1487906798
 20
242.0727251245
 30
0.0
 10
185.5512179039
 20
242.1701346081
 30
0.0
 10
185.9290075566
 20
242.1606475797
 30
0.0
 10
186.1562567413
 20
242.0778882035
 30
0.0
 10
186.2551939716
 20
242.0207680062
 30
0.0
  0
SPLINE
  5
40C
100
AcDbEntity
  8
0
100
AcDbSpline
 62
7
  6
BYLAYER
 70
0
 71
3
 72
11
 73
7
 74
0
 42
0.0000001
 43
0.0000001
 44
0.0000000001
 40
0.0
 40
0.0
 40
0.0
 40
0.0
 40
0.2372542275
 40
0.5000017852
 40
0.7627483734
 40
1.0
 40
1.0
 40
1.0
 40
1.0
 10
140.3491823743
 20
213.7850896082
 30
0.0
 10
140.3491823743
 20
214.1328674439
 30
0.0
 10
140.4795740979
 20
214.8662868454
 30
0.0
 10
140.9343872668
 20
215.8967174906
 30
0.0
 10
141.599353015
 20
216.8058127888
 30
0.0
 10
142.1693122976
 20
217.2854430881
 30
0.0
 10
142.4704938859
 20
217.4593293212
 30
0.0
  0
SPLINE
  5
40D
100
AcDbEntity
  8
0
100
AcDbSpline
 62
7
  6
BYLAYER
 70
0
 71
3
 72
9
 73
5
 74
0
 42
0.0000001
 43
0.0000001
 44
0.0000000001
 40
0.0
 40
0.0
 40
0.0
 40
0.0
 40
0.4999983279
 40
1.0
 40
1.0
 40
1.0
 40
1.0
 10
148.551586886
 20
210.6414734678
 30
0.0
 10
148.6565262987
 20
210.7020599043
 30
0.0
 10
148.8223291236
 20
210.8934086528
 30
0.0
 10
148.9051388046
 20
211.1326725273
 30
0.0
 10
148.9051388046
 20
211.2538467533
 30
0.0
  0
SPLINE
  5
40E
100
AcDbEntity
  8
0
100
AcDbSpline
 62
7
  6
BYLAYER
 70
0
 71
3
 72
11
 73
7
 74
0
 42
0.0000001
 43
0.0000001
 44
0.0000000001
 40
0.0
 40
0.0
 40
0.0
 40
0.0
 40
0.2372446848
 40
0.5000016179
 40
0.7627576706
 40
1.0
 40
1.0
 40
1.0
 40
1.0
 10
140.3491823743
 20
204.6810876572
 30
0.0
 10
140.3491823743
 20
204.8549694866
 30
0.0
 10
140.4144181288
 20
205.2216656874
 30
0.0
 10
140.6417244389
 20
205.7369361044
 30
0.0
 10
140.9743051565
 20
206.1914246889
 30
0.0
 10
141.2592533189
 20
206.4312678514
 30
0.0
 10
141.4098381301
 20
206.5182075137
 30
0.0
  0
SPLINE
  5
40F
100
AcDbEntity
  8
0
100
AcDbSpline
 62
7
  6
BYLAYER
 70
0
 71
3
 72
9
 73
5
 74
0
 42
0.0000001
 43
0.0000001
 44
0.0000000001
 40
0.0
 40
0.0
 40
0.0
 40
0.0
 40
0.4999983279
 40
1.0
 40
1.0
 40
1.0
 40
1.0
 10
211.6959595492
 20
256.3649788429
 30
0.0
 10
211.8008989619
 20
256.4255652795
 30
0.0
 10
211.9667017868
 20
256.616914028
 30
0.0
 10
212.0495114678
 20
256.8561779025
 30
0.0
 10
212.0495114678
 20
256.9773521284
 30
0.0
  0
SPLINE
  5
410
100
AcDbEntity
  8
0
100
AcDbSpline
 62
7
  6
BYLAYER
 70
0
 71
3
 72
9
 73
5
 74
0
 42
0.0000001
 43
0.0000001
 44
0.0000000001
 40
0.0
 40
0.0
 40
0.0
 40
0.0
 40
0.4801696372
 40
1.0
 40
1.0
 40
1.0
 40
1.0
 10
188.4322433048
 20
240.8977362784
 30
0.0
 10
188.4322433048
 20
241.1610948037
 30
0.0
 10
188.5747101735
 20
241.7078662435
 30
0.0
 10
188.8750558845
 20
242.1783412598
 30
0.0
 10
189.0686367583
 20
242.3876612564
 30
0.0
  0
SPLINE
  5
411
100
AcDbEntity
  8
0
100
AcDbSpline
 62
7
  6
BYLAYER
 70
0
 71
3
 72
9
 73
5
 74
0
 42
0.0000001
 43
0.0000001
 44
0.0000000001
 40
0.0
 40
0.0
 40
0.0
 40
0.0
 40
0.5150421689
 40
1.0
 40
1.0
 40
1.0
 40
1.0
 10
204.3656738689
 20
181.3681617104
 30
0.0
 10
203.6140619132
 20
179.8531922777
 30
0.0
 10
202.5636501751
 20
176.694591
 30
0.0
 10
202.4246919356
 20
173.3523340487
 30
0.0
 10
202.6460023952
 20
171.7754024214
 30
0.0
  0
SPLINE
  5
412
100
AcDbEntity
  8
0
100
AcDbSpline
 62
7
  6
BYLAYER
 70
0
 71
3
 72
11
 73
7
 74
0
 42
0.0000001
 43
0.0000001
 44
0.0000000001
 40
0.0
 40
0.0
 40
0.0
 40
0.0
 40
0.2788418172
 40
0.5369053896
 40
0.7756025757
 40
1.0
 40
1.0
 40
1.0
 40
1.0
 10
202.6460023952
 20
171.7754024214
 30
0.0
 10
202.7401530814
 20
171.1045385365
 30
0.0
 10
203.0244114408
 20
169.8235164711
 30
0.0
 10
203.777954784
 20
168.08210688
 30
0.0
 10
204.8236759457
 20
166.6558165893
 30
0.0
 10
205.7172690219
 20
165.9437817673
 30
0.0
 10
206.1893962063
 20
165.6711955965
 30
0.0
  0
SPLINE
  5
413
100
AcDbEntity
  8
0
100
AcDbSpline
 62
7
  6
BYLAYER
 70
0
 71
3
 72
11
 73
7
 74
0
 42
0.0000001
 43
0.0000001
 44
0.0000000001
 40
0.0
 40
0.0
 40
0.0
 40
0.0
 40
0.289702809
 40
0.549088757
 40
0.7822160314
 40
1.0
 40
1.0
 40
1.0
 40
1.0
 10
220.4642308341
 20
173.4904422987
 30
0.0
 10
220.6616827402
 20
173.6044405293
 30
0.0
 10
221.0544781974
 20
173.7913047353
 30
0.0
 10
221.6582132828
 20
173.9371012927
 30
0.0
 10
222.2246940562
 20
173.9227629439
 30
0.0
 10
222.5657464309
 20
173.7989953989
 30
0.0
 10
222.7141814313
 20
173.713298333
 30
0.0
  0
SPLINE
  5
414
100
AcDbEntity
  8
0
100
AcDbSpline
 62
7
  6
BYLAYER
 70
0
 71
3
 72
11
 73
7
 74
0
 42
0.0000001
 43
0.0000001
 44
0.0000000001
 40
0.0
 40
0.0
 40
0.0
 40
0.0
 40
0.2372416196
 40
0.5000015492
 40
0.7627606319
 40
1.0
 40
1.0
 40
1.0
 40
1.0
 10
216.2923181946
 20
167.4075409138
 30
0.0
 10
216.2923181946
 20
167.9291817141
 30
0.0
 10
216.487981264
 20
169.0292803659
 30
0.0
 10
217.169904911
 20
170.5751086021
 30
0.0
 10
218.1676594118
 20
171.9385872159
 30
0.0
 10
219.0225348905
 20
172.658083726
 30
0.0
 10
219.474285462
 20
172.9189004833
 30
0.0
  0
SPLINE
  5
415
100
AcDbEntity
  8
0
100
AcDbSpline
 62
7
  6
BYLAYER
 70
0
 71
3
 72
11
 73
7
 74
0
 42
0.0000001
 43
0.0000001
 44
0.0000000001
 40
0.0
 40
0.0
 40
0.0
 40
0.0
 40
0.289702809
 40
0.549088757
 40
0.7822160314
 40
1.0
 40
1.0
 40
1.0
 40
1.0
 10
151.8751586244
 20
133.8907593732
 30
0.0
 10
152.0726105304
 20
134.0047576038
 30
0.0
 10
152.4654059877
 20
134.1916218097
 30
0.0
 10
153.069141073
 20
134.3374183671
 30
0.0
 10
153.6356218465
 20
134.3230800184
 30
0.0
 10
153.9766742212
 20
134.1993124734
 30
0.0
 10
154.1251092215
 20
134.1136154075
 30
0.0
  0
SPLINE
  5
416
100
AcDbEntity
  8
0
100
AcDbSpline
 62
7
  6
BYLAYER
 70
0
 71
3
 72
11
 73
7
 74
0
 42
0.0000001
 43
0.0000001
 44
0.0000000001
 40
0.0
 40
0.0
 40
0.0
 40
0.0
 40
0.2372416196
 40
0.5000015492
 40
0.7627606319
 40
1.0
 40
1.0
 40
1.0
 40
1.0
 10
147.7032459848
 20
127.8078579882
 30
0.0
 10
147.7032459848
 20
128.3294987885
 30
0.0
 10
147.8989090543
 20
129.4295974404
 30
0.0
 10
148.5808327012
 20
130.9754256766
 30
0.0
 10
149.578587202
 20
132.3389042904
 30
0.0
 10
150.4334626807
 20
133.0584008005
 30
0.0
 10
150.8852132523
 20
133.3192175577
 30
0.0
  0
SPLINE
  5
417
100
AcDbEntity
  8
0
100
AcDbSpline
 62
7
  6
BYLAYER
 70
0
 71
3
 72
9
 73
5
 74
0
 42
0.0000001
 43
0.0000001
 44
0.0000000001
 40
0.0
 40
0.0
 40
0.0
 40
0.0
 40
0.2782692765
 40
1.0
 40
1.0
 40
1.0
 40
1.0
 10
48.2430038594
 20
113.9122526038
 30
0.0
 10
48.162937741
 20
113.9638156048
 30
0.0
 10
47.8862369433
 20
114.1634997263
 30
0.0
 10
47.6525494035
 20
114.437972441
 30
0.0
 10
47.5580011366
 20
114.6661604443
 30
0.0
  0
SPLINE
  5
418
100
AcDbEntity
  8
0
100
AcDbSpline
 62
7
  6
BYLAYER
 70
0
 71
3
 72
9
 73
5
 74
0
 42
0.0000001
 43
0.0000001
 44
0.0000000001
 40
0.0
 40
0.0
 40
0.0
 40
0.0
 40
0.2562787306
 40
1.0
 40
1.0
 40
1.0
 40
1.0
 10
47.5580011366
 20
114.6661604443
 30
0.0
 10
47.5445060428
 20
114.698730248
 30
0.0
 10
47.497553759
 20
114.828087652
 30
0.0
 10
47.4758563473
 20
114.9667614242
 30
0.0
 10
47.47585637
 20
115.0690712679
 30
0.0
  0
SPLINE
  5
419
100
AcDbEntity
  8
0
100
AcDbSpline
 62
7
  6
BYLAYER
 70
0
 71
3
 72
11
 73
7
 74
0
 42
0.0000001
 43
0.0000001
 44
0.0000000001
 40
0.0
 40
0.0
 40
0.0
 40
0.0
 40
0.2372524156
 40
0.4999996414
 40
0.7627470637
 40
1.0
 40
1.0
 40
1.0
 40
1.0
 10
120.8331061633
 20
74.4491161943
 30
0.0
 10
120.5319239288
 20
74.2752295881
 30
0.0
 10
119.8315709449
 20
74.0214468105
 30
0.0
 10
118.7117885393
 20
73.9001140792
 30
0.0
 10
117.5920048327
 20
74.0214419406
 30
0.0
 10
116.8916496257
 20
74.2752211802
 30
0.0
 10
116.5904654762
 20
74.4491059962
 30
0.0
  0
SPLINE
  5
41A
100
AcDbEntity
  8
0
100
AcDbSpline
 62
7
  6
BYLAYER
 70
0
 71
3
 72
15
 73
11
 74
0
 42
0.0000001
 43
0.0000001
 44
0.0000000001
 40
0.0
 40
0.0
 40
0.0
 40
0.0
 40
0.1288244605
 40
0.2705976782
 40
0.4178986235
 40
0.5623949216
 40
0.69620836
 40
0.8136001012
 40
0.9130679301
 40
1.0
 40
1.0
 40
1.0
 40
1.0
 10
194.1950821708
 20
257.48767356
 30
0.0
 10
193.9545160884
 20
257.3487834966
 30
0.0
 10
193.4097470478
 20
257.1240692607
 30
0.0
 10
192.5220046524
 20
256.9463670214
 30
0.0
 10
191.5829588083
 20
256.9204984053
 30
0.0
 10
190.6696836536
 20
257.0487348595
 30
0.0
 10
189.8549579361
 20
257.3209640435
 30
0.0
 10
189.2023729186
 20
257.718616875
 30
0.0
 10
188.7602104482
 20
258.2213783504
 30
0.0
 10
188.6471248054
 20
258.6270065237
 30
0.0
 10
188.6471175674
 20
258.8144562472
 30
0.0
  0
SPLINE
  5
41B
100
AcDbEntity
  8
0
100
AcDbSpline
 62
7
  6
BYLAYER
 70
0
 71
3
 72
15
 73
11
 74
0
 42
0.0000001
 43
0.0000001
 44
0.0000000001
 40
0.0
 40
0.0
 40
0.0
 40
0.0
 40
0.1288244605
 40
0.2705976782
 40
0.4178986235
 40
0.5623949216
 40
0.69620836
 40
0.8136001012
 40
0.9130679301
 40
1.0
 40
1.0
 40
1.0
 40
1.0
 10
137.626304159
 20
290.1469339216
 30
0.0
 10
137.3857380766
 20
290.0080438582
 30
0.0
 10
136.840969036
 20
289.7833296223
 30
0.0
 10
135.9532266406
 20
289.605627383
 30
0.0
 10
135.0141807966
 20
289.5797587669
 30
0.0
 10
134.1009056418
 20
289.7079952211
 30
0.0
 10
133.2861799243
 20
289.9802244051
 30
0.0
 10
132.6335949069
 20
290.3778772366
 30
0.0
 10
132.1914324365
 20
290.880638712
 30
0.0
 10
132.0783467936
 20
291.2862668854
 30
0.0
 10
132.0783395556
 20
291.4737166088
 30
0.0
  0
SPLINE
  5
41C
100
AcDbEntity
  8
0
100
AcDbSpline
 62
7
  6
BYLAYER
 70
0
 71
3
 72
15
 73
11
 74
0
 42
0.0000001
 43
0.0000001
 44
0.0000000001
 40
0.0
 40
0.0
 40
0.0
 40
0.0
 40
0.1288244605
 40
0.2705976782
 40
0.4178986235
 40
0.5623949216
 40
0.69620836
 40
0.8136001012
 40
0.9130679301
 40
1.0
 40
1.0
 40
1.0
 40
1.0
 10
165.9106931649
 20
273.8173037408
 30
0.0
 10
165.6701270825
 20
273.6784136774
 30
0.0
 10
165.1253580419
 20
273.4536994415
 30
0.0
 10
164.2376156465
 20
273.2759972022
 30
0.0
 10
163.2985698025
 20
273.2501285861
 30
0.0
 10
162.3852946477
 20
273.3783650403
 30
0.0
 10
161.5705689302
 20
273.6505942243
 30
0.0
 10
160.9179839127
 20
274.0482470558
 30
0.0
 10
160.4758214423
 20
274.5510085312
 30
0.0
 10
160.3627357995
 20
274.9566367046
 30
0.0
 10
160.3627285615
 20
275.144086428
 30
0.0
  0
SPLINE
  5
41D
100
AcDbEntity
  8
0
100
AcDbSpline
 62
7
  6
BYLAYER
 70
0
 71
3
 72
15
 73
11
 74
0
 42
0.0000001
 43
0.0000001
 44
0.0000000001
 40
0.0
 40
0.0
 40
0.0
 40
0.0
 40
0.1288244605
 40
0.2705976782
 40
0.4178986235
 40
0.5623949216
 40
0.69620836
 40
0.8136001012
 40
0.9130679301
 40
1.0
 40
1.0
 40
1.0
 40
1.0
 10
57.7235705539
 20
244.0153445341
 30
0.0
 10
57.4830044714
 20
243.8764544707
 30
0.0
 10
56.9382354308
 20
243.6517402348
 30
0.0
 10
56.0504930355
 20
243.4740379955
 30
0.0
 10
55.1114471914
 20
243.4481693795
 30
0.0
 10
54.1981720366
 20
243.5764058336
 30
0.0
 10
53.3834463192
 20
243.8486350177
 30
0.0
 10
52.7308613017
 20
244.2462878491
 30
0.0
 10
52.2886988313
 20
244.7490493246
 30
0.0
 10
52.1756131884
 20
245.1546774979
 30
0.0
 10
52.1756059505
 20
245.3421272213
 30
0.0
  0
SPLINE
  5
41E
100
AcDbEntity
  8
0
100
AcDbSpline
 62
7
  6
BYLAYER
 70
0
 71
3
 72
15
 73
11
 74
0
 42
0.0000001
 43
0.0000001
 44
0.0000000001
 40
0.0
 40
0.0
 40
0.0
 40
0.0
 40
0.1288244605
 40
0.2705976782
 40
0.4178986235
 40
0.5623949216
 40
0.69620836
 40
0.8136001012
 40
0.9130679301
 40
1.0
 40
1.0
 40
1.0
 40
1.0
 10
114.2923485656
 20
211.3560841725
 30
0.0
 10
114.0517824832
 20
211.2171941091
 30
0.0
 10
113.5070134426
 20
210.9924798732
 30
0.0
 10
112.6192710472
 20
210.8147776339
 30
0.0
 10
111.6802252032
 20
210.7889090178
 30
0.0
 10
110.7669500484
 20
210.917145472
 30
0.0
 10
109.9522243309
 20
211.189374656
 30
0.0
 10
109.2996393135
 20
211.5870274875
 30
0.0
 10
108.8574768431
 20
212.0897889629
 30
0.0
 10
108.7443912002
 20
212.4954171363
 30
0.0
 10
108.7443839622
 20
212.6828668597
 30
0.0
  0
SPLINE
  5
41F
100
AcDbEntity
  8
0
100
AcDbSpline
 62
7
  6
BYLAYER
 70
0
 71
3
 72
9
 73
5
 74
0
 42
0.0000001
 43
0.0000001
 44
0.0000000001
 40
0.0
 40
0.0
 40
0.0
 40
0.0
 40
0.2713286402
 40
1.0
 40
1.0
 40
1.0
 40
1.0
 10
203.3874741533
 20
121.1726284966
 30
0.0
 10
203.3874741533
 20
121.1200193671
 30
0.0
 10
203.3792878535
 20
120.9265207906
 30
0.0
 10
203.3362256261
 20
120.7322194493
 30
0.0
 10
203.2771151857
 20
120.6038936522
 30
0.0
  0
SPLINE
  5
420
100
AcDbEntity
  8
0
100
AcDbSpline
 62
7
  6
BYLAYER
 70
0
 71
3
 72
9
 73
5
 74
0
 42
0.0000001
 43
0.0000001
 44
0.0000000001
 40
0.0
 40
0.0
 40
0.0
 40
0.0
 40
0.2607694792
 40
1.0
 40
1.0
 40
1.0
 40
1.0
 10
203.2771151857
 20
120.6038936522
 30
0.0
 10
203.2667473569
 20
120.5813856166
 30
0.0
 10
203.2237492983
 20
120.4966448501
 30
0.0
 10
203.1667789703
 20
120.4186561473
 30
0.0
 10
203.117382272
 20
120.3687064308
 30
0.0
  0
SPLINE
  5
421
100
AcDbEntity
  8
0
100
AcDbSpline
 62
7
  6
BYLAYER
 70
0
 71
3
 72
8
 73
4
 74
0
 42
0.0000001
 43
0.0000001
 44
0.0000000001
 40
0.0
 40
0.0
 40
0.0
 40
0.0
 40
1.0
 40
1.0
 40
1.0
 40
1.0
 10
203.117382272
 20
120.3687064308
 30
0.0
 10
203.0746523965
 20
120.325498175
 30
0.0
 10
203.0258308022
 20
120.2875211384
 30
0.0
 10
202.9732037683
 20
120.2571370812
 30
0.0
  0
SPLINE
  5
422
100
AcDbEntity
  8
0
100
AcDbSpline
 62
7
  6
BYLAYER
 70
0
 71
3
 72
15
 73
11
 74
0
 42
0.0000001
 43
0.0000001
 44
0.0000000001
 40
0.0
 40
0.0
 40
0.0
 40
0.0
 40
0.2282957173
 40
0.4282275896
 40
0.5874591572
 40
0.709392842
 40
0.8073168216
 40
0.8923827869
 40
0.9606303451
 40
1.0
 40
1.0
 40
1.0
 40
1.0
 10
203.3874741533
 20
121.1726284966
 30
0.0
 10
203.3861715828
 20
121.1284381669
 30
0.0
 10
203.3837593551
 20
121.0455384933
 30
0.0
 10
203.3839978571
 20
120.9317628156
 30
0.0
 10
203.3946047594
 20
120.8386951272
 30
0.0
 10
203.4157129226
 20
120.768329505
 30
0.0
 10
203.4330075271
 20
120.7116292742
 30
0.0
 10
203.4331729013
 20
120.6619980237
 30
0.0
 10
203.4246901219
 20
120.6261246347
 30
0.0
 10
203.4174809937
 20
120.6055183378
 30
0.0
 10
203.4121151402
 20
120.6001024231
 30
0.0
  0
SPLINE
  5
423
100
AcDbEntity
  8
0
100
AcDbSpline
 62
7
  6
BYLAYER
 70
0
 71
3
 72
11
 73
7
 74
0
 42
0.0000001
 43
0.0000001
 44
0.0000000001
 40
0.0
 40
0.0
 40
0.0
 40
0.0
 40
0.2731932275
 40
0.500732895
 40
0.7291395712
 40
1.0
 40
1.0
 40
1.0
 40
1.0
 10
119.8078005946
 20
73.3264207176
 30
0.0
 10
119.8086513594
 20
73.2815523112
 30
0.0
 10
119.8275158979
 20
73.1963312863
 30
0.0
 10
119.9184778181
 20
73.1099182404
 30
0.0
 10
120.0390285631
 20
73.0783064338
 30
0.0
 10
120.1213127415
 20
73.1028888065
 30
0.0
 10
120.1613525132
 20
73.122291586
 30
0.0
  0
SPLINE
  5
424
100
AcDbEntity
  8
0
100
AcDbSpline
 62
7
  6
BYLAYER
 70
0
 71
3
 72
9
 73
5
 74
0
 42
0.0000001
 43
0.0000001
 44
0.0000000001
 40
0.0
 40
0.0
 40
0.0
 40
0.0
 40
0.5002168358
 40
1.0
 40
1.0
 40
1.0
 40
1.0
 10
203.3874741533
 20
121.1726284966
 30
0.0
 10
203.4892516793
 20
121.2367848678
 30
0.0
 10
203.6394300337
 20
121.4350808609
 30
0.0
 10
203.737816193
 20
121.664838085
 30
0.0
 10
203.7410260719
 20
121.7850017822
 30
0.0
  0
SPLINE
  5
425
100
AcDbEntity
  8
0
100
AcDbSpline
 62
7
  6
BYLAYER
 70
0
 71
3
 72
11
 73
7
 74
0
 42
0.0000001
 43
0.0000001
 44
0.0000000001
 40
0.0
 40
0.0
 40
0.0
 40
0.0
 40
0.2372180083
 40
0.4999994738
 40
0.7627812258
 40
1.0
 40
1.0
 40
1.0
 40
1.0
 10
119.8078005946
 20
73.3264207177
 30
0.0
 10
119.6572306877
 20
73.2394896604
 30
0.0
 10
119.3070540192
 20
73.1126172405
 30
0.0
 10
118.7471420904
 20
73.0518298527
 30
0.0
 10
118.1872293169
 20
73.1126146853
 30
0.0
 10
117.837051271
 20
73.2394853665
 30
0.0
 10
117.6864802511
 20
73.3264156187
 30
0.0
  0
SPLINE
  5
426
100
AcDbEntity
  8
0
100
AcDbSpline
 62
7
  6
BYLAYER
 70
0
 71
3
 72
9
 73
5
 74
0
 42
0.0000001
 43
0.0000001
 44
0.0000000001
 40
0.0
 40
0.0
 40
0.0
 40
0.0
 40
0.4758472906
 40
1.0
 40
1.0
 40
1.0
 40
1.0
 10
117.3329253885
 20
73.1222847873
 30
0.0
 10
117.3294565075
 20
73.0086077788
 30
0.0
 10
117.3749904952
 20
72.7632645506
 30
0.0
 10
117.5256956546
 20
72.5708041719
 30
0.0
 10
117.6079738109
 20
72.476336338
 30
0.0
  0
SPLINE
  5
427
100
AcDbEntity
  8
0
100
AcDbSpline
 62
7
  6
BYLAYER
 70
0
 71
3
 72
9
 73
5
 74
0
 42
0.0000001
 43
0.0000001
 44
0.0000000001
 40
0.0
 40
0.0
 40
0.0
 40
0.0
 40
0.4850013388
 40
1.0
 40
1.0
 40
1.0
 40
1.0
 10
117.6079738109
 20
72.476336338
 30
0.0
 10
117.6902698663
 20
72.3818479531
 30
0.0
 10
117.8780228356
 20
72.1995184453
 30
0.0
 10
118.1166131812
 20
72.0875406978
 30
0.0
 10
118.2433661372
 20
72.0470855266
 30
0.0
  0
SPLINE
  5
428
100
AcDbEntity
  8
0
100
AcDbSpline
 62
7
  6
BYLAYER
 70
0
 71
3
 72
9
 73
5
 74
0
 42
0.0000001
 43
0.0000001
 44
0.0000000001
 40
0.0
 40
0.0
 40
0.0
 40
0.0
 40
0.5069329711
 40
1.0
 40
1.0
 40
1.0
 40
1.0
 10
118.2433661372
 20
72.0470855266
 30
0.0
 10
118.4880729273
 20
71.9689835605
 30
0.0
 10
119.0129829261
 20
71.9353968874
 30
0.0
 10
119.5059496651
 20
72.1267698405
 30
0.0
 10
119.7055920855
 20
72.2769832731
 30
0.0
  0
SPLINE
  5
429
100
AcDbEntity
  8
0
100
AcDbSpline
 62
7
  6
BYLAYER
 70
0
 71
3
 72
9
 73
5
 74
0
 42
0.0000001
 43
0.0000001
 44
0.0000000001
 40
0.0
 40
0.0
 40
0.0
 40
0.0
 40
0.5139192019
 40
1.0
 40
1.0
 40
1.0
 40
1.0
 10
119.7055920855
 20
72.2769832731
 30
0.0
 10
119.8404641489
 20
72.378462686
 30
0.0
 10
120.0676087624
 20
72.6326370893
 30
0.0
 10
120.155127165
 20
72.962770427
 30
0.0
 10
120.1613525132
 20
73.122291586
 30
0.0
  0
SPLINE
  5
42A
100
AcDbEntity
  8
0
100
AcDbSpline
 62
7
  6
BYLAYER
 70
0
 71
3
 72
11
 73
7
 74
0
 42
0.0000001
 43
0.0000001
 44
0.0000000001
 40
0.0
 40
0.0
 40
0.0
 40
0.0
 40
0.2895357102
 40
0.5491077749
 40
0.7822510853
 40
1.0
 40
1.0
 40
1.0
 40
1.0
 10
117.3329253885
 20
73.1222847873
 30
0.0
 10
117.3329253885
 20
73.0210116602
 30
0.0
 10
117.3483818615
 20
72.8283062533
 30
0.0
 10
117.426280104
 20
72.56349162
 30
0.0
 10
117.5576740091
 20
72.3485238369
 30
0.0
 10
117.6812041809
 20
72.2448980094
 30
0.0
 10
117.7471619939
 20
72.2068128753
 30
0.0
  0
SPLINE
  5
42B
100
AcDbEntity
  8
0
100
AcDbSpline
 62
7
  6
BYLAYER
 70
0
 71
3
 72
11
 73
7
 74
0
 42
0.0000001
 43
0.0000001
 44
0.0000000001
 40
0.0
 40
0.0
 40
0.0
 40
0.0
 40
0.2177648073
 40
0.4508950352
 40
0.7103684932
 40
1.0
 40
1.0
 40
1.0
 40
1.0
 10
68.603389723
 20
138.0542330539
 30
0.0
 10
68.6034577988
 20
138.2256148278
 30
0.0
 10
68.6665231985
 20
138.5828733405
 30
0.0
 10
68.9375011498
 20
139.0806708975
 30
0.0
 10
69.3657057578
 20
139.5305373534
 30
0.0
 10
69.7238984918
 20
139.7773466774
 30
0.0
 10
69.9213016316
 20
139.891316753
 30
0.0
  0
SPLINE
  5
42C
100
AcDbEntity
  8
0
100
AcDbSpline
 62
7
  6
BYLAYER
 70
0
 71
3
 72
9
 73
5
 74
0
 42
0.0000001
 43
0.0000001
 44
0.0000000001
 40
0.0
 40
0.0
 40
0.0
 40
0.0
 40
0.540735628
 40
1.0
 40
1.0
 40
1.0
 40
1.0
 10
99.6028750166
 20
83.358502568
 30
0.0
 10
99.6079274065
 20
83.1980143536
 30
0.0
 10
99.6525722295
 20
82.8994978212
 30
0.0
 10
99.8069175633
 20
82.6326322424
 30
0.0
 10
99.9038463182
 20
82.5366996379
 30
0.0
  0
SPLINE
  5
42D
100
AcDbEntity
  8
0
100
AcDbSpline
 62
7
  6
BYLAYER
 70
0
 71
3
 72
8
 73
4
 74
0
 42
0.0000001
 43
0.0000001
 44
0.0000000001
 40
0.0
 40
0.0
 40
0.0
 40
0.0
 40
1.0
 40
1.0
 40
1.0
 40
1.0
 10
99.9038463182
 20
82.5366996379
 30
0.0
 10
99.9486881098
 20
82.4923186917
 30
0.0
 10
99.9995016975
 20
82.4531975
 30
0.0
 10
100.0541402925
 20
82.4216526336
 30
0.0
  0
SPLINE
  5
42E
100
AcDbEntity
  8
0
100
AcDbSpline
 62
7
  6
BYLAYER
 70
0
 71
3
 72
9
 73
5
 74
0
 42
0.0000001
 43
0.0000001
 44
0.0000000001
 40
0.0
 40
0.0
 40
0.0
 40
0.0
 40
0.5501698705
 40
1.0
 40
1.0
 40
1.0
 40
1.0
 10
48.8847039943
 20
112.5264451627
 30
0.0
 10
48.8753187433
 20
112.3776043103
 30
0.0
 10
48.8883070741
 20
112.1022786036
 30
0.0
 10
49.0125773114
 20
111.8469426496
 30
0.0
 10
49.0965388453
 20
111.7585169966
 30
0.0
  0
SPLINE
  5
42F
100
AcDbEntity
  8
0
100
AcDbSpline
 62
7
  6
BYLAYER
 70
0
 71
3
 72
9
 73
5
 74
0
 42
0.0000001
 43
0.0000001
 44
0.0000000001
 40
0.0
 40
0.0
 40
0.0
 40
0.0
 40
0.5473698716
 40
1.0
 40
1.0
 40
1.0
 40
1.0
 10
48.5311491317
 20
113.1536602246
 30
0.0
 10
48.4192734113
 20
113.2182502406
 30
0.0
 10
48.2266579708
 20
113.3635509265
 30
0.0
 10
48.1133588731
 20
113.5853926578
 30
0.0
 10
48.0974502267
 20
113.691024554
 30
0.0
  0
SPLINE
  5
430
100
AcDbEntity
  8
0
100
AcDbSpline
 62
7
  6
BYLAYER
 70
0
 71
3
 72
15
 73
11
 74
0
 42
0.0000001
 43
0.0000001
 44
0.0000000001
 40
0.0
 40
0.0
 40
0.0
 40
0.0
 40
0.4234185688
 40
0.5982657113
 40
0.7451175567
 40
0.860312303
 40
0.9395560808
 40
0.9647716814
 40
0.9810120986
 40
1.0
 40
1.0
 40
1.0
 40
1.0
 10
48.8847039943
 20
112.5264451627
 30
0.0
 10
48.8770547262
 20
112.4507690338
 30
0.0
 10
48.8662758743
 20
112.3438155281
 30
0.0
 10
48.8533189395
 20
112.2106485746
 30
0.0
 10
48.8465748132
 20
112.1323326854
 30
0.0
 10
48.8407256952
 20
112.0716216988
 30
0.0
 10
48.8361740693
 20
112.0317851435
 30
0.0
 10
48.8296052163
 20
112.0115980341
 30
0.0
 10
48.8249705737
 20
112.000825087
 30
0.0
 10
48.8159888951
 20
112.0010467579
 30
0.0
 10
48.8136474633
 20
112.0035271141
 30
0.0
  0
SPLINE
  5
431
100
AcDbEntity
  8
0
100
AcDbSpline
 62
7
  6
BYLAYER
 70
0
 71
3
 72
9
 73
5
 74
0
 42
0.0000001
 43
0.0000001
 44
0.0000000001
 40
0.0
 40
0.0
 40
0.0
 40
0.0
 40
0.4750541029
 40
1.0
 40
1.0
 40
1.0
 40
1.0
 10
116.5904654762
 20
117.3154828955
 30
0.0
 10
116.9403684553
 20
117.1134708865
 30
0.0
 10
117.7635500285
 20
116.8388952668
 30
0.0
 10
118.6217887537
 20
116.7898509729
 30
0.0
 10
119.0672041105
 20
116.8204267218
 30
0.0
  0
SPLINE
  5
432
100
AcDbEntity
  8
0
100
AcDbSpline
 62
7
  6
BYLAYER
 70
0
 71
3
 72
9
 73
5
 74
0
 42
0.0000001
 43
0.0000001
 44
0.0000000001
 40
0.0
 40
0.0
 40
0.0
 40
0.0
 40
0.2532227299
 40
1.0
 40
1.0
 40
1.0
 40
1.0
 10
119.2309061416
 20
116.8343283754
 30
0.0
 10
119.2796762337
 20
116.8392715205
 30
0.0
 10
119.4719733176
 20
116.8616170077
 30
0.0
 10
119.662989413
 20
116.8952425294
 30
0.0
 10
119.8040090329
 20
116.9270597137
 30
0.0
  0
SPLINE
  5
433
100
AcDbEntity
  8
0
100
AcDbSpline
 62
7
  6
BYLAYER
 70
0
 71
3
 72
9
 73
5
 74
0
 42
0.0000001
 43
0.0000001
 44
0.0000000001
 40
0.0
 40
0.0
 40
0.0
 40
0.0
 40
0.5249461591
 40
1.0
 40
1.0
 40
1.0
 40
1.0
 10
119.0671856711
 20
117.0245467507
 30
0.0
 10
118.6217729327
 20
116.9939726358
 30
0.0
 10
117.7635400754
 20
117.0430187636
 30
0.0
 10
116.9403644807
 20
117.3175935584
 30
0.0
 10
116.5904640042
 20
117.5196041226
 30
0.0
  0
SPLINE
  5
434
100
AcDbEntity
  8
0
100
AcDbSpline
 62
7
  6
BYLAYER
 70
0
 71
3
 72
11
 73
7
 74
0
 42
0.0000001
 43
0.0000001
 44
0.0000000001
 40
0.0
 40
0.0
 40
0.0
 40
0.0
 40
0.2177490368
 40
0.4508914017
 40
0.7104631294
 40
1.0
 40
1.0
 40
1.0
 40
1.0
 10
41.3439621286
 20
178.0855294241
 30
0.0
 10
41.2779995419
 20
178.1236120916
 30
0.0
 10
41.1544592031
 20
178.2272353657
 30
0.0
 10
41.0230537024
 20
178.4422072279
 30
0.0
 10
40.9451487128
 20
178.7070309188
 30
0.0
 10
40.9296910299
 20
178.8997439184
 30
0.0
 10
40.9296910299
 20
179.0010212516
 30
0.0
  0
SPLINE
  5
435
100
AcDbEntity
  8
0
100
AcDbSpline
 62
7
  6
BYLAYER
 70
0
 71
3
 72
11
 73
7
 74
0
 42
0.0000001
 43
0.0000001
 44
0.0000000001
 40
0.0
 40
0.0
 40
0.0
 40
0.0
 40
0.2372273954
 40
0.499998382
 40
0.7627702492
 40
1.0
 40
1.0
 40
1.0
 40
1.0
 10
56.1325030171
 20
211.4570770246
 30
0.0
 10
55.3294311492
 20
210.9934260332
 30
0.0
 10
53.8096240598
 20
209.7143547394
 30
0.0
 10
52.0358451906
 20
207.2903258937
 30
0.0
 10
50.823474685
 20
204.5421591113
 30
0.0
 10
50.4756723194
 20
202.5864197982
 30
0.0
 10
50.4756723194
 20
201.6591044566
 30
0.0
  0
SPLINE
  5
436
100
AcDbEntity
  8
0
100
AcDbSpline
 62
7
  6
BYLAYER
 70
0
 71
3
 72
11
 73
7
 74
0
 42
0.0000001
 43
0.0000001
 44
0.0000000001
 40
0.0
 40
0.0
 40
0.0
 40
0.0
 40
0.2372446848
 40
0.5000016179
 40
0.7627576706
 40
1.0
 40
1.0
 40
1.0
 40
1.0
 10
63.7338692671
 20
216.6622040958
 30
0.0
 10
63.7338692671
 20
216.5462828762
 30
0.0
 10
63.6903787641
 20
216.3018187424
 30
0.0
 10
63.5388412241
 20
215.958305131
 30
0.0
 10
63.3171207457
 20
215.6553127414
 30
0.0
 10
63.127155304
 20
215.4954172997
 30
0.0
 10
63.0267654299
 20
215.4374575248
 30
0.0
  0
SPLINE
  5
437
100
AcDbEntity
  8
0
100
AcDbSpline
 62
7
  6
BYLAYER
 70
0
 71
3
 72
9
 73
5
 74
0
 42
0.0000001
 43
0.0000001
 44
0.0000000001
 40
0.0
 40
0.0
 40
0.0
 40
0.0
 40
0.4744352788
 40
1.0
 40
1.0
 40
1.0
 40
1.0
 10
56.4860549357
 20
199.4306585712
 30
0.0
 10
56.4860549357
 20
199.6045223239
 30
0.0
 10
56.5511861744
 20
199.9711118315
 30
0.0
 10
56.7004137723
 20
200.3092505906
 30
0.0
 10
56.7967138141
 20
200.4760480816
 30
0.0
  0
SPLINE
  5
438
100
AcDbEntity
  8
0
100
AcDbSpline
 62
7
  6
BYLAYER
 70
0
 71
3
 72
11
 73
7
 74
0
 42
0.0000001
 43
0.0000001
 44
0.0000000001
 40
0.0
 40
0.0
 40
0.0
 40
0.0
 40
0.2177434119
 40
0.4508805377
 40
0.710457812
 40
1.0
 40
1.0
 40
1.0
 40
1.0
 10
47.8294097606
 20
184.7167283012
 30
0.0
 10
47.8294097961
 20
184.6024853813
 30
0.0
 10
47.8713623879
 20
184.3642995806
 30
0.0
 10
48.0520464141
 20
184.0323780702
 30
0.0
 10
48.3376278512
 20
183.7325685651
 30
0.0
 10
48.5763687707
 20
183.5679512564
 30
0.0
 10
48.7079303901
 20
183.4919958384
 30
0.0
  0
SPLINE
  5
439
100
AcDbEntity
  8
0
100
AcDbSpline
 62
7
  6
BYLAYER
 70
0
 71
3
 72
9
 73
5
 74
0
 42
0.0000001
 43
0.0000001
 44
0.0000000001
 40
0.0
 40
0.0
 40
0.0
 40
0.0
 40
0.4750540729
 40
1.0
 40
1.0
 40
1.0
 40
1.0
 10
116.5904640042
 20
144.3008834045
 30
0.0
 10
116.9403656874
 20
144.0988721436
 30
0.0
 10
117.7635439841
 20
143.8242969973
 30
0.0
 10
118.621779466
 20
143.7752517658
 30
0.0
 10
119.0671932829
 20
143.8058265885
 30
0.0
  0
SPLINE
  5
43A
100
AcDbEntity
  8
0
100
AcDbSpline
 62
7
  6
BYLAYER
 70
0
 71
3
 72
11
 73
7
 74
0
 42
0.0000001
 43
0.0000001
 44
0.0000000001
 40
0.0
 40
0.0
 40
0.0
 40
0.0
 40
0.2895421522
 40
0.5491196247
 40
0.782256727
 40
1.0
 40
1.0
 40
1.0
 40
1.0
 10
115.21158061
 20
147.7913530735
 30
0.0
 10
115.3212152776
 20
147.7280569006
 30
0.0
 10
115.5201660049
 20
147.5908756582
 30
0.0
 10
115.7581507123
 20
147.3410344805
 30
0.0
 10
115.9087205996
 20
147.0644331415
 30
0.0
 10
115.9436811558
 20
146.8659450607
 30
0.0
 10
115.9436811346
 20
146.7707426897
 30
0.0
  0
SPLINE
  5
43B
100
AcDbEntity
  8
0
100
AcDbSpline
 62
7
  6
BYLAYER
 70
0
 71
3
 72
11
 73
7
 74
0
 42
0.0000001
 43
0.0000001
 44
0.0000000001
 40
0.0
 40
0.0
 40
0.0
 40
0.0
 40
0.2372524173
 40
0.4999996405
 40
0.7627470637
 40
1.0
 40
1.0
 40
1.0
 40
1.0
 10
97.1802973386
 20
156.1602800428
 30
0.0
 10
97.4312824893
 20
156.3051856294
 30
0.0
 10
98.0149100494
 20
156.516671142
 30
0.0
 10
98.9480620197
 20
156.6177818226
 30
0.0
 10
99.8812151153
 20
156.5166752497
 30
0.0
 10
100.4648444534
 20
156.3051925544
 30
0.0
 10
100.7158312445
 20
156.1602885411
 30
0.0
  0
SPLINE
  5
43C
100
AcDbEntity
  8
0
100
AcDbSpline
 62
7
  6
BYLAYER
 70
0
 71
3
 72
11
 73
7
 74
0
 42
0.0000001
 43
0.0000001
 44
0.0000000001
 40
0.0
 40
0.0
 40
0.0
 40
0.0
 40
0.2895421522
 40
0.5491196247
 40
0.782256727
 40
1.0
 40
1.0
 40
1.0
 40
1.0
 10
92.2305145427
 20
161.0591775954
 30
0.0
 10
92.3401492103
 20
160.9958814225
 30
0.0
 10
92.5390999377
 20
160.8587001801
 30
0.0
 10
92.7770846451
 20
160.6088590024
 30
0.0
 10
92.9276545323
 20
160.3322576634
 30
0.0
 10
92.9626150885
 20
160.1337695826
 30
0.0
 10
92.9626150673
 20
160.0385672116
 30
0.0
  0
SPLINE
  5
43D
100
AcDbEntity
  8
0
100
AcDbSpline
 62
7
  6
BYLAYER
 70
0
 71
3
 72
11
 73
7
 74
0
 42
0.0000001
 43
0.0000001
 44
0.0000000001
 40
0.0
 40
0.0
 40
0.0
 40
0.0
 40
0.2372524173
 40
0.4999996405
 40
0.7627470637
 40
1.0
 40
1.0
 40
1.0
 40
1.0
 10
74.1992312713
 20
169.4281045647
 30
0.0
 10
74.450216422
 20
169.5730101513
 30
0.0
 10
75.0338439822
 20
169.7844956639
 30
0.0
 10
75.9669959525
 20
169.8856063445
 30
0.0
 10
76.900149048
 20
169.7844997716
 30
0.0
 10
77.4837783861
 20
169.5730170763
 30
0.0
 10
77.7347651772
 20
169.428113063
 30
0.0
  0
SPLINE
  5
43E
100
AcDbEntity
  8
0
100
AcDbSpline
 62
7
  6
BYLAYER
 70
0
 71
3
 72
11
 73
7
 74
0
 42
0.0000001
 43
0.0000001
 44
0.0000000001
 40
0.0
 40
0.0
 40
0.0
 40
0.0
 40
0.2895421522
 40
0.5491196247
 40
0.782256727
 40
1.0
 40
1.0
 40
1.0
 40
1.0
 10
69.2494484755
 20
174.3270021173
 30
0.0
 10
69.359083143
 20
174.2637059444
 30
0.0
 10
69.5580338704
 20
174.1265247021
 30
0.0
 10
69.7960185778
 20
173.8766835243
 30
0.0
 10
69.946588465
 20
173.6000821853
 30
0.0
 10
69.9815490212
 20
173.4015941045
 30
0.0
 10
69.981549
 20
173.3063917335
 30
0.0
  0
SPLINE
  5
43F
100
AcDbEntity
  8
0
100
AcDbSpline
 62
7
  6
BYLAYER
 70
0
 71
3
 72
16
 73
12
 74
0
 42
0.0000001
 43
0.0000001
 44
0.0000000001
 40
0.0
 40
0.0
 40
0.0
 40
0.0
 40
0.1287443602
 40
0.2703971121
 40
0.4176139114
 40
0.5620190713
 40
0.6957499754
 40
0.8130650626
 40
0.9124721117
 40
0.9571211941
 40
1.0
 40
1.0
 40
1.0
 40
1.0
 10
98.2056906375
 20
123.5616865722
 30
0.0
 10
98.5387954375
 20
123.7540035701
 30
0.0
 10
99.2930091203
 20
124.0651832182
 30
0.0
 10
100.5221862139
 20
124.3111405507
 30
0.0
 10
101.8223648781
 20
124.3470396461
 30
0.0
 10
103.086989316
 20
124.1696269536
 30
0.0
 10
104.2150470168
 20
123.7920611965
 30
0.0
 10
105.1188820777
 20
123.243531417
 30
0.0
 10
105.6454131473
 20
122.638891528
 30
0.0
 10
105.8533614471
 20
122.1153261094
 30
0.0
 10
105.8876409577
 20
121.8527078802
 30
0.0
 10
105.8875900724
 20
121.7246034805
 30
0.0
  0
SPLINE
  5
440
100
AcDbEntity
  8
0
100
AcDbSpline
 62
7
  6
BYLAYER
 70
0
 71
3
 72
11
 73
7
 74
0
 42
0.0000001
 43
0.0000001
 44
0.0000000001
 40
0.0
 40
0.0
 40
0.0
 40
0.0
 40
0.2372524058
 40
0.49999963
 40
0.7627470585
 40
1.0
 40
1.0
 40
1.0
 40
1.0
 10
51.2181648986
 20
182.6959289102
 30
0.0
 10
51.4691500611
 20
182.8408345037
 30
0.0
 10
52.0527776133
 20
183.0523201539
 30
0.0
 10
52.9859296774
 20
183.1534308654
 30
0.0
 10
53.9190828768
 20
183.0523243269
 30
0.0
 10
54.5027122894
 20
182.8408416152
 30
0.0
 10
54.75369911
 20
182.695937585
 30
0.0
  0
SPLINE
  5
441
100
AcDbEntity
  8
0
100
AcDbSpline
 62
7
  6
BYLAYER
 70
0
 71
3
 72
11
 73
7
 74
0
 42
0.0000001
 43
0.0000001
 44
0.0000000001
 40
0.0
 40
0.0
 40
0.0
 40
0.0
 40
0.2177482241
 40
0.4508901735
 40
0.7104621366
 40
1.0
 40
1.0
 40
1.0
 40
1.0
 10
40.3439916204
 20
207.9868429707
 30
0.0
 10
40.3439916237
 20
207.9106784925
 30
0.0
 10
40.3719628571
 20
207.7518823359
 30
0.0
 10
40.4924308845
 20
207.5306030771
 30
0.0
 10
40.6828204454
 20
207.330730515
 30
0.0
 10
40.8419836167
 20
207.220991416
 30
0.0
 10
40.9296910299
 20
207.1703546629
 30
0.0
  0
SPLINE
  5
442
100
AcDbEntity
  8
0
100
AcDbSpline
 62
7
  6
BYLAYER
 70
0
 71
3
 72
9
 73
5
 74
0
 42
0.0000001
 43
0.0000001
 44
0.0000000001
 40
0.0
 40
0.0
 40
0.0
 40
0.0
 40
0.4999983279
 40
1.0
 40
1.0
 40
1.0
 40
1.0
 10
178.6742103513
 20
230.0739304655
 30
0.0
 10
178.5692709386
 20
230.013344029
 30
0.0
 10
178.4034681137
 20
229.8219952805
 30
0.0
 10
178.3206584327
 20
229.582731406
 30
0.0
 10
178.3206584327
 20
229.46155718
 30
0.0
  0
SPLINE
  5
443
100
AcDbEntity
  8
0
100
AcDbSpline
 62
7
  6
BYLAYER
 70
0
 71
3
 72
11
 73
7
 74
0
 42
0.0000001
 43
0.0000001
 44
0.0000000001
 40
0.0
 40
0.0
 40
0.0
 40
0.0
 40
0.2372446848
 40
0.5000016179
 40
0.7627576706
 40
1.0
 40
1.0
 40
1.0
 40
1.0
 10
186.876614863
 20
236.0343162761
 30
0.0
 10
186.876614863
 20
235.8604344467
 30
0.0
 10
186.8113791085
 20
235.493738246
 30
0.0
 10
186.5840727984
 20
234.9784678289
 30
0.0
 10
186.2514920808
 20
234.5239792444
 30
0.0
 10
185.9665439183
 20
234.284136082
 30
0.0
 10
185.8159591071
 20
234.1971964196
 30
0.0
  0
SPLINE
  5
444
100
AcDbEntity
  8
0
100
AcDbSpline
 62
7
  6
BYLAYER
 70
0
 71
3
 72
8
 73
4
 74
0
 42
0.0000001
 43
0.0000001
 44
0.0000000001
 40
0.0
 40
0.0
 40
0.0
 40
0.0
 40
1.0
 40
1.0
 40
1.0
 40
1.0
 10
204.1803578334
 20
122.3973664018
 30
0.0
 10
204.1803581049
 20
122.3584329774
 30
0.0
 10
204.1757061827
 20
122.3192607163
 30
0.0
 10
204.1668336845
 20
122.2813517422
 30
0.0
  0
SPLINE
  5
445
100
AcDbEntity
  8
0
100
AcDbSpline
 62
7
  6
BYLAYER
 70
0
 71
3
 72
9
 73
5
 74
0
 42
0.0000001
 43
0.0000001
 44
0.0000000001
 40
0.0
 40
0.0
 40
0.0
 40
0.0
 40
0.4550351596
 40
1.0
 40
1.0
 40
1.0
 40
1.0
 10
204.1668336845
 20
122.2813517422
 30
0.0
 10
204.143759084
 20
122.1827623244
 30
0.0
 10
204.027619352
 20
121.9812040992
 30
0.0
 10
203.8460445412
 20
121.8456338619
 30
0.0
 10
203.7410260719
 20
121.7850017822
 30
0.0
  0
SPLINE
  5
446
100
AcDbEntity
  8
0
100
AcDbSpline
 62
7
  6
BYLAYER
 70
0
 71
3
 72
9
 73
5
 74
0
 42
0.0000001
 43
0.0000001
 44
0.0000000001
 40
0.0
 40
0.0
 40
0.0
 40
0.0
 40
0.4999983279
 40
1.0
 40
1.0
 40
1.0
 40
1.0
 10
115.5298376881
 20
204.1097835849
 30
0.0
 10
115.4248982754
 20
204.0491971484
 30
0.0
 10
115.2590954505
 20
203.8578483999
 30
0.0
 10
115.1762857695
 20
203.6185845254
 30
0.0
 10
115.1762857695
 20
203.4974102994
 30
0.0
  0
SPLINE
  5
447
100
AcDbEntity
  8
0
100
AcDbSpline
 62
7
  6
BYLAYER
 70
0
 71
3
 72
9
 73
5
 74
0
 42
0.0000001
 43
0.0000001
 44
0.0000000001
 40
0.0
 40
0.0
 40
0.0
 40
0.0
 40
0.2211108005
 40
1.0
 40
1.0
 40
1.0
 40
1.0
 10
58.8596567446
 20
219.6438158736
 30
0.0
 10
58.8283461842
 20
219.6342947847
 30
0.0
 10
58.6802667964
 20
219.611233227
 30
0.0
 10
58.5303780145
 20
219.6663522999
 30
0.0
 10
58.4305404406
 20
219.723992246
 30
0.0
  0
SPLINE
  5
448
100
AcDbEntity
  8
0
100
AcDbSpline
 62
7
  6
BYLAYER
 70
0
 71
3
 72
11
 73
7
 74
0
 42
0.0000001
 43
0.0000001
 44
0.0000000001
 40
0.0
 40
0.0
 40
0.0
 40
0.0
 40
0.2177227832
 40
0.4508712161
 40
0.7104668615
 40
1.0
 40
1.0
 40
1.0
 40
1.0
 10
52.1756059505
 20
245.3421272213
 30
0.0
 10
52.1756011721
 20
245.4658775066
 30
0.0
 10
52.2211096795
 20
245.7238936261
 30
0.0
 10
52.4168102221
 20
246.083488806
 30
0.0
 10
52.7262053592
 20
246.4082869342
 30
0.0
 10
52.9848386281
 20
246.5866267127
 30
0.0
 10
53.1273573404
 20
246.6689094385
 30
0.0
  0
SPLINE
  5
449
100
AcDbEntity
  8
0
100
AcDbSpline
 62
7
  6
BYLAYER
 70
0
 71
3
 72
9
 73
5
 74
0
 42
0.0000001
 43
0.0000001
 44
0.0000000001
 40
0.0
 40
0.0
 40
0.0
 40
0.0
 40
0.2571380355
 40
1.0
 40
1.0
 40
1.0
 40
1.0
 10
204.7067798567
 20
182.2427046609
 30
0.0
 10
204.7743662302
 20
182.2974571068
 30
0.0
 10
205.0403962588
 20
182.5063925081
 30
0.0
 10
205.3193583371
 20
182.6990785544
 30
0.0
 10
205.5336124433
 20
182.8303784844
 30
0.0
  0
SPLINE
  5
44A
100
AcDbEntity
  8
0
100
AcDbSpline
 62
7
  6
BYLAYER
 70
0
 71
3
 72
11
 73
7
 74
0
 42
0.0000001
 43
0.0000001
 44
0.0000000001
 40
0.0
 40
0.0
 40
0.0
 40
0.0
 40
0.2177498853
 40
0.4508926472
 40
0.710464091
 40
1.0
 40
1.0
 40
1.0
 40
1.0
 10
119.7470821282
 20
72.2068001705
 30
0.0
 10
119.8130446201
 20
72.2448834136
 30
0.0
 10
119.9365845994
 20
72.348507367
 30
0.0
 10
120.0679899019
 20
72.5634793295
 30
0.0
 10
120.1458948135
 20
72.8283023783
 30
0.0
 10
120.1613525132
 20
73.0210147102
 30
0.0
 10
120.1613525132
 20
73.122291586
 30
0.0
  0
SPLINE
  5
44B
100
AcDbEntity
  8
0
100
AcDbSpline
 62
7
  6
BYLAYER
 70
0
 71
3
 72
9
 73
5
 74
0
 42
0.0000001
 43
0.0000001
 44
0.0000000001
 40
0.0
 40
0.0
 40
0.0
 40
0.0
 40
0.2610217117
 40
1.0
 40
1.0
 40
1.0
 40
1.0
 10
205.5336124433
 20
182.8303784844
 30
0.0
 10
205.6991167462
 20
183.222297362
 30
0.0
 10
206.2842830881
 20
184.7432343267
 30
0.0
 10
206.6752223152
 20
186.3444234488
 30
0.0
 10
206.8085299417
 20
187.541462517
 30
0.0
  0
SPLINE
  5
44C
100
AcDbEntity
  8
0
100
AcDbSpline
 62
7
  6
BYLAYER
 70
0
 71
3
 72
11
 73
7
 74
0
 42
0.0000001
 43
0.0000001
 44
0.0000000001
 40
0.0
 40
0.0
 40
0.0
 40
0.0
 40
0.2788335069
 40
0.5369079241
 40
0.7755988274
 40
1.0
 40
1.0
 40
1.0
 40
1.0
 10
219.6161143315
 20
181.5755402597
 30
0.0
 10
219.5219524378
 20
182.2461685432
 30
0.0
 10
219.2376949627
 20
183.5267818359
 30
0.0
 10
218.4841468584
 20
185.2675407979
 30
0.0
 10
217.4385325933
 20
186.6932491661
 30
0.0
 10
216.5451859833
 20
187.4049743002
 30
0.0
 10
216.0732197583
 20
187.6775169384
 30
0.0
  0
SPLINE
  5
44D
100
AcDbEntity
  8
0
100
AcDbSpline
 62
7
  6
BYLAYER
 70
0
 71
3
 72
9
 73
5
 74
0
 42
0.0000001
 43
0.0000001
 44
0.0000000001
 40
0.0
 40
0.0
 40
0.0
 40
0.0
 40
0.2608395983
 40
1.0
 40
1.0
 40
1.0
 40
1.0
 10
219.0734504214
 20
175.0135342365
 30
0.0
 10
219.2323291805
 20
175.5658807974
 30
0.0
 10
219.7396210437
 20
177.7096381694
 30
0.0
 10
219.8425749322
 20
179.9626703627
 30
0.0
 10
219.6161143315
 20
181.5755402597
 30
0.0
  0
SPLINE
  5
44E
100
AcDbEntity
  8
0
100
AcDbSpline
 62
7
  6
BYLAYER
 70
0
 71
3
 72
9
 73
5
 74
0
 42
0.0000001
 43
0.0000001
 44
0.0000000001
 40
0.0
 40
0.0
 40
0.0
 40
0.0
 40
0.2315086456
 40
1.0
 40
1.0
 40
1.0
 40
1.0
 10
219.0734504214
 20
175.0135342365
 30
0.0
 10
218.7563989015
 20
174.8171823026
 30
0.0
 10
217.4678802946
 20
173.8389620391
 30
0.0
 10
216.5251402852
 20
172.4529229022
 30
0.0
 10
216.0101982694
 20
171.3271719569
 30
0.0
  0
SPLINE
  5
44F
100
AcDbEntity
  8
0
100
AcDbSpline
 62
7
  6
BYLAYER
 70
0
 71
3
 72
11
 73
7
 74
0
 42
0.0000001
 43
0.0000001
 44
0.0000000001
 40
0.0
 40
0.0
 40
0.0
 40
0.0
 40
0.2177227832
 40
0.4508712161
 40
0.7104668615
 40
1.0
 40
1.0
 40
1.0
 40
1.0
 10
108.7443839622
 20
212.6828668597
 30
0.0
 10
108.7443791839
 20
212.806617145
 30
0.0
 10
108.7898876912
 20
213.0646332645
 30
0.0
 10
108.9855882338
 20
213.4242284444
 30
0.0
 10
109.294983371
 20
213.7490265726
 30
0.0
 10
109.5536166399
 20
213.9273663511
 30
0.0
 10
109.6961353522
 20
214.0096490769
 30
0.0
  0
SPLINE
  5
450
100
AcDbEntity
  8
0
100
AcDbSpline
 62
7
  6
BYLAYER
 70
0
 71
3
 72
11
 73
7
 74
0
 42
0.0000001
 43
0.0000001
 44
0.0000000001
 40
0.0
 40
0.0
 40
0.0
 40
0.0
 40
0.1937935345
 40
0.4205689743
 40
0.6923314234
 40
1.0
 40
1.0
 40
1.0
 40
1.0
 10
196.979503489
 20
193.185201446
 30
0.0
 10
196.9238195917
 20
193.2174398871
 30
0.0
 10
196.8242059241
 20
193.3263326303
 30
0.0
 10
196.7638289252
 20
193.5538862692
 30
0.0
 10
196.7771533487
 20
193.824025598
 30
0.0
 10
196.8301554351
 20
194.0106650437
 30
0.0
 10
196.8671056991
 20
194.1058995249
 30
0.0
  0
SPLINE
  5
451
100
AcDbEntity
  8
0
100
AcDbSpline
 62
7
  6
BYLAYER
 70
0
 71
3
 72
11
 73
7
 74
0
 42
0.0000001
 43
0.0000001
 44
0.0000000001
 40
0.0
 40
0.0
 40
0.0
 40
0.0
 40
0.2177227832
 40
0.4508712161
 40
0.7104668615
 40
1.0
 40
1.0
 40
1.0
 40
1.0
 10
188.6471175674
 20
258.8144562472
 30
0.0
 10
188.6471127891
 20
258.9382065325
 30
0.0
 10
188.6926212964
 20
259.1962226519
 30
0.0
 10
188.888321839
 20
259.5558178319
 30
0.0
 10
189.1977169761
 20
259.88061596
 30
0.0
 10
189.456350245
 20
260.0589557386
 30
0.0
 10
189.5988689573
 20
260.1412384643
 30
0.0
  0
SPLINE
  5
452
100
AcDbEntity
  8
0
100
AcDbSpline
 62
7
  6
BYLAYER
 70
0
 71
3
 72
9
 73
5
 74
0
 42
0.0000001
 43
0.0000001
 44
0.0000000001
 40
0.0
 40
0.0
 40
0.0
 40
0.0
 40
0.5413683323
 40
1.0
 40
1.0
 40
1.0
 40
1.0
 10
161.2499695056
 20
139.7115278593
 30
0.0
 10
160.6204671393
 20
139.0951238164
 30
0.0
 10
159.3395852809
 20
138.0678897124
 30
0.0
 10
157.8018407059
 20
137.4253431736
 30
0.0
 10
157.0666867897
 20
137.296322874
 30
0.0
  0
SPLINE
  5
453
100
AcDbEntity
  8
0
100
AcDbSpline
 62
7
  6
BYLAYER
 70
0
 71
3
 72
13
 73
9
 74
0
 42
0.0000001
 43
0.0000001
 44
0.0000000001
 40
0.0
 40
0.0
 40
0.0
 40
0.0
 40
0.3027222356
 40
0.5682968643
 40
0.6868214441
 40
0.7967614963
 40
0.9002179989
 40
1.0
 40
1.0
 40
1.0
 40
1.0
 10
214.7427508455
 20
168.1911657034
 30
0.0
 10
214.0456991081
 20
167.5349347445
 30
0.0
 10
212.6282440896
 20
166.4106420413
 30
0.0
 10
210.6457539093
 20
165.4567719158
 30
0.0
 10
209.1126766943
 20
165.1219705647
 30
0.0
 10
208.0570040253
 20
165.0840389184
 30
0.0
 10
207.0736162275
 20
165.2538573901
 30
0.0
 10
206.475318929
 20
165.5072298161
 30
0.0
 10
206.2015666004
 20
165.6641896259
 30
0.0
  0
SPLINE
  5
454
100
AcDbEntity
  8
0
100
AcDbSpline
 62
7
  6
BYLAYER
 70
0
 71
3
 72
9
 73
5
 74
0
 42
0.0000001
 43
0.0000001
 44
0.0000000001
 40
0.0
 40
0.0
 40
0.0
 40
0.0
 40
0.2564776594
 40
1.0
 40
1.0
 40
1.0
 40
1.0
 10
216.0101982694
 20
171.3271719569
 30
0.0
 10
215.8638368456
 20
171.0770797325
 30
0.0
 10
215.3285660204
 20
170.0820813828
 30
0.0
 10
214.9315110022
 20
169.0097251858
 30
0.0
 10
214.7427508455
 20
168.1911657034
 30
0.0
  0
SPLINE
  5
455
100
AcDbEntity
  8
0
100
AcDbSpline
 62
7
  6
BYLAYER
 70
0
 71
3
 72
11
 73
7
 74
0
 42
0.0000001
 43
0.0000001
 44
0.0000000001
 40
0.0
 40
0.0
 40
0.0
 40
0.0
 40
0.289702809
 40
0.549088757
 40
0.7822160314
 40
1.0
 40
1.0
 40
1.0
 40
1.0
 10
219.474285462
 20
165.5703787291
 30
0.0
 10
219.276833556
 20
165.4563804985
 30
0.0
 10
218.8840380987
 20
165.2695162925
 30
0.0
 10
218.2803030134
 20
165.1237197351
 30
0.0
 10
217.7138222399
 20
165.1380580839
 30
0.0
 10
217.3727698653
 20
165.2618256289
 30
0.0
 10
217.2243348649
 20
165.3475226948
 30
0.0
  0
SPLINE
  5
456
100
AcDbEntity
  8
0
100
AcDbSpline
 62
7
  6
BYLAYER
 70
0
 71
3
 72
11
 73
7
 74
0
 42
0.0000001
 43
0.0000001
 44
0.0000000001
 40
0.0
 40
0.0
 40
0.0
 40
0.0
 40
0.2372416196
 40
0.5000015492
 40
0.7627606319
 40
1.0
 40
1.0
 40
1.0
 40
1.0
 10
223.6461981016
 20
171.653280114
 30
0.0
 10
223.6461981016
 20
171.1316393138
 30
0.0
 10
223.4505350322
 20
170.0315406619
 30
0.0
 10
222.7686113852
 20
168.4857124257
 30
0.0
 10
221.7708568844
 20
167.1222338119
 30
0.0
 10
220.9159814057
 20
166.4027373018
 30
0.0
 10
220.4642308341
 20
166.1419205445
 30
0.0
  0
SPLINE
  5
457
100
AcDbEntity
  8
0
100
AcDbSpline
 62
7
  6
BYLAYER
 70
0
 71
3
 72
11
 73
7
 74
0
 42
0.0000001
 43
0.0000001
 44
0.0000000001
 40
0.0
 40
0.0
 40
0.0
 40
0.0
 40
0.289702809
 40
0.549088757
 40
0.7822160314
 40
1.0
 40
1.0
 40
1.0
 40
1.0
 10
150.8852132523
 20
125.9706958036
 30
0.0
 10
150.6877613463
 20
125.856697573
 30
0.0
 10
150.294965889
 20
125.669833367
 30
0.0
 10
149.6912308036
 20
125.5240368096
 30
0.0
 10
149.1247500302
 20
125.5383751584
 30
0.0
 10
148.7836976555
 20
125.6621427034
 30
0.0
 10
148.6352626551
 20
125.7478397692
 30
0.0
  0
SPLINE
  5
458
100
AcDbEntity
  8
0
100
AcDbSpline
 62
7
  6
BYLAYER
 70
0
 71
3
 72
11
 73
7
 74
0
 42
0.0000001
 43
0.0000001
 44
0.0000000001
 40
0.0
 40
0.0
 40
0.0
 40
0.0
 40
0.2372416196
 40
0.5000015492
 40
0.7627606319
 40
1.0
 40
1.0
 40
1.0
 40
1.0
 10
155.0571258919
 20
132.0535971885
 30
0.0
 10
155.0571258919
 20
131.5319563882
 30
0.0
 10
154.8614628224
 20
130.4318577364
 30
0.0
 10
154.1795391754
 20
128.8860295001
 30
0.0
 10
153.1817846746
 20
127.5225508864
 30
0.0
 10
152.326909196
 20
126.8030543762
 30
0.0
 10
151.8751586244
 20
126.542237619
 30
0.0
  0
SPLINE
  5
459
100
AcDbEntity
  8
0
100
AcDbSpline
 62
7
  6
BYLAYER
 70
0
 71
3
 72
9
 73
5
 74
0
 42
0.0000001
 43
0.0000001
 44
0.0000000001
 40
0.0
 40
0.0
 40
0.0
 40
0.0
 40
0.5238219771
 40
1.0
 40
1.0
 40
1.0
 40
1.0
 10
64.1106400328
 20
155.2983730075
 30
0.0
 10
64.4828229651
 20
155.2983739021
 30
0.0
 10
65.1951691869
 20
155.3731411284
 30
0.0
 10
65.8758122366
 20
155.6101816493
 30
0.0
 10
66.1727161527
 20
155.77240398
 30
0.0
  0
SPLINE
  5
45A
100
AcDbEntity
  8
0
100
AcDbSpline
 62
7
  6
BYLAYER
 70
0
 71
3
 72
11
 73
7
 74
0
 42
0.0000001
 43
0.0000001
 44
0.0000000001
 40
0.0
 40
0.0
 40
0.0
 40
0.0
 40
0.2177227832
 40
0.4508712161
 40
0.7104668615
 40
1.0
 40
1.0
 40
1.0
 40
1.0
 10
132.0783395556
 20
291.4737166088
 30
0.0
 10
132.0783347773
 20
291.5974668941
 30
0.0
 10
132.1238432846
 20
291.8554830136
 30
0.0
 10
132.3195438272
 20
292.2150781935
 30
0.0
 10
132.6289389644
 20
292.5398763217
 30
0.0
 10
132.8875722333
 20
292.7182161002
 30
0.0
 10
133.0300909456
 20
292.800498826
 30
0.0
  0
SPLINE
  5
45B
100
AcDbEntity
  8
0
100
AcDbSpline
 62
7
  6
BYLAYER
 70
0
 71
3
 72
11
 73
7
 74
0
 42
0.0000001
 43
0.0000001
 44
0.0000000001
 40
0.0
 40
0.0
 40
0.0
 40
0.0
 40
0.2177442246
 40
0.4508817658
 40
0.7104588047
 40
1.0
 40
1.0
 40
1.0
 40
1.0
 10
186.2551939716
 20
242.0207680062
 30
0.0
 10
186.3541345478
 20
241.9636458772
 30
0.0
 10
186.5394398804
 20
241.8082188708
 30
0.0
 10
186.73655941
 20
241.4857753683
 30
0.0
 10
186.8534189197
 20
241.0885420162
 30
0.0
 10
186.876614863
 20
240.7994715099
 30
0.0
 10
186.876614863
 20
240.6475549329
 30
0.0
  0
SPLINE
  5
45C
100
AcDbEntity
  8
0
100
AcDbSpline
 62
7
  6
BYLAYER
 70
0
 71
3
 72
11
 73
7
 74
0
 42
0.0000001
 43
0.0000001
 44
0.0000000001
 40
0.0
 40
0.0
 40
0.0
 40
0.0
 40
0.2177227832
 40
0.4508712161
 40
0.7104668615
 40
1.0
 40
1.0
 40
1.0
 40
1.0
 10
160.3627285615
 20
275.144086428
 30
0.0
 10
160.3627237832
 20
275.2678367133
 30
0.0
 10
160.4082322905
 20
275.5258528328
 30
0.0
 10
160.6039328331
 20
275.8854480127
 30
0.0
 10
160.9133279703
 20
276.2102461409
 30
0.0
 10
161.1719612392
 20
276.3885859194
 30
0.0
 10
161.3144799514
 20
276.4708686451
 30
0.0
  0
SPLINE
  5
45D
100
AcDbEntity
  8
0
100
AcDbSpline
 62
7
  6
BYLAYER
 70
0
 71
3
 72
11
 73
7
 74
0
 42
0.0000001
 43
0.0000001
 44
0.0000000001
 40
0.0
 40
0.0
 40
0.0
 40
0.0
 40
0.2372405738
 40
0.5000004574
 40
0.7627600882
 40
1.0
 40
1.0
 40
1.0
 40
1.0
 10
58.253877824
 20
113.0278776945
 30
0.0
 10
57.7519286961
 20
113.3176716026
 30
0.0
 10
56.5846564987
 20
113.740547553
 30
0.0
 10
54.7183387886
 20
113.9431464369
 30
0.0
 10
52.852023624
 20
113.7405391959
 30
0.0
 10
51.6847556498
 20
113.3176574168
 30
0.0
 10
51.1828100122
 20
113.0278606977
 30
0.0
  0
SPLINE
  5
45E
100
AcDbEntity
  8
0
100
AcDbSpline
 62
7
  6
BYLAYER
 70
0
 71
3
 72
9
 73
5
 74
0
 42
0.0000001
 43
0.0000001
 44
0.0000000001
 40
0.0
 40
0.0
 40
0.0
 40
0.0
 40
0.4492310396
 40
1.0
 40
1.0
 40
1.0
 40
1.0
 10
138.4828653105
 20
212.925640928
 30
0.0
 10
138.5841548392
 20
212.8674028907
 30
0.0
 10
138.758727472
 20
212.6483214258
 30
0.0
 10
138.7935539324
 20
212.3822437354
 30
0.0
 10
138.7935539324
 20
212.2389966767
 30
0.0
  0
SPLINE
  5
45F
100
AcDbEntity
  8
0
100
AcDbSpline
 62
7
  6
BYLAYER
 70
0
 71
3
 72
9
 73
5
 74
0
 42
0.0000001
 43
0.0000001
 44
0.0000000001
 40
0.0
 40
0.0
 40
0.0
 40
0.0
 40
0.4744336899
 40
1.0
 40
1.0
 40
1.0
 40
1.0
 10
59.6662786097
 20
154.7910636408
 30
0.0
 10
59.9674172572
 20
154.9649250821
 30
0.0
 10
60.6674974529
 20
155.2186996036
 30
0.0
 10
61.4023944662
 20
155.2983664977
 30
0.0
 10
61.787595295
 20
155.2983674236
 30
0.0
  0
SPLINE
  5
460
100
AcDbEntity
  8
0
100
AcDbSpline
 62
7
  6
BYLAYER
 70
0
 71
3
 72
11
 73
7
 74
0
 42
0.0000001
 43
0.0000001
 44
0.0000000001
 40
0.0
 40
0.0
 40
0.0
 40
0.0
 40
0.2177825102
 40
0.4509091639
 40
0.7102957096
 40
1.0
 40
1.0
 40
1.0
 40
1.0
 10
154.1251092215
 20
134.1136154075
 30
0.0
 10
154.2735491075
 20
134.027915521
 30
0.0
 10
154.5512744172
 20
133.7944345811
 30
0.0
 10
154.8469455327
 20
133.3109998278
 30
0.0
 10
155.0225566872
 20
132.7152267407
 30
0.0
 10
155.0571258919
 20
132.2816048675
 30
0.0
 10
155.0571258919
 20
132.0535971885
 30
0.0
  0
SPLINE
  5
461
100
AcDbEntity
  8
0
100
AcDbSpline
 62
7
  6
BYLAYER
 70
0
 71
3
 72
10
 73
6
 74
0
 42
0.0000001
 43
0.0000001
 44
0.0000000001
 40
0.0
 40
0.0
 40
0.0
 40
0.0
 40
0.2381067463
 40
0.4982912277
 40
1.0
 40
1.0
 40
1.0
 40
1.0
 10
48.5311491317
 20
113.1536602245
 30
0.0
 10
48.5315301918
 20
113.0952573991
 30
0.0
 10
48.5614176303
 20
112.973785544
 30
0.0
 10
48.6673862075
 20
112.7532645529
 30
0.0
 10
48.7863921235
 20
112.6004715314
 30
0.0
 10
48.8847006694
 20
112.5264470436
 30
0.0
  0
SPLINE
  5
462
100
AcDbEntity
  8
0
100
AcDbSpline
 62
7
  6
BYLAYER
 70
0
 71
3
 72
9
 73
5
 74
0
 42
0.0000001
 43
0.0000001
 44
0.0000000001
 40
0.0
 40
0.0
 40
0.0
 40
0.0
 40
0.2566486828
 40
1.0
 40
1.0
 40
1.0
 40
1.0
 10
49.9793289435
 20
111.8076589648
 30
0.0
 10
54.0745406273
 20
109.1259400573
 30
0.0
 10
70.1779093839
 20
98.9043607308
 30
0.0
 10
86.8796582515
 20
89.6146977856
 30
0.0
 10
99.6028787559
 20
83.3585005265
 30
0.0
  0
SPLINE
  5
463
100
AcDbEntity
  8
0
100
AcDbSpline
 62
7
  6
BYLAYER
 70
0
 71
3
 72
11
 73
7
 74
0
 42
0.0000001
 43
0.0000001
 44
0.0000000001
 40
0.0
 40
0.0
 40
0.0
 40
0.0
 40
0.2723257179
 40
0.4998310466
 40
0.727140339
 40
1.0
 40
1.0
 40
1.0
 40
1.0
 10
117.3329253885
 20
73.1222847873
 30
0.0
 10
117.3727542998
 20
73.1014014713
 30
0.0
 10
117.4556347355
 20
73.0749549277
 30
0.0
 10
117.5768453739
 20
73.1080813656
 30
0.0
 10
117.6668839686
 20
73.1959863973
 30
0.0
 10
117.6852387394
 20
73.2813728361
 30
0.0
 10
117.6864802511
 20
73.3264156186
 30
0.0
  0
SPLINE
  5
464
100
AcDbEntity
  8
0
100
AcDbSpline
 62
7
  6
BYLAYER
 70
0
 71
3
 72
11
 73
7
 74
0
 42
0.0000001
 43
0.0000001
 44
0.0000000001
 40
0.0
 40
0.0
 40
0.0
 40
0.0
 40
0.2177825102
 40
0.4509091639
 40
0.7102957096
 40
1.0
 40
1.0
 40
1.0
 40
1.0
 10
222.7141814313
 20
173.713298333
 30
0.0
 10
222.8626213173
 20
173.6275984465
 30
0.0
 10
223.1403466269
 20
173.3941175066
 30
0.0
 10
223.4360177424
 20
172.9106827533
 30
0.0
 10
223.611628897
 20
172.3149096663
 30
0.0
 10
223.6461981016
 20
171.881287793
 30
0.0
 10
223.6461981016
 20
171.653280114
 30
0.0
  0
SPLINE
  5
465
100
AcDbEntity
  8
0
100
AcDbSpline
 62
7
  6
BYLAYER
 70
0
 71
3
 72
11
 73
7
 74
0
 42
0.0000001
 43
0.0000001
 44
0.0000000001
 40
0.0
 40
0.0
 40
0.0
 40
0.0
 40
0.2177648073
 40
0.4508950352
 40
0.7103684932
 40
1.0
 40
1.0
 40
1.0
 40
1.0
 10
40.3190007172
 20
154.3838632348
 30
0.0
 10
40.3190687929
 20
154.5552450086
 30
0.0
 10
40.3821341926
 20
154.9125035213
 30
0.0
 10
40.653112144
 20
155.4103010783
 30
0.0
 10
41.0813167519
 20
155.8601675343
 30
0.0
 10
41.439509486
 20
156.1069768582
 30
0.0
 10
41.6369126258
 20
156.2209469338
 30
0.0
  0
SPLINE
  5
466
100
AcDbEntity
  8
0
100
AcDbSpline
 62
7
  6
BYLAYER
 70
0
 71
3
 72
8
 73
4
 74
0
 42
0.0000001
 43
0.0000001
 44
0.0000000001
 40
0.0
 40
0.0
 40
0.0
 40
0.0
 40
1.0
 40
1.0
 40
1.0
 40
1.0
 10
51.7678398573
 20
186.6053544468
 30
0.0
 10
51.7856615503
 20
186.6591966478
 30
0.0
 10
51.8093054296
 20
186.7113960569
 30
0.0
 10
51.8376628297
 20
186.7605127873
 30
0.0
  0
SPLINE
  5
467
100
AcDbEntity
  8
0
100
AcDbSpline
 62
7
  6
BYLAYER
 70
0
 71
3
 72
16
 73
12
 74
0
 42
0.0000001
 43
0.0000001
 44
0.0000000001
 40
0.0
 40
0.0
 40
0.0
 40
0.0
 40
0.1287443602
 40
0.2703971121
 40
0.4176139114
 40
0.5620190713
 40
0.6957499754
 40
0.8130650626
 40
0.9124721117
 40
0.9571211941
 40
1.0
 40
1.0
 40
1.0
 40
1.0
 10
69.9213016316
 20
139.891316753
 30
0.0
 10
70.2544064316
 20
140.0836337509
 30
0.0
 10
71.0086201145
 20
140.394813399
 30
0.0
 10
72.2377972081
 20
140.6407707315
 30
0.0
 10
73.5379758722
 20
140.6766698269
 30
0.0
 10
74.8026003101
 20
140.4992571344
 30
0.0
 10
75.9306580109
 20
140.1216913773
 30
0.0
 10
76.8344930718
 20
139.5731615978
 30
0.0
 10
77.3610241414
 20
138.9685217088
 30
0.0
 10
77.5689724412
 20
138.4449562902
 30
0.0
 10
77.6032519518
 20
138.182338061
 30
0.0
 10
77.6032010665
 20
138.0542336613
 30
0.0
  0
SPLINE
  5
468
100
AcDbEntity
  8
0
100
AcDbSpline
 62
7
  6
BYLAYER
 70
0
 71
3
 72
9
 73
5
 74
0
 42
0.0000001
 43
0.0000001
 44
0.0000000001
 40
0.0
 40
0.0
 40
0.0
 40
0.0
 40
0.2798206107
 40
1.0
 40
1.0
 40
1.0
 40
1.0
 10
86.677027312
 20
137.7261012771
 30
0.0
 10
86.7664388533
 20
137.7777227464
 30
0.0
 10
87.0747160885
 20
137.9782408741
 30
0.0
 10
87.3416181198
 20
138.2615222389
 30
0.0
 10
87.4534788481
 20
138.5025491787
 30
0.0
  0
SPLINE
  5
469
100
AcDbEntity
  8
0
100
AcDbSpline
 62
7
  6
BYLAYER
 70
0
 71
3
 72
9
 73
5
 74
0
 42
0.0000001
 43
0.0000001
 44
0.0000000001
 40
0.0
 40
0.0
 40
0.0
 40
0.0
 40
0.2433581213
 40
1.0
 40
1.0
 40
1.0
 40
1.0
 10
89.159666382
 20
142.1788810444
 30
0.0
 10
89.1692097566
 20
142.1994442073
 30
0.0
 10
89.2107984666
 20
142.2828318125
 30
0.0
 10
89.2615515346
 20
142.3615499227
 30
0.0
 10
89.303801535
 20
142.4179677256
 30
0.0
  0
SPLINE
  5
46A
100
AcDbEntity
  8
0
100
AcDbSpline
 62
7
  6
BYLAYER
 70
0
 71
3
 72
11
 73
7
 74
0
 42
0.0000001
 43
0.0000001
 44
0.0000000001
 40
0.0
 40
0.0
 40
0.0
 40
0.0
 40
0.2177648073
 40
0.4508950352
 40
0.7103684932
 40
1.0
 40
1.0
 40
1.0
 40
1.0
 10
96.8877787289
 20
121.7246028731
 30
0.0
 10
96.8878468047
 20
121.895984647
 30
0.0
 10
96.9509122044
 20
122.2532431597
 30
0.0
 10
97.2218901557
 20
122.7510407167
 30
0.0
 10
97.6500947637
 20
123.2009071726
 30
0.0
 10
98.0082874977
 20
123.4477164966
 30
0.0
 10
98.2056906375
 20
123.5616865722
 30
0.0
  0
SPLINE
  5
46B
100
AcDbEntity
  8
0
100
AcDbSpline
 62
7
  6
BYLAYER
 70
0
 71
3
 72
16
 73
12
 74
0
 42
0.0000001
 43
0.0000001
 44
0.0000000001
 40
0.0
 40
0.0
 40
0.0
 40
0.0
 40
0.1287443602
 40
0.2703971121
 40
0.4176139114
 40
0.5620190713
 40
0.6957499754
 40
0.8130650626
 40
0.9124721117
 40
0.9571211941
 40
1.0
 40
1.0
 40
1.0
 40
1.0
 10
41.6369126258
 20
156.2209469338
 30
0.0
 10
41.9700174257
 20
156.4132639317
 30
0.0
 10
42.7242311086
 20
156.7244435798
 30
0.0
 10
43.9534082022
 20
156.9704009123
 30
0.0
 10
45.2535868664
 20
157.0063000077
 30
0.0
 10
46.5182113042
 20
156.8288873152
 30
0.0
 10
47.646269005
 20
156.4513215581
 30
0.0
 10
48.5501040659
 20
155.9027917786
 30
0.0
 10
49.0766351356
 20
155.2981518896
 30
0.0
 10
49.2845834353
 20
154.774586471
 30
0.0
 10
49.3188629459
 20
154.5119682418
 30
0.0
 10
49.3188120607
 20
154.3838638422
 30
0.0
  0
SPLINE
  5
46C
100
AcDbEntity
  8
0
100
AcDbSpline
 62
7
  6
BYLAYER
 70
0
 71
3
 72
15
 73
11
 74
0
 42
0.0000001
 43
0.0000001
 44
0.0000000001
 40
0.0
 40
0.0
 40
0.0
 40
0.0
 40
0.1288244605
 40
0.2705976782
 40
0.4178986235
 40
0.5623949216
 40
0.69620836
 40
0.8136001012
 40
0.9130679301
 40
1.0
 40
1.0
 40
1.0
 40
1.0
 10
194.5485958178
 20
262.9989475414
 30
0.0
 10
194.7891619002
 20
263.1378376048
 30
0.0
 10
195.3339309408
 20
263.3625518407
 30
0.0
 10
196.2216733362
 20
263.54025408
 30
0.0
 10
197.1607191803
 20
263.5661226961
 30
0.0
 10
198.073994335
 20
263.4378862419
 30
0.0
 10
198.8887200525
 20
263.1656570579
 30
0.0
 10
199.54130507
 20
262.7680042264
 30
0.0
 10
199.9834675404
 20
262.265242751
 30
0.0
 10
200.0965531832
 20
261.8596145776
 30
0.0
 10
200.0965604212
 20
261.6721648542
 30
0.0
  0
SPLINE
  5
46D
100
AcDbEntity
  8
0
100
AcDbSpline
 62
7
  6
BYLAYER
 70
0
 71
3
 72
15
 73
11
 74
0
 42
0.0000001
 43
0.0000001
 44
0.0000000001
 40
0.0
 40
0.0
 40
0.0
 40
0.0
 40
0.1288244605
 40
0.2705976782
 40
0.4178986235
 40
0.5623949216
 40
0.69620836
 40
0.8136001012
 40
0.9130679301
 40
1.0
 40
1.0
 40
1.0
 40
1.0
 10
137.9798178061
 20
295.6582079031
 30
0.0
 10
138.2203838885
 20
295.7970979664
 30
0.0
 10
138.7651529291
 20
296.0218122023
 30
0.0
 10
139.6528953244
 20
296.1995144416
 30
0.0
 10
140.5919411685
 20
296.2253830577
 30
0.0
 10
141.5052163233
 20
296.0971466035
 30
0.0
 10
142.3199420407
 20
295.8249174195
 30
0.0
 10
142.9725270582
 20
295.427264588
 30
0.0
 10
143.4146895286
 20
294.9245031126
 30
0.0
 10
143.5277751715
 20
294.5188749393
 30
0.0
 10
143.5277824094
 20
294.3314252158
 30
0.0
  0
SPLINE
  5
46E
100
AcDbEntity
  8
0
100
AcDbSpline
 62
7
  6
BYLAYER
 70
0
 71
3
 72
11
 73
7
 74
0
 42
0.0000001
 43
0.0000001
 44
0.0000000001
 40
0.0
 40
0.0
 40
0.0
 40
0.0
 40
0.2372405738
 40
0.5000004574
 40
0.7627600882
 40
1.0
 40
1.0
 40
1.0
 40
1.0
 10
104.2160099585
 20
86.4922286507
 30
0.0
 10
103.7140608307
 20
86.7820225588
 30
0.0
 10
102.5467886333
 20
87.2048985092
 30
0.0
 10
100.6804709231
 20
87.407497393
 30
0.0
 10
98.8141557585
 20
87.2048901521
 30
0.0
 10
97.6468877843
 20
86.782008373
 30
0.0
 10
97.1449421467
 20
86.4922116539
 30
0.0
  0
SPLINE
  5
46F
100
AcDbEntity
  8
0
100
AcDbSpline
 62
7
  6
BYLAYER
 70
0
 71
3
 72
11
 73
7
 74
0
 42
0.0000001
 43
0.0000001
 44
0.0000000001
 40
0.0
 40
0.0
 40
0.0
 40
0.0
 40
0.2372405738
 40
0.5000004574
 40
0.7627600882
 40
1.0
 40
1.0
 40
1.0
 40
1.0
 10
81.2349438913
 20
99.7600531726
 30
0.0
 10
80.7329947634
 20
100.0498470807
 30
0.0
 10
79.565722566
 20
100.4727230311
 30
0.0
 10
77.6994048559
 20
100.6753219149
 30
0.0
 10
75.8330896913
 20
100.472714674
 30
0.0
 10
74.665821717
 20
100.0498328949
 30
0.0
 10
74.1638760795
 20
99.7600361758
 30
0.0
  0
SPLINE
  5
470
100
AcDbEntity
  8
0
100
AcDbSpline
 62
7
  6
BYLAYER
 70
0
 71
3
 72
15
 73
11
 74
0
 42
0.0000001
 43
0.0000001
 44
0.0000000001
 40
0.0
 40
0.0
 40
0.0
 40
0.0
 40
0.1288244605
 40
0.2705976782
 40
0.4178986235
 40
0.5623949216
 40
0.69620836
 40
0.8136001012
 40
0.9130679301
 40
1.0
 40
1.0
 40
1.0
 40
1.0
 10
58.0770842009
 20
249.5266185156
 30
0.0
 10
58.3176502833
 20
249.665508579
 30
0.0
 10
58.8624193239
 20
249.8902228149
 30
0.0
 10
59.7501617193
 20
250.0679250541
 30
0.0
 10
60.6892075633
 20
250.0937936702
 30
0.0
 10
61.6024827181
 20
249.965557216
 30
0.0
 10
62.4172084356
 20
249.693328032
 30
0.0
 10
63.069793453
 20
249.2956752005
 30
0.0
 10
63.5119559235
 20
248.7929137251
 30
0.0
 10
63.6250415663
 20
248.3872855518
 30
0.0
 10
63.6250488043
 20
248.1998358284
 30
0.0
  0
SPLINE
  5
471
100
AcDbEntity
  8
0
100
AcDbSpline
 62
7
  6
BYLAYER
 70
0
 71
3
 72
15
 73
11
 74
0
 42
0.0000001
 43
0.0000001
 44
0.0000000001
 40
0.0
 40
0.0
 40
0.0
 40
0.0
 40
0.1288244605
 40
0.2705976782
 40
0.4178986235
 40
0.5623949216
 40
0.69620836
 40
0.8136001012
 40
0.9130679301
 40
1.0
 40
1.0
 40
1.0
 40
1.0
 10
114.6458622127
 20
216.867358154
 30
0.0
 10
114.8864282951
 20
217.0062482173
 30
0.0
 10
115.4311973357
 20
217.2309624532
 30
0.0
 10
116.318939731
 20
217.4086646925
 30
0.0
 10
117.2579855751
 20
217.4345333086
 30
0.0
 10
118.1712607299
 20
217.3062968544
 30
0.0
 10
118.9859864473
 20
217.0340676704
 30
0.0
 10
119.6385714648
 20
216.6364148389
 30
0.0
 10
120.0807339352
 20
216.1336533635
 30
0.0
 10
120.1938195781
 20
215.7280251902
 30
0.0
 10
120.193826816
 20
215.5405754667
 30
0.0
  0
SPLINE
  5
472
100
AcDbEntity
  8
0
100
AcDbSpline
 62
7
  6
BYLAYER
 70
0
 71
3
 72
15
 73
11
 74
0
 42
0.0000001
 43
0.0000001
 44
0.0000000001
 40
0.0
 40
0.0
 40
0.0
 40
0.0
 40
0.1288244605
 40
0.2705976782
 40
0.4178986235
 40
0.5623949216
 40
0.69620836
 40
0.8136001012
 40
0.9130679301
 40
1.0
 40
1.0
 40
1.0
 40
1.0
 10
86.3614732068
 20
233.1969883348
 30
0.0
 10
86.6020392892
 20
233.3358783981
 30
0.0
 10
87.1468083298
 20
233.5605926341
 30
0.0
 10
88.0345507252
 20
233.7382948733
 30
0.0
 10
88.9735965692
 20
233.7641634894
 30
0.0
 10
89.886871724
 20
233.6359270352
 30
0.0
 10
90.7015974415
 20
233.3636978512
 30
0.0
 10
91.3541824589
 20
232.9660450197
 30
0.0
 10
91.7963449293
 20
232.4632835443
 30
0.0
 10
91.9094305722
 20
232.057655371
 30
0.0
 10
91.9094378101
 20
231.8702056476
 30
0.0
  0
SPLINE
  5
473
100
AcDbEntity
  8
0
100
AcDbSpline
 62
7
  6
BYLAYER
 70
0
 71
3
 72
11
 73
7
 74
0
 42
0.0000001
 43
0.0000001
 44
0.0000000001
 40
0.0
 40
0.0
 40
0.0
 40
0.0
 40
0.23721727
 40
0.499998382
 40
0.7627803746
 40
1.0
 40
1.0
 40
1.0
 40
1.0
 10
58.4305522165
 20
218.0910224292
 30
0.0
 10
58.5309320112
 20
218.1489763848
 30
0.0
 10
58.720908358
 20
218.3088589474
 30
0.0
 10
58.9426411298
 20
218.611862461
 30
0.0
 10
59.0941821565
 20
218.9553922808
 30
0.0
 10
59.1376560537
 20
219.1998594193
 30
0.0
 10
59.1376560537
 20
219.3157690002
 30
0.0
  0
SPLINE
  5
474
100
AcDbEntity
  8
0
100
AcDbSpline
 62
7
  6
BYLAYER
 70
0
 71
3
 72
9
 73
5
 74
0
 42
0.0000001
 43
0.0000001
 44
0.0000000001
 40
0.0
 40
0.0
 40
0.0
 40
0.0
 40
0.287215954
 40
1.0
 40
1.0
 40
1.0
 40
1.0
 10
59.1376560537
 20
219.3157690002
 30
0.0
 10
59.1008072147
 20
219.337043206
 30
0.0
 10
58.9783307899
 20
219.4185070423
 30
0.0
 10
58.8766320396
 20
219.5460897887
 30
0.0
 10
58.8532507897
 20
219.649062871
 30
0.0
  0
SPLINE
  5
475
100
AcDbEntity
  8
0
100
AcDbSpline
 62
7
  6
BYLAYER
 70
0
 71
3
 72
8
 73
4
 74
0
 42
0.0000001
 43
0.0000001
 44
0.0000000001
 40
0.0
 40
0.0
 40
0.0
 40
0.0
 40
1.0
 40
1.0
 40
1.0
 40
1.0
 10
58.8532507897
 20
219.649062871
 30
0.0
 10
58.8476834369
 20
219.6735819827
 30
0.0
 10
58.8447598893
 20
219.6988699193
 30
0.0
 10
58.8447598909
 20
219.7240131541
 30
0.0
  0
SPLINE
  5
476
100
AcDbEntity
  8
0
100
AcDbSpline
 62
7
  6
BYLAYER
 70
0
 71
3
 72
15
 73
11
 74
0
 42
0.0000001
 43
0.0000001
 44
0.0000000001
 40
0.0
 40
0.0
 40
0.0
 40
0.0
 40
0.1447713249
 40
0.2745603624
 40
0.3911292207
 40
0.5000010868
 40
0.6088727915
 40
0.7254411458
 40
0.8552293965
 40
1.0
 40
1.0
 40
1.0
 40
1.0
 10
58.4305522165
 20
218.0910224292
 30
0.0
 10
58.3428448959
 20
218.1416591288
 30
0.0
 10
58.1836849905
 20
218.2514192904
 30
0.0
 10
57.9932977367
 20
218.4512285178
 30
0.0
 10
57.8728415547
 20
218.6727056394
 30
0.0
 10
57.8313651796
 20
218.9075060018
 30
0.0
 10
57.8728382407
 20
219.1423066257
 30
0.0
 10
57.9932913796
 20
219.3637842836
 30
0.0
 10
58.1836756566
 20
219.5635944453
 30
0.0
 10
58.3428339222
 20
219.6733551663
 30
0.0
 10
58.4305404406
 20
219.723992246
 30
0.0
  0
SPLINE
  5
477
100
AcDbEntity
  8
0
100
AcDbSpline
 62
7
  6
BYLAYER
 70
0
 71
3
 72
11
 73
7
 74
0
 42
0.0000001
 43
0.0000001
 44
0.0000000001
 40
0.0
 40
0.0
 40
0.0
 40
0.0
 40
0.2895349059
 40
0.5491059961
 40
0.7822491664
 40
1.0
 40
1.0
 40
1.0
 40
1.0
 10
46.5865217258
 20
216.9683272137
 30
0.0
 10
46.4988155313
 20
217.0189632629
 30
0.0
 10
46.3241972259
 20
217.10192857
 30
0.0
 10
46.0559082876
 20
217.1668684484
 30
0.0
 10
45.8040409768
 20
217.1605529384
 30
0.0
 10
45.6525336796
 20
217.1053776926
 30
0.0
 10
45.586572664
 20
217.0672953019
 30
0.0
  0
SPLINE
  5
478
100
AcDbEntity
  8
0
100
AcDbSpline
 62
7
  6
BYLAYER
 70
0
 71
3
 72
11
 73
7
 74
0
 42
0.0000001
 43
0.0000001
 44
0.0000000001
 40
0.0
 40
0.0
 40
0.0
 40
0.0
 40
0.2341933893
 40
0.4934507706
 40
0.756230006
 40
1.0
 40
1.0
 40
1.0
 40
1.0
 10
40.9296910299
 20
207.1703546426
 30
0.0
 10
40.9296910311
 20
208.0285022342
 30
0.0
 10
41.2288162593
 20
209.83818734
 30
0.0
 10
42.2919167875
 20
212.4169615535
 30
0.0
 10
43.8722969674
 20
214.7578976702
 30
0.0
 10
45.2329760709
 20
216.0534219025
 30
0.0
 10
45.9628618082
 20
216.5683417504
 30
0.0
  0
SPLINE
  5
479
100
AcDbEntity
  8
0
100
AcDbSpline
 62
7
  6
BYLAYER
 70
0
 71
3
 72
9
 73
5
 74
0
 42
0.0000001
 43
0.0000001
 44
0.0000000001
 40
0.0
 40
0.0
 40
0.0
 40
0.0
 40
0.2550880002
 40
1.0
 40
1.0
 40
1.0
 40
1.0
 10
45.9628618082
 20
216.5683417504
 30
0.0
 10
46.0143492157
 20
216.6046650908
 30
0.0
 10
46.2177027058
 20
216.7448979994
 30
0.0
 10
46.4271688283
 20
216.8763253205
 30
0.0
 10
46.5865217283
 20
216.968327211
 30
0.0
  0
SPLINE
  5
47A
100
AcDbEntity
  8
0
100
AcDbSpline
 62
7
  6
BYLAYER
 70
0
 71
3
 72
11
 73
7
 74
0
 42
0.0000001
 43
0.0000001
 44
0.0000000001
 40
0.0
 40
0.0
 40
0.0
 40
0.0
 40
0.2895378634
 40
0.5491098265
 40
0.7822517759
 40
1.0
 40
1.0
 40
1.0
 40
1.0
 10
40.9296910299
 20
179.0010212516
 30
0.0
 10
40.8419836167
 20
179.0516580047
 30
0.0
 10
40.6828204454
 20
179.1613971037
 30
0.0
 10
40.4924308845
 20
179.3612696658
 30
0.0
 10
40.3719628571
 20
179.5825489246
 30
0.0
 10
40.3439916237
 20
179.7413450812
 30
0.0
 10
40.3439916204
 20
179.8175095594
 30
0.0
  0
SPLINE
  5
47B
100
AcDbEntity
  8
0
100
AcDbSpline
 62
7
  6
BYLAYER
 70
0
 71
3
 72
11
 73
7
 74
0
 42
0.0000001
 43
0.0000001
 44
0.0000000001
 40
0.0
 40
0.0
 40
0.0
 40
0.0
 40
0.4044736188
 40
0.6574730476
 40
0.825791215
 40
1.0
 40
1.0
 40
1.0
 40
1.0
 10
55.6864013984
 20
222.5891220607
 30
0.0
 10
55.652576262
 20
222.6173520663
 30
0.0
 10
55.6007625422
 20
222.6665303612
 30
0.0
 10
55.5492500751
 20
222.7438759545
 30
0.0
 10
55.5528432512
 20
222.8148738567
 30
0.0
 10
55.5849745597
 20
222.8400732842
 30
0.0
 10
55.6014497249
 20
222.8494887541
 30
0.0
  0
SPLINE
  5
47C
100
AcDbEntity
  8
0
100
AcDbSpline
 62
7
  6
BYLAYER
 70
0
 71
3
 72
9
 73
5
 74
0
 42
0.0000001
 43
0.0000001
 44
0.0000000001
 40
0.0
 40
0.0
 40
0.0
 40
0.0
 40
0.2770237437
 40
1.0
 40
1.0
 40
1.0
 40
1.0
 10
55.9053169025
 20
222.3485047347
 30
0.0
 10
55.8874453105
 20
222.3726925161
 30
0.0
 10
55.8210505781
 20
222.4585070371
 30
0.0
 10
55.7466162928
 20
222.5387724444
 30
0.0
 10
55.6864003774
 20
222.5891137525
 30
0.0
  0
SPLINE
  5
47D
100
AcDbEntity
  8
0
100
AcDbSpline
 62
7
  6
BYLAYER
 70
0
 71
3
 72
11
 73
7
 74
0
 42
0.0000001
 43
0.0000001
 44
0.0000000001
 40
0.0
 40
0.0
 40
0.0
 40
0.0
 40
0.4047228601
 40
0.6561246197
 40
0.8233382064
 40
1.0
 40
1.0
 40
1.0
 40
1.0
 10
56.3694133376
 20
223.7721356677
 30
0.0
 10
56.3277655689
 20
223.7873523377
 30
0.0
 10
56.2596828498
 20
223.8081575786
 30
0.0
 10
56.166035933
 20
223.8173037101
 30
0.0
 10
56.1070406133
 20
223.7766742324
 30
0.0
 10
56.1014223069
 20
223.7361071424
 30
0.0
 10
56.1014232205
 20
223.7167524667
 30
0.0
  0
SPLINE
  5
47E
100
AcDbEntity
  8
0
100
AcDbSpline
 62
7
  6
BYLAYER
 70
0
 71
3
 72
9
 73
5
 74
0
 42
0.0000001
 43
0.0000001
 44
0.0000000001
 40
0.0
 40
0.0
 40
0.0
 40
0.0
 40
0.4999752031
 40
1.0
 40
1.0
 40
1.0
 40
1.0
 10
56.369463241
 20
225.4608372923
 30
0.0
 10
56.3370306224
 20
225.6981284029
 30
0.0
 10
56.4510190371
 20
226.2023284771
 30
0.0
 10
56.8307744568
 20
226.552995277
 30
0.0
 10
57.0525237574
 20
226.6435357282
 30
0.0
  0
SPLINE
  5
47F
100
AcDbEntity
  8
0
100
AcDbSpline
 62
7
  6
BYLAYER
 70
0
 71
3
 72
11
 73
7
 74
0
 42
0.0000001
 43
0.0000001
 44
0.0000000001
 40
0.0
 40
0.0
 40
0.0
 40
0.0
 40
0.2895353849
 40
0.5491065882
 40
0.7822495582
 40
1.0
 40
1.0
 40
1.0
 40
1.0
 10
110.4026842517
 20
290.7183939129
 30
0.0
 10
110.4903892007
 20
290.7690300884
 30
0.0
 10
110.6650050059
 20
290.8519958538
 30
0.0
 10
110.9332903907
 20
290.9169372516
 30
0.0
 10
111.185154648
 20
290.9106239668
 30
0.0
 10
111.3366604282
 20
290.8554506187
 30
0.0
 10
111.4026208274
 20
290.817369214
 30
0.0
  0
SPLINE
  5
480
100
AcDbEntity
  8
0
100
AcDbSpline
 62
7
  6
BYLAYER
 70
0
 71
3
 72
11
 73
7
 74
0
 42
0.0000001
 43
0.0000001
 44
0.0000000001
 40
0.0
 40
0.0
 40
0.0
 40
0.0
 40
0.2326634523
 40
0.4899927794
 40
0.7526400824
 40
1.0
 40
1.0
 40
1.0
 40
1.0
 10
59.1376560537
 20
259.487687923
 30
0.0
 10
59.1376560505
 20
259.6920618868
 30
0.0
 10
59.2056329836
 20
260.1228952573
 30
0.0
 10
59.4501787034
 20
260.7415027239
 30
0.0
 10
59.8167679066
 20
261.3119680992
 30
0.0
 10
60.1335011324
 20
261.6353235867
 30
0.0
 10
60.3046391891
 20
261.7692036841
 30
0.0
  0
SPLINE
  5
481
100
AcDbEntity
  8
0
100
AcDbSpline
 62
7
  6
BYLAYER
 70
0
 71
3
 72
9
 73
5
 74
0
 42
0.0000001
 43
0.0000001
 44
0.0000000001
 40
0.0
 40
0.0
 40
0.0
 40
0.0
 40
0.257859702
 40
1.0
 40
1.0
 40
1.0
 40
1.0
 10
60.3046391891
 20
261.7692036841
 30
0.0
 10
60.3248829303
 20
261.7850402204
 30
0.0
 10
60.4043621979
 20
261.8451914889
 30
0.0
 10
60.4878011036
 20
261.9001947122
 30
0.0
 10
60.551863728
 20
261.9371810649
 30
0.0
  0
SPLINE
  5
482
100
AcDbEntity
  8
0
100
AcDbSpline
 62
7
  6
BYLAYER
 70
0
 71
3
 72
9
 73
5
 74
0
 42
0.0000001
 43
0.0000001
 44
0.0000000001
 40
0.0
 40
0.0
 40
0.0
 40
0.0
 40
0.2678464974
 40
1.0
 40
1.0
 40
1.0
 40
1.0
 10
57.369415566
 20
226.4598063438
 30
0.0
 10
57.3432691743
 20
226.4795676858
 30
0.0
 10
57.2437290979
 20
226.5506617227
 30
0.0
 10
57.13564807
 20
226.6105957735
 30
0.0
 10
57.0524373974
 20
226.6437907698
 30
0.0
  0
SPLINE
  5
483
100
AcDbEntity
  8
0
100
AcDbSpline
 62
7
  6
BYLAYER
 70
0
 71
3
 72
9
 73
5
 74
0
 42
0.0000001
 43
0.0000001
 44
0.0000000001
 40
0.0
 40
0.0
 40
0.0
 40
0.0
 40
0.4839080662
 40
1.0
 40
1.0
 40
1.0
 40
1.0
 10
56.5033562484
 20
225.3546664184
 30
0.0
 10
56.5033962894
 20
225.5909402472
 30
0.0
 10
56.7172986058
 20
226.0730101304
 30
0.0
 10
57.1303341422
 20
226.3801610148
 30
0.0
 10
57.3693988991
 20
226.4598227186
 30
0.0
  0
SPLINE
  5
484
100
AcDbEntity
  8
0
100
AcDbSpline
 62
7
  6
BYLAYER
 70
0
 71
3
 72
9
 73
5
 74
0
 42
0.0000001
 43
0.0000001
 44
0.0000000001
 40
0.0
 40
0.0
 40
0.0
 40
0.0
 40
0.2811266638
 40
1.0
 40
1.0
 40
1.0
 40
1.0
 10
58.4935288775
 20
219.7603584199
 30
0.0
 10
58.5251699948
 20
219.7420908256
 30
0.0
 10
58.6407613627
 20
219.6839045088
 30
0.0
 10
58.7761588793
 20
219.6547049173
 30
0.0
 10
58.8686099352
 20
219.6681686538
 30
0.0
  0
SPLINE
  5
485
100
AcDbEntity
  8
0
100
AcDbSpline
 62
7
  6
BYLAYER
 70
0
 71
3
 72
8
 73
4
 74
0
 42
0.0000001
 43
0.0000001
 44
0.0000000001
 40
0.0
 40
0.0
 40
0.0
 40
0.0
 40
1.0
 40
1.0
 40
1.0
 40
1.0
 10
58.6550947558
 20
219.8286594041
 30
0.0
 10
58.6030630692
 20
219.8019867183
 30
0.0
 10
58.5489983167
 20
219.7788481465
 30
0.0
 10
58.4935288783
 20
219.7603584202
 30
0.0
  0
SPLINE
  5
486
100
AcDbEntity
  8
0
100
AcDbSpline
 62
7
  6
BYLAYER
 70
0
 71
3
 72
9
 73
5
 74
0
 42
0.0000001
 43
0.0000001
 44
0.0000000001
 40
0.0
 40
0.0
 40
0.0
 40
0.0
 40
0.2723872141
 40
1.0
 40
1.0
 40
1.0
 40
1.0
 10
56.5034051245
 20
225.3546163396
 30
0.0
 10
56.492414417
 20
225.365609219
 30
0.0
 10
56.4510770094
 20
225.4049142862
 30
0.0
 10
56.4053761987
 20
225.4400210907
 30
0.0
 10
56.3694174403
 20
225.4607863077
 30
0.0
  0
SPLINE
  5
487
100
AcDbEntity
  8
0
100
AcDbSpline
 62
7
  6
BYLAYER
 70
0
 71
3
 72
9
 73
5
 74
0
 42
0.0000001
 43
0.0000001
 44
0.0000000001
 40
0.0
 40
0.0
 40
0.0
 40
0.0
 40
0.5028785938
 40
1.0
 40
1.0
 40
1.0
 40
1.0
 10
56.3778241485
 20
223.6706867592
 30
0.0
 10
56.3844202809
 20
223.4623389088
 30
0.0
 10
56.2694360952
 20
223.0394414939
 30
0.0
 10
55.9601615937
 20
222.7298759052
 30
0.0
 10
55.7785242829
 20
222.6325568773
 30
0.0
  0
SPLINE
  5
488
100
AcDbEntity
  8
0
100
AcDbSpline
 62
7
  6
BYLAYER
 70
0
 71
3
 72
9
 73
5
 74
0
 42
0.0000001
 43
0.0000001
 44
0.0000000001
 40
0.0
 40
0.0
 40
0.0
 40
0.0
 40
0.2723829036
 40
1.0
 40
1.0
 40
1.0
 40
1.0
 10
56.7713430766
 20
223.4536792146
 30
0.0
 10
56.7383734595
 20
223.4866521498
 30
0.0
 10
56.6143702028
 20
223.6045494949
 30
0.0
 10
56.4772797253
 20
223.7098560806
 30
0.0
 10
56.369409235
 20
223.7721361607
 30
0.0
  0
SPLINE
  5
489
100
AcDbEntity
  8
0
100
AcDbSpline
 62
7
  6
BYLAYER
 70
0
 71
3
 72
9
 73
5
 74
0
 42
0.0000001
 43
0.0000001
 44
0.0000000001
 40
0.0
 40
0.0
 40
0.0
 40
0.0
 40
0.5160863222
 40
1.0
 40
1.0
 40
1.0
 40
1.0
 10
55.9053197481
 20
222.348505451
 30
0.0
 10
56.1443780702
 20
222.4281911796
 30
0.0
 10
56.5574537673
 20
222.7352762558
 30
0.0
 10
56.7713429934
 20
223.2174005527
 30
0.0
 10
56.7713428789
 20
223.4536810925
 30
0.0
  0
ELLIPSE
  5
48A
100
AcDbEntity
  8
0
100
AcDbEllipse
 62
7
  6
BYLAYER
 10
203.8018704834
 20
181.7593109979
 30
0.0
 11
0.3363326108
 21
0.9517437259
 31
0.0
 40
0.6665316926
 41
-1.751024551
 42
-0.1233473937
  0
ELLIPSE
  5
48B
100
AcDbEntity
  8
0
100
AcDbEllipse
 62
7
  6
BYLAYER
 10
220.7822574811
 20
192.3312605507
 30
0.0
 11
2.6906608865
 21
7.6139498074
 31
0.0
 40
0.6665316926
 41
5.3744270093
 42
6.9452233361
  0
ELLIPSE
  5
48C
100
AcDbEntity
  8
0
100
AcDbEllipse
 62
7
  6
BYLAYER
 10
145.8292507364
 20
149.0573802404
 30
0.0
 11
2.6906608865
 21
7.6139498074
 31
0.0
 40
0.6665316926
 41
0.6620380289
 42
2.2328343557
  0
ELLIPSE
  5
48D
100
AcDbEntity
  8
0
100
AcDbEllipse
 62
7
  6
BYLAYER
 10
208.5956325838
 20
187.6334270784
 30
0.0
 11
0.3363326108
 21
0.9517437259
 31
0.0
 40
0.6665316926
 41
-4.5739497271
 42
-2.3789754727
  0
ELLIPSE
  5
48E
100
AcDbEntity
  8
0
100
AcDbEllipse
 62
7
  6
BYLAYER
 10
74.163918767
 20
225.1341092644
 30
0.0
 11
0.7071067812
 21
0.0000025495
 31
0.0
 40
0.577354396
 41
3.1415905719
 42
4.7123868987
  0
ELLIPSE
  5
48F
100
AcDbEntity
  8
0
100
AcDbEllipse
 62
7
  6
BYLAYER
 10
158.0985267033
 20
146.0560587192
 30
0.0
 11
3.0269934973
 21
8.5656935333
 31
0.0
 40
0.6665316926
 41
4.1385268409
 42
9.3014305992
  0
ELLIPSE
  5
490
100
AcDbEntity
  8
0
100
AcDbEllipse
 62
7
  6
BYLAYER
 10
74.163918767
 20
227.5836165158
 30
0.0
 11
0.7071067812
 21
0.0000025495
 31
0.0
 40
0.577354396
 41
1.5707942451
 42
3.1415905719
  0
ENDSEC
  0
SECTION
  2
OBJECTS
  0
DICTIONARY
  5
C
100
AcDbDictionary
280
0
281
1
  3
ACAD_GROUP
350
D
  3
ACAD_MLINESTYLE
350
17
  3
ACAD_LAYOUT
350
1A
  3
ACAD_PLOTSETTINGS
350
19
  3
ACAD_PLOTSTYLENAME
350
E
  0
DICTIONARY
  5
D
102
{ACAD_REACTORS
330
C
102
}
100
AcDbDictionary
280
0
281
1
  0
ACDBDICTIONARYWDFLT
  5
E
102
{ACAD_REACTORS
330
C
102
}
100
AcDbDictionary
281
1
  3
Normal
350
F
100
AcDbDictionaryWithDefault
340
F
  0
DICTIONARY
  5
17
102
{ACAD_REACTORS
330
C
102
}
100
AcDbDictionary
280
0
281
1
  3
Standard
350
18
  0
DICTIONARY
  5
19
102
{ACAD_REACTORS
330
C
102
}
100
AcDbDictionary
281
1
  0
DICTIONARY
  5
1A
102
{ACAD_REACTORS
330
C
102
}
100
AcDbDictionary
281
1
  3
Model
350
491
  3
Layout1
350
492
  0
ACDBPLACEHOLDER
  5
F
102
{ACAD_REACTORS
330
E
102
}
  0
MLINESTYLE
  5
18
102
{ACAD_REACTORS
330
17
102
}
100
AcDbMlineStyle
  2
STANDARD
 70
0
  3

 62
256
 51
90.0
 52
90.0
 71
2
 49
0.5
 62
256
  6
BYLAYER
 49
-0.5
 62
256
  6
BYLAYER
  0
LAYOUT
  5
491
102
{ACAD_REACTORS
330
1A
102
}
100
AcDbPlotSettings
  1

  2
none_device
  4

  6

 40
0.0
 41
0.0
 42
0.0
 43
0.0
 44
210.0
 45
297.0
 46
0.0
 47
0.0
 48
0.0
 49
0.0
140
0.0
141
0.0
142
1.0
143
1.0
 70
1024
 72
1
 73
0
 74
0
  7

 75
0
147
1.0
148
0.0
149
0.0
100
AcDbLayout
  1
Model
 70
0
 71
0
 10
0.0
 20
0.0
 11
210.0
 21
297.0
 12
0.0
 22
0.0
 32
0.0
 14
0.0
 24
0.0
 34
0.0
 15
0.0
 25
0.0
 35
0.0
146
0.0
 13
0.0
 23
0.0
 33
0.0
 16
1.0
 26
0.0
 36
0.0
 17
0.0
 27
1.0
 37
0.0
 76
0
330
210
345
0
346
0
  0
LAYOUT
  5
492
102
{ACAD_REACTORS
330
1A
102
}
100
AcDbPlotSettings
  1

  2
none_device
  4

  6

 40
0.0
 41
0.0
 42
0.0
 43
0.0
 44
210.0
 45
297.0
 46
0.0
 47
0.0
 48
0.0
 49
0.0
140
0.0
141
0.0
142
1.0
143
1.0
 70
0
 72
1
 73
0
 74
0
  7

 75
0
147
1.0
148
0.0
149
0.0
100
AcDbLayout
  1
Layout1
 70
0
 71
1
 10
0.0
 20
0.0
 11
210.0
 21
297.0
 12
0.0
 22
0.0
 32
0.0
 14
0.0
 24
0.0
 34
0.0
 15
0.0
 25
0.0
 35
0.0
146
0.0
 13
0.0
 23
0.0
 33
0.0
 16
1.0
 26
0.0
 36
0.0
 17
0.0
 27
1.0
 37
0.0
 76
0
330
211
345
0
346
0
  0
ENDSEC
  0
EOF
