999
DXF file: C:\Users\sesa63760\Dev\_Creo\CAD\MCADPP0002517_3D-CAD\drw0001_4.dxf
999
Pro/ENGINEER 2019471 by Parametric Technology Corporation
  0
SECTION
  2
HEADER
  9
$ACADVER
  1
AC1024
  9
$DWGCODEPAGE
  3
ANSI_1252
  9
$EXTMAX
 10
180.5727807281
 20
255.3815041727
 30
0.0
  9
$EXTMIN
 10
0.0
 20
0.0
 30
0.0
  9
$LIMMIN
 10
0.0
 20
0.0
  9
$LIMMAX
 10
180.5727807281
 20
255.3815041727
  9
$VIEWCTR
 10
90.2863903641
 20
127.6907520863
  9
$VIEWSIZE
 40
255.3815041727
  9
$CLAYER
  8
0
  9
$LTSCALE
 40
16.6470906424
  9
$CELTYPE
  6
BYLAYER
  9
$DIMSCALE
 40
1.0
  9
$DIMASZ
 40
2.149675961
  9
$DIMEXO
 40
1.0
  9
$DIMDLI
 40
11.501626262
  9
$DIMEXE
 40
1.0
  9
$DIMCEN
 40
2.7240693778
  9
$DIMLFAC
 40
1.0
  9
$DIMBLK
  1
_FILLED
  9
$DIMALT
 70
0
  9
$DIMALTF
 40
0.0393700787
  9
$DIMTXT
 40
3.0095463455
  9
$DIMTOL
 70
1
  9
$DIMLIM
 70
0
  9
$DIMTFAC
 40
1.0
  9
$DIMTP
 40
0.01
  9
$DIMTM
 40
0.01
  9
$DIMGAP
 40
0.625
  9
$DIMDSEP
 70
46
  9
$AUNITS
 70
0
  9
$PDMODE
 70
3
  9
$PDSIZE
 40
0.3125
  9
$HANDSEED
  5
35D
  9
$TILEMODE
 70
1
  9
$MEASUREMENT
 70
1
  9
$INSUNITS
 70
4
  0
ENDSEC
  0
SECTION
  2
CLASSES
  0
CLASS
  1
ACDBDICTIONARYWDFLT
  2
AcDbDictionaryWithDefault
  3
AutoCAD 2000
 90
0
 91
1
280
0
281
0
  0
CLASS
  1
ACDBPLACEHOLDER
  2
AcDbPlaceHolder
  3
AutoCAD 2000
 90
0
 91
1
280
0
281
0
  0
CLASS
  1
LAYOUT
  2
AcDbLayout
  3
AutoCAD 2000
 90
0
 91
0
280
0
281
0
  0
ENDSEC
  0
SECTION
  2
TABLES
  0
TABLE
  2
VPORT
  5
8
100
AcDbSymbolTable
 70
2
  0
VPORT
  5
1F4
100
AcDbSymbolTableRecord
100
AcDbViewportTableRecord
  2
*ACTIVE
 70
0
 10
0.0
 20
0.0
 11
1.0
 21
1.0
 12
90.2863903641
 22
127.6907520863
 13
0.0
 23
0.0
 14
1.0
 24
1.0
 15
0.0
 25
0.0
 16
0.0
 26
0.0
 36
1.0
 17
0.0
 27
0.0
 37
0.0
 40
255.3815041727
 41
0.7070707071
 42
50.0
 43
0.0
 44
0.0
 50
0.0
 51
0.0
 71
0
 72
100
 73
1
 74
1
 75
0
 76
0
 77
0
 78
0
  0
ENDTAB
  0
TABLE
  2
LTYPE
  5
5
100
AcDbSymbolTable
 70
6
  0
LTYPE
  5
14
100
AcDbSymbolTableRecord
100
AcDbLinetypeTableRecord
  2
BYBLOCK
 70
0
  3

 72
65
 73
0
 40
0.0
  0
LTYPE
  5
15
100
AcDbSymbolTableRecord
100
AcDbLinetypeTableRecord
  2
BYLAYER
 70
0
  3

 72
65
 73
0
 40
0.0
  0
LTYPE
  5
16
100
AcDbSymbolTableRecord
100
AcDbLinetypeTableRecord
  2
CONTINUOUS
 70
64
  3
Solid line
 72
65
 73
0
 40
0.0
  0
LTYPE
  5
1F5
100
AcDbSymbolTableRecord
100
AcDbLinetypeTableRecord
  2
CENTER
 70
64
  3
____ _ ____ _ ____ _ ____ _ ____ _ ____ _ ____
 72
65
 73
4
 40
0.6
 49
0.375
 74
0
 49
-0.075
 74
0
 49
0.075
 74
0
 49
-0.075
 74
0
  0
LTYPE
  5
1F6
100
AcDbSymbolTableRecord
100
AcDbLinetypeTableRecord
  2
HIDDEN
 70
64
  3
- - - - - - - - - - - - - - - - - - - -
 72
65
 73
2
 40
0.2
 49
0.1
 74
0
 49
-0.1
 74
0
  0
LTYPE
  5
1F7
100
AcDbSymbolTableRecord
100
AcDbLinetypeTableRecord
  2
PHANTOM
 70
64
  3
_____ _ _ _____ _ _ _____ _ _ _____
 72
65
 73
6
 40
0.8
 49
0.45
 74
0
 49
-0.05
 74
0
 49
0.1
 74
0
 49
-0.05
 74
0
 49
0.1
 74
0
 49
-0.05
 74
0
  0
LTYPE
  5
1F8
100
AcDbSymbolTableRecord
100
AcDbLinetypeTableRecord
  2
DOT
 70
64
  3
. . . . . . . . . . . . . . . . . . . .
 72
65
 73
2
 40
0.2
 49
0.1
 74
0
 49
-0.1
 74
0
  0
LTYPE
  5
1F9
100
AcDbSymbolTableRecord
100
AcDbLinetypeTableRecord
  2
DASHED
 70
64
  3
- - - - - - - - - - - - - - - - - - - -
 72
65
 73
2
 40
0.2
 49
0.1
 74
0
 49
-0.1
 74
0
  0
ENDTAB
  0
TABLE
  2
LAYER
  5
2
100
AcDbSymbolTable
 70
36
  0
LAYER
  5
10
100
AcDbSymbolTableRecord
100
AcDbLayerTableRecord
  2
0
 70
0
 62
7
  6
CONTINUOUS
370
-3
390
F
  0
LAYER
  5
1FA
100
AcDbSymbolTableRecord
100
AcDbLayerTableRecord
  2
DEFAULT_1
 70
0
 62
7
  6
CENTER
370
-3
390
F
  0
LAYER
  5
1FB
100
AcDbSymbolTableRecord
100
AcDbLayerTableRecord
  2
DEFAULT_2
 70
0
 62
8
  6
HIDDEN
370
-3
390
F
  0
LAYER
  5
1FC
100
AcDbSymbolTableRecord
100
AcDbLayerTableRecord
  2
DEFAULT_3
 70
0
 62
7
  6
PHANTOM
370
-3
390
F
  0
LAYER
  5
1FD
100
AcDbSymbolTableRecord
100
AcDbLayerTableRecord
  2
00_COMPONENTS
 70
0
 62
7
  6
CONTINUOUS
370
-3
390
F
  0
LAYER
  5
1FE
100
AcDbSymbolTableRecord
100
AcDbLayerTableRecord
  2
01_1_DEFAULT_DATUMS
 70
0
 62
7
  6
CONTINUOUS
370
-3
390
F
  0
LAYER
  5
1FF
100
AcDbSymbolTableRecord
100
AcDbLayerTableRecord
  2
01_PLANES
 70
0
 62
7
  6
CONTINUOUS
370
-3
390
F
  0
LAYER
  5
200
100
AcDbSymbolTableRecord
100
AcDbLayerTableRecord
  2
02_COORD_SYS
 70
0
 62
7
  6
CONTINUOUS
370
-3
390
F
  0
LAYER
  5
201
100
AcDbSymbolTableRecord
100
AcDbLayerTableRecord
  2
03_AXES
 70
0
 62
7
  6
CONTINUOUS
370
-3
390
F
  0
LAYER
  5
202
100
AcDbSymbolTableRecord
100
AcDbLayerTableRecord
  2
04_POINTS
 70
0
 62
7
  6
CONTINUOUS
370
-3
390
F
  0
LAYER
  5
203
100
AcDbSymbolTableRecord
100
AcDbLayerTableRecord
  2
05_CURVES
 70
0
 62
7
  6
CONTINUOUS
370
-3
390
F
  0
LAYER
  5
204
100
AcDbSymbolTableRecord
100
AcDbLayerTableRecord
  2
06_SURFS
 70
0
 62
7
  6
CONTINUOUS
370
-3
390
F
  0
LAYER
  5
205
100
AcDbSymbolTableRecord
100
AcDbLayerTableRecord
  2
07_COSMETICS
 70
0
 62
7
  6
CONTINUOUS
370
-3
390
F
  0
LAYER
  5
206
100
AcDbSymbolTableRecord
100
AcDbLayerTableRecord
  2
10_NOTES
 70
0
 62
7
  6
CONTINUOUS
370
-3
390
F
  0
LAYER
  5
207
100
AcDbSymbolTableRecord
100
AcDbLayerTableRecord
  2
11_NOTES_PUB
 70
0
 62
7
  6
CONTINUOUS
370
-3
390
F
  0
LAYER
  5
208
100
AcDbSymbolTableRecord
100
AcDbLayerTableRecord
  2
13_REF_GTOL
 70
0
 62
7
  6
CONTINUOUS
370
-3
390
F
  0
LAYER
  5
209
100
AcDbSymbolTableRecord
100
AcDbLayerTableRecord
  2
16_MISC
 70
0
 62
7
  6
CONTINUOUS
370
-3
390
F
  0
LAYER
  5
20A
100
AcDbSymbolTableRecord
100
AcDbLayerTableRecord
  2
17_NO_PRINT
 70
0
 62
7
  6
CONTINUOUS
370
-3
390
F
  0
LAYER
  5
20B
100
AcDbSymbolTableRecord
100
AcDbLayerTableRecord
  2
18_DATUM_CAMS_JOINTS
 70
0
 62
7
  6
CONTINUOUS
370
-3
390
F
  0
LAYER
  5
20C
100
AcDbSymbolTableRecord
100
AcDbLayerTableRecord
  2
19_DATUM_FUNCTIONAL
 70
0
 62
7
  6
CONTINUOUS
370
-3
390
F
  0
LAYER
  5
20D
100
AcDbSymbolTableRecord
100
AcDbLayerTableRecord
  2
20_DATUM_KINEMATIC_SCHEME
 70
0
 62
7
  6
CONTINUOUS
370
-3
390
F
  0
ENDTAB
  0
TABLE
  2
STYLE
  5
3
100
AcDbSymbolTable
 70
1
  0
STYLE
  5
11
100
AcDbSymbolTableRecord
100
AcDbTextStyleTableRecord
  2
STANDARD
 70
0
 40
0.0
 41
0.8
 50
0.0
 71
0
 42
0.2
  3
txt
  4

  0
STYLE
  5
20E
100
AcDbSymbolTableRecord
100
AcDbTextStyleTableRecord
  2
TEXTSTYLE_1
 70
0
 40
0.0
 41
0.8
 50
0.0
 71
0
 42
0.2
  3
gdt
  4

  0
ENDTAB
  0
TABLE
  2
VIEW
  5
6
100
AcDbSymbolTable
 70
0
  0
ENDTAB
  0
TABLE
  2
UCS
  5
7
100
AcDbSymbolTable
 70
0
  0
ENDTAB
  0
TABLE
  2
APPID
  5
9
100
AcDbSymbolTable
 70
1
  0
APPID
  5
20F
100
AcDbSymbolTableRecord
100
AcDbRegAppTableRecord
  2
ACAD
 70
0
  0
ENDTAB
  0
TABLE
  2
BLOCK_RECORD
  5
1
100
AcDbSymbolTable
 70
0
  0
BLOCK_RECORD
  5
210
100
AcDbSymbolTableRecord
100
AcDbBlockTableRecord
  2
*Model_Space
  0
BLOCK_RECORD
  5
211
100
AcDbSymbolTableRecord
100
AcDbBlockTableRecord
  2
*Paper_Space
  0
BLOCK_RECORD
  5
212
100
AcDbSymbolTableRecord
100
AcDbBlockTableRecord
  2
_FILLED
  0
ENDTAB
  0
TABLE
  2
DIMSTYLE
  5
A
100
AcDbSymbolTable
 70
1
100
AcDbDimStyleTable
 71
0
  0
DIMSTYLE
105
213
100
AcDbSymbolTableRecord
100
AcDbDimStyleTableRecord
  2
STANDARD
 70
0
  3

  4

 40
1.0
 41
2.149675961
 42
1.0
 43
0.38
 44
1.0
 45
0.0
 46
0.0
 47
0.01
 48
0.01
140
3.0095463455
141
0.09
142
0.0
143
25.4
144
1.0
145
0.0
146
1.0
147
0.625
 71
1
 72
0
 73
0
 74
0
 75
0
 76
0
 77
1
 78
8
 79
2
170
0
171
1
172
0
173
0
174
0
175
0
176
0
177
0
178
0
270
2
179
2
271
2
272
2
273
2
274
2
275
0
280
0
281
0
282
0
283
1
284
8
285
0
286
0
287
3
288
0
340
11
278
46
341
212
342
212
343
212
344
212
  0
ENDTAB
  0
ENDSEC
  0
SECTION
  2
BLOCKS
  0
BLOCK
  5
20
100
AcDbEntity
  8
0
100
AcDbBlockBegin
  2
*Model_Space
 70
0
 10
0.0
 20
0.0
 30
0.0
  3
*Model_Space
  1

  0
ENDBLK
  5
21
100
AcDbEntity
  8
0
100
AcDbBlockEnd
  0
BLOCK
  5
1C
100
AcDbEntity
  8
0
100
AcDbBlockBegin
  2
*Paper_Space
 70
0
 10
0.0
 20
0.0
 30
0.0
  3
*Paper_Space
  1

  0
ENDBLK
  5
1D
100
AcDbEntity
  8
0
100
AcDbBlockEnd
  0
BLOCK
  5
214
100
AcDbEntity
  8
0
100
AcDbBlockBegin
  2
_FILLED
 70
64
 10
0.0
 20
0.0
  3
_FILLED
  1

  0
SOLID
  5
215
100
AcDbEntity
  8
0
  6
BYBLOCK
 62
0
100
AcDbTrace
 10
0.0
 20
0.0
 11
-1.0
 21
0.25
 12
-1.0
 22
-0.25
 13
-1.0
 23
-0.25
  0
ENDBLK
  5
216
100
AcDbEntity
  8
0
  6
BYBLOCK
 62
0
100
AcDbBlockEnd
  0
ENDSEC
  0
SECTION
  2
ENTITIES
  0
LINE
  5
217
100
AcDbEntity
  8
0
100
AcDbLine
 62
7
  6
CONTINUOUS
 10
147.3423738131
 20
18.2861909353
 11
37.9191738229
 21
18.2861909353
  0
LINE
  5
218
100
AcDbEntity
  8
0
100
AcDbLine
 62
7
  6
CONTINUOUS
 10
37.9191738173
 20
19.8101909353
 11
147.3423738173
 21
19.8101909353
  0
LINE
  5
219
100
AcDbEntity
  8
0
100
AcDbLine
 62
7
  6
CONTINUOUS
 10
91.1067738173
 20
20.2165909353
 11
94.1547738173
 21
20.2165909353
  0
LINE
  5
21A
100
AcDbEntity
  8
0
100
AcDbLine
 62
7
  6
CONTINUOUS
 10
91.1067738173
 20
21.3494309353
 11
94.1547738173
 21
21.3494309353
  0
LINE
  5
21B
100
AcDbEntity
  8
0
100
AcDbLine
 62
7
  6
CONTINUOUS
 10
30.0451738173
 20
26.1601909353
 11
31.5691738173
 21
26.1601909353
  0
LINE
  5
21C
100
AcDbEntity
  8
0
100
AcDbLine
 62
7
  6
CONTINUOUS
 10
153.6923738173
 20
26.1601909353
 11
155.2163738173
 21
26.1601909353
  0
LINE
  5
21D
100
AcDbEntity
  8
0
100
AcDbLine
 62
7
  6
CONTINUOUS
 10
101.6367906873
 20
29.3732909353
 11
99.4743569473
 21
29.3732909353
  0
LINE
  5
21E
100
AcDbEntity
  8
0
100
AcDbLine
 62
7
  6
CONTINUOUS
 10
147.4124937115
 20
29.5886877704
 11
122.3995738132
 21
29.5886877704
  0
LINE
  5
21F
100
AcDbEntity
  8
0
100
AcDbLine
 62
7
  6
CONTINUOUS
 10
62.8619738226
 20
29.5886877703
 11
37.8490539231
 21
29.5886877704
  0
LINE
  5
220
100
AcDbEntity
  8
0
100
AcDbLine
 62
7
  6
CONTINUOUS
 10
37.8490539271
 20
30.3247232501
 11
62.8619738243
 21
30.3247232374
  0
LINE
  5
221
100
AcDbEntity
  8
0
100
AcDbLine
 62
7
  6
CONTINUOUS
 10
122.3995738123
 20
30.3247232955
 11
147.4124936992
 21
30.3247233066
  0
LINE
  5
222
100
AcDbEntity
  8
0
100
AcDbLine
 62
7
  6
CONTINUOUS
 10
64.3859738173
 20
31.9553291188
 11
65.1479738173
 21
31.9553291188
  0
LINE
  5
223
100
AcDbEntity
  8
0
100
AcDbLine
 62
7
  6
CONTINUOUS
 10
120.1135738173
 20
31.9553291197
 11
120.8755738173
 21
31.9553291197
  0
LINE
  5
224
100
AcDbEntity
  8
0
100
AcDbLine
 62
7
  6
CONTINUOUS
 10
120.8755738173
 20
33.5261909353
 11
94.1547738173
 21
33.5261909353
  0
LINE
  5
225
100
AcDbEntity
  8
0
100
AcDbLine
 62
7
  6
CONTINUOUS
 10
91.1067738173
 20
33.5261909353
 11
64.3859738173
 21
33.5261909353
  0
LINE
  5
226
100
AcDbEntity
  8
0
100
AcDbLine
 62
7
  6
CONTINUOUS
 10
94.1547738173
 20
33.7039909353
 11
91.1067738173
 21
33.7039909353
  0
LINE
  5
227
100
AcDbEntity
  8
0
100
AcDbLine
 62
7
  6
CONTINUOUS
 10
120.1135738173
 20
35.0501909353
 11
65.1479738173
 21
35.0501909353
  0
LINE
  5
228
100
AcDbEntity
  8
0
100
AcDbLine
 62
7
  6
CONTINUOUS
 10
65.1479738173
 20
35.102119976
 11
120.1135738173
 21
35.102119976
  0
LINE
  5
229
100
AcDbEntity
  8
0
100
AcDbLine
 62
7
  6
CONTINUOUS
 10
120.9959438114
 20
45.6572881936
 11
120.2941260536
 21
45.59472483
  0
LINE
  5
22A
100
AcDbEntity
  8
0
100
AcDbLine
 62
7
  6
CONTINUOUS
 10
31.0971201682
 20
36.7553584155
 11
31.620192424
 21
36.7553584155
  0
LINE
  5
22B
100
AcDbEntity
  8
0
100
AcDbLine
 62
7
  6
CONTINUOUS
 10
153.6413553277
 20
36.7553583995
 11
154.1644274664
 21
36.7553583995
  0
LINE
  5
22C
100
AcDbEntity
  8
0
100
AcDbLine
 62
7
  6
CONTINUOUS
 10
144.0359106458
 20
40.6660939973
 11
122.3995738173
 21
40.6660939944
  0
LINE
  5
22D
100
AcDbEntity
  8
0
100
AcDbLine
 62
7
  6
CONTINUOUS
 10
62.8619738173
 20
40.6660939952
 11
41.2256369888
 21
40.6660939973
  0
LINE
  5
22E
100
AcDbEntity
  8
0
100
AcDbLine
 62
7
  6
CONTINUOUS
 10
120.1408088461
 20
44.122662883
 11
65.1207399805
 21
44.1226628954
  0
LINE
  5
22F
100
AcDbEntity
  8
0
100
AcDbLine
 62
7
  6
CONTINUOUS
 10
64.2656047978
 20
45.6573025775
 11
64.9674211787
 21
45.5947352422
  0
LINE
  5
230
100
AcDbEntity
  8
0
100
AcDbLine
 62
7
  6
CONTINUOUS
 10
64.9674209848
 20
45.5947337922
 11
120.2941253455
 21
45.5947337289
  0
LINE
  5
231
100
AcDbEntity
  8
0
100
AcDbLine
 62
7
  6
CONTINUOUS
 10
34.8998006559
 20
46.7997229943
 11
65.0172352864
 21
46.7997229942
  0
LINE
  5
232
100
AcDbEntity
  8
0
100
AcDbLine
 62
7
  6
CONTINUOUS
 10
120.2443123483
 20
46.799722788
 11
150.3617469787
 21
46.7997229943
  0
LINE
  5
233
100
AcDbEntity
  8
0
100
AcDbLine
 62
7
  6
CONTINUOUS
 10
30.0451738173
 20
26.1601909394
 11
30.0451738173
 21
227.6583909297
  0
LINE
  5
234
100
AcDbEntity
  8
0
100
AcDbLine
 62
7
  6
CONTINUOUS
 10
31.0971201682
 20
36.7553584155
 11
31.0971201682
 21
227.6583914718
  0
LINE
  5
235
100
AcDbEntity
  8
0
100
AcDbLine
 62
7
  6
CONTINUOUS
 10
31.5691738173
 20
33.6267185591
 11
31.5691738173
 21
26.1601909353
  0
LINE
  5
236
100
AcDbEntity
  8
0
100
AcDbLine
 62
7
  6
CONTINUOUS
 10
31.6201937036
 20
36.7553583995
 11
31.6201911446
 21
227.63153729
  0
LINE
  5
237
100
AcDbEntity
  8
0
100
AcDbLine
 62
7
  6
CONTINUOUS
 10
34.8998006559
 20
46.7997229943
 11
34.8998006559
 21
224.3519277637
  0
LINE
  5
238
100
AcDbEntity
  8
0
100
AcDbLine
 62
7
  6
CONTINUOUS
 10
153.0149046927
 20
33.9442717494
 11
153.692373709
 21
33.6267183267
  0
LINE
  5
239
100
AcDbEntity
  8
0
100
AcDbLine
 62
7
  6
CONTINUOUS
 10
37.8490539228
 20
30.3247232437
 11
37.8490539228
 21
29.5886877704
  0
LINE
  5
23A
100
AcDbEntity
  8
0
100
AcDbLine
 62
7
  6
CONTINUOUS
 10
37.9191738173
 20
235.5323909353
 11
37.9191738173
 21
234.4804270818
  0
LINE
  5
23B
100
AcDbEntity
  8
0
100
AcDbLine
 62
7
  6
CONTINUOUS
 10
37.9191738173
 20
19.8101909353
 11
37.9191738173
 21
18.2861909353
  0
LINE
  5
23C
100
AcDbEntity
  8
0
100
AcDbLine
 62
7
  6
CONTINUOUS
 10
41.2256369888
 20
230.6777640966
 11
41.2256369888
 21
40.6660939973
  0
LINE
  5
23D
100
AcDbEntity
  8
0
100
AcDbLine
 62
7
  6
CONTINUOUS
 10
147.315520244
 20
233.9573736825
 11
144.0359106458
 21
230.6777640966
  0
LINE
  5
23E
100
AcDbEntity
  8
0
100
AcDbLine
 62
7
  6
CONTINUOUS
 10
62.8619740943
 20
29.5886877704
 11
62.8619738173
 21
186.9421909353
  0
LINE
  5
23F
100
AcDbEntity
  8
0
100
AcDbLine
 62
7
  6
CONTINUOUS
 10
64.298814797
 20
185.5053499554
 11
64.298814797
 21
46.7997229943
  0
LINE
  5
240
100
AcDbEntity
  8
0
100
AcDbLine
 62
7
  6
CONTINUOUS
 10
64.3859738173
 20
31.9553301786
 11
64.3859738173
 21
43.2065892751
  0
LINE
  5
241
100
AcDbEntity
  8
0
100
AcDbLine
 62
7
  6
CONTINUOUS
 10
65.0172352864
 20
184.7869294662
 11
65.0172352843
 21
46.7997229942
  0
LINE
  5
242
100
AcDbEntity
  8
0
100
AcDbLine
 62
7
  6
CONTINUOUS
 10
65.1479738173
 20
43.9426247545
 11
65.1479738173
 21
31.9553291193
  0
LINE
  5
243
100
AcDbEntity
  8
0
100
AcDbLine
 62
7
  6
CONTINUOUS
 10
66.8243738173
 20
111.5549909353
 11
66.8243738173
 21
182.9797909353
  0
LINE
  5
244
100
AcDbEntity
  8
0
100
AcDbLine
 62
7
  6
CONTINUOUS
 10
67.4212738173
 20
115.3065709353
 11
67.4212738173
 21
182.0425309353
  0
LINE
  5
245
100
AcDbEntity
  8
0
100
AcDbLine
 62
7
  6
CONTINUOUS
 10
67.9419738173
 20
95.5529909353
 11
67.9419738173
 21
100.3789909353
  0
LINE
  5
246
100
AcDbEntity
  8
0
100
AcDbLine
 62
7
  6
CONTINUOUS
 10
34.8998006559
 20
46.7997229943
 11
31.6201937036
 21
36.7553583995
  0
LINE
  5
247
100
AcDbEntity
  8
0
100
AcDbLine
 62
7
  6
CONTINUOUS
 10
150.3617469787
 20
224.3519277637
 11
153.6413567241
 21
227.6315375245
  0
LINE
  5
248
100
AcDbEntity
  8
0
100
AcDbLine
 62
7
  6
CONTINUOUS
 10
107.5924687687
 20
179.7982658867
 11
107.5024738173
 21
179.7082709353
  0
LINE
  5
249
100
AcDbEntity
  8
0
100
AcDbLine
 62
7
  6
CONTINUOUS
 10
116.5575738173
 20
94.7909909353
 11
68.7039738173
 21
94.7909909353
  0
LINE
  5
24A
100
AcDbEntity
  8
0
100
AcDbLine
 62
7
  6
CONTINUOUS
 10
68.7039738173
 20
101.1409909353
 11
116.5575738173
 21
101.1409909353
  0
LINE
  5
24B
100
AcDbEntity
  8
0
100
AcDbLine
 62
7
  6
CONTINUOUS
 10
76.0572738173
 20
174.1710709353
 11
75.9672788659
 21
179.7082709353
  0
LINE
  5
24C
100
AcDbEntity
  8
0
100
AcDbLine
 62
7
  6
CONTINUOUS
 10
68.7410965327
 20
115.8643936506
 11
68.7410965327
 21
164.0136791255
  0
LINE
  5
24D
100
AcDbEntity
  8
0
100
AcDbLine
 62
7
  6
CONTINUOUS
 10
68.7410965327
 20
173.188022745
 11
68.7410965327
 21
181.4847082199
  0
LINE
  5
24E
100
AcDbEntity
  8
0
100
AcDbLine
 62
7
  6
CONTINUOUS
 10
70.5200738173
 20
157.5148458867
 11
70.5200738173
 21
117.6560709353
  0
LINE
  5
24F
100
AcDbEntity
  8
0
100
AcDbLine
 62
7
  6
CONTINUOUS
 10
70.5962738173
 20
175.0219709353
 11
70.5962738173
 21
176.5967709353
  0
LINE
  5
250
100
AcDbEntity
  8
0
100
AcDbLine
 62
7
  6
CONTINUOUS
 10
72.1710738173
 20
160.4169709353
 11
72.1710738173
 21
176.5967709353
  0
LINE
  5
251
100
AcDbEntity
  8
0
100
AcDbLine
 62
7
  6
CONTINUOUS
 10
74.0252738173
 20
176.5967709353
 11
74.0252738173
 21
160.4169709353
  0
LINE
  5
252
100
AcDbEntity
  8
0
100
AcDbLine
 62
7
  6
CONTINUOUS
 10
75.9672788659
 20
179.7082709353
 11
75.9672788659
 21
157.5148458867
  0
LINE
  5
253
100
AcDbEntity
  8
0
100
AcDbLine
 62
7
  6
CONTINUOUS
 10
76.0572738173
 20
123.1932709353
 11
76.0572738173
 21
174.1710709353
  0
LINE
  5
254
100
AcDbEntity
  8
0
100
AcDbLine
 62
7
  6
CONTINUOUS
 10
37.8490539271
 20
30.3247232501
 11
41.2256369888
 21
40.6660939973
  0
LINE
  5
255
100
AcDbEntity
  8
0
100
AcDbLine
 62
7
  6
CONTINUOUS
 10
115.1224738173
 20
179.7082709353
 11
109.5852738173
 21
174.1710709353
  0
LINE
  5
256
100
AcDbEntity
  8
0
100
AcDbLine
 62
7
  6
CONTINUOUS
 10
116.9014511019
 20
181.4847082199
 11
117.9980891846
 21
182.5813463025
  0
LINE
  5
257
100
AcDbEntity
  8
0
100
AcDbLine
 62
7
  6
CONTINUOUS
 10
122.3995738173
 20
186.9421909353
 11
120.2443123483
 21
184.7869294662
  0
LINE
  5
258
100
AcDbEntity
  8
0
100
AcDbLine
 62
7
  6
CONTINUOUS
 10
78.1400738173
 20
174.1710709353
 11
78.0500788659
 21
179.7082709353
  0
LINE
  5
259
100
AcDbEntity
  8
0
100
AcDbLine
 62
7
  6
CONTINUOUS
 10
78.0500788659
 20
179.7082709353
 11
78.0500788659
 21
179.7982658867
  0
LINE
  5
25A
100
AcDbEntity
  8
0
100
AcDbLine
 62
7
  6
CONTINUOUS
 10
78.1400738173
 20
174.1710709353
 11
78.1400738173
 21
179.7082709353
  0
LINE
  5
25B
100
AcDbEntity
  8
0
100
AcDbLine
 62
7
  6
CONTINUOUS
 10
78.5210738173
 20
126.2920709353
 11
78.5210738173
 21
142.6496709353
  0
LINE
  5
25C
100
AcDbEntity
  8
0
100
AcDbLine
 62
7
  6
CONTINUOUS
 10
78.5210738173
 20
154.8416709353
 11
78.5210738173
 21
171.1992709353
  0
LINE
  5
25D
100
AcDbEntity
  8
0
100
AcDbLine
 62
7
  6
CONTINUOUS
 10
78.6734738173
 20
131.3212709353
 11
78.6734738173
 21
137.2648709353
  0
LINE
  5
25E
100
AcDbEntity
  8
0
100
AcDbLine
 62
7
  6
CONTINUOUS
 10
78.6734738173
 20
160.1248709353
 11
78.6734738173
 21
166.0684709353
  0
LINE
  5
25F
100
AcDbEntity
  8
0
100
AcDbLine
 62
7
  6
CONTINUOUS
 10
78.9274738173
 20
170.7674709353
 11
78.9274738173
 21
155.4258709353
  0
LINE
  5
260
100
AcDbEntity
  8
0
100
AcDbLine
 62
7
  6
CONTINUOUS
 10
78.9274738173
 20
141.9638709353
 11
78.9274738173
 21
126.6222709353
  0
LINE
  5
261
100
AcDbEntity
  8
0
100
AcDbLine
 62
7
  6
CONTINUOUS
 10
79.1814738173
 20
171.0214709353
 11
79.1814738173
 21
155.1718709353
  0
LINE
  5
262
100
AcDbEntity
  8
0
100
AcDbLine
 62
7
  6
CONTINUOUS
 10
79.1814738173
 20
142.2178709353
 11
79.1814738173
 21
126.3682709353
  0
LINE
  5
263
100
AcDbEntity
  8
0
100
AcDbLine
 62
7
  6
CONTINUOUS
 10
80.4514738173
 20
128.1233938806
 11
80.4514738173
 21
128.8256335453
  0
LINE
  5
264
100
AcDbEntity
  8
0
100
AcDbLine
 62
7
  6
CONTINUOUS
 10
80.4514738173
 20
130.0796329467
 11
80.4514738173
 21
130.7818726114
  0
LINE
  5
265
100
AcDbEntity
  8
0
100
AcDbLine
 62
7
  6
CONTINUOUS
 10
80.4514738173
 20
132.0860319889
 11
80.4514738173
 21
132.7882716536
  0
LINE
  5
266
100
AcDbEntity
  8
0
100
AcDbLine
 62
7
  6
CONTINUOUS
 10
80.4514738173
 20
156.9269938806
 11
80.4514738173
 21
157.6292335453
  0
LINE
  5
267
100
AcDbEntity
  8
0
100
AcDbLine
 62
7
  6
CONTINUOUS
 10
80.4514738173
 20
158.8832329467
 11
80.4514738173
 21
159.5854726114
  0
LINE
  5
268
100
AcDbEntity
  8
0
100
AcDbLine
 62
7
  6
CONTINUOUS
 10
80.4514738173
 20
160.8896319889
 11
80.4514738173
 21
161.5918716536
  0
LINE
  5
269
100
AcDbEntity
  8
0
100
AcDbLine
 62
7
  6
CONTINUOUS
 10
80.7932788659
 20
117.6560709353
 11
80.7932788659
 21
117.5660759839
  0
LINE
  5
26A
100
AcDbEntity
  8
0
100
AcDbLine
 62
7
  6
CONTINUOUS
 10
80.8832738173
 20
117.6560709353
 11
80.8832738173
 21
123.1932709353
  0
LINE
  5
26B
100
AcDbEntity
  8
0
100
AcDbLine
 62
7
  6
CONTINUOUS
 10
81.6960738173
 20
142.2178709353
 11
81.6960738173
 21
142.6496709353
  0
LINE
  5
26C
100
AcDbEntity
  8
0
100
AcDbLine
 62
7
  6
CONTINUOUS
 10
81.6960738173
 20
154.8416709353
 11
81.6960738173
 21
155.1718709353
  0
LINE
  5
26D
100
AcDbEntity
  8
0
100
AcDbLine
 62
7
  6
CONTINUOUS
 10
81.6960738173
 20
171.0214709353
 11
81.6960738173
 21
171.1992709353
  0
LINE
  5
26E
100
AcDbEntity
  8
0
100
AcDbLine
 62
7
  6
CONTINUOUS
 10
83.5502738173
 20
126.3682709353
 11
83.5502738173
 21
126.2920709353
  0
LINE
  5
26F
100
AcDbEntity
  8
0
100
AcDbLine
 62
7
  6
CONTINUOUS
 10
83.5502738173
 20
111.5549909353
 11
83.5502738173
 21
112.2458709353
  0
LINE
  5
270
100
AcDbEntity
  8
0
100
AcDbLine
 62
7
  6
CONTINUOUS
 10
80.8832738173
 20
123.1932709353
 11
80.7932788659
 21
117.6560709353
  0
LINE
  5
271
100
AcDbEntity
  8
0
100
AcDbLine
 62
7
  6
CONTINUOUS
 10
70.5200738173
 20
117.6560709353
 11
76.0572738173
 21
123.1932709353
  0
LINE
  5
272
100
AcDbEntity
  8
0
100
AcDbLine
 62
7
  6
CONTINUOUS
 10
68.7410965327
 20
115.8643936506
 11
67.64445845
 21
114.767755568
  0
LINE
  5
273
100
AcDbEntity
  8
0
100
AcDbLine
 62
7
  6
CONTINUOUS
 10
66.8243738173
 20
111.5549909353
 11
118.4371738173
 21
111.5549909353
  0
LINE
  5
274
100
AcDbEntity
  8
0
100
AcDbLine
 62
7
  6
CONTINUOUS
 10
118.4371738173
 20
112.2458709353
 11
66.8243738173
 21
112.2458709353
  0
LINE
  5
275
100
AcDbEntity
  8
0
100
AcDbLine
 62
7
  6
CONTINUOUS
 10
117.4592738173
 20
114.5445709353
 11
68.1832738173
 21
114.5445709353
  0
LINE
  5
276
100
AcDbEntity
  8
0
100
AcDbLine
 62
7
  6
CONTINUOUS
 10
116.9014511019
 20
115.8643936506
 11
68.7410965327
 21
115.8643936506
  0
LINE
  5
277
100
AcDbEntity
  8
0
100
AcDbLine
 62
7
  6
CONTINUOUS
 10
104.8492687687
 20
117.5660759839
 11
80.7932788659
 21
117.5660759839
  0
LINE
  5
278
100
AcDbEntity
  8
0
100
AcDbLine
 62
7
  6
CONTINUOUS
 10
104.7592738173
 20
117.6560709353
 11
80.8832738173
 21
117.6560709353
  0
LINE
  5
279
100
AcDbEntity
  8
0
100
AcDbLine
 62
7
  6
CONTINUOUS
 10
70.5200738173
 20
117.6560709353
 11
80.7932788659
 21
117.6560709353
  0
LINE
  5
27A
100
AcDbEntity
  8
0
100
AcDbLine
 62
7
  6
CONTINUOUS
 10
104.8492687687
 20
117.6560709353
 11
115.1224738173
 21
117.6560709353
  0
LINE
  5
27B
100
AcDbEntity
  8
0
100
AcDbLine
 62
7
  6
CONTINUOUS
 10
86.0902738173
 20
112.2458709353
 11
86.0902738173
 21
111.5549909353
  0
LINE
  5
27C
100
AcDbEntity
  8
0
100
AcDbLine
 62
7
  6
CONTINUOUS
 10
86.0902738173
 20
126.2920709353
 11
86.0902738173
 21
126.3682709353
  0
LINE
  5
27D
100
AcDbEntity
  8
0
100
AcDbLine
 62
7
  6
CONTINUOUS
 10
86.4458738173
 20
171.1992709353
 11
86.4458738173
 21
171.0214709353
  0
LINE
  5
27E
100
AcDbEntity
  8
0
100
AcDbLine
 62
7
  6
CONTINUOUS
 10
86.4458738173
 20
155.1718709353
 11
86.4458738173
 21
154.8416709353
  0
LINE
  5
27F
100
AcDbEntity
  8
0
100
AcDbLine
 62
7
  6
CONTINUOUS
 10
86.4458738173
 20
142.6496709353
 11
86.4458738173
 21
142.2178709353
  0
LINE
  5
280
100
AcDbEntity
  8
0
100
AcDbLine
 62
7
  6
CONTINUOUS
 10
91.1067738173
 20
20.2165909353
 11
91.1067738173
 21
33.7039909353
  0
LINE
  5
281
100
AcDbEntity
  8
0
100
AcDbLine
 62
7
  6
CONTINUOUS
 10
80.7932788659
 20
117.5660759839
 11
80.8832738173
 21
117.6560709353
  0
LINE
  5
282
100
AcDbEntity
  8
0
100
AcDbLine
 62
7
  6
CONTINUOUS
 10
76.0572738173
 20
123.1932709353
 11
80.8832738173
 21
123.1932709353
  0
LINE
  5
283
100
AcDbEntity
  8
0
100
AcDbLine
 62
7
  6
CONTINUOUS
 10
104.7592738173
 20
123.1932709353
 11
109.5852738173
 21
123.1932709353
  0
LINE
  5
284
100
AcDbEntity
  8
0
100
AcDbLine
 62
7
  6
CONTINUOUS
 10
107.0960738173
 20
126.2920709353
 11
78.5210738173
 21
126.2920709353
  0
LINE
  5
285
100
AcDbEntity
  8
0
100
AcDbLine
 62
7
  6
CONTINUOUS
 10
106.8420738173
 20
126.3682709353
 11
79.1814738173
 21
126.3682709353
  0
LINE
  5
286
100
AcDbEntity
  8
0
100
AcDbLine
 62
7
  6
CONTINUOUS
 10
79.1814738173
 20
126.6624632238
 11
106.8420738173
 21
126.6624632238
  0
LINE
  5
287
100
AcDbEntity
  8
0
100
AcDbLine
 62
7
  6
CONTINUOUS
 10
78.5210738173
 20
127.3334709353
 11
78.9274738173
 21
127.3334709353
  0
LINE
  5
288
100
AcDbEntity
  8
0
100
AcDbLine
 62
7
  6
CONTINUOUS
 10
94.1547738173
 20
20.2165909353
 11
94.1547738173
 21
33.7039909353
  0
LINE
  5
289
100
AcDbEntity
  8
0
100
AcDbLine
 62
7
  6
CONTINUOUS
 10
99.1458738173
 20
142.2178709353
 11
99.1458738173
 21
142.6496709353
  0
LINE
  5
28A
100
AcDbEntity
  8
0
100
AcDbLine
 62
7
  6
CONTINUOUS
 10
99.1458738173
 20
154.8416709353
 11
99.1458738173
 21
155.1718709353
  0
LINE
  5
28B
100
AcDbEntity
  8
0
100
AcDbLine
 62
7
  6
CONTINUOUS
 10
99.1458738173
 20
171.0214709353
 11
99.1458738173
 21
171.1992709353
  0
LINE
  5
28C
100
AcDbEntity
  8
0
100
AcDbLine
 62
7
  6
CONTINUOUS
 10
105.5720738173
 20
128.1233938806
 11
80.4514738173
 21
128.1233938806
  0
LINE
  5
28D
100
AcDbEntity
  8
0
100
AcDbLine
 62
7
  6
CONTINUOUS
 10
80.4514738173
 20
128.7653451126
 11
105.5720738173
 21
128.7653451126
  0
LINE
  5
28E
100
AcDbEntity
  8
0
100
AcDbLine
 62
7
  6
CONTINUOUS
 10
80.4514738173
 20
128.8256335453
 11
105.5720738173
 21
128.8256335453
  0
LINE
  5
28F
100
AcDbEntity
  8
0
100
AcDbLine
 62
7
  6
CONTINUOUS
 10
105.5720738173
 20
130.0796329467
 11
80.4514738173
 21
130.0796329467
  0
LINE
  5
290
100
AcDbEntity
  8
0
100
AcDbLine
 62
7
  6
CONTINUOUS
 10
80.4514738173
 20
130.7215841787
 11
105.5720738173
 21
130.7215841787
  0
LINE
  5
291
100
AcDbEntity
  8
0
100
AcDbLine
 62
7
  6
CONTINUOUS
 10
80.4514738173
 20
130.7818726114
 11
105.5720738173
 21
130.7818726114
  0
LINE
  5
292
100
AcDbEntity
  8
0
100
AcDbLine
 62
7
  6
CONTINUOUS
 10
78.6734738173
 20
131.3212709353
 11
78.5210738173
 21
131.3212709353
  0
LINE
  5
293
100
AcDbEntity
  8
0
100
AcDbLine
 62
7
  6
CONTINUOUS
 10
78.5210738173
 20
131.5752709353
 11
78.9274738173
 21
131.5752709353
  0
LINE
  5
294
100
AcDbEntity
  8
0
100
AcDbLine
 62
7
  6
CONTINUOUS
 10
105.5720738173
 20
132.0860319889
 11
80.4514738173
 21
132.0860319889
  0
LINE
  5
295
100
AcDbEntity
  8
0
100
AcDbLine
 62
7
  6
CONTINUOUS
 10
80.4514738173
 20
132.7279832209
 11
105.5720738173
 21
132.7279832209
  0
LINE
  5
296
100
AcDbEntity
  8
0
100
AcDbLine
 62
7
  6
CONTINUOUS
 10
80.4514738173
 20
132.7882716536
 11
105.5720738173
 21
132.7882716536
  0
LINE
  5
297
100
AcDbEntity
  8
0
100
AcDbLine
 62
7
  6
CONTINUOUS
 10
78.9274738173
 20
134.2930709353
 11
107.0960738173
 21
134.2930709353
  0
LINE
  5
298
100
AcDbEntity
  8
0
100
AcDbLine
 62
7
  6
CONTINUOUS
 10
104.8492687687
 20
117.5660759839
 11
104.7592738173
 21
117.6560709353
  0
LINE
  5
299
100
AcDbEntity
  8
0
100
AcDbLine
 62
7
  6
CONTINUOUS
 10
116.9014511019
 20
115.8643936506
 11
117.9980891846
 21
114.767755568
  0
LINE
  5
29A
100
AcDbEntity
  8
0
100
AcDbLine
 62
7
  6
CONTINUOUS
 10
115.1224738173
 20
117.6560709353
 11
109.5852738173
 21
123.1932709353
  0
LINE
  5
29B
100
AcDbEntity
  8
0
100
AcDbLine
 62
7
  6
CONTINUOUS
 10
104.7592738173
 20
123.1932709353
 11
104.8492687687
 21
117.6560709353
  0
LINE
  5
29C
100
AcDbEntity
  8
0
100
AcDbLine
 62
7
  6
CONTINUOUS
 10
103.8956738173
 20
171.1992709353
 11
103.8956738173
 21
171.0214709353
  0
LINE
  5
29D
100
AcDbEntity
  8
0
100
AcDbLine
 62
7
  6
CONTINUOUS
 10
103.8956738173
 20
155.1718709353
 11
103.8956738173
 21
154.8416709353
  0
LINE
  5
29E
100
AcDbEntity
  8
0
100
AcDbLine
 62
7
  6
CONTINUOUS
 10
103.8956738173
 20
142.6496709353
 11
103.8956738173
 21
142.2178709353
  0
LINE
  5
29F
100
AcDbEntity
  8
0
100
AcDbLine
 62
7
  6
CONTINUOUS
 10
104.7592738173
 20
123.1932709353
 11
104.7592738173
 21
117.6560709353
  0
LINE
  5
2A0
100
AcDbEntity
  8
0
100
AcDbLine
 62
7
  6
CONTINUOUS
 10
104.8492687687
 20
117.6560709353
 11
104.8492687687
 21
117.5660759839
  0
LINE
  5
2A1
100
AcDbEntity
  8
0
100
AcDbLine
 62
7
  6
CONTINUOUS
 10
105.0132738173
 20
126.3682709353
 11
105.0132738173
 21
126.2920709353
  0
LINE
  5
2A2
100
AcDbEntity
  8
0
100
AcDbLine
 62
7
  6
CONTINUOUS
 10
105.0132738173
 20
111.5549909353
 11
105.0132738173
 21
112.2458709353
  0
LINE
  5
2A3
100
AcDbEntity
  8
0
100
AcDbLine
 62
7
  6
CONTINUOUS
 10
105.5720738173
 20
161.5918716536
 11
105.5720738173
 21
160.8896319889
  0
LINE
  5
2A4
100
AcDbEntity
  8
0
100
AcDbLine
 62
7
  6
CONTINUOUS
 10
105.5720738173
 20
159.5854726114
 11
105.5720738173
 21
158.8832329467
  0
LINE
  5
2A5
100
AcDbEntity
  8
0
100
AcDbLine
 62
7
  6
CONTINUOUS
 10
105.5720738173
 20
157.6292335453
 11
105.5720738173
 21
156.9269938806
  0
LINE
  5
2A6
100
AcDbEntity
  8
0
100
AcDbLine
 62
7
  6
CONTINUOUS
 10
105.5720738173
 20
132.7882716536
 11
105.5720738173
 21
132.0860319889
  0
LINE
  5
2A7
100
AcDbEntity
  8
0
100
AcDbLine
 62
7
  6
CONTINUOUS
 10
105.5720738173
 20
130.7818726114
 11
105.5720738173
 21
130.0796329467
  0
LINE
  5
2A8
100
AcDbEntity
  8
0
100
AcDbLine
 62
7
  6
CONTINUOUS
 10
105.5720738173
 20
128.8256335453
 11
105.5720738173
 21
128.1233938806
  0
LINE
  5
2A9
100
AcDbEntity
  8
0
100
AcDbLine
 62
7
  6
CONTINUOUS
 10
106.8420738173
 20
126.3682709353
 11
106.8420738173
 21
142.2178709353
  0
LINE
  5
2AA
100
AcDbEntity
  8
0
100
AcDbLine
 62
7
  6
CONTINUOUS
 10
106.8420738173
 20
155.1718709353
 11
106.8420738173
 21
171.0214709353
  0
LINE
  5
2AB
100
AcDbEntity
  8
0
100
AcDbLine
 62
7
  6
CONTINUOUS
 10
107.0960738173
 20
126.2920709353
 11
107.0960738173
 21
142.6496709353
  0
LINE
  5
2AC
100
AcDbEntity
  8
0
100
AcDbLine
 62
7
  6
CONTINUOUS
 10
107.0960738173
 20
154.8416709353
 11
107.0960738173
 21
171.1992709353
  0
LINE
  5
2AD
100
AcDbEntity
  8
0
100
AcDbLine
 62
7
  6
CONTINUOUS
 10
107.4516738173
 20
112.2458709353
 11
107.4516738173
 21
111.5549909353
  0
LINE
  5
2AE
100
AcDbEntity
  8
0
100
AcDbLine
 62
7
  6
CONTINUOUS
 10
107.5024738173
 20
179.7082709353
 11
107.5024738173
 21
174.1710709353
  0
LINE
  5
2AF
100
AcDbEntity
  8
0
100
AcDbLine
 62
7
  6
CONTINUOUS
 10
107.5924687687
 20
179.7082709353
 11
107.5924687687
 21
179.7982658867
  0
LINE
  5
2B0
100
AcDbEntity
  8
0
100
AcDbLine
 62
7
  6
CONTINUOUS
 10
109.5852738173
 20
123.1932709353
 11
109.5852738173
 21
174.1710709353
  0
LINE
  5
2B1
100
AcDbEntity
  8
0
100
AcDbLine
 62
7
  6
CONTINUOUS
 10
107.5024738173
 20
174.1710709353
 11
107.5924687687
 21
179.7082709353
  0
LINE
  5
2B2
100
AcDbEntity
  8
0
100
AcDbLine
 62
7
  6
CONTINUOUS
 10
78.9274738173
 20
137.0108709353
 11
78.5210738173
 21
137.0108709353
  0
LINE
  5
2B3
100
AcDbEntity
  8
0
100
AcDbLine
 62
7
  6
CONTINUOUS
 10
78.5210738173
 20
137.2648709353
 11
78.6734738173
 21
137.2648709353
  0
LINE
  5
2B4
100
AcDbEntity
  8
0
100
AcDbLine
 62
7
  6
CONTINUOUS
 10
106.8420738173
 20
141.9236786468
 11
79.1814738173
 21
141.9236786468
  0
LINE
  5
2B5
100
AcDbEntity
  8
0
100
AcDbLine
 62
7
  6
CONTINUOUS
 10
79.1814738173
 20
142.2178709353
 11
106.8420738173
 21
142.2178709353
  0
LINE
  5
2B6
100
AcDbEntity
  8
0
100
AcDbLine
 62
7
  6
CONTINUOUS
 10
78.5210738173
 20
142.6496709353
 11
107.0960738173
 21
142.6496709353
  0
LINE
  5
2B7
100
AcDbEntity
  8
0
100
AcDbLine
 62
7
  6
CONTINUOUS
 10
75.9672788659
 20
157.5148458867
 11
76.0572738173
 21
157.4248509353
  0
LINE
  5
2B8
100
AcDbEntity
  8
0
100
AcDbLine
 62
7
  6
CONTINUOUS
 10
115.1224738173
 20
117.6560709353
 11
115.1224738173
 21
179.7082709353
  0
LINE
  5
2B9
100
AcDbEntity
  8
0
100
AcDbLine
 62
7
  6
CONTINUOUS
 10
116.9014511019
 20
181.4847082199
 11
116.9014511019
 21
115.8643936506
  0
LINE
  5
2BA
100
AcDbEntity
  8
0
100
AcDbLine
 62
7
  6
CONTINUOUS
 10
117.3195738173
 20
100.3789909353
 11
117.3195738173
 21
95.5529909353
  0
LINE
  5
2BB
100
AcDbEntity
  8
0
100
AcDbLine
 62
7
  6
CONTINUOUS
 10
118.2212738173
 20
182.0425309353
 11
118.2212738173
 21
115.3065709353
  0
LINE
  5
2BC
100
AcDbEntity
  8
0
100
AcDbLine
 62
7
  6
CONTINUOUS
 10
118.4371738173
 20
111.5549909353
 11
118.4371738173
 21
182.9797909353
  0
LINE
  5
2BD
100
AcDbEntity
  8
0
100
AcDbLine
 62
7
  6
CONTINUOUS
 10
62.8619738173
 20
186.9421909353
 11
65.0172352864
 21
184.7869294662
  0
LINE
  5
2BE
100
AcDbEntity
  8
0
100
AcDbLine
 62
7
  6
CONTINUOUS
 10
68.7410965327
 20
181.4847082199
 11
67.64445845
 21
182.5813463025
  0
LINE
  5
2BF
100
AcDbEntity
  8
0
100
AcDbLine
 62
7
  6
CONTINUOUS
 10
144.0359106458
 20
40.6660939973
 11
147.4124936992
 21
30.3247233066
  0
LINE
  5
2C0
100
AcDbEntity
  8
0
100
AcDbLine
 62
7
  6
CONTINUOUS
 10
120.1135738173
 20
31.9553291193
 11
120.1135738173
 21
43.9426247545
  0
LINE
  5
2C1
100
AcDbEntity
  8
0
100
AcDbLine
 62
7
  6
CONTINUOUS
 10
120.2443123504
 20
46.7997229935
 11
120.2443123483
 21
184.7869294662
  0
LINE
  5
2C2
100
AcDbEntity
  8
0
100
AcDbLine
 62
7
  6
CONTINUOUS
 10
120.8755738173
 20
43.206589275
 11
120.8755738173
 21
31.9553299489
  0
LINE
  5
2C3
100
AcDbEntity
  8
0
100
AcDbLine
 62
7
  6
CONTINUOUS
 10
120.9627328377
 20
46.7997229943
 11
120.9627328377
 21
185.5053499556
  0
LINE
  5
2C4
100
AcDbEntity
  8
0
100
AcDbLine
 62
7
  6
CONTINUOUS
 10
122.3995738173
 20
186.9421909353
 11
122.3995738173
 21
29.5886877704
  0
LINE
  5
2C5
100
AcDbEntity
  8
0
100
AcDbLine
 62
7
  6
CONTINUOUS
 10
107.0960738173
 20
154.8416709353
 11
78.5210738173
 21
154.8416709353
  0
LINE
  5
2C6
100
AcDbEntity
  8
0
100
AcDbLine
 62
7
  6
CONTINUOUS
 10
106.8420738173
 20
155.1718709353
 11
79.1814738173
 21
155.1718709353
  0
LINE
  5
2C7
100
AcDbEntity
  8
0
100
AcDbLine
 62
7
  6
CONTINUOUS
 10
79.1814738173
 20
155.4660632238
 11
106.8420738173
 21
155.4660632238
  0
LINE
  5
2C8
100
AcDbEntity
  8
0
100
AcDbLine
 62
7
  6
CONTINUOUS
 10
105.5720738173
 20
156.9269938806
 11
80.4514738173
 21
156.9269938806
  0
LINE
  5
2C9
100
AcDbEntity
  8
0
100
AcDbLine
 62
7
  6
CONTINUOUS
 10
75.9672788659
 20
157.5148458867
 11
70.5200738173
 21
157.5148458867
  0
LINE
  5
2CA
100
AcDbEntity
  8
0
100
AcDbLine
 62
7
  6
CONTINUOUS
 10
80.4514738173
 20
157.5689451126
 11
105.5720738173
 21
157.5689451126
  0
LINE
  5
2CB
100
AcDbEntity
  8
0
100
AcDbLine
 62
7
  6
CONTINUOUS
 10
80.4514738173
 20
157.6292335453
 11
105.5720738173
 21
157.6292335453
  0
LINE
  5
2CC
100
AcDbEntity
  8
0
100
AcDbLine
 62
7
  6
CONTINUOUS
 10
105.5720738173
 20
158.8832329467
 11
80.4514738173
 21
158.8832329467
  0
LINE
  5
2CD
100
AcDbEntity
  8
0
100
AcDbLine
 62
7
  6
CONTINUOUS
 10
80.4514738173
 20
159.5251841787
 11
105.5720738173
 21
159.5251841787
  0
LINE
  5
2CE
100
AcDbEntity
  8
0
100
AcDbLine
 62
7
  6
CONTINUOUS
 10
80.4514738173
 20
159.5854726114
 11
105.5720738173
 21
159.5854726114
  0
LINE
  5
2CF
100
AcDbEntity
  8
0
100
AcDbLine
 62
7
  6
CONTINUOUS
 10
78.6734738173
 20
160.1248709353
 11
78.5210738173
 21
160.1248709353
  0
LINE
  5
2D0
100
AcDbEntity
  8
0
100
AcDbLine
 62
7
  6
CONTINUOUS
 10
78.5210738173
 20
160.3788709353
 11
78.9274738173
 21
160.3788709353
  0
LINE
  5
2D1
100
AcDbEntity
  8
0
100
AcDbLine
 62
7
  6
CONTINUOUS
 10
74.0252738173
 20
160.4169709353
 11
72.1710738173
 21
160.4169709353
  0
LINE
  5
2D2
100
AcDbEntity
  8
0
100
AcDbLine
 62
7
  6
CONTINUOUS
 10
105.5720738173
 20
160.8896319889
 11
80.4514738173
 21
160.8896319889
  0
LINE
  5
2D3
100
AcDbEntity
  8
0
100
AcDbLine
 62
7
  6
CONTINUOUS
 10
76.0572738173
 20
157.4248509353
 11
70.5200738173
 21
157.5148458867
  0
LINE
  5
2D4
100
AcDbEntity
  8
0
100
AcDbLine
 62
7
  6
CONTINUOUS
 10
78.0500788659
 20
179.7982658867
 11
78.1400738173
 21
179.7082709353
  0
LINE
  5
2D5
100
AcDbEntity
  8
0
100
AcDbLine
 62
7
  6
CONTINUOUS
 10
31.6201911446
 20
227.63153729
 11
34.8998006559
 21
224.3519277637
  0
LINE
  5
2D6
100
AcDbEntity
  8
0
100
AcDbLine
 62
7
  6
CONTINUOUS
 10
153.641353931
 20
36.7553583995
 11
150.3617469787
 21
46.7997229943
  0
LINE
  5
2D7
100
AcDbEntity
  8
0
100
AcDbLine
 62
7
  6
CONTINUOUS
 10
80.4514738173
 20
161.5315832209
 11
105.5720738173
 21
161.5315832209
  0
LINE
  5
2D8
100
AcDbEntity
  8
0
100
AcDbLine
 62
7
  6
CONTINUOUS
 10
80.4514738173
 20
161.5918716536
 11
105.5720738173
 21
161.5918716536
  0
LINE
  5
2D9
100
AcDbEntity
  8
0
100
AcDbLine
 62
7
  6
CONTINUOUS
 10
78.9274738173
 20
163.0966709353
 11
107.0960738173
 21
163.0966709353
  0
LINE
  5
2DA
100
AcDbEntity
  8
0
100
AcDbLine
 62
7
  6
CONTINUOUS
 10
78.9274738173
 20
165.8144709353
 11
78.5210738173
 21
165.8144709353
  0
LINE
  5
2DB
100
AcDbEntity
  8
0
100
AcDbLine
 62
7
  6
CONTINUOUS
 10
78.5210738173
 20
166.0684709353
 11
78.6734738173
 21
166.0684709353
  0
LINE
  5
2DC
100
AcDbEntity
  8
0
100
AcDbLine
 62
7
  6
CONTINUOUS
 10
72.1710738173
 20
168.6340407177
 11
74.0252738173
 21
168.6340407177
  0
LINE
  5
2DD
100
AcDbEntity
  8
0
100
AcDbLine
 62
7
  6
CONTINUOUS
 10
41.2256369888
 20
230.6777640966
 11
37.9460265282
 21
233.9573745356
  0
LINE
  5
2DE
100
AcDbEntity
  8
0
100
AcDbLine
 62
7
  6
CONTINUOUS
 10
106.8420738173
 20
170.7272786468
 11
79.1814738173
 21
170.7272786468
  0
LINE
  5
2DF
100
AcDbEntity
  8
0
100
AcDbLine
 62
7
  6
CONTINUOUS
 10
79.1814738173
 20
171.0214709353
 11
106.8420738173
 21
171.0214709353
  0
LINE
  5
2E0
100
AcDbEntity
  8
0
100
AcDbLine
 62
7
  6
CONTINUOUS
 10
78.5210738173
 20
171.1992709353
 11
107.0960738173
 21
171.1992709353
  0
LINE
  5
2E1
100
AcDbEntity
  8
0
100
AcDbLine
 62
7
  6
CONTINUOUS
 10
74.0252738173
 20
173.9678709353
 11
72.1710738173
 21
173.9678709353
  0
LINE
  5
2E2
100
AcDbEntity
  8
0
100
AcDbLine
 62
7
  6
CONTINUOUS
 10
109.5852738173
 20
174.1710709353
 11
107.5024738173
 21
174.1710709353
  0
LINE
  5
2E3
100
AcDbEntity
  8
0
100
AcDbLine
 62
7
  6
CONTINUOUS
 10
78.1400738173
 20
174.1710709353
 11
76.0572738173
 21
174.1710709353
  0
LINE
  5
2E4
100
AcDbEntity
  8
0
100
AcDbLine
 62
7
  6
CONTINUOUS
 10
72.1710738173
 20
175.0219709353
 11
70.5962738173
 21
175.0219709353
  0
LINE
  5
2E5
100
AcDbEntity
  8
0
100
AcDbLine
 62
7
  6
CONTINUOUS
 10
74.0252738173
 20
176.5967709353
 11
70.5962738173
 21
176.5967709353
  0
LINE
  5
2E6
100
AcDbEntity
  8
0
100
AcDbLine
 62
7
  6
CONTINUOUS
 10
144.0359106458
 20
40.6660939973
 11
144.0359106458
 21
230.6777640966
  0
LINE
  5
2E7
100
AcDbEntity
  8
0
100
AcDbLine
 62
7
  6
CONTINUOUS
 10
147.3423738173
 20
18.2861909353
 11
147.3423738173
 21
19.8101909353
  0
LINE
  5
2E8
100
AcDbEntity
  8
0
100
AcDbLine
 62
7
  6
CONTINUOUS
 10
147.3423738173
 20
234.4804270818
 11
147.3423738173
 21
235.5323909353
  0
LINE
  5
2E9
100
AcDbEntity
  8
0
100
AcDbLine
 62
7
  6
CONTINUOUS
 10
147.412493753
 20
29.5886877704
 11
147.412493753
 21
30.324723301
  0
LINE
  5
2EA
100
AcDbEntity
  8
0
100
AcDbLine
 62
7
  6
CONTINUOUS
 10
150.3617469787
 20
224.3519277637
 11
150.3617469787
 21
46.7997229943
  0
LINE
  5
2EB
100
AcDbEntity
  8
0
100
AcDbLine
 62
7
  6
CONTINUOUS
 10
32.2466428289
 20
33.9442719498
 11
31.5691738175
 21
33.6267185585
  0
LINE
  5
2EC
100
AcDbEntity
  8
0
100
AcDbLine
 62
7
  6
CONTINUOUS
 10
115.1224738173
 20
179.7082709353
 11
107.5924687687
 21
179.7082709353
  0
LINE
  5
2ED
100
AcDbEntity
  8
0
100
AcDbLine
 62
7
  6
CONTINUOUS
 10
78.0500788659
 20
179.7082709353
 11
75.9672788659
 21
179.7082709353
  0
LINE
  5
2EE
100
AcDbEntity
  8
0
100
AcDbLine
 62
7
  6
CONTINUOUS
 10
78.1400738173
 20
179.7082709353
 11
107.5024738173
 21
179.7082709353
  0
LINE
  5
2EF
100
AcDbEntity
  8
0
100
AcDbLine
 62
7
  6
CONTINUOUS
 10
78.0500788659
 20
179.7982658867
 11
107.5924687687
 21
179.7982658867
  0
LINE
  5
2F0
100
AcDbEntity
  8
0
100
AcDbLine
 62
7
  6
CONTINUOUS
 10
68.7410965327
 20
181.4847082199
 11
116.9014511019
 21
181.4847082199
  0
LINE
  5
2F1
100
AcDbEntity
  8
0
100
AcDbLine
 62
7
  6
CONTINUOUS
 10
68.1832738173
 20
182.8045309353
 11
117.4592738173
 21
182.8045309353
  0
LINE
  5
2F2
100
AcDbEntity
  8
0
100
AcDbLine
 62
7
  6
CONTINUOUS
 10
118.4371738173
 20
182.9797909353
 11
66.8243738173
 21
182.9797909353
  0
LINE
  5
2F3
100
AcDbEntity
  8
0
100
AcDbLine
 62
7
  6
CONTINUOUS
 10
120.2443123483
 20
184.7869294662
 11
65.0172352864
 21
184.7869294662
  0
LINE
  5
2F4
100
AcDbEntity
  8
0
100
AcDbLine
 62
7
  6
CONTINUOUS
 10
120.9627328379
 20
185.5053499559
 11
64.2988147967
 21
185.5053499559
  0
LINE
  5
2F5
100
AcDbEntity
  8
0
100
AcDbLine
 62
7
  6
CONTINUOUS
 10
153.6413567241
 20
227.6315375245
 11
153.641353931
 21
36.7553583995
  0
LINE
  5
2F6
100
AcDbEntity
  8
0
100
AcDbLine
 62
7
  6
CONTINUOUS
 10
153.6923738173
 20
26.1601909353
 11
153.6923738173
 21
33.6267185591
  0
LINE
  5
2F7
100
AcDbEntity
  8
0
100
AcDbLine
 62
7
  6
CONTINUOUS
 10
154.1644274664
 20
227.6583914957
 11
154.1644274664
 21
36.7553583995
  0
LINE
  5
2F8
100
AcDbEntity
  8
0
100
AcDbLine
 62
7
  6
CONTINUOUS
 10
155.2163738173
 20
227.6583909311
 11
155.2163738173
 21
26.1601909408
  0
LINE
  5
2F9
100
AcDbEntity
  8
0
100
AcDbLine
 62
7
  6
CONTINUOUS
 10
62.8619738173
 20
186.9421909353
 11
122.3995738173
 21
186.9421909353
  0
LINE
  5
2FA
100
AcDbEntity
  8
0
100
AcDbLine
 62
7
  6
CONTINUOUS
 10
150.3617469787
 20
224.3519277637
 11
34.8998006559
 21
224.3519277637
  0
LINE
  5
2FB
100
AcDbEntity
  8
0
100
AcDbLine
 62
7
  6
CONTINUOUS
 10
155.2163738173
 20
227.6583909353
 11
154.1644184928
 21
227.6583909353
  0
LINE
  5
2FC
100
AcDbEntity
  8
0
100
AcDbLine
 62
7
  6
CONTINUOUS
 10
31.0971293291
 20
227.6583909353
 11
30.0451738173
 21
227.6583909353
  0
LINE
  5
2FD
100
AcDbEntity
  8
0
100
AcDbLine
 62
7
  6
CONTINUOUS
 10
41.2256369888
 20
230.6777640966
 11
144.0359106458
 21
230.6777640966
  0
LINE
  5
2FE
100
AcDbEntity
  8
0
100
AcDbLine
 62
7
  6
CONTINUOUS
 10
37.9460265282
 20
233.9573745356
 11
147.315520244
 21
233.9573736825
  0
LINE
  5
2FF
100
AcDbEntity
  8
0
100
AcDbLine
 62
7
  6
CONTINUOUS
 10
37.9191732668
 20
234.4804445844
 11
147.3423743348
 21
234.4804445844
  0
LINE
  5
300
100
AcDbEntity
  8
0
100
AcDbLine
 62
7
  6
CONTINUOUS
 10
37.9191738215
 20
235.5323909353
 11
147.3423738118
 21
235.5323909353
  0
ARC
  5
301
100
AcDbEntity
  8
0
100
AcDbCircle
 62
7
  6
CONTINUOUS
 10
37.9191738173
 20
26.1601909353
 40
7.874
100
AcDbArc
 50
179.9999999848
 51
270.0000000202
  0
ARC
  5
302
100
AcDbEntity
  8
0
100
AcDbCircle
 62
7
  6
CONTINUOUS
 10
37.9191738173
 20
26.1601909353
 40
6.35
100
AcDbArc
 50
180.0
 51
270.0
  0
ARC
  5
303
100
AcDbEntity
  8
0
100
AcDbCircle
 62
7
  6
CONTINUOUS
 10
68.7039738173
 20
95.5529909353
 40
0.762
100
AcDbArc
 50
180.0
 51
270.0
  0
ARC
  5
304
100
AcDbEntity
  8
0
100
AcDbCircle
 62
7
  6
CONTINUOUS
 10
68.7039738173
 20
100.3789909353
 40
0.762
100
AcDbArc
 50
90.0
 51
180.0
  0
ARC
  5
305
100
AcDbEntity
  8
0
100
AcDbCircle
 62
7
  6
CONTINUOUS
 10
68.1832738173
 20
115.3065709353
 40
0.762
100
AcDbArc
 50
180.0
 51
270.0
  0
ARC
  5
306
100
AcDbEntity
  8
0
100
AcDbCircle
 62
7
  6
CONTINUOUS
 10
65.1479738173
 20
34.2881909353
 40
0.762
100
AcDbArc
 50
90.0
 51
179.9999999996
  0
ARC
  5
307
100
AcDbEntity
  8
0
100
AcDbCircle
 62
7
  6
CONTINUOUS
 10
79.1814738173
 20
126.6222709353
 40
0.254
100
AcDbArc
 50
180.0
 51
270.0
  0
ARC
  5
308
100
AcDbEntity
  8
0
100
AcDbCircle
 62
7
  6
CONTINUOUS
 10
62.3412738173
 20
168.6008509353
 40
7.874
100
AcDbArc
 50
310.1777695402
 51
49.8222304598
  0
ARC
  5
309
100
AcDbEntity
  8
0
100
AcDbCircle
 62
7
  6
CONTINUOUS
 10
37.9191738173
 20
227.6583909353
 40
7.874
100
AcDbArc
 50
89.9999999848
 51
180.0000000202
  0
ARC
  5
30A
100
AcDbEntity
  8
0
100
AcDbCircle
 62
7
  6
CONTINUOUS
 10
37.9304921649
 20
227.6471715923
 40
6.8330178422
100
AcDbArc
 50
90.0949052875
 51
179.9059247537
  0
CIRCLE
  5
30B
100
AcDbEntity
  8
0
100
AcDbCircle
 62
7
  6
CONTINUOUS
 10
57.5025738173
 20
127.3334709353
 40
1.999996
  0
ARC
  5
30C
100
AcDbEntity
  8
0
100
AcDbCircle
 62
7
  6
CONTINUOUS
 10
68.1832738173
 20
182.0425309353
 40
0.762
100
AcDbArc
 50
90.0
 51
180.0
  0
ARC
  5
30D
100
AcDbEntity
  8
0
100
AcDbCircle
 62
7
  6
CONTINUOUS
 10
79.1814738173
 20
155.4258709353
 40
0.254
100
AcDbArc
 50
180.0
 51
270.0
  0
ARC
  5
30E
100
AcDbEntity
  8
0
100
AcDbCircle
 62
7
  6
CONTINUOUS
 10
79.1814738173
 20
170.7674709353
 40
0.254
100
AcDbArc
 50
90.0
 51
180.0
  0
ARC
  5
30F
100
AcDbEntity
  8
0
100
AcDbCircle
 62
7
  6
CONTINUOUS
 10
78.6734738173
 20
166.3224709353
 40
0.254
100
AcDbArc
 50
270.0
 51
360.0
  0
ARC
  5
310
100
AcDbEntity
  8
0
100
AcDbCircle
 62
7
  6
CONTINUOUS
 10
78.6734738173
 20
159.8708709353
 40
0.254
100
AcDbArc
 50
0.0
 51
90.0
  0
ARC
  5
311
100
AcDbEntity
  8
0
100
AcDbCircle
 62
7
  6
CONTINUOUS
 10
79.1814738173
 20
141.9638709353
 40
0.254
100
AcDbArc
 50
90.0
 51
180.0
  0
ARC
  5
312
100
AcDbEntity
  8
0
100
AcDbCircle
 62
7
  6
CONTINUOUS
 10
78.6734738173
 20
137.5188709353
 40
0.254
100
AcDbArc
 50
270.0
 51
360.0
  0
ARC
  5
313
100
AcDbEntity
  8
0
100
AcDbCircle
 62
7
  6
CONTINUOUS
 10
78.6734738173
 20
131.0672709353
 40
0.254
100
AcDbArc
 50
0.0
 51
90.0
  0
ARC
  5
314
100
AcDbEntity
  8
0
100
AcDbCircle
 62
7
  6
CONTINUOUS
 10
147.3423738173
 20
26.1601909353
 40
7.874
100
AcDbArc
 50
269.9999999848
 51
360.0
  0
ARC
  5
315
100
AcDbEntity
  8
0
100
AcDbCircle
 62
7
  6
CONTINUOUS
 10
147.3423738173
 20
26.1601909353
 40
6.35
100
AcDbArc
 50
270.0
 51
360.0
  0
ARC
  5
316
100
AcDbEntity
  8
0
100
AcDbCircle
 62
7
  6
CONTINUOUS
 10
100.5555738173
 20
27.6079909353
 40
2.0701
100
AcDbArc
 50
121.4867759274
 51
58.5132240725
  0
ARC
  5
317
100
AcDbEntity
  8
0
100
AcDbCircle
 62
7
  6
CONTINUOUS
 10
116.5575738173
 20
95.5529909353
 40
0.762
100
AcDbArc
 50
270.0
 51
360.0
  0
ARC
  5
318
100
AcDbEntity
  8
0
100
AcDbCircle
 62
7
  6
CONTINUOUS
 10
116.5575738173
 20
100.3789909353
 40
0.762
100
AcDbArc
 50
0.0
 51
90.0
  0
ARC
  5
319
100
AcDbEntity
  8
0
100
AcDbCircle
 62
7
  6
CONTINUOUS
 10
117.4592738173
 20
115.3065709353
 40
0.762
100
AcDbArc
 50
270.0
 51
360.0
  0
ARC
  5
31A
100
AcDbEntity
  8
0
100
AcDbCircle
 62
7
  6
CONTINUOUS
 10
120.1135738173
 20
34.2881909353
 40
0.762
100
AcDbArc
 50
0.0000000003
 51
90.0
  0
ARC
  5
31B
100
AcDbEntity
  8
0
100
AcDbCircle
 62
7
  6
CONTINUOUS
 10
106.8420738173
 20
126.6222709353
 40
0.254
100
AcDbArc
 50
270.0
 51
360.0
  0
ARC
  5
31C
100
AcDbEntity
  8
0
100
AcDbCircle
 62
7
  6
CONTINUOUS
 10
147.3423738173
 20
227.6583909353
 40
7.874
100
AcDbArc
 50
0.0
 51
90.0000000202
  0
ARC
  5
31D
100
AcDbEntity
  8
0
100
AcDbCircle
 62
7
  6
CONTINUOUS
 10
147.3314401272
 20
227.6473723602
 40
6.8326467883
100
AcDbArc
 50
0.0923969427
 51
89.908314866
  0
CIRCLE
  5
31E
100
AcDbEntity
  8
0
100
AcDbCircle
 62
7
  6
CONTINUOUS
 10
128.1399738173
 20
127.3334709353
 40
1.999996
  0
ARC
  5
31F
100
AcDbEntity
  8
0
100
AcDbCircle
 62
7
  6
CONTINUOUS
 10
117.4592738173
 20
182.0425309353
 40
0.762
100
AcDbArc
 50
0.0
 51
90.0
  0
ARC
  5
320
100
AcDbEntity
  8
0
100
AcDbCircle
 62
7
  6
CONTINUOUS
 10
106.8420738173
 20
155.4258709353
 40
0.254
100
AcDbArc
 50
270.0
 51
360.0
  0
ARC
  5
321
100
AcDbEntity
  8
0
100
AcDbCircle
 62
7
  6
CONTINUOUS
 10
106.8420738173
 20
170.7674709353
 40
0.254
100
AcDbArc
 50
0.0
 51
90.0
  0
ARC
  5
322
100
AcDbEntity
  8
0
100
AcDbCircle
 62
7
  6
CONTINUOUS
 10
106.8420738173
 20
141.9638709353
 40
0.254
100
AcDbArc
 50
0.0
 51
90.0
  0
SPLINE
  5
323
100
AcDbEntity
  8
0
100
AcDbSpline
 62
7
  6
CONTINUOUS
 70
0
 71
3
 72
14
 73
10
 74
0
 42
0.0000001
 43
0.0000001
 44
0.0000000001
 40
0.0
 40
0.0
 40
0.0
 40
0.0
 40
0.0351968493
 40
0.0624985337
 40
0.0975106493
 40
0.1908127855
 40
0.3134674685
 40
0.6292548963
 40
1.0
 40
1.0
 40
1.0
 40
1.0
 10
78.9274738173
 20
155.4258709353
 30
0.0
 10
78.9274738173
 20
155.4289487738
 30
0.0
 10
78.9317083078
 20
155.4337749187
 30
0.0
 10
78.9388911769
 20
155.4379637273
 30
0.0
 10
78.9515025727
 20
155.4434090059
 30
0.0
 10
78.972693836
 20
155.4491515861
 30
0.0
 10
79.0184619416
 20
155.4576398991
 30
0.0
 10
79.089014457
 20
155.4642596175
 30
0.0
 10
79.1490534845
 20
155.4660632238
 30
0.0
 10
79.1814738173
 20
155.4660632238
 30
0.0
  0
SPLINE
  5
324
100
AcDbEntity
  8
0
100
AcDbSpline
 62
7
  6
CONTINUOUS
 70
0
 71
3
 72
14
 73
10
 74
0
 42
0.0000001
 43
0.0000001
 44
0.0000000001
 40
0.0
 40
0.0
 40
0.0
 40
0.0
 40
0.3707446537
 40
0.6865322364
 40
0.8091870355
 40
0.9024892818
 40
0.9375014321
 40
0.9648031365
 40
1.0
 40
1.0
 40
1.0
 40
1.0
 10
79.1814738173
 20
170.7272786468
 30
0.0
 10
79.149053524
 20
170.7272786468
 30
0.0
 10
79.0890145227
 20
170.7290822517
 30
0.0
 10
79.0184620227
 20
170.735701961
 30
0.0
 10
78.9726938833
 20
170.7441902736
 30
0.0
 10
78.951502597
 20
170.7499328556
 30
0.0
 10
78.9388911871
 20
170.7553781388
 30
0.0
 10
78.9317083135
 20
170.7595669501
 30
0.0
 10
78.9274738173
 20
170.7643930955
 30
0.0
 10
78.9274738173
 20
170.7674709353
 30
0.0
  0
SPLINE
  5
325
100
AcDbEntity
  8
0
100
AcDbSpline
 62
7
  6
CONTINUOUS
 70
0
 71
3
 72
14
 73
10
 74
0
 42
0.0000001
 43
0.0000001
 44
0.0000000001
 40
0.0
 40
0.0
 40
0.0
 40
0.0
 40
0.3707446537
 40
0.6865322364
 40
0.8091870355
 40
0.9024892818
 40
0.9375014321
 40
0.9648031365
 40
1.0
 40
1.0
 40
1.0
 40
1.0
 10
106.8420738173
 20
155.4660632238
 30
0.0
 10
106.8744941107
 20
155.4660632238
 30
0.0
 10
106.9345331119
 20
155.4642596189
 30
0.0
 10
107.0050856119
 20
155.4576399095
 30
0.0
 10
107.0508537513
 20
155.449151597
 30
0.0
 10
107.0720450376
 20
155.443409015
 30
0.0
 10
107.0846564475
 20
155.4379637318
 30
0.0
 10
107.0918393211
 20
155.4337749204
 30
0.0
 10
107.0960738173
 20
155.428948775
 30
0.0
 10
107.0960738173
 20
155.4258709353
 30
0.0
  0
SPLINE
  5
326
100
AcDbEntity
  8
0
100
AcDbSpline
 62
7
  6
CONTINUOUS
 70
0
 71
3
 72
14
 73
10
 74
0
 42
0.0000001
 43
0.0000001
 44
0.0000000001
 40
0.0
 40
0.0
 40
0.0
 40
0.0
 40
0.0351968493
 40
0.0624985337
 40
0.0975106493
 40
0.1908127855
 40
0.3134674685
 40
0.6292548963
 40
1.0
 40
1.0
 40
1.0
 40
1.0
 10
107.0960738173
 20
170.7674709353
 30
0.0
 10
107.0960738173
 20
170.7643930967
 30
0.0
 10
107.0918393268
 20
170.7595669519
 30
0.0
 10
107.0846564577
 20
170.7553781432
 30
0.0
 10
107.072045062
 20
170.7499328646
 30
0.0
 10
107.0508537986
 20
170.7441902844
 30
0.0
 10
107.005085693
 20
170.7357019714
 30
0.0
 10
106.9345331776
 20
170.729082253
 30
0.0
 10
106.8744941502
 20
170.7272786468
 30
0.0
 10
106.8420738173
 20
170.7272786468
 30
0.0
  0
SPLINE
  5
327
100
AcDbEntity
  8
0
100
AcDbSpline
 62
7
  6
CONTINUOUS
 70
0
 71
3
 72
14
 73
10
 74
0
 42
0.0000001
 43
0.0000001
 44
0.0000000001
 40
0.0
 40
0.0
 40
0.0
 40
0.0
 40
0.0351968493
 40
0.0624985337
 40
0.0975106493
 40
0.1908127855
 40
0.3134674685
 40
0.6292548963
 40
1.0
 40
1.0
 40
1.0
 40
1.0
 10
78.9274738173
 20
126.6222709353
 30
0.0
 10
78.9274738173
 20
126.6253487738
 30
0.0
 10
78.9317083078
 20
126.6301749187
 30
0.0
 10
78.9388911769
 20
126.6343637273
 30
0.0
 10
78.9515025727
 20
126.6398090059
 30
0.0
 10
78.972693836
 20
126.6455515861
 30
0.0
 10
79.0184619416
 20
126.6540398991
 30
0.0
 10
79.089014457
 20
126.6606596175
 30
0.0
 10
79.1490534845
 20
126.6624632238
 30
0.0
 10
79.1814738173
 20
126.6624632238
 30
0.0
  0
SPLINE
  5
328
100
AcDbEntity
  8
0
100
AcDbSpline
 62
7
  6
CONTINUOUS
 70
0
 71
3
 72
14
 73
10
 74
0
 42
0.0000001
 43
0.0000001
 44
0.0000000001
 40
0.0
 40
0.0
 40
0.0
 40
0.0
 40
0.3707446537
 40
0.6865322364
 40
0.8091870355
 40
0.9024892818
 40
0.9375014321
 40
0.9648031365
 40
1.0
 40
1.0
 40
1.0
 40
1.0
 10
79.1814738173
 20
141.9236786468
 30
0.0
 10
79.149053524
 20
141.9236786468
 30
0.0
 10
79.0890145227
 20
141.9254822517
 30
0.0
 10
79.0184620227
 20
141.932101961
 30
0.0
 10
78.9726938833
 20
141.9405902736
 30
0.0
 10
78.951502597
 20
141.9463328556
 30
0.0
 10
78.9388911871
 20
141.9517781388
 30
0.0
 10
78.9317083135
 20
141.9559669501
 30
0.0
 10
78.9274738173
 20
141.9607930955
 30
0.0
 10
78.9274738173
 20
141.9638709353
 30
0.0
  0
SPLINE
  5
329
100
AcDbEntity
  8
0
100
AcDbSpline
 62
7
  6
CONTINUOUS
 70
0
 71
3
 72
14
 73
10
 74
0
 42
0.0000001
 43
0.0000001
 44
0.0000000001
 40
0.0
 40
0.0
 40
0.0
 40
0.0
 40
0.3707446537
 40
0.6865322364
 40
0.8091870355
 40
0.9024892818
 40
0.9375014321
 40
0.9648031365
 40
1.0
 40
1.0
 40
1.0
 40
1.0
 10
106.8420738173
 20
126.6624632238
 30
0.0
 10
106.8744941107
 20
126.6624632238
 30
0.0
 10
106.9345331119
 20
126.6606596189
 30
0.0
 10
107.0050856119
 20
126.6540399095
 30
0.0
 10
107.0508537513
 20
126.645551597
 30
0.0
 10
107.0720450376
 20
126.639809015
 30
0.0
 10
107.0846564475
 20
126.6343637318
 30
0.0
 10
107.0918393211
 20
126.6301749204
 30
0.0
 10
107.0960738173
 20
126.625348775
 30
0.0
 10
107.0960738173
 20
126.6222709353
 30
0.0
  0
SPLINE
  5
32A
100
AcDbEntity
  8
0
100
AcDbSpline
 62
7
  6
CONTINUOUS
 70
0
 71
3
 72
14
 73
10
 74
0
 42
0.0000001
 43
0.0000001
 44
0.0000000001
 40
0.0
 40
0.0
 40
0.0
 40
0.0
 40
0.0351968493
 40
0.0624985337
 40
0.0975106493
 40
0.1908127855
 40
0.3134674685
 40
0.6292548963
 40
1.0
 40
1.0
 40
1.0
 40
1.0
 10
107.0960738173
 20
141.9638709353
 30
0.0
 10
107.0960738173
 20
141.9607930967
 30
0.0
 10
107.0918393268
 20
141.9559669519
 30
0.0
 10
107.0846564577
 20
141.9517781432
 30
0.0
 10
107.072045062
 20
141.9463328646
 30
0.0
 10
107.0508537986
 20
141.9405902844
 30
0.0
 10
107.005085693
 20
141.9321019714
 30
0.0
 10
106.9345331776
 20
141.925482253
 30
0.0
 10
106.8744941502
 20
141.9236786468
 30
0.0
 10
106.8420738173
 20
141.9236786468
 30
0.0
  0
SPLINE
  5
32B
100
AcDbEntity
  8
0
100
AcDbSpline
 62
7
  6
CONTINUOUS
 70
0
 71
3
 72
13
 73
9
 74
0
 42
0.0000001
 43
0.0000001
 44
0.0000000001
 40
0.0
 40
0.0
 40
0.0
 40
0.0
 40
0.252178177
 40
0.5037431567
 40
0.6291273638
 40
0.7536007855
 40
0.8772438635
 40
1.0
 40
1.0
 40
1.0
 40
1.0
 10
41.2256369888
 20
40.6660939973
 30
0.0
 10
40.411970248
 20
40.6838906513
 30
0.0
 10
38.7784433857
 20
41.0287157761
 30
0.0
 10
37.0404146144
 20
42.1720993199
 30
0.0
 10
35.9848530203
 20
43.4097608105
 30
0.0
 10
35.3869411122
 20
44.4654530677
 30
0.0
 10
35.0076826445
 20
45.6083564425
 30
0.0
 10
34.9090149342
 20
46.4036560155
 30
0.0
 10
34.8998006559
 20
46.7997229943
 30
0.0
  0
SPLINE
  5
32C
100
AcDbEntity
  8
0
100
AcDbSpline
 62
7
  6
CONTINUOUS
 70
0
 71
3
 72
11
 73
7
 74
0
 42
0.0000001
 43
0.0000001
 44
0.0000000001
 40
0.0
 40
0.0
 40
0.0
 40
0.0
 40
0.2362261388
 40
0.49434218
 40
0.7560356983
 40
1.0
 40
1.0
 40
1.0
 40
1.0
 10
120.8755738173
 20
43.206589275
 30
0.0
 10
120.875573817
 20
43.2986435296
 30
0.0
 10
120.8371760325
 20
43.4932537795
 30
0.0
 10
120.6659074123
 20
43.7432252115
 30
0.0
 10
120.4075002587
 20
43.9063843642
 30
0.0
 10
120.2086435333
 20
43.9426247547
 30
0.0
 10
120.1135738173
 20
43.9426247547
 30
0.0
  0
SPLINE
  5
32D
100
AcDbEntity
  8
0
100
AcDbSpline
 62
7
  6
CONTINUOUS
 70
0
 71
3
 72
9
 73
5
 74
0
 42
0.0000001
 43
0.0000001
 44
0.0000000001
 40
0.0
 40
0.0
 40
0.0
 40
0.0
 40
0.7442343664
 40
1.0
 40
1.0
 40
1.0
 40
1.0
 10
120.1135738173
 20
43.9426247545
 30
0.0
 10
120.1135736101
 20
43.9879183269
 30
0.0
 10
120.1193131343
 20
44.0492553051
 30
0.0
 10
120.1358716236
 20
44.1079009291
 30
0.0
 10
120.1408088461
 20
44.122662883
 30
0.0
  0
SPLINE
  5
32E
100
AcDbEntity
  8
0
100
AcDbSpline
 62
7
  6
CONTINUOUS
 70
0
 71
3
 72
11
 73
7
 74
0
 42
0.0000001
 43
0.0000001
 44
0.0000000001
 40
0.0
 40
0.0
 40
0.0
 40
0.0
 40
0.2540212499
 40
0.505659753
 40
0.7539854589
 40
1.0
 40
1.0
 40
1.0
 40
1.0
 10
122.3995738173
 20
40.6660939973
 30
0.0
 10
122.2015918247
 20
40.6660939973
 30
0.0
 10
121.803347338
 20
40.7417687412
 30
0.0
 10
121.2971284074
 20
41.0675442675
 30
0.0
 10
120.9558381485
 20
41.5567000264
 30
0.0
 10
120.8755738679
 20
41.9464229495
 30
0.0
 10
120.8755738173
 20
42.1381645816
 30
0.0
  0
SPLINE
  5
32F
100
AcDbEntity
  8
0
100
AcDbSpline
 62
7
  6
CONTINUOUS
 70
0
 71
3
 72
9
 73
5
 74
0
 42
0.0000001
 43
0.0000001
 44
0.0000000001
 40
0.0
 40
0.0
 40
0.0
 40
0.0
 40
0.2482816375
 40
1.0
 40
1.0
 40
1.0
 40
1.0
 10
120.9959430302
 20
45.6573004912
 30
0.0
 10
120.9899458313
 20
45.7517072413
 30
0.0
 10
120.9695896905
 20
46.1321896363
 30
0.0
 10
120.9627328147
 20
46.5133130278
 30
0.0
 10
120.9627328619
 20
46.7997229943
 30
0.0
  0
SPLINE
  5
330
100
AcDbEntity
  8
0
100
AcDbSpline
 62
7
  6
CONTINUOUS
 70
0
 71
3
 72
10
 73
6
 74
0
 42
0.0000001
 43
0.0000001
 44
0.0000000001
 40
0.0
 40
0.0
 40
0.0
 40
0.0
 40
0.1708955513
 40
0.4070627491
 40
1.0
 40
1.0
 40
1.0
 40
1.0
 10
120.8937305031
 20
43.4639310428
 30
0.0
 10
120.9132138915
 20
43.5877487875
 30
0.0
 10
120.9613906228
 20
43.8824474528
 30
0.0
 10
121.034540461
 20
44.6128718147
 30
0.0
 10
121.0235186251
 20
45.2232929794
 30
0.0
 10
120.9959430065
 20
45.6573004932
 30
0.0
  0
SPLINE
  5
331
100
AcDbEntity
  8
0
100
AcDbSpline
 62
7
  6
CONTINUOUS
 70
0
 71
3
 72
8
 73
4
 74
0
 42
0.0000001
 43
0.0000001
 44
0.0000000001
 40
0.0
 40
0.0
 40
0.0
 40
0.0
 40
1.0
 40
1.0
 40
1.0
 40
1.0
 10
120.8755738173
 20
43.2065891823
 30
0.0
 10
120.8755738184
 20
43.2925830141
 30
0.0
 10
120.8803645321
 20
43.3789822049
 30
0.0
 10
120.8937305171
 20
43.4639309515
 30
0.0
  0
SPLINE
  5
332
100
AcDbEntity
  8
0
100
AcDbSpline
 62
7
  6
CONTINUOUS
 70
0
 71
3
 72
8
 73
4
 74
0
 42
0.0000001
 43
0.0000001
 44
0.0000000001
 40
0.0
 40
0.0
 40
0.0
 40
0.0
 40
1.0
 40
1.0
 40
1.0
 40
1.0
 10
120.2941253455
 20
45.5947337289
 30
0.0
 10
120.2584295708
 20
45.9951519502
 30
0.0
 10
120.2443126986
 20
46.3977168489
 30
0.0
 10
120.2443123504
 20
46.7997229935
 30
0.0
  0
SPLINE
  5
333
100
AcDbEntity
  8
0
100
AcDbSpline
 62
7
  6
CONTINUOUS
 70
0
 71
3
 72
9
 73
5
 74
0
 42
0.0000001
 43
0.0000001
 44
0.0000000001
 40
0.0
 40
0.0
 40
0.0
 40
0.0
 40
0.5022924992
 40
1.0
 40
1.0
 40
1.0
 40
1.0
 10
120.1135738173
 20
35.102119976
 30
0.0
 10
120.2125532825
 20
35.102119976
 30
0.0
 10
120.4114638329
 20
35.064462954
 30
0.0
 10
120.581847595
 20
34.9546781184
 30
0.0
 10
120.6523891846
 20
34.8865401752
 30
0.0
  0
SPLINE
  5
334
100
AcDbEntity
  8
0
100
AcDbSpline
 62
7
  6
CONTINUOUS
 70
0
 71
3
 72
9
 73
5
 74
0
 42
0.0000001
 43
0.0000001
 44
0.0000000001
 40
0.0
 40
0.0
 40
0.0
 40
0.0
 40
0.5023987083
 40
1.0
 40
1.0
 40
1.0
 40
1.0
 10
120.6523891846
 20
34.8865401752
 30
0.0
 10
120.7220013983
 20
34.8192999401
 30
0.0
 10
120.8356165311
 20
34.6565988753
 30
0.0
 10
120.8755738173
 20
34.4619441341
 30
0.0
 10
120.8755738173
 20
34.3660844964
 30
0.0
  0
SPLINE
  5
335
100
AcDbEntity
  8
0
100
AcDbSpline
 62
7
  6
CONTINUOUS
 70
0
 71
3
 72
11
 73
7
 74
0
 42
0.0000001
 43
0.0000001
 44
0.0000000001
 40
0.0
 40
0.0
 40
0.0
 40
0.0
 40
0.2504804541
 40
0.5004824652
 40
0.7502031008
 40
1.0
 40
1.0
 40
1.0
 40
1.0
 10
153.0149216403
 20
33.9443064203
 30
0.0
 10
152.768280532
 20
33.4121611547
 30
0.0
 10
152.1276761696
 20
32.4099598547
 30
0.0
 10
150.7899123485
 20
31.2358309451
 30
0.0
 10
149.1747219693
 20
30.4898348018
 30
0.0
 10
147.9974151663
 20
30.3232363025
 30
0.0
 10
147.4124936481
 20
30.3247221411
 30
0.0
  0
SPLINE
  5
336
100
AcDbEntity
  8
0
100
AcDbSpline
 62
7
  6
CONTINUOUS
 70
0
 71
3
 72
9
 73
5
 74
0
 42
0.0000001
 43
0.0000001
 44
0.0000000001
 40
0.0
 40
0.0
 40
0.0
 40
0.0
 40
0.4979970406
 40
1.0
 40
1.0
 40
1.0
 40
1.0
 10
153.6413546612
 20
36.755358648
 30
0.0
 10
153.6425957284
 20
36.274340305
 30
0.0
 10
153.5387534282
 20
35.3045943098
 30
0.0
 10
153.2187897111
 20
34.3842558831
 30
0.0
 10
153.0149223808
 20
33.944306178
 30
0.0
  0
SPLINE
  5
337
100
AcDbEntity
  8
0
100
AcDbSpline
 62
7
  6
CONTINUOUS
 70
0
 71
3
 72
11
 73
7
 74
0
 42
0.0000001
 43
0.0000001
 44
0.0000000001
 40
0.0
 40
0.0
 40
0.0
 40
0.0
 40
0.2497647223
 40
0.5
 40
0.7502352777
 40
1.0
 40
1.0
 40
1.0
 40
1.0
 10
144.0359106458
 20
230.6777640966
 30
0.0
 10
144.8559875795
 20
230.671534691
 30
0.0
 10
146.5126314698
 20
230.3317687717
 30
0.0
 10
148.6061009954
 20
228.9221181188
 30
0.0
 10
150.0157516504
 20
226.828648595
 30
0.0
 10
150.3555175725
 20
225.172004705
 30
0.0
 10
150.3617469786
 20
224.3519277714
 30
0.0
  0
SPLINE
  5
338
100
AcDbEntity
  8
0
100
AcDbSpline
 62
7
  6
CONTINUOUS
 70
0
 71
3
 72
11
 73
7
 74
0
 42
0.0000001
 43
0.0000001
 44
0.0000000001
 40
0.0
 40
0.0
 40
0.0
 40
0.0
 40
0.2497646911
 40
0.4999999986
 40
0.7502353067
 40
1.0
 40
1.0
 40
1.0
 40
1.0
 10
34.899800656
 20
224.3519277712
 30
0.0
 10
34.9060300613
 20
225.1720046013
 30
0.0
 10
35.2457959612
 20
226.8286484705
 30
0.0
 10
36.6554465926
 20
228.9221181472
 30
0.0
 10
38.7489162717
 20
230.3317687899
 30
0.0
 10
40.4055601512
 20
230.6715346917
 30
0.0
 10
41.2256369888
 20
230.6777640966
 30
0.0
  0
SPLINE
  5
339
100
AcDbEntity
  8
0
100
AcDbSpline
 62
7
  6
CONTINUOUS
 70
0
 71
3
 72
9
 73
5
 74
0
 42
0.0000001
 43
0.0000001
 44
0.0000000001
 40
0.0
 40
0.0
 40
0.0
 40
0.0
 40
0.5020300504
 40
1.0
 40
1.0
 40
1.0
 40
1.0
 10
32.2466295491
 20
33.9443014019
 30
0.0
 10
32.0427505232
 20
34.3842755967
 30
0.0
 10
31.7227854628
 20
35.3046170598
 30
0.0
 10
31.6189518697
 20
36.2743652172
 30
0.0
 10
31.6201938417
 20
36.7553583525
 30
0.0
  0
SPLINE
  5
33A
100
AcDbEntity
  8
0
100
AcDbSpline
 62
7
  6
CONTINUOUS
 70
0
 71
3
 72
12
 73
8
 74
0
 42
0.0000001
 43
0.0000001
 44
0.0000000001
 40
0.0
 40
0.0
 40
0.0
 40
0.0
 40
0.2495702947
 40
0.3746875873
 40
0.4997422386
 40
0.7495625616
 40
1.0
 40
1.0
 40
1.0
 40
1.0
 10
37.8490541648
 20
30.3247170227
 30
0.0
 10
37.2643850022
 20
30.3232060812
 30
0.0
 10
36.3799016614
 20
30.4523948308
 30
0.0
 10
35.2809112921
 20
30.8637094426
 30
0.0
 10
34.2502081857
 20
31.4287715555
 30
0.0
 10
33.136795276
 20
32.4124096902
 30
0.0
 10
32.4933264984
 20
33.4119858343
 30
0.0
 10
32.2466248982
 20
33.9442998771
 30
0.0
  0
SPLINE
  5
33B
100
AcDbEntity
  8
0
100
AcDbSpline
 62
7
  6
CONTINUOUS
 70
0
 71
3
 72
11
 73
7
 74
0
 42
0.0000001
 43
0.0000001
 44
0.0000000001
 40
0.0
 40
0.0
 40
0.0
 40
0.0
 40
0.252920358
 40
0.5042299922
 40
0.7530701575
 40
1.0
 40
1.0
 40
1.0
 40
1.0
 10
64.3859738178
 20
31.9553321091
 30
0.0
 10
64.3859394608
 20
31.747788984
 30
0.0
 10
64.3080514503
 20
31.3308515165
 30
0.0
 10
63.9832458416
 20
30.7887469231
 30
0.0
 10
63.4762621224
 20
30.4148388479
 30
0.0
 10
63.0646012032
 20
30.3247616152
 30
0.0
 10
62.8619738176
 20
30.3247221904
 30
0.0
  0
SPLINE
  5
33C
100
AcDbEntity
  8
0
100
AcDbSpline
 62
7
  6
CONTINUOUS
 70
0
 71
3
 72
9
 73
5
 74
0
 42
0.0000001
 43
0.0000001
 44
0.0000000001
 40
0.0
 40
0.0
 40
0.0
 40
0.0
 40
0.499944047
 40
1.0
 40
1.0
 40
1.0
 40
1.0
 10
31.5691738173
 20
33.6267185591
 30
0.0
 10
31.4114465694
 20
34.1314659681
 30
0.0
 10
31.1731587512
 20
35.1669742029
 30
0.0
 10
31.0971284779
 20
36.2264226409
 30
0.0
 10
31.0971247487
 20
36.7553583995
 30
0.0
  0
SPLINE
  5
33D
100
AcDbEntity
  8
0
100
AcDbSpline
 62
7
  6
CONTINUOUS
 70
0
 71
3
 72
11
 73
7
 74
0
 42
0.0000001
 43
0.0000001
 44
0.0000000001
 40
0.0
 40
0.0
 40
0.0
 40
0.0
 40
0.2500635513
 40
0.5000311437
 40
0.7499975458
 40
1.0
 40
1.0
 40
1.0
 40
1.0
 10
37.8490539231
 20
29.5886877704
 30
0.0
 10
37.1940970847
 20
29.5887006569
 30
0.0
 10
35.8764684245
 20
29.777083705
 30
0.0
 10
34.0684153216
 20
30.6102742659
 30
0.0
 10
32.5680227375
 20
31.9172819421
 30
0.0
 10
31.8471154373
 20
33.0338380272
 30
0.0
 10
31.5691738173
 20
33.6267185591
 30
0.0
  0
SPLINE
  5
33E
100
AcDbEntity
  8
0
100
AcDbSpline
 62
7
  6
CONTINUOUS
 70
0
 71
3
 72
11
 73
7
 74
0
 42
0.0000001
 43
0.0000001
 44
0.0000000001
 40
0.0
 40
0.0
 40
0.0
 40
0.0
 40
0.2501470254
 40
0.5001654582
 40
0.750194579
 40
1.0
 40
1.0
 40
1.0
 40
1.0
 10
65.1479738173
 20
31.9553291193
 30
0.0
 10
65.147913948
 20
31.6525689498
 30
0.0
 10
65.033829209
 20
31.0409807216
 30
0.0
 10
64.5359611389
 20
30.2557229799
 30
0.0
 10
63.776578054
 20
29.7165546335
 30
0.0
 10
63.1643205371
 20
29.5887538401
 30
0.0
 10
62.8619738226
 20
29.5886877703
 30
0.0
  0
SPLINE
  5
33F
100
AcDbEntity
  8
0
100
AcDbSpline
 62
7
  6
CONTINUOUS
 70
0
 71
3
 72
9
 73
5
 74
0
 42
0.0000001
 43
0.0000001
 44
0.0000000001
 40
0.0
 40
0.0
 40
0.0
 40
0.0
 40
0.4976012917
 40
1.0
 40
1.0
 40
1.0
 40
1.0
 10
64.3859738173
 20
34.3660844964
 30
0.0
 10
64.3859738173
 20
34.4619441341
 30
0.0
 10
64.4259311035
 20
34.6565988753
 30
0.0
 10
64.5395462363
 20
34.8192999402
 30
0.0
 10
64.60915845
 20
34.8865401752
 30
0.0
  0
SPLINE
  5
340
100
AcDbEntity
  8
0
100
AcDbSpline
 62
7
  6
CONTINUOUS
 70
0
 71
3
 72
9
 73
5
 74
0
 42
0.0000001
 43
0.0000001
 44
0.0000000001
 40
0.0
 40
0.0
 40
0.0
 40
0.0
 40
0.4977075008
 40
1.0
 40
1.0
 40
1.0
 40
1.0
 10
64.60915845
 20
34.8865401752
 30
0.0
 10
64.6797000396
 20
34.9546781184
 30
0.0
 10
64.8500838017
 20
35.064462954
 30
0.0
 10
65.0489943522
 20
35.102119976
 30
0.0
 10
65.1479738173
 20
35.102119976
 30
0.0
  0
SPLINE
  5
341
100
AcDbEntity
  8
0
100
AcDbSpline
 62
7
  6
CONTINUOUS
 70
0
 71
3
 72
13
 73
9
 74
0
 42
0.0000001
 43
0.0000001
 44
0.0000000001
 40
0.0
 40
0.0
 40
0.0
 40
0.0
 40
0.1227561382
 40
0.2463992865
 40
0.3708728117
 40
0.4962571235
 40
0.747822208
 40
1.0
 40
1.0
 40
1.0
 40
1.0
 10
150.3617469787
 20
46.7997229943
 30
0.0
 10
150.3525327003
 20
46.4036560099
 30
0.0
 10
150.2538649841
 20
45.6083561978
 30
0.0
 10
149.8746061806
 20
44.4654523281
 30
0.0
 10
149.2766937032
 20
43.4097593461
 30
0.0
 10
148.2211309805
 20
42.1720974465
 30
0.0
 10
146.4831020021
 20
41.0287152127
 30
0.0
 10
144.8495761441
 20
40.6838906241
 30
0.0
 10
144.0359106458
 20
40.6660939973
 30
0.0
  0
SPLINE
  5
342
100
AcDbEntity
  8
0
100
AcDbSpline
 62
7
  6
CONTINUOUS
 70
0
 71
3
 72
11
 73
7
 74
0
 42
0.0000001
 43
0.0000001
 44
0.0000000001
 40
0.0
 40
0.0
 40
0.0
 40
0.0
 40
0.2499397929
 40
0.4998361818
 40
0.7498067306
 40
1.0
 40
1.0
 40
1.0
 40
1.0
 10
122.3995738132
 20
29.5886877704
 30
0.0
 10
122.097076115
 20
29.5887205038
 30
0.0
 10
121.4850083875
 20
29.7171974645
 30
0.0
 10
120.7253661019
 20
30.2556833159
 30
0.0
 10
120.2278961644
 20
31.0410406223
 30
0.0
 10
120.1136194103
 20
31.6525246448
 30
0.0
 10
120.1135738173
 20
31.9553291193
 30
0.0
  0
SPLINE
  5
343
100
AcDbEntity
  8
0
100
AcDbSpline
 62
7
  6
CONTINUOUS
 70
0
 71
3
 72
8
 73
4
 74
0
 42
0.0000001
 43
0.0000001
 44
0.0000000001
 40
0.0
 40
0.0
 40
0.0
 40
0.0
 40
1.0
 40
1.0
 40
1.0
 40
1.0
 10
65.0172352843
 20
46.7997229942
 30
0.0
 10
65.0172356668
 20
46.3977168525
 30
0.0
 10
65.0031174875
 20
45.9951519457
 30
0.0
 10
64.9674209848
 20
45.5947337922
 30
0.0
  0
SPLINE
  5
344
100
AcDbEntity
  8
0
100
AcDbSpline
 62
7
  6
CONTINUOUS
 70
0
 71
3
 72
11
 73
7
 74
0
 42
0.0000001
 43
0.0000001
 44
0.0000000001
 40
0.0
 40
0.0
 40
0.0
 40
0.0
 40
0.2467329927
 40
0.4956031762
 40
0.7469449972
 40
1.0
 40
1.0
 40
1.0
 40
1.0
 10
122.3995738173
 20
30.324723274
 30
0.0
 10
122.197103519
 20
30.3247430954
 30
0.0
 10
121.7855832414
 20
30.4147608958
 30
0.0
 10
121.2785572343
 20
30.7884080423
 30
0.0
 10
120.9533926452
 20
31.3305458267
 30
0.0
 10
120.8756010206
 20
31.7476728971
 30
0.0
 10
120.8755738171
 20
31.955331067
 30
0.0
  0
SPLINE
  5
345
100
AcDbEntity
  8
0
100
AcDbSpline
 62
7
  6
CONTINUOUS
 70
0
 71
3
 72
11
 73
7
 74
0
 42
0.0000001
 43
0.0000001
 44
0.0000000001
 40
0.0
 40
0.0
 40
0.0
 40
0.0
 40
0.2460145408
 40
0.494340247
 40
0.7459787502
 40
1.0
 40
1.0
 40
1.0
 40
1.0
 10
64.3859738173
 20
42.1381644775
 30
0.0
 10
64.3859737527
 20
41.9464228539
 30
0.0
 10
64.3057094509
 20
41.5566999543
 30
0.0
 10
63.9644191861
 20
41.0675442328
 30
0.0
 10
63.4582002701
 20
40.7417687344
 30
0.0
 10
63.0599558012
 20
40.6660939973
 30
0.0
 10
62.8619738173
 20
40.6660939973
 30
0.0
  0
SPLINE
  5
346
100
AcDbEntity
  8
0
100
AcDbSpline
 62
7
  6
CONTINUOUS
 70
0
 71
3
 72
11
 73
7
 74
0
 42
0.0000001
 43
0.0000001
 44
0.0000000001
 40
0.0
 40
0.0
 40
0.0
 40
0.0
 40
0.2500332686
 40
0.5000516329
 40
0.7500214877
 40
1.0
 40
1.0
 40
1.0
 40
1.0
 10
153.6923738173
 20
33.6267185591
 30
0.0
 10
153.4143821563
 20
33.0337742476
 30
0.0
 10
152.6934527242
 20
31.9169560585
 30
0.0
 10
151.1926228484
 20
30.6100838395
 30
0.0
 10
149.3846333554
 20
29.7770119823
 30
0.0
 10
148.0672261
 20
29.5887288366
 30
0.0
 10
147.4124937115
 20
29.5886877704
 30
0.0
  0
SPLINE
  5
347
100
AcDbEntity
  8
0
100
AcDbSpline
 62
7
  6
CONTINUOUS
 70
0
 71
3
 72
9
 73
5
 74
0
 42
0.0000001
 43
0.0000001
 44
0.0000000001
 40
0.0
 40
0.0
 40
0.0
 40
0.0
 40
0.5000412371
 40
1.0
 40
1.0
 40
1.0
 40
1.0
 10
154.1644229796
 20
36.7553583995
 30
0.0
 10
154.1644157808
 20
36.2264379373
 30
0.0
 10
154.0884137411
 20
35.1669868403
 30
0.0
 10
153.8501059822
 20
34.131481022
 30
0.0
 10
153.6923738173
 20
33.6267185591
 30
0.0
  0
SPLINE
  5
348
100
AcDbEntity
  8
0
100
AcDbSpline
 62
7
  6
CONTINUOUS
 70
0
 71
3
 72
11
 73
7
 74
0
 42
0.0000001
 43
0.0000001
 44
0.0000000001
 40
0.0
 40
0.0
 40
0.0
 40
0.0
 40
0.098652622
 40
0.3113448972
 40
0.6208756861
 40
1.0
 40
1.0
 40
1.0
 40
1.0
 10
153.6413553277
 20
227.6315370819
 30
0.0
 10
153.6578868369
 20
227.6363872538
 30
0.0
 10
153.7129895493
 20
227.6377502951
 30
0.0
 10
153.8205462805
 20
227.6464116876
 30
0.0
 10
153.9781533072
 20
227.651890588
 30
0.0
 10
154.0982534339
 20
227.6562452631
 30
0.0
 10
154.1644274664
 20
227.6583914957
 30
0.0
  0
SPLINE
  5
349
100
AcDbEntity
  8
0
100
AcDbSpline
 62
7
  6
CONTINUOUS
 70
0
 71
3
 72
8
 73
4
 74
0
 42
0.0000001
 43
0.0000001
 44
0.0000000001
 40
0.0
 40
0.0
 40
0.0
 40
0.0
 40
1.0
 40
1.0
 40
1.0
 40
1.0
 10
64.3678171176
 20
43.4639309508
 30
0.0
 10
64.3811831022
 20
43.3789822044
 30
0.0
 10
64.3859738152
 20
43.2925830138
 30
0.0
 10
64.3859738173
 20
43.2065891822
 30
0.0
  0
SPLINE
  5
34A
100
AcDbEntity
  8
0
100
AcDbSpline
 62
7
  6
CONTINUOUS
 70
0
 71
3
 72
10
 73
6
 74
0
 42
0.0000001
 43
0.0000001
 44
0.0000000001
 40
0.0
 40
0.0
 40
0.0
 40
0.0
 40
0.5929097779
 40
0.8292029092
 40
1.0
 40
1.0
 40
1.0
 40
1.0
 10
64.2656046283
 20
45.6573004959
 30
0.0
 10
64.2380332238
 20
45.2233148003
 30
0.0
 10
64.2271396834
 20
44.6128273486
 30
0.0
 10
64.300191305
 20
43.8823989648
 30
0.0
 10
64.3483421506
 20
43.5876764549
 30
0.0
 10
64.3678171317
 20
43.4639310421
 30
0.0
  0
SPLINE
  5
34B
100
AcDbEntity
  8
0
100
AcDbSpline
 62
7
  6
CONTINUOUS
 70
0
 71
3
 72
9
 73
5
 74
0
 42
0.0000001
 43
0.0000001
 44
0.0000000001
 40
0.0
 40
0.0
 40
0.0
 40
0.0
 40
0.2512618488
 40
1.0
 40
1.0
 40
1.0
 40
1.0
 10
64.2988148181
 20
46.7997229943
 30
0.0
 10
64.2988148302
 20
46.703991903
 30
0.0
 10
64.2964952045
 20
46.3230047926
 30
0.0
 10
64.2836901563
 20
45.9419968404
 30
0.0
 10
64.2656046563
 20
45.6573004983
 30
0.0
  0
SPLINE
  5
34C
100
AcDbEntity
  8
0
100
AcDbSpline
 62
7
  6
CONTINUOUS
 70
0
 71
3
 72
11
 73
7
 74
0
 42
0.0000001
 43
0.0000001
 44
0.0000000001
 40
0.0
 40
0.0
 40
0.0
 40
0.0
 40
0.2334913018
 40
0.4894520136
 40
0.7514907512
 40
1.0
 40
1.0
 40
1.0
 40
1.0
 10
64.3678172158
 20
43.4639301873
 30
0.0
 10
64.3788982531
 20
43.5474580848
 30
0.0
 10
64.4335980616
 20
43.7197528949
 30
0.0
 10
64.6045539209
 20
43.9378704217
 30
0.0
 10
64.8461604617
 20
44.0843747083
 30
0.0
 10
65.0310834126
 20
44.1206538799
 30
0.0
 10
65.1207401366
 20
44.1226624281
 30
0.0
  0
SPLINE
  5
34D
100
AcDbEntity
  8
0
100
AcDbSpline
 62
7
  6
CONTINUOUS
 70
0
 71
3
 72
11
 73
7
 74
0
 42
0.0000001
 43
0.0000001
 44
0.0000000001
 40
0.0
 40
0.0
 40
0.0
 40
0.0
 40
0.2439642831
 40
0.5056577931
 40
0.7637738409
 40
1.0
 40
1.0
 40
1.0
 40
1.0
 10
65.1479738173
 20
43.9426243847
 30
0.0
 10
65.0529041096
 20
43.9426243879
 30
0.0
 10
64.8540473959
 20
43.9063840096
 30
0.0
 10
64.595640242
 20
43.7432248789
 30
0.0
 10
64.424371607
 20
43.4932534506
 30
0.0
 10
64.3859738182
 20
43.2986431918
 30
0.0
 10
64.3859738173
 20
43.2065889303
 30
0.0
  0
SPLINE
  5
34E
100
AcDbEntity
  8
0
100
AcDbSpline
 62
7
  6
CONTINUOUS
 70
0
 71
3
 72
9
 73
5
 74
0
 42
0.0000001
 43
0.0000001
 44
0.0000000001
 40
0.0
 40
0.0
 40
0.0
 40
0.0
 40
0.2557647759
 40
1.0
 40
1.0
 40
1.0
 40
1.0
 10
65.1207399805
 20
44.1226628954
 30
0.0
 10
65.1256772
 20
44.1079010187
 30
0.0
 10
65.1422336886
 20
44.0492549079
 30
0.0
 10
65.147974049
 20
43.9879183151
 30
0.0
 10
65.1479738173
 20
43.9426247545
 30
0.0
  0
SPLINE
  5
34F
100
AcDbEntity
  8
0
100
AcDbSpline
 62
7
  6
CONTINUOUS
 70
0
 71
3
 72
11
 73
7
 74
0
 42
0.0000001
 43
0.0000001
 44
0.0000000001
 40
0.0
 40
0.0
 40
0.0
 40
0.0
 40
0.249987824
 40
0.4998839601
 40
0.749915369
 40
1.0
 40
1.0
 40
1.0
 40
1.0
 10
147.3155203497
 20
233.9573727054
 30
0.0
 10
148.1387338485
 20
233.958004406
 30
0.0
 10
149.8033436048
 20
233.6326547619
 30
0.0
 10
151.9098115332
 20
232.2269017049
 30
0.0
 10
153.3163197299
 20
230.1204558345
 30
0.0
 10
153.6419827289
 20
228.4550699405
 30
0.0
 10
153.6413556578
 20
227.6315376511
 30
0.0
  0
SPLINE
  5
350
100
AcDbEntity
  8
0
100
AcDbSpline
 62
7
  6
CONTINUOUS
 70
0
 71
3
 72
11
 73
7
 74
0
 42
0.0000001
 43
0.0000001
 44
0.0000000001
 40
0.0
 40
0.0
 40
0.0
 40
0.0
 40
0.3268497334
 40
0.6195298558
 40
0.8515163876
 40
1.0
 40
1.0
 40
1.0
 40
1.0
 10
120.2941450303
 20
45.5947363923
 30
0.0
 10
120.3157893912
 20
45.4328206902
 30
0.0
 10
120.3386580618
 20
45.1233580728
 30
0.0
 10
120.3191732875
 20
44.6963530341
 30
0.0
 10
120.2429476594
 20
44.3670641057
 30
0.0
 10
120.1741019302
 20
44.188994284
 30
0.0
 10
120.140826314
 20
44.1226622949
 30
0.0
  0
SPLINE
  5
351
100
AcDbEntity
  8
0
100
AcDbSpline
 62
7
  6
CONTINUOUS
 70
0
 71
3
 72
12
 73
8
 74
0
 42
0.0000001
 43
0.0000001
 44
0.0000000001
 40
0.0
 40
0.0
 40
0.0
 40
0.0
 40
0.0344668119
 40
0.0988095954
 40
0.3114738889
 40
0.6209429653
 40
1.0
 40
1.0
 40
1.0
 40
1.0
 10
147.3155203878
 20
233.9573741098
 30
0.0
 10
147.3173727238
 20
233.9631020664
 30
0.0
 10
147.3192977301
 20
233.9804094166
 30
0.0
 10
147.3246283198
 20
234.0343958999
 30
0.0
 10
147.3299594302
 20
234.1368632516
 30
0.0
 10
147.3367590742
 20
234.2940363079
 30
0.0
 10
147.3404105956
 20
234.414267104
 30
0.0
 10
147.3423743348
 20
234.4804445844
 30
0.0
  0
SPLINE
  5
352
100
AcDbEntity
  8
0
100
AcDbSpline
 62
7
  6
CONTINUOUS
 70
0
 71
3
 72
11
 73
7
 74
0
 42
0.0000001
 43
0.0000001
 44
0.0000000001
 40
0.0
 40
0.0
 40
0.0
 40
0.0
 40
0.0986596561
 40
0.3113538374
 40
0.6208818431
 40
1.0
 40
1.0
 40
1.0
 40
1.0
 10
37.9460266634
 20
233.9573741098
 30
0.0
 10
37.9411779143
 20
233.9739072558
 30
0.0
 10
37.9398132234
 20
234.0290105587
 30
0.0
 10
37.9311533863
 20
234.1365686476
 30
0.0
 10
37.9256737075
 20
234.2941735914
 30
0.0
 10
37.9213194203
 20
234.414271849
 30
0.0
 10
37.9191732668
 20
234.4804445844
 30
0.0
  0
SPLINE
  5
353
100
AcDbEntity
  8
0
100
AcDbSpline
 62
7
  6
CONTINUOUS
 70
0
 71
3
 72
11
 73
7
 74
0
 42
0.0000001
 43
0.0000001
 44
0.0000000001
 40
0.0
 40
0.0
 40
0.0
 40
0.0
 40
0.1487165798
 40
0.3809108242
 40
0.6733761456
 40
1.0
 40
1.0
 40
1.0
 40
1.0
 10
65.1207092142
 20
44.1226618471
 30
0.0
 10
65.0873805921
 20
44.1890978696
 30
0.0
 10
65.018557754
 20
44.3674169319
 30
0.0
 10
64.9422672821
 20
44.6967984999
 30
0.0
 10
64.9228109824
 20
45.1236998794
 30
0.0
 10
64.945756211
 20
45.4329339708
 30
0.0
 10
64.9673904617
 20
45.5947378414
 30
0.0
  0
SPLINE
  5
354
100
AcDbEntity
  8
0
100
AcDbSpline
 62
7
  6
CONTINUOUS
 70
0
 71
3
 72
11
 73
7
 74
0
 42
0.0000001
 43
0.0000001
 44
0.0000000001
 40
0.0
 40
0.0
 40
0.0
 40
0.0
 40
0.237958185
 40
0.4957402313
 40
0.7561064179
 40
1.0
 40
1.0
 40
1.0
 40
1.0
 10
120.8937301776
 20
43.4639294028
 30
0.0
 10
120.8824371975
 20
43.5490551218
 30
0.0
 10
120.8263907975
 20
43.7235359046
 30
0.0
 10
120.6526339488
 20
43.9416961491
 30
0.0
 10
120.4113980666
 20
44.0854722633
 30
0.0
 10
120.2287997266
 20
44.1206906535
 30
0.0
 10
120.1408083824
 20
44.1226620021
 30
0.0
  0
SPLINE
  5
355
100
AcDbEntity
  8
0
100
AcDbSpline
 62
7
  6
CONTINUOUS
 70
0
 71
3
 72
12
 73
8
 74
0
 42
0.0000001
 43
0.0000001
 44
0.0000000001
 40
0.0
 40
0.0
 40
0.0
 40
0.0
 40
0.0344623673
 40
0.0988020773
 40
0.3114643365
 40
0.6209363734
 40
1.0
 40
1.0
 40
1.0
 40
1.0
 10
31.620192424
 20
227.6315368588
 30
0.0
 10
31.6144653581
 20
227.633389496
 30
0.0
 10
31.597159104
 20
227.6353142513
 30
0.0
 10
31.5431743025
 20
227.6406453251
 30
0.0
 10
31.4407067891
 20
227.6459761658
 30
0.0
 10
31.2835319542
 20
227.6527761394
 30
0.0
 10
31.1632990352
 20
227.656427684
 30
0.0
 10
31.0971201682
 20
227.6583914718
 30
0.0
  0
SPLINE
  5
356
100
AcDbEntity
  8
0
100
AcDbSpline
 62
7
  6
CONTINUOUS
 70
0
 71
3
 72
11
 73
7
 74
0
 42
0.0000001
 43
0.0000001
 44
0.0000000001
 40
0.0
 40
0.0
 40
0.0
 40
0.0
 40
0.2498969683
 40
0.4998365303
 40
0.7498686574
 40
1.0
 40
1.0
 40
1.0
 40
1.0
 10
31.6201926008
 20
227.6315374557
 30
0.0
 10
31.6195661164
 20
228.4544506588
 30
0.0
 10
31.9447690836
 20
230.1188841633
 30
0.0
 10
33.3502321765
 20
232.2253699643
 30
0.0
 10
35.4567766875
 20
233.6322945871
 30
0.0
 10
37.1223412569
 20
233.9579658532
 30
0.0
 10
37.9460262821
 20
233.9573726783
 30
0.0
  0
SPLINE
  5
357
100
AcDbEntity
  8
0
100
AcDbSpline
 62
7
  6
CONTINUOUS
 70
0
 71
3
 72
23
 73
19
 74
0
 42
0.0000001
 43
0.0000001
 44
0.0000000001
 40
0.0
 40
0.0
 40
0.0
 40
0.0
 40
0.0624855414
 40
0.1250778846
 40
0.1875905127
 40
0.2497719365
 40
0.3124428457
 40
0.3751002888
 40
0.4376317564
 40
0.5000159652
 40
0.5623186492
 40
0.6246137697
 40
0.6869769513
 40
0.7494531866
 40
0.8116365331
 40
0.8743148569
 40
0.9371879101
 40
1.0
 40
1.0
 40
1.0
 40
1.0
 10
128.1399738173
 20
124.9714580516
 30
0.0
 10
128.2942829244
 20
124.9716945724
 30
0.0
 10
128.6040202597
 20
125.0018117761
 30
0.0
 10
129.0500388271
 20
125.1373421816
 30
0.0
 10
129.4605464569
 20
125.3568479634
 30
0.0
 10
129.8205502133
 20
125.6521830759
 30
0.0
 10
130.1163843701
 20
126.0123201175
 30
0.0
 10
130.3364630602
 20
126.4241309001
 30
0.0
 10
130.4716316036
 20
126.870310597
 30
0.0
 10
130.5171313205
 20
127.3333890062
 30
0.0
 10
130.4717021085
 20
127.795876345
 30
0.0
 10
130.3372160341
 20
128.2406489234
 30
0.0
 10
130.1185607449
 20
128.6511431568
 30
0.0
 10
129.8242752795
 20
129.0109593633
 30
0.0
 10
129.4650450912
 20
129.3071309432
 30
0.0
 10
129.05402016
 20
129.5280607794
 30
0.0
 10
128.606339712
 20
129.6648326106
 30
0.0
 10
128.2950892994
 20
129.6952200334
 30
0.0
 10
128.1399738173
 20
129.6954838189
 30
0.0
  0
SPLINE
  5
358
100
AcDbEntity
  8
0
100
AcDbSpline
 62
7
  6
CONTINUOUS
 70
0
 71
3
 72
23
 73
19
 74
0
 42
0.0000001
 43
0.0000001
 44
0.0000000001
 40
0.0
 40
0.0
 40
0.0
 40
0.0
 40
0.0624855414
 40
0.1250778846
 40
0.1875905127
 40
0.2497719365
 40
0.3124428457
 40
0.3751002888
 40
0.4376317564
 40
0.5000159652
 40
0.5623186492
 40
0.6246137697
 40
0.6869769513
 40
0.7494531866
 40
0.8116365331
 40
0.8743148569
 40
0.9371879101
 40
1.0
 40
1.0
 40
1.0
 40
1.0
 10
128.1399738173
 20
129.6954838189
 30
0.0
 10
127.9856647102
 20
129.6952472981
 30
0.0
 10
127.675927375
 20
129.6651300944
 30
0.0
 10
127.2299088075
 20
129.5295996889
 30
0.0
 10
126.8194011777
 20
129.3100939072
 30
0.0
 10
126.4593974213
 20
129.0147587946
 30
0.0
 10
126.1635632645
 20
128.6546217531
 30
0.0
 10
125.9434845744
 20
128.2428109704
 30
0.0
 10
125.808316031
 20
127.7966312736
 30
0.0
 10
125.7628163142
 20
127.3335528643
 30
0.0
 10
125.8082455261
 20
126.8710655255
 30
0.0
 10
125.9427316005
 20
126.4262929472
 30
0.0
 10
126.1613868897
 20
126.0157987137
 30
0.0
 10
126.4556723551
 20
125.6559825072
 30
0.0
 10
126.8149025434
 20
125.3598109273
 30
0.0
 10
127.2259274747
 20
125.1388810912
 30
0.0
 10
127.6736079226
 20
125.0021092599
 30
0.0
 10
127.9848583353
 20
124.9717218372
 30
0.0
 10
128.1399738173
 20
124.9714580516
 30
0.0
  0
SPLINE
  5
359
100
AcDbEntity
  8
0
100
AcDbSpline
 62
7
  6
CONTINUOUS
 70
0
 71
3
 72
23
 73
19
 74
0
 42
0.0000001
 43
0.0000001
 44
0.0000000001
 40
0.0
 40
0.0
 40
0.0
 40
0.0
 40
0.0624855414
 40
0.1250778846
 40
0.1875905127
 40
0.2497719365
 40
0.3124428457
 40
0.3751002888
 40
0.4376317564
 40
0.5000159652
 40
0.5623186492
 40
0.6246137697
 40
0.6869769513
 40
0.7494531866
 40
0.8116365331
 40
0.8743148569
 40
0.9371879101
 40
1.0
 40
1.0
 40
1.0
 40
1.0
 10
57.5025738173
 20
124.9714580516
 30
0.0
 10
57.6568829244
 20
124.9716945724
 30
0.0
 10
57.9666202597
 20
125.0018117761
 30
0.0
 10
58.4126388271
 20
125.1373421816
 30
0.0
 10
58.8231464569
 20
125.3568479634
 30
0.0
 10
59.1831502133
 20
125.6521830759
 30
0.0
 10
59.4789843701
 20
126.0123201175
 30
0.0
 10
59.6990630602
 20
126.4241309001
 30
0.0
 10
59.8342316036
 20
126.870310597
 30
0.0
 10
59.8797313205
 20
127.3333890062
 30
0.0
 10
59.8343021085
 20
127.795876345
 30
0.0
 10
59.6998160341
 20
128.2406489234
 30
0.0
 10
59.4811607449
 20
128.6511431568
 30
0.0
 10
59.1868752795
 20
129.0109593633
 30
0.0
 10
58.8276450912
 20
129.3071309432
 30
0.0
 10
58.41662016
 20
129.5280607794
 30
0.0
 10
57.968939712
 20
129.6648326106
 30
0.0
 10
57.6576892994
 20
129.6952200334
 30
0.0
 10
57.5025738173
 20
129.6954838189
 30
0.0
  0
SPLINE
  5
35A
100
AcDbEntity
  8
0
100
AcDbSpline
 62
7
  6
CONTINUOUS
 70
0
 71
3
 72
23
 73
19
 74
0
 42
0.0000001
 43
0.0000001
 44
0.0000000001
 40
0.0
 40
0.0
 40
0.0
 40
0.0
 40
0.0624855414
 40
0.1250778846
 40
0.1875905127
 40
0.2497719365
 40
0.3124428457
 40
0.3751002888
 40
0.4376317564
 40
0.5000159652
 40
0.5623186492
 40
0.6246137697
 40
0.6869769513
 40
0.7494531866
 40
0.8116365331
 40
0.8743148569
 40
0.9371879101
 40
1.0
 40
1.0
 40
1.0
 40
1.0
 10
57.5025738173
 20
129.6954838189
 30
0.0
 10
57.3482647102
 20
129.6952472981
 30
0.0
 10
57.038527375
 20
129.6651300944
 30
0.0
 10
56.5925088075
 20
129.5295996889
 30
0.0
 10
56.1820011777
 20
129.3100939072
 30
0.0
 10
55.8219974213
 20
129.0147587946
 30
0.0
 10
55.5261632645
 20
128.6546217531
 30
0.0
 10
55.3060845744
 20
128.2428109704
 30
0.0
 10
55.170916031
 20
127.7966312736
 30
0.0
 10
55.1254163142
 20
127.3335528643
 30
0.0
 10
55.1708455261
 20
126.8710655255
 30
0.0
 10
55.3053316005
 20
126.4262929472
 30
0.0
 10
55.5239868897
 20
126.0157987137
 30
0.0
 10
55.8182723551
 20
125.6559825072
 30
0.0
 10
56.1775025434
 20
125.3598109273
 30
0.0
 10
56.5885274747
 20
125.1388810912
 30
0.0
 10
57.0362079226
 20
125.0021092599
 30
0.0
 10
57.3474583353
 20
124.9717218372
 30
0.0
 10
57.5025738173
 20
124.9714580516
 30
0.0
  0
ENDSEC
  0
SECTION
  2
OBJECTS
  0
DICTIONARY
  5
C
100
AcDbDictionary
280
0
281
1
  3
ACAD_GROUP
350
D
  3
ACAD_MLINESTYLE
350
17
  3
ACAD_LAYOUT
350
1A
  3
ACAD_PLOTSETTINGS
350
19
  3
ACAD_PLOTSTYLENAME
350
E
  0
DICTIONARY
  5
D
102
{ACAD_REACTORS
330
C
102
}
100
AcDbDictionary
280
0
281
1
  0
ACDBDICTIONARYWDFLT
  5
E
102
{ACAD_REACTORS
330
C
102
}
100
AcDbDictionary
281
1
  3
Normal
350
F
100
AcDbDictionaryWithDefault
340
F
  0
DICTIONARY
  5
17
102
{ACAD_REACTORS
330
C
102
}
100
AcDbDictionary
280
0
281
1
  3
Standard
350
18
  0
DICTIONARY
  5
19
102
{ACAD_REACTORS
330
C
102
}
100
AcDbDictionary
281
1
  0
DICTIONARY
  5
1A
102
{ACAD_REACTORS
330
C
102
}
100
AcDbDictionary
281
1
  3
Model
350
35B
  3
Layout1
350
35C
  0
ACDBPLACEHOLDER
  5
F
102
{ACAD_REACTORS
330
E
102
}
  0
MLINESTYLE
  5
18
102
{ACAD_REACTORS
330
17
102
}
100
AcDbMlineStyle
  2
STANDARD
 70
0
  3

 62
256
 51
90.0
 52
90.0
 71
2
 49
0.5
 62
256
  6
BYLAYER
 49
-0.5
 62
256
  6
BYLAYER
  0
LAYOUT
  5
35B
102
{ACAD_REACTORS
330
1A
102
}
100
AcDbPlotSettings
  1

  2
none_device
  4

  6

 40
0.0
 41
0.0
 42
0.0
 43
0.0
 44
210.0
 45
297.0
 46
0.0
 47
0.0
 48
0.0
 49
0.0
140
0.0
141
0.0
142
1.0
143
1.0
 70
1024
 72
1
 73
0
 74
0
  7

 75
0
147
1.0
148
0.0
149
0.0
100
AcDbLayout
  1
Model
 70
0
 71
0
 10
0.0
 20
0.0
 11
210.0
 21
297.0
 12
0.0
 22
0.0
 32
0.0
 14
0.0
 24
0.0
 34
0.0
 15
0.0
 25
0.0
 35
0.0
146
0.0
 13
0.0
 23
0.0
 33
0.0
 16
1.0
 26
0.0
 36
0.0
 17
0.0
 27
1.0
 37
0.0
 76
0
330
210
345
0
346
0
  0
LAYOUT
  5
35C
102
{ACAD_REACTORS
330
1A
102
}
100
AcDbPlotSettings
  1

  2
none_device
  4

  6

 40
0.0
 41
0.0
 42
0.0
 43
0.0
 44
210.0
 45
297.0
 46
0.0
 47
0.0
 48
0.0
 49
0.0
140
0.0
141
0.0
142
1.0
143
1.0
 70
0
 72
1
 73
0
 74
0
  7

 75
0
147
1.0
148
0.0
149
0.0
100
AcDbLayout
  1
Layout1
 70
0
 71
1
 10
0.0
 20
0.0
 11
210.0
 21
297.0
 12
0.0
 22
0.0
 32
0.0
 14
0.0
 24
0.0
 34
0.0
 15
0.0
 25
0.0
 35
0.0
146
0.0
 13
0.0
 23
0.0
 33
0.0
 16
1.0
 26
0.0
 36
0.0
 17
0.0
 27
1.0
 37
0.0
 76
0
330
211
345
0
346
0
  0
ENDSEC
  0
EOF
