999
DXF file: C:\Users\sesa63760\OneDrive - Schneider Electric\Documents\7-Dev\_Creo\CAD\MCADUE0000339_3D-CAD\drw0001_1.dxf
999
Pro/ENGINEER 2019471 by Parametric Technology Corporation
  0
SECTION
  2
HEADER
  9
$ACADVER
  1
AC1024
  9
$DWGCODEPAGE
  3
ANSI_1252
  9
$EXTMAX
 10
273.2461160586
 20
386.4480784258
 30
0.0
  9
$EXTMIN
 10
0.0
 20
0.0
 30
0.0
  9
$LIMMIN
 10
0.0
 20
0.0
  9
$LIMMAX
 10
273.2461160586
 20
386.4480784258
  9
$VIEWCTR
 10
136.6230580293
 20
193.2240392129
  9
$VIEWSIZE
 40
386.4480784258
  9
$CLAYER
  8
0
  9
$LTSCALE
 40
25.1906895566
  9
$CELTYPE
  6
BYLAYER
  9
$DIMSCALE
 40
1.0
  9
$DIMASZ
 40
3.2529299531
  9
$DIMEXO
 40
1.0
  9
$DIMDLI
 40
17.404476421
  9
$DIMEXE
 40
1.0
  9
$DIMCEN
 40
4.1221128365
  9
$DIMLFAC
 40
1.0
  9
$DIMBLK
  1
_FILLED
  9
$DIMALT
 70
0
  9
$DIMALTF
 40
0.0393700787
  9
$DIMTXT
 40
4.5541019343
  9
$DIMTOL
 70
1
  9
$DIMLIM
 70
0
  9
$DIMTFAC
 40
1.0
  9
$DIMTP
 40
0.01
  9
$DIMTM
 40
0.01
  9
$DIMGAP
 40
0.625
  9
$DIMDSEP
 70
46
  9
$AUNITS
 70
0
  9
$PDMODE
 70
3
  9
$PDSIZE
 40
0.3125
  9
$HANDSEED
  5
328
  9
$TILEMODE
 70
1
  9
$MEASUREMENT
 70
1
  9
$INSUNITS
 70
4
  0
ENDSEC
  0
SECTION
  2
CLASSES
  0
CLASS
  1
ACDBDICTIONARYWDFLT
  2
AcDbDictionaryWithDefault
  3
AutoCAD 2000
 90
0
 91
1
280
0
281
0
  0
CLASS
  1
ACDBPLACEHOLDER
  2
AcDbPlaceHolder
  3
AutoCAD 2000
 90
0
 91
1
280
0
281
0
  0
CLASS
  1
LAYOUT
  2
AcDbLayout
  3
AutoCAD 2000
 90
0
 91
0
280
0
281
0
  0
ENDSEC
  0
SECTION
  2
TABLES
  0
TABLE
  2
VPORT
  5
8
100
AcDbSymbolTable
 70
2
  0
VPORT
  5
1F4
100
AcDbSymbolTableRecord
100
AcDbViewportTableRecord
  2
*ACTIVE
 70
0
 10
0.0
 20
0.0
 11
1.0
 21
1.0
 12
136.6230580293
 22
193.2240392129
 13
0.0
 23
0.0
 14
1.0
 24
1.0
 15
0.0
 25
0.0
 16
0.0
 26
0.0
 36
1.0
 17
0.0
 27
0.0
 37
0.0
 40
386.4480784258
 41
0.7070707071
 42
50.0
 43
0.0
 44
0.0
 50
0.0
 51
0.0
 71
0
 72
100
 73
1
 74
1
 75
0
 76
0
 77
0
 78
0
  0
ENDTAB
  0
TABLE
  2
LTYPE
  5
5
100
AcDbSymbolTable
 70
6
  0
LTYPE
  5
14
100
AcDbSymbolTableRecord
100
AcDbLinetypeTableRecord
  2
BYBLOCK
 70
0
  3

 72
65
 73
0
 40
0.0
  0
LTYPE
  5
15
100
AcDbSymbolTableRecord
100
AcDbLinetypeTableRecord
  2
BYLAYER
 70
0
  3

 72
65
 73
0
 40
0.0
  0
LTYPE
  5
16
100
AcDbSymbolTableRecord
100
AcDbLinetypeTableRecord
  2
CONTINUOUS
 70
64
  3
Solid line
 72
65
 73
0
 40
0.0
  0
LTYPE
  5
1F5
100
AcDbSymbolTableRecord
100
AcDbLinetypeTableRecord
  2
CENTER
 70
64
  3
____ _ ____ _ ____ _ ____ _ ____ _ ____ _ ____
 72
65
 73
4
 40
0.6
 49
0.375
 74
0
 49
-0.075
 74
0
 49
0.075
 74
0
 49
-0.075
 74
0
  0
LTYPE
  5
1F6
100
AcDbSymbolTableRecord
100
AcDbLinetypeTableRecord
  2
HIDDEN
 70
64
  3
- - - - - - - - - - - - - - - - - - - -
 72
65
 73
2
 40
0.2
 49
0.1
 74
0
 49
-0.1
 74
0
  0
LTYPE
  5
1F7
100
AcDbSymbolTableRecord
100
AcDbLinetypeTableRecord
  2
PHANTOM
 70
64
  3
_____ _ _ _____ _ _ _____ _ _ _____
 72
65
 73
6
 40
0.8
 49
0.45
 74
0
 49
-0.05
 74
0
 49
0.1
 74
0
 49
-0.05
 74
0
 49
0.1
 74
0
 49
-0.05
 74
0
  0
LTYPE
  5
1F8
100
AcDbSymbolTableRecord
100
AcDbLinetypeTableRecord
  2
DOT
 70
64
  3
. . . . . . . . . . . . . . . . . . . .
 72
65
 73
2
 40
0.2
 49
0.1
 74
0
 49
-0.1
 74
0
  0
LTYPE
  5
1F9
100
AcDbSymbolTableRecord
100
AcDbLinetypeTableRecord
  2
DASHED
 70
64
  3
- - - - - - - - - - - - - - - - - - - -
 72
65
 73
2
 40
0.2
 49
0.1
 74
0
 49
-0.1
 74
0
  0
ENDTAB
  0
TABLE
  2
LAYER
  5
2
100
AcDbSymbolTable
 70
36
  0
LAYER
  5
10
100
AcDbSymbolTableRecord
100
AcDbLayerTableRecord
  2
0
 70
0
 62
7
  6
CONTINUOUS
370
-3
390
F
  0
LAYER
  5
1FA
100
AcDbSymbolTableRecord
100
AcDbLayerTableRecord
  2
DEFAULT_1
 70
0
 62
7
  6
CENTER
370
-3
390
F
  0
LAYER
  5
1FB
100
AcDbSymbolTableRecord
100
AcDbLayerTableRecord
  2
DEFAULT_2
 70
0
 62
8
  6
HIDDEN
370
-3
390
F
  0
LAYER
  5
1FC
100
AcDbSymbolTableRecord
100
AcDbLayerTableRecord
  2
DEFAULT_3
 70
0
 62
7
  6
PHANTOM
370
-3
390
F
  0
LAYER
  5
1FD
100
AcDbSymbolTableRecord
100
AcDbLayerTableRecord
  2
00_COMPONENTS
 70
0
 62
7
  6
CONTINUOUS
370
-3
390
F
  0
LAYER
  5
1FE
100
AcDbSymbolTableRecord
100
AcDbLayerTableRecord
  2
01_1_DEFAULT_DATUMS
 70
0
 62
7
  6
CONTINUOUS
370
-3
390
F
  0
LAYER
  5
1FF
100
AcDbSymbolTableRecord
100
AcDbLayerTableRecord
  2
01_PLANES
 70
0
 62
7
  6
CONTINUOUS
370
-3
390
F
  0
LAYER
  5
200
100
AcDbSymbolTableRecord
100
AcDbLayerTableRecord
  2
02_COORD_SYS
 70
0
 62
7
  6
CONTINUOUS
370
-3
390
F
  0
LAYER
  5
201
100
AcDbSymbolTableRecord
100
AcDbLayerTableRecord
  2
03_AXES
 70
0
 62
7
  6
CONTINUOUS
370
-3
390
F
  0
LAYER
  5
202
100
AcDbSymbolTableRecord
100
AcDbLayerTableRecord
  2
04_POINTS
 70
0
 62
7
  6
CONTINUOUS
370
-3
390
F
  0
LAYER
  5
203
100
AcDbSymbolTableRecord
100
AcDbLayerTableRecord
  2
05_CURVES
 70
0
 62
7
  6
CONTINUOUS
370
-3
390
F
  0
LAYER
  5
204
100
AcDbSymbolTableRecord
100
AcDbLayerTableRecord
  2
06_SURFS
 70
0
 62
7
  6
CONTINUOUS
370
-3
390
F
  0
LAYER
  5
205
100
AcDbSymbolTableRecord
100
AcDbLayerTableRecord
  2
07_COSMETICS
 70
0
 62
7
  6
CONTINUOUS
370
-3
390
F
  0
LAYER
  5
206
100
AcDbSymbolTableRecord
100
AcDbLayerTableRecord
  2
10_NOTES
 70
0
 62
7
  6
CONTINUOUS
370
-3
390
F
  0
LAYER
  5
207
100
AcDbSymbolTableRecord
100
AcDbLayerTableRecord
  2
11_NOTES_PUB
 70
0
 62
7
  6
CONTINUOUS
370
-3
390
F
  0
LAYER
  5
208
100
AcDbSymbolTableRecord
100
AcDbLayerTableRecord
  2
13_REF_GTOL
 70
0
 62
7
  6
CONTINUOUS
370
-3
390
F
  0
LAYER
  5
209
100
AcDbSymbolTableRecord
100
AcDbLayerTableRecord
  2
16_MISC
 70
0
 62
7
  6
CONTINUOUS
370
-3
390
F
  0
LAYER
  5
20A
100
AcDbSymbolTableRecord
100
AcDbLayerTableRecord
  2
17_NO_PRINT
 70
0
 62
7
  6
CONTINUOUS
370
-3
390
F
  0
LAYER
  5
20B
100
AcDbSymbolTableRecord
100
AcDbLayerTableRecord
  2
18_DATUM_CAMS_JOINTS
 70
0
 62
7
  6
CONTINUOUS
370
-3
390
F
  0
LAYER
  5
20C
100
AcDbSymbolTableRecord
100
AcDbLayerTableRecord
  2
19_DATUM_FUNCTIONAL
 70
0
 62
7
  6
CONTINUOUS
370
-3
390
F
  0
LAYER
  5
20D
100
AcDbSymbolTableRecord
100
AcDbLayerTableRecord
  2
20_DATUM_KINEMATIC_SCHEME
 70
0
 62
7
  6
CONTINUOUS
370
-3
390
F
  0
ENDTAB
  0
TABLE
  2
STYLE
  5
3
100
AcDbSymbolTable
 70
1
  0
STYLE
  5
11
100
AcDbSymbolTableRecord
100
AcDbTextStyleTableRecord
  2
STANDARD
 70
0
 40
0.0
 41
0.8
 50
0.0
 71
0
 42
0.2
  3
txt
  4

  0
STYLE
  5
20E
100
AcDbSymbolTableRecord
100
AcDbTextStyleTableRecord
  2
TEXTSTYLE_1
 70
0
 40
0.0
 41
0.8
 50
0.0
 71
0
 42
0.2
  3
gdt
  4

  0
ENDTAB
  0
TABLE
  2
VIEW
  5
6
100
AcDbSymbolTable
 70
0
  0
ENDTAB
  0
TABLE
  2
UCS
  5
7
100
AcDbSymbolTable
 70
0
  0
ENDTAB
  0
TABLE
  2
APPID
  5
9
100
AcDbSymbolTable
 70
1
  0
APPID
  5
20F
100
AcDbSymbolTableRecord
100
AcDbRegAppTableRecord
  2
ACAD
 70
0
  0
ENDTAB
  0
TABLE
  2
BLOCK_RECORD
  5
1
100
AcDbSymbolTable
 70
0
  0
BLOCK_RECORD
  5
210
100
AcDbSymbolTableRecord
100
AcDbBlockTableRecord
  2
*Model_Space
  0
BLOCK_RECORD
  5
211
100
AcDbSymbolTableRecord
100
AcDbBlockTableRecord
  2
*Paper_Space
  0
BLOCK_RECORD
  5
212
100
AcDbSymbolTableRecord
100
AcDbBlockTableRecord
  2
_FILLED
  0
ENDTAB
  0
TABLE
  2
DIMSTYLE
  5
A
100
AcDbSymbolTable
 70
1
100
AcDbDimStyleTable
 71
0
  0
DIMSTYLE
105
213
100
AcDbSymbolTableRecord
100
AcDbDimStyleTableRecord
  2
STANDARD
 70
0
  3

  4

 40
1.0
 41
3.2529299531
 42
1.0
 43
0.38
 44
1.0
 45
0.0
 46
0.0
 47
0.01
 48
0.01
140
4.5541019343
141
0.09
142
0.0
143
25.4
144
1.0
145
0.0
146
1.0
147
0.625
 71
1
 72
0
 73
0
 74
0
 75
0
 76
0
 77
1
 78
8
 79
2
170
0
171
1
172
0
173
0
174
0
175
0
176
0
177
0
178
0
270
2
179
2
271
2
272
2
273
2
274
2
275
0
280
0
281
0
282
0
283
1
284
8
285
0
286
0
287
3
288
0
340
11
278
46
341
212
342
212
343
212
344
212
  0
ENDTAB
  0
ENDSEC
  0
SECTION
  2
BLOCKS
  0
BLOCK
  5
20
100
AcDbEntity
  8
0
100
AcDbBlockBegin
  2
*Model_Space
 70
0
 10
0.0
 20
0.0
 30
0.0
  3
*Model_Space
  1

  0
ENDBLK
  5
21
100
AcDbEntity
  8
0
100
AcDbBlockEnd
  0
BLOCK
  5
1C
100
AcDbEntity
  8
0
100
AcDbBlockBegin
  2
*Paper_Space
 70
0
 10
0.0
 20
0.0
 30
0.0
  3
*Paper_Space
  1

  0
ENDBLK
  5
1D
100
AcDbEntity
  8
0
100
AcDbBlockEnd
  0
BLOCK
  5
214
100
AcDbEntity
  8
0
100
AcDbBlockBegin
  2
_FILLED
 70
64
 10
0.0
 20
0.0
  3
_FILLED
  1

  0
SOLID
  5
215
100
AcDbEntity
  8
0
  6
BYBLOCK
 62
0
100
AcDbTrace
 10
0.0
 20
0.0
 11
-1.0
 21
0.25
 12
-1.0
 22
-0.25
 13
-1.0
 23
-0.25
  0
ENDBLK
  5
216
100
AcDbEntity
  8
0
  6
BYBLOCK
 62
0
100
AcDbBlockEnd
  0
ENDSEC
  0
SECTION
  2
ENTITIES
  0
LINE
  5
217
100
AcDbEntity
  8
0
100
AcDbLine
 62
7
  6
CONTINUOUS
 10
32.9724907393
 20
40.3574409714
 11
31.699693234
 21
41.0922743296
  0
LINE
  5
218
100
AcDbEntity
  8
0
100
AcDbLine
 62
7
  6
CONTINUOUS
 10
68.9377264168
 20
45.6596896371
 11
44.2595970092
 21
59.9072919699
  0
LINE
  5
219
100
AcDbEntity
  8
0
100
AcDbLine
 62
7
  6
CONTINUOUS
 10
67.5500738679
 20
48.7268568354
 11
42.8719444603
 21
62.9744591602
  0
LINE
  5
21A
100
AcDbEntity
  8
0
100
AcDbLine
 62
7
  6
CONTINUOUS
 10
85.2276992379
 20
70.3640820578
 11
84.0256127052
 21
71.0580913404
  0
LINE
  5
21B
100
AcDbEntity
  8
0
100
AcDbLine
 62
7
  6
CONTINUOUS
 10
31.699693234
 20
233.541894047
 11
31.699693234
 21
41.0922743296
  0
LINE
  5
21C
100
AcDbEntity
  8
0
100
AcDbLine
 62
7
  6
CONTINUOUS
 10
32.9724907393
 20
232.8070606889
 11
32.9724907393
 21
40.3574409714
  0
LINE
  5
21D
100
AcDbEntity
  8
0
100
AcDbLine
 62
7
  6
CONTINUOUS
 10
86.6419069124
 20
109.9644351792
 11
85.4398203796
 21
110.6584444618
  0
LINE
  5
21E
100
AcDbEntity
  8
0
100
AcDbLine
 62
7
  6
CONTINUOUS
 10
42.8719444603
 20
62.9744591602
 11
42.8719444603
 21
238.5224788431
  0
LINE
  5
21F
100
AcDbEntity
  8
0
100
AcDbLine
 62
7
  6
CONTINUOUS
 10
228.2745599795
 20
347.0337688233
 11
217.1730297352
 21
340.6243356075
  0
LINE
  5
220
100
AcDbEntity
  8
0
100
AcDbLine
 62
7
  6
CONTINUOUS
 10
42.8012234783
 20
239.9513272628
 11
31.699693234
 21
233.541894047
  0
LINE
  5
221
100
AcDbEntity
  8
0
100
AcDbLine
 62
7
  6
CONTINUOUS
 10
229.5473574847
 20
346.2989354651
 11
219.6479037638
 21
340.5835173109
  0
LINE
  5
222
100
AcDbEntity
  8
0
100
AcDbLine
 62
7
  6
CONTINUOUS
 10
42.8719444603
 20
238.5224788431
 11
32.9724907393
 21
232.8070606889
  0
LINE
  5
223
100
AcDbEntity
  8
0
100
AcDbLine
 62
7
  6
CONTINUOUS
 10
122.2092199148
 20
93.1032756495
 11
123.4113064475
 21
92.4092663668
  0
LINE
  5
224
100
AcDbEntity
  8
0
100
AcDbLine
 62
7
  6
CONTINUOUS
 10
126.7412243956
 20
97.0423998393
 11
125.5391378628
 21
97.736409122
  0
LINE
  5
225
100
AcDbEntity
  8
0
100
AcDbLine
 62
7
  6
CONTINUOUS
 10
96.0463779378
 20
116.7821067699
 11
97.2484644706
 21
116.0880974872
  0
LINE
  5
226
100
AcDbEntity
  8
0
100
AcDbLine
 62
7
  6
CONTINUOUS
 10
102.0267495872
 20
123.0711121904
 11
100.8246630545
 21
123.765121473
  0
LINE
  5
227
100
AcDbEntity
  8
0
100
AcDbLine
 62
7
  6
CONTINUOUS
 10
129.4496021141
 20
112.6498906991
 11
130.6516886469
 21
111.9558814164
  0
LINE
  5
228
100
AcDbEntity
  8
0
100
AcDbLine
 62
7
  6
CONTINUOUS
 10
67.5500738679
 20
224.2748765103
 11
67.5500738679
 21
48.7268568354
  0
LINE
  5
229
100
AcDbEntity
  8
0
100
AcDbLine
 62
7
  6
CONTINUOUS
 10
74.6211416797
 20
48.7268854747
 11
74.6211416797
 21
224.2748935071
  0
LINE
  5
22A
100
AcDbEntity
  8
0
100
AcDbLine
 62
7
  6
CONTINUOUS
 10
150.634802755
 20
107.5545910745
 11
164.7768500595
 21
99.3898609673
  0
LINE
  5
22B
100
AcDbEntity
  8
0
100
AcDbLine
 62
7
  6
CONTINUOUS
 10
150.634802755
 20
108.9426451837
 11
163.5747635269
 21
101.471924359
  0
LINE
  5
22C
100
AcDbEntity
  8
0
100
AcDbLine
 62
7
  6
CONTINUOUS
 10
81.6921800519
 20
112.822243022
 11
81.6921800519
 21
143.0328324558
  0
LINE
  5
22D
100
AcDbEntity
  8
0
100
AcDbLine
 62
7
  6
CONTINUOUS
 10
81.8977812899
 20
172.2845140207
 11
85.8082455411
 21
187.1979955975
  0
LINE
  5
22E
100
AcDbEntity
  8
0
100
AcDbLine
 62
7
  6
CONTINUOUS
 10
241.921899555
 20
322.2534846573
 11
197.0353058058
 21
296.3383523657
  0
LINE
  5
22F
100
AcDbEntity
  8
0
100
AcDbLine
 62
7
  6
CONTINUOUS
 10
119.5077225691
 20
251.5780484974
 11
74.6211316702
 21
225.6629178513
  0
LINE
  5
230
100
AcDbEntity
  8
0
100
AcDbLine
 62
7
  6
CONTINUOUS
 10
244.326062611
 20
322.2534904362
 11
198.2373923385
 21
295.644343083
  0
LINE
  5
231
100
AcDbEntity
  8
0
100
AcDbLine
 62
7
  6
CONTINUOUS
 10
120.7098091019
 20
250.8840392147
 11
74.6211416797
 21
224.2748935071
  0
LINE
  5
232
100
AcDbEntity
  8
0
100
AcDbLine
 62
7
  6
CONTINUOUS
 10
85.2276992379
 20
168.7526233219
 11
84.0256127052
 21
169.4466326046
  0
LINE
  5
233
100
AcDbEntity
  8
0
100
AcDbLine
 62
7
  6
CONTINUOUS
 10
184.787908083
 20
268.8547957735
 11
131.7551202919
 21
238.2364842331
  0
LINE
  5
234
100
AcDbEntity
  8
0
100
AcDbLine
 62
7
  6
CONTINUOUS
 10
185.9899946157
 20
268.1607864908
 11
132.9572068247
 21
237.5424749504
  0
LINE
  5
235
100
AcDbEntity
  8
0
100
AcDbLine
 62
7
  6
CONTINUOUS
 10
107.8957014266
 20
158.0581524455
 11
109.0977879593
 21
157.3641431629
  0
LINE
  5
236
100
AcDbEntity
  8
0
100
AcDbLine
 62
7
  6
CONTINUOUS
 10
81.8977812899
 20
73.8959727565
 11
85.8082455411
 21
88.8094543334
  0
LINE
  5
237
100
AcDbEntity
  8
0
100
AcDbLine
 62
7
  6
CONTINUOUS
 10
167.1103121526
 20
140.9090433766
 11
168.3123986854
 21
140.2150340939
  0
LINE
  5
238
100
AcDbEntity
  8
0
100
AcDbLine
 62
7
  6
CONTINUOUS
 10
191.625433592
 20
131.7924759502
 11
190.4233470593
 21
132.4864852329
  0
LINE
  5
239
100
AcDbEntity
  8
0
100
AcDbLine
 62
7
  6
CONTINUOUS
 10
127.088019468
 20
104.8193950153
 11
127.088019468
 21
106.2074491244
  0
LINE
  5
23A
100
AcDbEntity
  8
0
100
AcDbLine
 62
7
  6
CONTINUOUS
 10
100.8246630545
 20
123.7651214731
 11
107.8957014266
 21
158.0581524455
  0
LINE
  5
23B
100
AcDbEntity
  8
0
100
AcDbLine
 62
7
  6
CONTINUOUS
 10
109.0977879593
 20
157.3641431628
 11
102.0267495872
 21
123.0711121904
  0
LINE
  5
23C
100
AcDbEntity
  8
0
100
AcDbLine
 62
7
  6
CONTINUOUS
 10
125.5391378628
 20
196.1249503861
 11
129.4496021141
 21
211.0384319631
  0
LINE
  5
23D
100
AcDbEntity
  8
0
100
AcDbLine
 62
7
  6
CONTINUOUS
 10
130.6516886469
 20
210.3444226805
 11
126.7412243956
 21
195.4309411035
  0
LINE
  5
23E
100
AcDbEntity
  8
0
100
AcDbLine
 62
7
  6
CONTINUOUS
 10
89.1381634893
 20
191.8311290702
 11
127.3217706988
 21
213.8763133793
  0
LINE
  5
23F
100
AcDbEntity
  8
0
100
AcDbLine
 62
7
  6
CONTINUOUS
 10
142.3370306663
 20
222.5453260164
 11
180.5206378758
 21
244.5905103255
  0
LINE
  5
240
100
AcDbEntity
  8
0
100
AcDbLine
 62
7
  6
CONTINUOUS
 10
195.5358978433
 20
253.2595229626
 11
233.7195050528
 21
275.3047072717
  0
LINE
  5
241
100
AcDbEntity
  8
0
100
AcDbLine
 62
7
  6
CONTINUOUS
 10
32.9724907393
 20
232.8070606889
 11
31.699693234
 21
233.541894047
  0
LINE
  5
242
100
AcDbEntity
  8
0
100
AcDbLine
 62
7
  6
CONTINUOUS
 10
135.0966484669
 20
202.9987109669
 11
139.0071127183
 21
217.9121925439
  0
LINE
  5
243
100
AcDbEntity
  8
0
100
AcDbLine
 62
7
  6
CONTINUOUS
 10
228.6069542688
 20
252.9202108061
 11
190.4233470593
 21
230.875026497
  0
LINE
  5
244
100
AcDbEntity
  8
0
100
AcDbLine
 62
7
  6
CONTINUOUS
 10
175.4080870918
 20
222.2060138598
 11
137.2244798822
 21
200.1608295508
  0
LINE
  5
245
100
AcDbEntity
  8
0
100
AcDbLine
 62
7
  6
CONTINUOUS
 10
122.2092199148
 20
191.4918169136
 11
84.0256127052
 21
169.4466326046
  0
LINE
  5
246
100
AcDbEntity
  8
0
100
AcDbLine
 62
7
  6
CONTINUOUS
 10
229.8090408016
 20
252.2262015234
 11
191.625433592
 21
230.1810172143
  0
LINE
  5
247
100
AcDbEntity
  8
0
100
AcDbLine
 62
7
  6
CONTINUOUS
 10
176.6101736245
 20
221.5120045772
 11
138.426566415
 21
199.4668202681
  0
LINE
  5
248
100
AcDbEntity
  8
0
100
AcDbLine
 62
7
  6
CONTINUOUS
 10
123.4113064475
 20
190.797807631
 11
85.2276992379
 21
168.7526233219
  0
LINE
  5
249
100
AcDbEntity
  8
0
100
AcDbLine
 62
7
  6
CONTINUOUS
 10
122.2092199148
 20
191.4918169136
 11
123.4113064475
 21
190.797807631
  0
LINE
  5
24A
100
AcDbEntity
  8
0
100
AcDbLine
 62
7
  6
CONTINUOUS
 10
67.5500738679
 20
224.2748765103
 11
42.8719444603
 21
238.5224788431
  0
LINE
  5
24B
100
AcDbEntity
  8
0
100
AcDbLine
 62
7
  6
CONTINUOUS
 10
67.5500638584
 20
225.6629008546
 11
42.8012234783
 21
239.9513272628
  0
LINE
  5
24C
100
AcDbEntity
  8
0
100
AcDbLine
 62
7
  6
CONTINUOUS
 10
126.7412243956
 20
195.4309411034
 11
125.5391378628
 21
196.1249503861
  0
LINE
  5
24D
100
AcDbEntity
  8
0
100
AcDbLine
 62
7
  6
CONTINUOUS
 10
150.634802755
 20
130.0089302471
 11
150.634802755
 21
91.2250654335
  0
LINE
  5
24E
100
AcDbEntity
  8
0
100
AcDbLine
 62
7
  6
CONTINUOUS
 10
125.5391378628
 20
97.736409122
 11
129.4496021141
 21
112.649890699
  0
LINE
  5
24F
100
AcDbEntity
  8
0
100
AcDbLine
 62
7
  6
CONTINUOUS
 10
130.6516886469
 20
111.9558814163
 11
126.7412243956
 21
97.0423998393
  0
LINE
  5
250
100
AcDbEntity
  8
0
100
AcDbLine
 62
7
  6
CONTINUOUS
 10
86.6419069124
 20
151.6060584528
 11
104.3195028427
 21
161.8121622996
  0
LINE
  5
251
100
AcDbEntity
  8
0
100
AcDbLine
 62
7
  6
CONTINUOUS
 10
221.6987398202
 20
229.5806918422
 11
232.3052973784
 21
235.7043541503
  0
LINE
  5
252
100
AcDbEntity
  8
0
100
AcDbLine
 62
7
  6
CONTINUOUS
 10
138.426566415
 20
199.4668202681
 11
137.2244798822
 21
200.1608295508
  0
LINE
  5
253
100
AcDbEntity
  8
0
100
AcDbLine
 62
7
  6
CONTINUOUS
 10
224.9509728858
 20
152.4209003059
 11
213.6375105492
 21
158.9525830696
  0
LINE
  5
254
100
AcDbEntity
  8
0
100
AcDbLine
 62
7
  6
CONTINUOUS
 10
129.4496021141
 20
211.0384319632
 11
130.6516886469
 21
210.3444226805
  0
LINE
  5
255
100
AcDbEntity
  8
0
100
AcDbLine
 62
7
  6
CONTINUOUS
 10
228.6069542688
 20
154.5316695419
 11
229.8090408016
 21
153.8376602593
  0
LINE
  5
256
100
AcDbEntity
  8
0
100
AcDbLine
 62
7
  6
CONTINUOUS
 10
187.8497575137
 20
272.6638008573
 11
197.0353058058
 21
296.3383523657
  0
LINE
  5
257
100
AcDbEntity
  8
0
100
AcDbLine
 62
7
  6
CONTINUOUS
 10
198.2373923385
 20
295.644343083
 11
189.0518440464
 21
271.9697915746
  0
LINE
  5
258
100
AcDbEntity
  8
0
100
AcDbLine
 62
7
  6
CONTINUOUS
 10
230.9601426919
 20
157.1165026249
 11
217.1730297352
 21
165.0763159247
  0
LINE
  5
259
100
AcDbEntity
  8
0
100
AcDbLine
 62
7
  6
CONTINUOUS
 10
233.1389587496
 20
158.4707937317
 11
231.9368722168
 21
159.1648030144
  0
LINE
  5
25A
100
AcDbEntity
  8
0
100
AcDbLine
 62
7
  6
CONTINUOUS
 10
130.4572552777
 20
237.2948459821
 11
129.895357394
 21
237.8159819523
  0
LINE
  5
25B
100
AcDbEntity
  8
0
100
AcDbLine
 62
7
  6
CONTINUOUS
 10
129.895357394
 20
237.8159819523
 11
120.7098091019
 21
250.8840392147
  0
LINE
  5
25C
100
AcDbEntity
  8
0
100
AcDbLine
 62
7
  6
CONTINUOUS
 10
167.1103121526
 20
140.9090433766
 11
167.1103121526
 21
103.5132326721
  0
LINE
  5
25D
100
AcDbEntity
  8
0
100
AcDbLine
 62
7
  6
CONTINUOUS
 10
168.3123986854
 20
140.2150340939
 11
168.3123986854
 21
101.4311692803
  0
LINE
  5
25E
100
AcDbEntity
  8
0
100
AcDbLine
 62
7
  6
CONTINUOUS
 10
178.7380050398
 20
226.8391473324
 11
182.6484692911
 21
241.7526289094
  0
LINE
  5
25F
100
AcDbEntity
  8
0
100
AcDbLine
 62
7
  6
CONTINUOUS
 10
183.8505558239
 20
241.0586196267
 11
179.9400915726
 21
226.1451380497
  0
LINE
  5
260
100
AcDbEntity
  8
0
100
AcDbLine
 62
7
  6
CONTINUOUS
 10
188.295515644
 20
233.7129079131
 11
192.2059798953
 21
248.6263894902
  0
LINE
  5
261
100
AcDbEntity
  8
0
100
AcDbLine
 62
7
  6
CONTINUOUS
 10
214.6277014481
 20
183.8566270299
 11
213.4256149153
 21
184.5506363126
  0
LINE
  5
262
100
AcDbEntity
  8
0
100
AcDbLine
 62
7
  6
CONTINUOUS
 10
235.8473364681
 20
174.0782845915
 11
237.0494230009
 21
173.3842753088
  0
LINE
  5
263
100
AcDbEntity
  8
0
100
AcDbLine
 62
7
  6
CONTINUOUS
 10
132.9572068247
 20
237.5424749504
 11
131.7551202919
 21
238.2364842331
  0
LINE
  5
264
100
AcDbEntity
  8
0
100
AcDbLine
 62
7
  6
CONTINUOUS
 10
231.1032108457
 20
194.7567401594
 11
213.4256149153
 21
184.5506363126
  0
LINE
  5
265
100
AcDbEntity
  8
0
100
AcDbLine
 62
7
  6
CONTINUOUS
 10
96.0463779378
 20
116.7821067699
 11
85.4398203796
 21
110.6584444618
  0
LINE
  5
266
100
AcDbEntity
  8
0
100
AcDbLine
 62
7
  6
CONTINUOUS
 10
232.3052973784
 20
194.0627308767
 11
214.6277014481
 21
183.8566270299
  0
LINE
  5
267
100
AcDbEntity
  8
0
100
AcDbLine
 62
7
  6
CONTINUOUS
 10
97.2484644706
 20
116.0880974872
 11
86.6419069124
 21
109.9644351792
  0
LINE
  5
268
100
AcDbEntity
  8
0
100
AcDbLine
 62
7
  6
CONTINUOUS
 10
120.7098091019
 20
250.8840392147
 11
119.5077225691
 21
251.5780484974
  0
LINE
  5
269
100
AcDbEntity
  8
0
100
AcDbLine
 62
7
  6
CONTINUOUS
 10
175.4080870918
 20
222.2060138598
 11
176.6101736245
 21
221.5120045772
  0
LINE
  5
26A
100
AcDbEntity
  8
0
100
AcDbLine
 62
7
  6
CONTINUOUS
 10
231.1032108457
 20
194.7567401594
 11
232.3052973784
 21
194.0627308767
  0
LINE
  5
26B
100
AcDbEntity
  8
0
100
AcDbLine
 62
7
  6
CONTINUOUS
 10
179.9400915726
 20
226.1451380497
 11
178.7380050398
 21
226.8391473323
  0
LINE
  5
26C
100
AcDbEntity
  8
0
100
AcDbLine
 62
7
  6
CONTINUOUS
 10
188.295515644
 20
135.324366649
 11
192.2059798953
 21
150.237848226
  0
LINE
  5
26D
100
AcDbEntity
  8
0
100
AcDbLine
 62
7
  6
CONTINUOUS
 10
89.1381634893
 20
93.4425878061
 11
127.3217706988
 21
115.4877721152
  0
LINE
  5
26E
100
AcDbEntity
  8
0
100
AcDbLine
 62
7
  6
CONTINUOUS
 10
195.5358978433
 20
154.8709816985
 11
233.7195050528
 21
176.9161660076
  0
LINE
  5
26F
100
AcDbEntity
  8
0
100
AcDbLine
 62
7
  6
CONTINUOUS
 10
237.2550242389
 20
202.6359568737
 11
236.0529377062
 21
203.3299661564
  0
LINE
  5
270
100
AcDbEntity
  8
0
100
AcDbLine
 62
7
  6
CONTINUOUS
 10
191.625433592
 20
230.1810172143
 11
190.4233470593
 21
230.875026497
  0
LINE
  5
271
100
AcDbEntity
  8
0
100
AcDbLine
 62
7
  6
CONTINUOUS
 10
182.6484692911
 20
241.7526289094
 11
183.8505558239
 21
241.0586196267
  0
LINE
  5
272
100
AcDbEntity
  8
0
100
AcDbLine
 62
7
  6
CONTINUOUS
 10
209.8494163315
 20
188.3046461667
 11
216.9204547036
 21
222.5976771391
  0
LINE
  5
273
100
AcDbEntity
  8
0
100
AcDbLine
 62
7
  6
CONTINUOUS
 10
231.9368722168
 20
257.5533442783
 11
235.8473364681
 21
272.4668258555
  0
LINE
  5
274
100
AcDbEntity
  8
0
100
AcDbLine
 62
7
  6
CONTINUOUS
 10
237.0494230009
 20
271.7728165729
 11
233.1389587495
 21
256.8593349956
  0
LINE
  5
275
100
AcDbEntity
  8
0
100
AcDbLine
 62
7
  6
CONTINUOUS
 10
213.6375105492
 20
158.9525830696
 11
191.0754946108
 21
145.9264748496
  0
LINE
  5
276
100
AcDbEntity
  8
0
100
AcDbLine
 62
7
  6
CONTINUOUS
 10
167.1103121526
 20
132.0902528973
 11
150.634802755
 21
122.578169891
  0
LINE
  5
277
100
AcDbEntity
  8
0
100
AcDbLine
 62
7
  6
CONTINUOUS
 10
128.7380287011
 20
109.9361369593
 11
84.6777602567
 21
84.4980809571
  0
LINE
  5
278
100
AcDbEntity
  8
0
100
AcDbLine
 62
7
  6
CONTINUOUS
 10
127.8802642686
 20
106.664849143
 11
127.088019468
 21
106.2074491244
  0
LINE
  5
279
100
AcDbEntity
  8
0
100
AcDbLine
 62
7
  6
CONTINUOUS
 10
127.451374641
 20
105.02917697
 11
127.088019468
 21
104.8193950153
  0
LINE
  5
27A
100
AcDbEntity
  8
0
100
AcDbLine
 62
7
  6
CONTINUOUS
 10
217.1730297352
 20
340.6243356075
 11
217.1730297352
 21
307.9648032966
  0
LINE
  5
27B
100
AcDbEntity
  8
0
100
AcDbLine
 62
7
  6
CONTINUOUS
 10
217.1730297352
 20
265.751652317
 11
217.1730297352
 21
246.3188708034
  0
LINE
  5
27C
100
AcDbEntity
  8
0
100
AcDbLine
 62
7
  6
CONTINUOUS
 10
217.1730297352
 20
223.2464560585
 11
217.1730297352
 21
186.7141943529
  0
LINE
  5
27D
100
AcDbEntity
  8
0
100
AcDbLine
 62
7
  6
CONTINUOUS
 10
217.1730297352
 20
167.3631110529
 11
217.1730297352
 21
165.0763159247
  0
LINE
  5
27E
100
AcDbEntity
  8
0
100
AcDbLine
 62
7
  6
CONTINUOUS
 10
228.6069542688
 20
154.5316695419
 11
190.4233470593
 21
132.4864852329
  0
LINE
  5
27F
100
AcDbEntity
  8
0
100
AcDbLine
 62
7
  6
CONTINUOUS
 10
122.2092199148
 20
93.1032756495
 11
84.0256127052
 21
71.0580913404
  0
LINE
  5
280
100
AcDbEntity
  8
0
100
AcDbLine
 62
7
  6
CONTINUOUS
 10
55.5469065279
 20
53.3907082056
 11
32.9724907393
 21
40.3574409714
  0
LINE
  5
281
100
AcDbEntity
  8
0
100
AcDbLine
 62
7
  6
CONTINUOUS
 10
229.8090408016
 20
153.8376602593
 11
191.625433592
 21
131.7924759502
  0
LINE
  5
282
100
AcDbEntity
  8
0
100
AcDbLine
 62
7
  6
CONTINUOUS
 10
123.4113064475
 20
92.4092663668
 11
85.2276992379
 21
70.3640820578
  0
LINE
  5
283
100
AcDbEntity
  8
0
100
AcDbLine
 62
7
  6
CONTINUOUS
 10
236.0529377062
 20
233.5405555902
 11
237.2550242389
 21
232.8465463075
  0
LINE
  5
284
100
AcDbEntity
  8
0
100
AcDbLine
 62
7
  6
CONTINUOUS
 10
184.787908083
 20
268.8547957735
 11
185.9899946157
 21
268.1607864908
  0
LINE
  5
285
100
AcDbEntity
  8
0
100
AcDbLine
 62
7
  6
CONTINUOUS
 10
229.5473574847
 20
346.2989354651
 11
229.5473574847
 21
334.8681943382
  0
LINE
  5
286
100
AcDbEntity
  8
0
100
AcDbLine
 62
7
  6
CONTINUOUS
 10
236.0529377062
 20
233.5405555902
 11
236.0529377062
 21
203.3299661564
  0
LINE
  5
287
100
AcDbEntity
  8
0
100
AcDbLine
 62
7
  6
CONTINUOUS
 10
237.2550242389
 20
232.8465463075
 11
237.2550242389
 21
202.6359568737
  0
LINE
  5
288
100
AcDbEntity
  8
0
100
AcDbLine
 62
7
  6
CONTINUOUS
 10
231.9368722168
 20
159.1648030142
 11
235.8473364681
 21
174.0782845914
  0
LINE
  5
289
100
AcDbEntity
  8
0
100
AcDbLine
 62
7
  6
CONTINUOUS
 10
237.0494230009
 20
173.3842753087
 11
233.1389587495
 21
158.4707937315
  0
LINE
  5
28A
100
AcDbEntity
  8
0
100
AcDbLine
 62
7
  6
CONTINUOUS
 10
167.1103427002
 20
103.5131797618
 11
163.5747635269
 21
101.471924359
  0
LINE
  5
28B
100
AcDbEntity
  8
0
100
AcDbLine
 62
7
  6
CONTINUOUS
 10
243.1239759983
 20
144.6233957575
 11
168.3123986854
 21
101.4311692803
  0
LINE
  5
28C
100
AcDbEntity
  8
0
100
AcDbLine
 62
7
  6
CONTINUOUS
 10
150.634802755
 20
91.2250654335
 11
75.8232282925
 21
48.0328406018
  0
LINE
  5
28D
100
AcDbEntity
  8
0
100
AcDbLine
 62
7
  6
CONTINUOUS
 10
242.0884262698
 20
142.3344718746
 11
167.2768388675
 21
99.1422395721
  0
LINE
  5
28E
100
AcDbEntity
  8
0
100
AcDbLine
 62
7
  6
CONTINUOUS
 10
149.5992429371
 20
88.9361357254
 11
74.7876583851
 21
45.7439050686
  0
LINE
  5
28F
100
AcDbEntity
  8
0
100
AcDbLine
 62
7
  6
CONTINUOUS
 10
189.0518440464
 20
271.9697915746
 11
187.8497575137
 21
272.6638008573
  0
LINE
  5
290
100
AcDbEntity
  8
0
100
AcDbLine
 62
7
  6
CONTINUOUS
 10
228.6069542688
 20
252.9202108061
 11
229.8090408016
 21
252.2262015234
  0
LINE
  5
291
100
AcDbEntity
  8
0
100
AcDbLine
 62
7
  6
CONTINUOUS
 10
241.9218701154
 20
326.3359091993
 11
241.9218701154
 21
322.2534846573
  0
LINE
  5
292
100
AcDbEntity
  8
0
100
AcDbLine
 62
7
  6
CONTINUOUS
 10
244.326062611
 20
322.2534904362
 11
244.326062611
 21
146.7054824039
  0
LINE
  5
293
100
AcDbEntity
  8
0
100
AcDbLine
 62
7
  6
CONTINUOUS
 10
245.7905139853
 20
324.2946942088
 11
245.7905139853
 21
148.746674526
  0
LINE
  5
294
100
AcDbEntity
  8
0
100
AcDbLine
 62
7
  6
CONTINUOUS
 10
233.1389587496
 20
256.8593349958
 11
231.9368722168
 21
257.5533442785
  0
LINE
  5
295
100
AcDbEntity
  8
0
100
AcDbLine
 62
7
  6
CONTINUOUS
 10
235.8473364681
 20
272.4668258556
 11
237.0494230009
 21
271.7728165729
  0
LINE
  5
296
100
AcDbEntity
  8
0
100
AcDbLine
 62
7
  6
CONTINUOUS
 10
198.2373923385
 20
295.644343083
 11
197.0353058058
 21
296.3383523657
  0
LINE
  5
297
100
AcDbEntity
  8
0
100
AcDbLine
 62
7
  6
CONTINUOUS
 10
241.9218701154
 20
326.3359091993
 11
217.1730297352
 21
340.6243356075
  0
LINE
  5
298
100
AcDbEntity
  8
0
100
AcDbLine
 62
7
  6
CONTINUOUS
 10
244.3260331714
 20
326.3359149782
 11
219.6479037638
 21
340.5835173109
  0
LINE
  5
299
100
AcDbEntity
  8
0
100
AcDbLine
 62
7
  6
CONTINUOUS
 10
229.5473574847
 20
346.2989354651
 11
228.2745599795
 21
347.0337688233
  0
ARC
  5
29A
100
AcDbEntity
  8
0
100
AcDbCircle
 62
7
  6
CONTINUOUS
 10
105.0869399202
 20
160.4941981308
 40
2.8324007342
100
AcDbArc
 50
33.8662935812
 51
35.159842003
  0
ARC
  5
29B
100
AcDbEntity
  8
0
100
AcDbCircle
 62
7
  6
CONTINUOUS
 10
233.0727344559
 20
234.3863899816
 40
2.832400734
100
AcDbArc
 50
33.8662935812
 51
35.159842003
  0
ARC
  5
29C
100
AcDbEntity
  8
0
100
AcDbCircle
 62
7
  6
CONTINUOUS
 10
105.2165014208
 20
160.5885765618
 40
2.6721304016
100
AcDbArc
 50
35.1051702784
 51
43.0211359589
  0
ARC
  5
29D
100
AcDbEntity
  8
0
100
AcDbCircle
 62
7
  6
CONTINUOUS
 10
233.2022959565
 20
234.4807684125
 40
2.6721304016
100
AcDbArc
 50
35.1051702784
 51
43.021135959
  0
SPLINE
  5
29E
100
AcDbEntity
  8
0
100
AcDbSpline
 62
7
  6
CONTINUOUS
 70
0
 71
3
 72
9
 73
5
 74
0
 42
0.0000001
 43
0.0000001
 44
0.0000000001
 40
0.0
 40
0.0
 40
0.0
 40
0.0
 40
0.2238561586
 40
1.0
 40
1.0
 40
1.0
 40
1.0
 10
188.5994444169
 20
132.0186741104
 30
0.0
 10
188.7404052492
 20
132.0020019321
 30
0.0
 10
189.3788169504
 20
131.9966170308
 30
0.0
 10
189.9971410845
 20
132.2404165675
 30
0.0
 10
190.4233470593
 20
132.4864852329
 30
0.0
  0
SPLINE
  5
29F
100
AcDbEntity
  8
0
100
AcDbSpline
 62
7
  6
CONTINUOUS
 70
0
 71
3
 72
17
 73
13
 74
0
 42
0.0000001
 43
0.0000001
 44
0.0000000001
 40
0.0
 40
0.0
 40
0.0
 40
0.0
 40
0.1286928496
 40
0.2702774076
 40
0.4174338359
 40
0.5617787742
 40
0.6954492451
 40
0.8127114968
 40
0.8646774768
 40
0.9125099352
 40
0.9571398475
 40
1.0
 40
1.0
 40
1.0
 40
1.0
 10
150.634802755
 20
130.0089302471
 30
0.0
 10
150.634802755
 20
131.0774005667
 30
0.0
 10
150.933679784
 20
133.3239435704
 30
0.0
 10
152.0493993534
 20
136.62247565
 30
0.0
 10
153.768429539
 20
139.8000670265
 30
0.0
 10
155.9527920447
 20
142.5961156671
 30
0.0
 10
158.4239576767
 20
144.7848027643
 30
0.0
 10
160.660751727
 20
146.0076216724
 30
0.0
 10
162.4103785158
 20
146.4733957061
 30
0.0
 10
163.6146102372
 20
146.5617036089
 30
0.0
 10
164.7359855545
 20
146.3976405522
 30
0.0
 10
165.4152525791
 20
146.1151614315
 30
0.0
 10
165.7234572738
 20
145.9372961764
 30
0.0
  0
SPLINE
  5
2A0
100
AcDbEntity
  8
0
100
AcDbSpline
 62
7
  6
CONTINUOUS
 70
0
 71
3
 72
9
 73
5
 74
0
 42
0.0000001
 43
0.0000001
 44
0.0000000001
 40
0.0
 40
0.0
 40
0.0
 40
0.0
 40
0.2369200566
 40
1.0
 40
1.0
 40
1.0
 40
1.0
 10
81.6921800519
 20
170.7939146382
 30
0.0
 10
81.6921800519
 20
170.9129340173
 30
0.0
 10
81.7112283537
 20
171.4152560806
 30
0.0
 10
81.8005521881
 20
171.9137078131
 30
0.0
 10
81.8977812899
 20
172.2845140207
 30
0.0
  0
SPLINE
  5
2A1
100
AcDbEntity
  8
0
100
AcDbSpline
 62
7
  6
CONTINUOUS
 70
0
 71
3
 72
11
 73
7
 74
0
 42
0.0000001
 43
0.0000001
 44
0.0000000001
 40
0.0
 40
0.0
 40
0.0
 40
0.0
 40
0.289702809
 40
0.549088757
 40
0.7822160314
 40
1.0
 40
1.0
 40
1.0
 40
1.0
 10
127.3217706988
 20
213.8763133793
 30
0.0
 10
127.5411617055
 20
214.00297808
 30
0.0
 10
127.9776011025
 20
214.2106049755
 30
0.0
 10
128.648417864
 20
214.3726011504
 30
0.0
 10
129.2778409456
 20
214.3566696518
 30
0.0
 10
129.6567880286
 20
214.2191501573
 30
0.0
 10
129.8217158068
 20
214.1239311952
 30
0.0
  0
SPLINE
  5
2A2
100
AcDbEntity
  8
0
100
AcDbSpline
 62
7
  6
CONTINUOUS
 70
0
 71
3
 72
11
 73
7
 74
0
 42
0.0000001
 43
0.0000001
 44
0.0000000001
 40
0.0
 40
0.0
 40
0.0
 40
0.0
 40
0.2550045963
 40
0.5171679725
 40
0.7702990524
 40
1.0
 40
1.0
 40
1.0
 40
1.0
 10
85.8082455411
 20
187.1979955975
 30
0.0
 10
85.9339738953
 20
187.6774904538
 30
0.0
 10
86.2894531452
 20
188.6252682474
 30
0.0
 10
87.0549428386
 20
189.9205904566
 30
0.0
 10
88.002954628
 20
191.0251181861
 30
0.0
 10
88.7514681777
 20
191.6078717607
 30
0.0
 10
89.1381634893
 20
191.8311290702
 30
0.0
  0
SPLINE
  5
2A3
100
AcDbEntity
  8
0
100
AcDbSpline
 62
7
  6
CONTINUOUS
 70
0
 71
3
 72
9
 73
5
 74
0
 42
0.0000001
 43
0.0000001
 44
0.0000000001
 40
0.0
 40
0.0
 40
0.0
 40
0.0
 40
0.2369200566
 40
1.0
 40
1.0
 40
1.0
 40
1.0
 10
134.8910472289
 20
201.5081115844
 30
0.0
 10
134.8910472289
 20
201.6271309635
 30
0.0
 10
134.9100955307
 20
202.1294530268
 30
0.0
 10
134.9994193651
 20
202.6279047593
 30
0.0
 10
135.0966484669
 20
202.9987109669
 30
0.0
  0
SPLINE
  5
2A4
100
AcDbEntity
  8
0
100
AcDbSpline
 62
7
  6
CONTINUOUS
 70
0
 71
3
 72
11
 73
7
 74
0
 42
0.0000001
 43
0.0000001
 44
0.0000000001
 40
0.0
 40
0.0
 40
0.0
 40
0.0
 40
0.289702809
 40
0.549088757
 40
0.7822160314
 40
1.0
 40
1.0
 40
1.0
 40
1.0
 10
180.5206378758
 20
244.5905103255
 30
0.0
 10
180.7400288825
 20
244.7171750262
 30
0.0
 10
181.1764682795
 20
244.9248019217
 30
0.0
 10
181.847285041
 20
245.0867980966
 30
0.0
 10
182.4767081226
 20
245.070866598
 30
0.0
 10
182.8556552056
 20
244.9333471035
 30
0.0
 10
183.0205829838
 20
244.8381281414
 30
0.0
  0
SPLINE
  5
2A5
100
AcDbEntity
  8
0
100
AcDbSpline
 62
7
  6
CONTINUOUS
 70
0
 71
3
 72
11
 73
7
 74
0
 42
0.0000001
 43
0.0000001
 44
0.0000000001
 40
0.0
 40
0.0
 40
0.0
 40
0.0
 40
0.2550045963
 40
0.5171679725
 40
0.7702990524
 40
1.0
 40
1.0
 40
1.0
 40
1.0
 10
139.0071127183
 20
217.9121925439
 30
0.0
 10
139.1328410725
 20
218.3916874002
 30
0.0
 10
139.4883203223
 20
219.3394651938
 30
0.0
 10
140.2538100157
 20
220.6347874029
 30
0.0
 10
141.2018218051
 20
221.7393151323
 30
0.0
 10
141.9503353548
 20
222.3220687069
 30
0.0
 10
142.3370306663
 20
222.5453260164
 30
0.0
  0
SPLINE
  5
2A6
100
AcDbEntity
  8
0
100
AcDbSpline
 62
7
  6
CONTINUOUS
 70
0
 71
3
 72
9
 73
5
 74
0
 42
0.0000001
 43
0.0000001
 44
0.0000000001
 40
0.0
 40
0.0
 40
0.0
 40
0.0
 40
0.2369200566
 40
1.0
 40
1.0
 40
1.0
 40
1.0
 10
188.0899144059
 20
232.2223085306
 30
0.0
 10
188.0899144059
 20
232.3413279097
 30
0.0
 10
188.1089627077
 20
232.843649973
 30
0.0
 10
188.1982865421
 20
233.3421017055
 30
0.0
 10
188.295515644
 20
233.7129079131
 30
0.0
  0
SPLINE
  5
2A7
100
AcDbEntity
  8
0
100
AcDbSpline
 62
7
  6
CONTINUOUS
 70
0
 71
3
 72
11
 73
7
 74
0
 42
0.0000001
 43
0.0000001
 44
0.0000000001
 40
0.0
 40
0.0
 40
0.0
 40
0.0
 40
0.289702809
 40
0.549088757
 40
0.7822160314
 40
1.0
 40
1.0
 40
1.0
 40
1.0
 10
233.7195050528
 20
275.3047072717
 30
0.0
 10
233.9388960595
 20
275.4313719724
 30
0.0
 10
234.3753354565
 20
275.6389988679
 30
0.0
 10
235.046152218
 20
275.8009950428
 30
0.0
 10
235.6755752996
 20
275.7850635442
 30
0.0
 10
236.0545223826
 20
275.6475440497
 30
0.0
 10
236.2194501608
 20
275.5523250876
 30
0.0
  0
SPLINE
  5
2A8
100
AcDbEntity
  8
0
100
AcDbSpline
 62
7
  6
CONTINUOUS
 70
0
 71
3
 72
11
 73
7
 74
0
 42
0.0000001
 43
0.0000001
 44
0.0000000001
 40
0.0
 40
0.0
 40
0.0
 40
0.0
 40
0.2550045963
 40
0.5171679725
 40
0.7702990524
 40
1.0
 40
1.0
 40
1.0
 40
1.0
 10
192.2059798953
 20
248.6263894902
 30
0.0
 10
192.3317082495
 20
249.1058843464
 30
0.0
 10
192.6871874993
 20
250.05366214
 30
0.0
 10
193.4526771927
 20
251.3489843491
 30
0.0
 10
194.4006889821
 20
252.4535120786
 30
0.0
 10
195.1492025318
 20
253.0362656531
 30
0.0
 10
195.5358978433
 20
253.2595229626
 30
0.0
  0
SPLINE
  5
2A9
100
AcDbEntity
  8
0
100
AcDbSpline
 62
7
  6
CONTINUOUS
 70
0
 71
3
 72
11
 73
7
 74
0
 42
0.0000001
 43
0.0000001
 44
0.0000000001
 40
0.0
 40
0.0
 40
0.0
 40
0.0
 40
0.289702809
 40
0.549088757
 40
0.7822160314
 40
1.0
 40
1.0
 40
1.0
 40
1.0
 10
104.3195028427
 20
161.8121622996
 30
0.0
 10
104.6266502521
 20
161.9894928805
 30
0.0
 10
105.2376654079
 20
162.2801705342
 30
0.0
 10
106.176808874
 20
162.5069651791
 30
0.0
 10
107.0580011882
 20
162.484661081
 30
0.0
 10
107.5885271044
 20
162.2921337888
 30
0.0
 10
107.8194259939
 20
162.1588272419
 30
0.0
  0
SPLINE
  5
2AA
100
AcDbEntity
  8
0
100
AcDbSpline
 62
7
  6
CONTINUOUS
 70
0
 71
3
 72
11
 73
7
 74
0
 42
0.0000001
 43
0.0000001
 44
0.0000000001
 40
0.0
 40
0.0
 40
0.0
 40
0.0
 40
0.2372416196
 40
0.5000015492
 40
0.7627606319
 40
1.0
 40
1.0
 40
1.0
 40
1.0
 10
81.6921800519
 20
143.0328324558
 30
0.0
 10
81.6921800519
 20
143.8442737006
 30
0.0
 10
81.9965448265
 20
145.5555382702
 30
0.0
 10
83.057314944
 20
147.960159971
 30
0.0
 10
84.6093775009
 20
150.0811267035
 30
0.0
 10
85.939183801
 20
151.2003434971
 30
0.0
 10
86.6419069124
 20
151.6060584528
 30
0.0
  0
SPLINE
  5
2AB
100
AcDbEntity
  8
0
100
AcDbSpline
 62
7
  6
CONTINUOUS
 70
0
 71
3
 72
11
 73
7
 74
0
 42
0.0000001
 43
0.0000001
 44
0.0000000001
 40
0.0
 40
0.0
 40
0.0
 40
0.0
 40
0.289702809
 40
0.549088757
 40
0.7822160314
 40
1.0
 40
1.0
 40
1.0
 40
1.0
 10
232.3052973784
 20
235.7043541503
 30
0.0
 10
232.6124447878
 20
235.8816847313
 30
0.0
 10
233.2234599436
 20
236.172362385
 30
0.0
 10
234.1626034096
 20
236.3991570298
 30
0.0
 10
235.0437957239
 20
236.3768529318
 30
0.0
 10
235.5743216401
 20
236.1843256395
 30
0.0
 10
235.8052205295
 20
236.0510190926
 30
0.0
  0
SPLINE
  5
2AC
100
AcDbEntity
  8
0
100
AcDbSpline
 62
7
  6
CONTINUOUS
 70
0
 71
3
 72
11
 73
7
 74
0
 42
0.0000001
 43
0.0000001
 44
0.0000000001
 40
0.0
 40
0.0
 40
0.0
 40
0.0
 40
0.2515973644
 40
0.5140372145
 40
0.7690457998
 40
1.0
 40
1.0
 40
1.0
 40
1.0
 10
216.9204547036
 20
222.5976771391
 30
0.0
 10
217.0673234173
 20
223.3099591382
 30
0.0
 10
217.5364265633
 20
224.7328662239
 30
0.0
 10
218.6204890057
 20
226.6872768215
 30
0.0
 10
220.0066619782
 20
228.3638454837
 30
0.0
 10
221.1205846197
 20
229.2468957741
 30
0.0
 10
221.6987398202
 20
229.5806918422
 30
0.0
  0
SPLINE
  5
2AD
100
AcDbEntity
  8
0
100
AcDbSpline
 62
7
  6
CONTINUOUS
 70
0
 71
3
 72
9
 73
5
 74
0
 42
0.0000001
 43
0.0000001
 44
0.0000000001
 40
0.0
 40
0.0
 40
0.0
 40
0.0
 40
0.2393856904
 40
1.0
 40
1.0
 40
1.0
 40
1.0
 10
209.6779745876
 20
186.7144348727
 30
0.0
 10
209.6779745876
 20
186.842187702
 30
0.0
 10
209.6934828911
 20
187.3758241623
 30
0.0
 10
209.76744297
 20
187.9070928124
 30
0.0
 10
209.8494163315
 20
188.3046461667
 30
0.0
  0
SPLINE
  5
2AE
100
AcDbEntity
  8
0
100
AcDbSpline
 62
7
  6
CONTINUOUS
 70
0
 71
3
 72
11
 73
7
 74
0
 42
0.0000001
 43
0.0000001
 44
0.0000000001
 40
0.0
 40
0.0
 40
0.0
 40
0.0
 40
0.289702809
 40
0.549088757
 40
0.7822160314
 40
1.0
 40
1.0
 40
1.0
 40
1.0
 10
127.3217706988
 20
115.4877721152
 30
0.0
 10
127.5411617055
 20
115.6144368159
 30
0.0
 10
127.9776011025
 20
115.8220637114
 30
0.0
 10
128.648417864
 20
115.9840598862
 30
0.0
 10
129.2778409456
 20
115.9681283877
 30
0.0
 10
129.6567880286
 20
115.8306088932
 30
0.0
 10
129.8217158068
 20
115.7353899311
 30
0.0
  0
SPLINE
  5
2AF
100
AcDbEntity
  8
0
100
AcDbSpline
 62
7
  6
CONTINUOUS
 70
0
 71
3
 72
11
 73
7
 74
0
 42
0.0000001
 43
0.0000001
 44
0.0000000001
 40
0.0
 40
0.0
 40
0.0
 40
0.0
 40
0.2550045963
 40
0.5171679725
 40
0.7702990524
 40
1.0
 40
1.0
 40
1.0
 40
1.0
 10
85.8082455411
 20
88.8094543334
 30
0.0
 10
85.9339738953
 20
89.2889491897
 30
0.0
 10
86.2894531452
 20
90.2367269833
 30
0.0
 10
87.0549428386
 20
91.5320491925
 30
0.0
 10
88.002954628
 20
92.636576922
 30
0.0
 10
88.7514681777
 20
93.2193304966
 30
0.0
 10
89.1381634893
 20
93.4425878061
 30
0.0
  0
SPLINE
  5
2B0
100
AcDbEntity
  8
0
100
AcDbSpline
 62
7
  6
CONTINUOUS
 70
0
 71
3
 72
9
 73
5
 74
0
 42
0.0000001
 43
0.0000001
 44
0.0000000001
 40
0.0
 40
0.0
 40
0.0
 40
0.0
 40
0.2369200566
 40
1.0
 40
1.0
 40
1.0
 40
1.0
 10
81.6921800519
 20
72.4053733741
 30
0.0
 10
81.6921800519
 20
72.5243927532
 30
0.0
 10
81.7112283537
 20
73.0267148165
 30
0.0
 10
81.8005521881
 20
73.525166549
 30
0.0
 10
81.8977812899
 20
73.8959727565
 30
0.0
  0
SPLINE
  5
2B1
100
AcDbEntity
  8
0
100
AcDbSpline
 62
7
  6
CONTINUOUS
 70
0
 71
3
 72
11
 73
7
 74
0
 42
0.0000001
 43
0.0000001
 44
0.0000000001
 40
0.0
 40
0.0
 40
0.0
 40
0.0
 40
0.2550045963
 40
0.5171679725
 40
0.7702990524
 40
1.0
 40
1.0
 40
1.0
 40
1.0
 10
192.2059798953
 20
150.237848226
 30
0.0
 10
192.3317082495
 20
150.7173430823
 30
0.0
 10
192.6871874993
 20
151.6651208759
 30
0.0
 10
193.4526771927
 20
152.960443085
 30
0.0
 10
194.4006889821
 20
154.0649708144
 30
0.0
 10
195.1492025318
 20
154.647724389
 30
0.0
 10
195.5358978433
 20
154.8709816985
 30
0.0
  0
SPLINE
  5
2B2
100
AcDbEntity
  8
0
100
AcDbSpline
 62
7
  6
CONTINUOUS
 70
0
 71
3
 72
9
 73
5
 74
0
 42
0.0000001
 43
0.0000001
 44
0.0000000001
 40
0.0
 40
0.0
 40
0.0
 40
0.0
 40
0.2369200566
 40
1.0
 40
1.0
 40
1.0
 40
1.0
 10
188.0899144059
 20
133.8337672665
 30
0.0
 10
188.0899144059
 20
133.9527866456
 30
0.0
 10
188.1089627077
 20
134.4551087089
 30
0.0
 10
188.1982865421
 20
134.9535604414
 30
0.0
 10
188.295515644
 20
135.324366649
 30
0.0
  0
SPLINE
  5
2B3
100
AcDbEntity
  8
0
100
AcDbSpline
 62
7
  6
CONTINUOUS
 70
0
 71
3
 72
11
 73
7
 74
0
 42
0.0000001
 43
0.0000001
 44
0.0000000001
 40
0.0
 40
0.0
 40
0.0
 40
0.0
 40
0.289702809
 40
0.549088757
 40
0.7822160314
 40
1.0
 40
1.0
 40
1.0
 40
1.0
 10
233.7195050528
 20
176.9161660076
 30
0.0
 10
233.9388960595
 20
177.0428307083
 30
0.0
 10
234.3753354565
 20
177.2504576038
 30
0.0
 10
235.046152218
 20
177.4124537787
 30
0.0
 10
235.6755752996
 20
177.3965222801
 30
0.0
 10
236.0545223826
 20
177.2590027856
 30
0.0
 10
236.2194501608
 20
177.1637838235
 30
0.0
  0
SPLINE
  5
2B4
100
AcDbEntity
  8
0
100
AcDbSpline
 62
7
  6
CONTINUOUS
 70
0
 71
3
 72
11
 73
7
 74
0
 42
0.0000001
 43
0.0000001
 44
0.0000000001
 40
0.0
 40
0.0
 40
0.0
 40
0.0
 40
0.2372398078
 40
0.4999994051
 40
0.7627593222
 40
1.0
 40
1.0
 40
1.0
 40
1.0
 10
74.6211316702
 20
225.6629178513
 30
0.0
 10
74.1191862527
 20
225.3731212593
 30
0.0
 10
72.9519186461
 20
224.950239513
 30
0.0
 10
71.0856037522
 20
224.7476321122
 30
0.0
 10
69.2192857714
 20
224.9502308363
 30
0.0
 10
68.0520132064
 20
225.3731068195
 30
0.0
 10
67.5500638584
 20
225.6629008546
 30
0.0
  0
SPLINE
  5
2B5
100
AcDbEntity
  8
0
100
AcDbSpline
 62
7
  6
CONTINUOUS
 70
0
 71
3
 72
11
 73
7
 74
0
 42
0.0000001
 43
0.0000001
 44
0.0000000001
 40
0.0
 40
0.0
 40
0.0
 40
0.0
 40
0.2177825102
 40
0.4509091639
 40
0.7102957096
 40
1.0
 40
1.0
 40
1.0
 40
1.0
 10
189.1254884841
 20
131.5448581343
 30
0.0
 10
188.9605552774
 20
131.6400802304
 30
0.0
 10
188.6519716
 20
131.899503497
 30
0.0
 10
188.3234481384
 20
132.4366532228
 30
0.0
 10
188.1283246333
 20
133.0986233196
 30
0.0
 10
188.0899144059
 20
133.580425401
 30
0.0
 10
188.0899144059
 20
133.8337672665
 30
0.0
  0
SPLINE
  5
2B6
100
AcDbEntity
  8
0
100
AcDbSpline
 62
7
  6
CONTINUOUS
 70
0
 71
3
 72
9
 73
5
 74
0
 42
0.0000001
 43
0.0000001
 44
0.0000000001
 40
0.0
 40
0.0
 40
0.0
 40
0.0
 40
0.2238561586
 40
1.0
 40
1.0
 40
1.0
 40
1.0
 10
82.2017100628
 20
70.590280218
 30
0.0
 10
82.3426708951
 20
70.5736080397
 30
0.0
 10
82.9810825963
 20
70.5682231384
 30
0.0
 10
83.5994067304
 20
70.812022675
 30
0.0
 10
84.0256127052
 20
71.0580913404
 30
0.0
  0
SPLINE
  5
2B7
100
AcDbEntity
  8
0
100
AcDbSpline
 62
7
  6
CONTINUOUS
 70
0
 71
3
 72
11
 73
7
 74
0
 42
0.0000001
 43
0.0000001
 44
0.0000000001
 40
0.0
 40
0.0
 40
0.0
 40
0.0
 40
0.2177825102
 40
0.4509091639
 40
0.7102957096
 40
1.0
 40
1.0
 40
1.0
 40
1.0
 10
82.72775413
 20
70.1164642418
 30
0.0
 10
82.5628209233
 20
70.211686338
 30
0.0
 10
82.2542372459
 20
70.4711096046
 30
0.0
 10
81.9257137843
 20
71.0082593304
 30
0.0
 10
81.7305902792
 20
71.6702294271
 30
0.0
 10
81.6921800519
 20
72.1520315085
 30
0.0
 10
81.6921800519
 20
72.4053733741
 30
0.0
  0
SPLINE
  5
2B8
100
AcDbEntity
  8
0
100
AcDbSpline
 62
7
  6
CONTINUOUS
 70
0
 71
3
 72
9
 73
5
 74
0
 42
0.0000001
 43
0.0000001
 44
0.0000000001
 40
0.0
 40
0.0
 40
0.0
 40
0.0
 40
0.2771412306
 40
1.0
 40
1.0
 40
1.0
 40
1.0
 10
167.1103121526
 20
140.9090433766
 30
0.0
 10
167.1103121526
 20
141.3074889115
 30
0.0
 10
167.0387288833
 20
142.7398666806
 30
0.0
 10
166.6413483829
 20
144.1878269627
 30
0.0
 10
166.095168569
 20
145.0719843931
 30
0.0
  0
SPLINE
  5
2B9
100
AcDbEntity
  8
0
100
AcDbSpline
 62
7
  6
CONTINUOUS
 70
0
 71
3
 72
9
 73
5
 74
0
 42
0.0000001
 43
0.0000001
 44
0.0000000001
 40
0.0
 40
0.0
 40
0.0
 40
0.0
 40
0.2548930116
 40
1.0
 40
1.0
 40
1.0
 40
1.0
 10
166.095168569
 20
145.0719843931
 30
0.0
 10
166.054818115
 20
145.1373038224
 30
0.0
 10
165.8909797354
 20
145.3900867039
 30
0.0
 10
165.70454425
 20
145.628369965
 30
0.0
 10
165.5536708757
 20
145.7945303212
 30
0.0
  0
SPLINE
  5
2BA
100
AcDbEntity
  8
0
100
AcDbSpline
 62
7
  6
CONTINUOUS
 70
0
 71
3
 72
9
 73
5
 74
0
 42
0.0000001
 43
0.0000001
 44
0.0000000001
 40
0.0
 40
0.0
 40
0.0
 40
0.0
 40
0.2528019523
 40
1.0
 40
1.0
 40
1.0
 40
1.0
 10
165.5536708757
 20
145.7945303212
 30
0.0
 10
165.5084052688
 20
145.8443823869
 30
0.0
 10
165.3250584973
 20
146.0376303077
 30
0.0
 10
165.1243493052
 20
146.2144914796
 30
0.0
 10
164.9660745268
 20
146.3351551179
 30
0.0
  0
SPLINE
  5
2BB
100
AcDbEntity
  8
0
100
AcDbSpline
 62
7
  6
CONTINUOUS
 70
0
 71
3
 72
10
 73
6
 74
0
 42
0.0000001
 43
0.0000001
 44
0.0000000001
 40
0.0
 40
0.0
 40
0.0
 40
0.0
 40
0.2283148273
 40
0.4782609467
 40
1.0
 40
1.0
 40
1.0
 40
1.0
 10
184.787908083
 20
268.8547957735
 30
0.0
 10
185.114861661
 20
269.043561383
 30
0.0
 10
185.7540485953
 20
269.5205873637
 30
0.0
 10
186.8870828371
 20
270.7309145796
 30
0.0
 10
187.5376912282
 20
271.8594907481
 30
0.0
 10
187.8497575137
 20
272.6638008573
 30
0.0
  0
SPLINE
  5
2BC
100
AcDbEntity
  8
0
100
AcDbSpline
 62
7
  6
CONTINUOUS
 70
0
 71
3
 72
9
 73
5
 74
0
 42
0.0000001
 43
0.0000001
 44
0.0000000001
 40
0.0
 40
0.0
 40
0.0
 40
0.0
 40
0.4572152007
 40
1.0
 40
1.0
 40
1.0
 40
1.0
 10
210.5841920076
 20
183.9458381401
 30
0.0
 10
211.0229920377
 20
183.843847569
 30
0.0
 10
212.0449142824
 20
183.8837392406
 30
0.0
 10
212.9624558224
 20
184.2832328818
 30
0.0
 10
213.4256149153
 20
184.5506363126
 30
0.0
  0
SPLINE
  5
2BD
100
AcDbEntity
  8
0
100
AcDbSpline
 62
7
  6
CONTINUOUS
 70
0
 71
3
 72
11
 73
7
 74
0
 42
0.0000001
 43
0.0000001
 44
0.0000000001
 40
0.0
 40
0.0
 40
0.0
 40
0.0
 40
0.2177825102
 40
0.4509091639
 40
0.7102957096
 40
1.0
 40
1.0
 40
1.0
 40
1.0
 10
211.127778297
 20
183.5099620876
 30
0.0
 10
210.8968718077
 20
183.6432730222
 30
0.0
 10
210.4648546593
 20
184.0064655954
 30
0.0
 10
210.004921813
 20
184.7584752116
 30
0.0
 10
209.7317489059
 20
185.685233347
 30
0.0
 10
209.6779745876
 20
186.359756261
 30
0.0
 10
209.6779745876
 20
186.7144348727
 30
0.0
  0
SPLINE
  5
2BE
100
AcDbEntity
  8
0
100
AcDbSpline
 62
7
  6
CONTINUOUS
 70
0
 71
3
 72
9
 73
5
 74
0
 42
0.0000001
 43
0.0000001
 44
0.0000000001
 40
0.0
 40
0.0
 40
0.0
 40
0.0
 40
0.2736813819
 40
1.0
 40
1.0
 40
1.0
 40
1.0
 10
129.6552033521
 20
212.5290313457
 30
0.0
 10
129.6552033521
 20
212.6713264271
 30
0.0
 10
129.6317787969
 20
213.1899169195
 30
0.0
 10
129.5055714432
 20
213.7117055869
 30
0.0
 10
129.3322358325
 20
214.0472092061
 30
0.0
  0
SPLINE
  5
2BF
100
AcDbEntity
  8
0
100
AcDbSpline
 62
7
  6
CONTINUOUS
 70
0
 71
3
 72
8
 73
4
 74
0
 42
0.0000001
 43
0.0000001
 44
0.0000000001
 40
0.0
 40
0.0
 40
0.0
 40
0.0
 40
1.0
 40
1.0
 40
1.0
 40
1.0
 10
129.3322358325
 20
214.0472092061
 30
0.0
 10
129.2873563353
 20
214.134076721
 30
0.0
 10
129.2368134538
 20
214.2183106867
 30
0.0
 10
129.1805050122
 20
214.2982449961
 30
0.0
  0
SPLINE
  5
2C0
100
AcDbEntity
  8
0
100
AcDbSpline
 62
7
  6
CONTINUOUS
 70
0
 71
3
 72
9
 73
5
 74
0
 42
0.0000001
 43
0.0000001
 44
0.0000000001
 40
0.0
 40
0.0
 40
0.0
 40
0.0
 40
0.2627401939
 40
1.0
 40
1.0
 40
1.0
 40
1.0
 10
129.4496021141
 20
211.0384319631
 30
0.0
 10
129.4830760666
 20
211.166092809
 30
0.0
 10
129.5968811546
 20
211.655259266
 30
0.0
 10
129.6552033521
 20
212.1586998454
 30
0.0
 10
129.6552033521
 20
212.5290313457
 30
0.0
  0
SPLINE
  5
2C1
100
AcDbEntity
  8
0
100
AcDbSpline
 62
7
  6
CONTINUOUS
 70
0
 71
3
 72
11
 73
7
 74
0
 42
0.0000001
 43
0.0000001
 44
0.0000000001
 40
0.0
 40
0.0
 40
0.0
 40
0.0
 40
0.2297009476
 40
0.4828320275
 40
0.7449954037
 40
1.0
 40
1.0
 40
1.0
 40
1.0
 10
122.2092199148
 20
191.4918169136
 30
0.0
 10
122.5959152263
 20
191.7150742232
 30
0.0
 10
123.344428776
 20
192.2978277977
 30
0.0
 10
124.2924405654
 20
193.4023555272
 30
0.0
 10
125.0579302588
 20
194.6976777363
 30
0.0
 10
125.4134095086
 20
195.6454555299
 30
0.0
 10
125.5391378628
 20
196.1249503861
 30
0.0
  0
SPLINE
  5
2C2
100
AcDbEntity
  8
0
100
AcDbSpline
 62
7
  6
CONTINUOUS
 70
0
 71
3
 72
9
 73
5
 74
0
 42
0.0000001
 43
0.0000001
 44
0.0000000001
 40
0.0
 40
0.0
 40
0.0
 40
0.0
 40
0.4572152007
 40
1.0
 40
1.0
 40
1.0
 40
1.0
 10
82.5983974719
 20
110.0536462893
 30
0.0
 10
83.037197502
 20
109.9516557182
 30
0.0
 10
84.0591197467
 20
109.9915473899
 30
0.0
 10
84.9766612866
 20
110.391041031
 30
0.0
 10
85.4398203796
 20
110.6584444618
 30
0.0
  0
SPLINE
  5
2C3
100
AcDbEntity
  8
0
100
AcDbSpline
 62
7
  6
CONTINUOUS
 70
0
 71
3
 72
11
 73
7
 74
0
 42
0.0000001
 43
0.0000001
 44
0.0000000001
 40
0.0
 40
0.0
 40
0.0
 40
0.0
 40
0.2177825102
 40
0.4509091639
 40
0.7102957096
 40
1.0
 40
1.0
 40
1.0
 40
1.0
 10
83.1419837612
 20
109.6177702369
 30
0.0
 10
82.9110772719
 20
109.7510811715
 30
0.0
 10
82.4790601235
 20
110.1142737447
 30
0.0
 10
82.0191272773
 20
110.8662833608
 30
0.0
 10
81.7459543702
 20
111.7930414963
 30
0.0
 10
81.6921800519
 20
112.4675644103
 30
0.0
 10
81.6921800519
 20
112.822243022
 30
0.0
  0
SPLINE
  5
2C4
100
AcDbEntity
  8
0
100
AcDbSpline
 62
7
  6
CONTINUOUS
 70
0
 71
3
 72
9
 73
5
 74
0
 42
0.0000001
 43
0.0000001
 44
0.0000000001
 40
0.0
 40
0.0
 40
0.0
 40
0.0
 40
0.2736813819
 40
1.0
 40
1.0
 40
1.0
 40
1.0
 10
182.8540705292
 20
243.2432282919
 30
0.0
 10
182.8540705292
 20
243.3855233733
 30
0.0
 10
182.8306459739
 20
243.9041138657
 30
0.0
 10
182.7044386203
 20
244.4259025331
 30
0.0
 10
182.5311030095
 20
244.7614061523
 30
0.0
  0
SPLINE
  5
2C5
100
AcDbEntity
  8
0
100
AcDbSpline
 62
7
  6
CONTINUOUS
 70
0
 71
3
 72
8
 73
4
 74
0
 42
0.0000001
 43
0.0000001
 44
0.0000000001
 40
0.0
 40
0.0
 40
0.0
 40
0.0
 40
1.0
 40
1.0
 40
1.0
 40
1.0
 10
182.5311030095
 20
244.7614061523
 30
0.0
 10
182.4862235123
 20
244.8482736672
 30
0.0
 10
182.4356806309
 20
244.932507633
 30
0.0
 10
182.3793721892
 20
245.0124419423
 30
0.0
  0
SPLINE
  5
2C6
100
AcDbEntity
  8
0
100
AcDbSpline
 62
7
  6
CONTINUOUS
 70
0
 71
3
 72
9
 73
5
 74
0
 42
0.0000001
 43
0.0000001
 44
0.0000000001
 40
0.0
 40
0.0
 40
0.0
 40
0.0
 40
0.2627401939
 40
1.0
 40
1.0
 40
1.0
 40
1.0
 10
182.6484692911
 20
241.7526289094
 30
0.0
 10
182.6819432436
 20
241.8802897552
 30
0.0
 10
182.7957483316
 20
242.3694562123
 30
0.0
 10
182.8540705292
 20
242.8728967916
 30
0.0
 10
182.8540705292
 20
243.2432282919
 30
0.0
  0
SPLINE
  5
2C7
100
AcDbEntity
  8
0
100
AcDbSpline
 62
7
  6
CONTINUOUS
 70
0
 71
3
 72
11
 73
7
 74
0
 42
0.0000001
 43
0.0000001
 44
0.0000000001
 40
0.0
 40
0.0
 40
0.0
 40
0.0
 40
0.2297009476
 40
0.4828320275
 40
0.7449954037
 40
1.0
 40
1.0
 40
1.0
 40
1.0
 10
175.4080870918
 20
222.2060138598
 30
0.0
 10
175.7947824033
 20
222.4292711694
 30
0.0
 10
176.543295953
 20
223.0120247439
 30
0.0
 10
177.4913077424
 20
224.1165524734
 30
0.0
 10
178.2567974358
 20
225.4118746825
 30
0.0
 10
178.6122766856
 20
226.3596524761
 30
0.0
 10
178.7380050398
 20
226.8391473324
 30
0.0
  0
SPLINE
  5
2C8
100
AcDbEntity
  8
0
100
AcDbSpline
 62
7
  6
CONTINUOUS
 70
0
 71
3
 72
9
 73
5
 74
0
 42
0.0000001
 43
0.0000001
 44
0.0000000001
 40
0.0
 40
0.0
 40
0.0
 40
0.0
 40
0.2238561586
 40
1.0
 40
1.0
 40
1.0
 40
1.0
 10
188.5994444169
 20
230.4072153745
 30
0.0
 10
188.7404052492
 20
230.3905431963
 30
0.0
 10
189.3788169504
 20
230.385158295
 30
0.0
 10
189.9971410845
 20
230.6289578316
 30
0.0
 10
190.4233470593
 20
230.875026497
 30
0.0
  0
SPLINE
  5
2C9
100
AcDbEntity
  8
0
100
AcDbSpline
 62
7
  6
CONTINUOUS
 70
0
 71
3
 72
11
 73
7
 74
0
 42
0.0000001
 43
0.0000001
 44
0.0000000001
 40
0.0
 40
0.0
 40
0.0
 40
0.0
 40
0.2177825102
 40
0.4509091639
 40
0.7102957096
 40
1.0
 40
1.0
 40
1.0
 40
1.0
 10
189.1254884841
 20
229.9333993984
 30
0.0
 10
188.9605552774
 20
230.0286214945
 30
0.0
 10
188.6519716
 20
230.2880447611
 30
0.0
 10
188.3234481384
 20
230.8251944869
 30
0.0
 10
188.1283246333
 20
231.4871645837
 30
0.0
 10
188.0899144059
 20
231.9689666651
 30
0.0
 10
188.0899144059
 20
232.2223085306
 30
0.0
  0
SPLINE
  5
2CA
100
AcDbEntity
  8
0
100
AcDbSpline
 62
7
  6
CONTINUOUS
 70
0
 71
3
 72
9
 73
5
 74
0
 42
0.0000001
 43
0.0000001
 44
0.0000000001
 40
0.0
 40
0.0
 40
0.0
 40
0.0
 40
0.2238561586
 40
1.0
 40
1.0
 40
1.0
 40
1.0
 10
135.4005772398
 20
199.6930184283
 30
0.0
 10
135.5415380722
 20
199.67634625
 30
0.0
 10
136.1799497733
 20
199.6709613487
 30
0.0
 10
136.7982739075
 20
199.9147608854
 30
0.0
 10
137.2244798822
 20
200.1608295508
 30
0.0
  0
SPLINE
  5
2CB
100
AcDbEntity
  8
0
100
AcDbSpline
 62
7
  6
CONTINUOUS
 70
0
 71
3
 72
9
 73
5
 74
0
 42
0.0000001
 43
0.0000001
 44
0.0000000001
 40
0.0
 40
0.0
 40
0.0
 40
0.0
 40
0.2736813819
 40
1.0
 40
1.0
 40
1.0
 40
1.0
 10
236.0529377062
 20
273.9574252381
 30
0.0
 10
236.0529377062
 20
274.0997203195
 30
0.0
 10
236.0295131509
 20
274.6183108119
 30
0.0
 10
235.9033057973
 20
275.1400994793
 30
0.0
 10
235.7299701865
 20
275.4756030985
 30
0.0
  0
SPLINE
  5
2CC
100
AcDbEntity
  8
0
100
AcDbSpline
 62
7
  6
CONTINUOUS
 70
0
 71
3
 72
8
 73
4
 74
0
 42
0.0000001
 43
0.0000001
 44
0.0000000001
 40
0.0
 40
0.0
 40
0.0
 40
0.0
 40
1.0
 40
1.0
 40
1.0
 40
1.0
 10
235.7299701865
 20
275.4756030985
 30
0.0
 10
235.6850906893
 20
275.5624706134
 30
0.0
 10
235.6345478079
 20
275.6467045791
 30
0.0
 10
235.5782393662
 20
275.7266388885
 30
0.0
  0
SPLINE
  5
2CD
100
AcDbEntity
  8
0
100
AcDbSpline
 62
7
  6
CONTINUOUS
 70
0
 71
3
 72
9
 73
5
 74
0
 42
0.0000001
 43
0.0000001
 44
0.0000000001
 40
0.0
 40
0.0
 40
0.0
 40
0.0
 40
0.2627401939
 40
1.0
 40
1.0
 40
1.0
 40
1.0
 10
235.8473364681
 20
272.4668258555
 30
0.0
 10
235.8808104206
 20
272.5944867014
 30
0.0
 10
235.9946155086
 20
273.0836531584
 30
0.0
 10
236.0529377062
 20
273.5870937378
 30
0.0
 10
236.0529377062
 20
273.9574252381
 30
0.0
  0
SPLINE
  5
2CE
100
AcDbEntity
  8
0
100
AcDbSpline
 62
7
  6
CONTINUOUS
 70
0
 71
3
 72
11
 73
7
 74
0
 42
0.0000001
 43
0.0000001
 44
0.0000000001
 40
0.0
 40
0.0
 40
0.0
 40
0.0
 40
0.2297009476
 40
0.4828320275
 40
0.7449954037
 40
1.0
 40
1.0
 40
1.0
 40
1.0
 10
228.6069542688
 20
252.9202108061
 30
0.0
 10
228.9936495803
 20
253.1434681156
 30
0.0
 10
229.74216313
 20
253.7262216901
 30
0.0
 10
230.6901749194
 20
254.8307494195
 30
0.0
 10
231.4556646127
 20
256.1260716286
 30
0.0
 10
231.8111438626
 20
257.0738494221
 30
0.0
 10
231.9368722168
 20
257.5533442783
 30
0.0
  0
SPLINE
  5
2CF
100
AcDbEntity
  8
0
100
AcDbSpline
 62
7
  6
CONTINUOUS
 70
0
 71
3
 72
11
 73
7
 74
0
 42
0.0000001
 43
0.0000001
 44
0.0000000001
 40
0.0
 40
0.0
 40
0.0
 40
0.0
 40
0.2177825102
 40
0.4509091639
 40
0.7102957096
 40
1.0
 40
1.0
 40
1.0
 40
1.0
 10
135.926621307
 20
199.2192024522
 30
0.0
 10
135.7616881004
 20
199.3144245483
 30
0.0
 10
135.453104423
 20
199.5738478149
 30
0.0
 10
135.1245809613
 20
200.1109975407
 30
0.0
 10
134.9294574563
 20
200.7729676375
 30
0.0
 10
134.8910472289
 20
201.2547697189
 30
0.0
 10
134.8910472289
 20
201.5081115844
 30
0.0
  0
SPLINE
  5
2D0
100
AcDbEntity
  8
0
100
AcDbSpline
 62
7
  6
CONTINUOUS
 70
0
 71
3
 72
9
 73
5
 74
0
 42
0.0000001
 43
0.0000001
 44
0.0000000001
 40
0.0
 40
0.0
 40
0.0
 40
0.0
 40
0.2786824034
 40
1.0
 40
1.0
 40
1.0
 40
1.0
 10
108.0671431705
 20
159.6483637395
 30
0.0
 10
108.0671431705
 20
159.8827386816
 30
0.0
 10
108.0233735545
 20
160.7201030809
 30
0.0
 10
107.7768683193
 20
161.5688716975
 30
0.0
 10
107.4387962714
 20
162.0725724913
 30
0.0
  0
SPLINE
  5
2D1
100
AcDbEntity
  8
0
100
AcDbSpline
 62
7
  6
CONTINUOUS
 70
0
 71
3
 72
9
 73
5
 74
0
 42
0.0000001
 43
0.0000001
 44
0.0000000001
 40
0.0
 40
0.0
 40
0.0
 40
0.0
 40
0.2604716102
 40
1.0
 40
1.0
 40
1.0
 40
1.0
 10
107.8957014266
 20
158.0581524455
 30
0.0
 10
107.9237715995
 20
158.1942868091
 30
0.0
 10
108.0197069852
 20
158.7192069568
 30
0.0
 10
108.0671431705
 20
159.253721441
 30
0.0
 10
108.0671431705
 20
159.6483637395
 30
0.0
  0
SPLINE
  5
2D2
100
AcDbEntity
  8
0
100
AcDbSpline
 62
7
  6
CONTINUOUS
 70
0
 71
3
 72
11
 73
7
 74
0
 42
0.0000001
 43
0.0000001
 44
0.0000000001
 40
0.0
 40
0.0
 40
0.0
 40
0.0
 40
0.2309543139
 40
0.485962942
 40
0.7484027561
 40
1.0
 40
1.0
 40
1.0
 40
1.0
 10
96.0463779378
 20
116.7821067699
 30
0.0
 10
96.6245334229
 20
117.1159030024
 30
0.0
 10
97.7384563746
 20
117.9989536615
 30
0.0
 10
99.1246293948
 20
119.6755227364
 30
0.0
 10
100.2086914866
 20
121.6299331493
 30
0.0
 10
100.6777944112
 20
123.0528398153
 30
0.0
 10
100.8246630545
 20
123.7651214731
 30
0.0
  0
SPLINE
  5
2D3
100
AcDbEntity
  8
0
100
AcDbSpline
 62
7
  6
CONTINUOUS
 70
0
 71
3
 72
9
 73
5
 74
0
 42
0.0000001
 43
0.0000001
 44
0.0000000001
 40
0.0
 40
0.0
 40
0.0
 40
0.0
 40
0.2238561586
 40
1.0
 40
1.0
 40
1.0
 40
1.0
 10
82.2017100628
 20
168.9788214821
 30
0.0
 10
82.3426708951
 20
168.9621493038
 30
0.0
 10
82.9810825963
 20
168.9567644025
 30
0.0
 10
83.5994067304
 20
169.2005639391
 30
0.0
 10
84.0256127052
 20
169.4466326046
 30
0.0
  0
SPLINE
  5
2D4
100
AcDbEntity
  8
0
100
AcDbSpline
 62
7
  6
CONTINUOUS
 70
0
 71
3
 72
9
 73
5
 74
0
 42
0.0000001
 43
0.0000001
 44
0.0000000001
 40
0.0
 40
0.0
 40
0.0
 40
0.0
 40
0.2786824034
 40
1.0
 40
1.0
 40
1.0
 40
1.0
 10
236.0529377062
 20
233.5405555902
 30
0.0
 10
236.0529377062
 20
233.7749305323
 30
0.0
 10
236.0091680901
 20
234.6122949316
 30
0.0
 10
235.762662855
 20
235.4610635482
 30
0.0
 10
235.4245908071
 20
235.9647643421
 30
0.0
  0
SPLINE
  5
2D5
100
AcDbEntity
  8
0
100
AcDbSpline
 62
7
  6
CONTINUOUS
 70
0
 71
3
 72
11
 73
7
 74
0
 42
0.0000001
 43
0.0000001
 44
0.0000000001
 40
0.0
 40
0.0
 40
0.0
 40
0.0
 40
0.2372392641
 40
0.4999983132
 40
0.7627582764
 40
1.0
 40
1.0
 40
1.0
 40
1.0
 10
231.1032108457
 20
194.7567401594
 30
0.0
 10
231.8059336489
 20
195.1624549372
 30
0.0
 10
233.135739652
 20
196.281671308
 30
0.0
 10
234.6878022131
 20
198.4026376004
 30
0.0
 10
235.7485727139
 20
200.8072595175
 30
0.0
 10
236.0529377062
 20
202.5185245558
 30
0.0
 10
236.0529377062
 20
203.3299661564
 30
0.0
  0
SPLINE
  5
2D6
100
AcDbEntity
  8
0
100
AcDbSpline
 62
7
  6
CONTINUOUS
 70
0
 71
3
 72
11
 73
7
 74
0
 42
0.0000001
 43
0.0000001
 44
0.0000000001
 40
0.0
 40
0.0
 40
0.0
 40
0.0
 40
0.2177825102
 40
0.4509091639
 40
0.7102957096
 40
1.0
 40
1.0
 40
1.0
 40
1.0
 10
82.72775413
 20
168.5050055059
 30
0.0
 10
82.5628209233
 20
168.6002276021
 30
0.0
 10
82.2542372459
 20
168.8596508687
 30
0.0
 10
81.9257137843
 20
169.3968005945
 30
0.0
 10
81.7305902792
 20
170.0587706912
 30
0.0
 10
81.6921800519
 20
170.5405727727
 30
0.0
 10
81.6921800519
 20
170.7939146382
 30
0.0
  0
SPLINE
  5
2D7
100
AcDbEntity
  8
0
100
AcDbSpline
 62
7
  6
CONTINUOUS
 70
0
 71
3
 72
11
 73
7
 74
0
 42
0.0000001
 43
0.0000001
 44
0.0000000001
 40
0.0
 40
0.0
 40
0.0
 40
0.0
 40
0.2177817009
 40
0.4509079353
 40
0.7102947134
 40
1.0
 40
1.0
 40
1.0
 40
1.0
 10
245.790489036
 20
324.2946942088
 30
0.0
 10
245.7904890007
 20
324.4851362776
 30
0.0
 10
245.7201112245
 20
324.8820778306
 30
0.0
 10
245.4191884052
 20
325.435144421
 30
0.0
 10
244.9434722147
 20
325.935093925
 30
0.0
 10
244.5454303374
 20
326.2092488309
 30
0.0
 10
244.3260331714
 20
326.3359149782
 30
0.0
  0
SPLINE
  5
2D8
100
AcDbEntity
  8
0
100
AcDbSpline
 62
7
  6
CONTINUOUS
 70
0
 71
3
 72
9
 73
5
 74
0
 42
0.0000001
 43
0.0000001
 44
0.0000000001
 40
0.0
 40
0.0
 40
0.0
 40
0.0
 40
0.2736813819
 40
1.0
 40
1.0
 40
1.0
 40
1.0
 10
129.6552033521
 20
114.1404900816
 30
0.0
 10
129.6552033521
 20
114.282785163
 30
0.0
 10
129.6317787969
 20
114.8013756554
 30
0.0
 10
129.5055714432
 20
115.3231643228
 30
0.0
 10
129.3322358325
 20
115.658667942
 30
0.0
  0
SPLINE
  5
2D9
100
AcDbEntity
  8
0
100
AcDbSpline
 62
7
  6
CONTINUOUS
 70
0
 71
3
 72
8
 73
4
 74
0
 42
0.0000001
 43
0.0000001
 44
0.0000000001
 40
0.0
 40
0.0
 40
0.0
 40
0.0
 40
1.0
 40
1.0
 40
1.0
 40
1.0
 10
129.3322358325
 20
115.658667942
 30
0.0
 10
129.2873563353
 20
115.7455354569
 30
0.0
 10
129.2368134538
 20
115.8297694226
 30
0.0
 10
129.1805050122
 20
115.9097037319
 30
0.0
  0
SPLINE
  5
2DA
100
AcDbEntity
  8
0
100
AcDbSpline
 62
7
  6
CONTINUOUS
 70
0
 71
3
 72
9
 73
5
 74
0
 42
0.0000001
 43
0.0000001
 44
0.0000000001
 40
0.0
 40
0.0
 40
0.0
 40
0.0
 40
0.2627401939
 40
1.0
 40
1.0
 40
1.0
 40
1.0
 10
129.4496021141
 20
112.649890699
 30
0.0
 10
129.4830760666
 20
112.7775515448
 30
0.0
 10
129.5968811546
 20
113.2667180019
 30
0.0
 10
129.6552033521
 20
113.7701585812
 30
0.0
 10
129.6552033521
 20
114.1404900816
 30
0.0
  0
SPLINE
  5
2DB
100
AcDbEntity
  8
0
100
AcDbSpline
 62
7
  6
CONTINUOUS
 70
0
 71
3
 72
11
 73
7
 74
0
 42
0.0000001
 43
0.0000001
 44
0.0000000001
 40
0.0
 40
0.0
 40
0.0
 40
0.0
 40
0.2297009476
 40
0.4828320275
 40
0.7449954037
 40
1.0
 40
1.0
 40
1.0
 40
1.0
 10
122.2092199148
 20
93.1032756495
 30
0.0
 10
122.5959152263
 20
93.3265329591
 30
0.0
 10
123.344428776
 20
93.9092865336
 30
0.0
 10
124.2924405654
 20
95.0138142631
 30
0.0
 10
125.0579302588
 20
96.3091364722
 30
0.0
 10
125.4134095086
 20
97.2569142657
 30
0.0
 10
125.5391378628
 20
97.736409122
 30
0.0
  0
SPLINE
  5
2DC
100
AcDbEntity
  8
0
100
AcDbSpline
 62
7
  6
CONTINUOUS
 70
0
 71
3
 72
9
 73
5
 74
0
 42
0.0000001
 43
0.0000001
 44
0.0000000001
 40
0.0
 40
0.0
 40
0.0
 40
0.0
 40
0.2488943793
 40
1.0
 40
1.0
 40
1.0
 40
1.0
 10
242.0884262698
 20
142.3344718746
 30
0.0
 10
242.2599199103
 20
142.433483183
 30
0.0
 10
242.9307555613
 20
142.8623448469
 30
0.0
 10
243.5255142467
 20
143.4074292132
 30
0.0
 10
243.9158634675
 20
143.8599114897
 30
0.0
  0
SPLINE
  5
2DD
100
AcDbEntity
  8
0
100
AcDbSpline
 62
7
  6
CONTINUOUS
 70
0
 71
3
 72
9
 73
5
 74
0
 42
0.0000001
 43
0.0000001
 44
0.0000000001
 40
0.0
 40
0.0
 40
0.0
 40
0.0
 40
0.5021866677
 40
1.0
 40
1.0
 40
1.0
 40
1.0
 10
243.9158634675
 20
143.8599114897
 30
0.0
 10
244.4970676873
 20
144.5336277274
 30
0.0
 10
245.4304544663
 20
146.0830631596
 30
0.0
 10
245.7905139854
 20
147.8646524614
 30
0.0
 10
245.7905139854
 20
148.746674526
 30
0.0
  0
SPLINE
  5
2DE
100
AcDbEntity
  8
0
100
AcDbSpline
 62
7
  6
CONTINUOUS
 70
0
 71
3
 72
9
 73
5
 74
0
 42
0.0000001
 43
0.0000001
 44
0.0000000001
 40
0.0
 40
0.0
 40
0.0
 40
0.0
 40
0.2736813819
 40
1.0
 40
1.0
 40
1.0
 40
1.0
 10
236.0529377062
 20
175.568883974
 30
0.0
 10
236.0529377062
 20
175.7111790554
 30
0.0
 10
236.0295131509
 20
176.2297695478
 30
0.0
 10
235.9033057973
 20
176.7515582152
 30
0.0
 10
235.7299701865
 20
177.0870618344
 30
0.0
  0
SPLINE
  5
2DF
100
AcDbEntity
  8
0
100
AcDbSpline
 62
7
  6
CONTINUOUS
 70
0
 71
3
 72
8
 73
4
 74
0
 42
0.0000001
 43
0.0000001
 44
0.0000000001
 40
0.0
 40
0.0
 40
0.0
 40
0.0
 40
1.0
 40
1.0
 40
1.0
 40
1.0
 10
235.7299701865
 20
177.0870618344
 30
0.0
 10
235.6850906893
 20
177.1739293493
 30
0.0
 10
235.6345478079
 20
177.258163315
 30
0.0
 10
235.5782393662
 20
177.3380976244
 30
0.0
  0
SPLINE
  5
2E0
100
AcDbEntity
  8
0
100
AcDbSpline
 62
7
  6
CONTINUOUS
 70
0
 71
3
 72
9
 73
5
 74
0
 42
0.0000001
 43
0.0000001
 44
0.0000000001
 40
0.0
 40
0.0
 40
0.0
 40
0.0
 40
0.2627401939
 40
1.0
 40
1.0
 40
1.0
 40
1.0
 10
235.8473364681
 20
174.0782845914
 30
0.0
 10
235.8808104206
 20
174.2059454373
 30
0.0
 10
235.9946155086
 20
174.6951118943
 30
0.0
 10
236.0529377062
 20
175.1985524736
 30
0.0
 10
236.0529377062
 20
175.568883974
 30
0.0
  0
SPLINE
  5
2E1
100
AcDbEntity
  8
0
100
AcDbSpline
 62
7
  6
CONTINUOUS
 70
0
 71
3
 72
11
 73
7
 74
0
 42
0.0000001
 43
0.0000001
 44
0.0000000001
 40
0.0
 40
0.0
 40
0.0
 40
0.0
 40
0.2297009476
 40
0.4828320275
 40
0.7449954037
 40
1.0
 40
1.0
 40
1.0
 40
1.0
 10
228.6069542688
 20
154.5316695419
 30
0.0
 10
228.9936495803
 20
154.7549268515
 30
0.0
 10
229.74216313
 20
155.337680426
 30
0.0
 10
230.6901749194
 20
156.4422081554
 30
0.0
 10
231.4556646127
 20
157.7375303645
 30
0.0
 10
231.8111438626
 20
158.6853081579
 30
0.0
 10
231.9368722168
 20
159.1648030142
 30
0.0
  0
SPLINE
  5
2E2
100
AcDbEntity
  8
0
100
AcDbSpline
 62
7
  6
CONTINUOUS
 70
0
 71
3
 72
11
 73
7
 74
0
 42
0.0000001
 43
0.0000001
 44
0.0000000001
 40
0.0
 40
0.0
 40
0.0
 40
0.0
 40
0.2897033281
 40
0.5490895198
 40
0.7822165953
 40
1.0
 40
1.0
 40
1.0
 40
1.0
 10
167.1103121526
 20
103.5132326721
 30
0.0
 10
167.1103121526
 20
103.2598919501
 30
0.0
 10
167.0719019719
 20
102.77809159
 30
0.0
 10
166.8767786065
 20
102.1161231435
 30
0.0
 10
166.5482556622
 20
101.5789731844
 30
0.0
 10
166.2396729007
 20
101.3195480649
 30
0.0
 10
166.0747398601
 20
101.2243245708
 30
0.0
  0
SPLINE
  5
2E3
100
AcDbEntity
  8
0
100
AcDbSpline
 62
7
  6
CONTINUOUS
 70
0
 71
3
 72
11
 73
7
 74
0
 42
0.0000001
 43
0.0000001
 44
0.0000000001
 40
0.0
 40
0.0
 40
0.0
 40
0.0
 40
0.289702329
 40
0.5490881649
 40
0.7822156415
 40
1.0
 40
1.0
 40
1.0
 40
1.0
 10
164.7768500595
 20
99.3898609673
 30
0.0
 10
164.9962441799
 20
99.2631965783
 30
0.0
 10
165.4326898302
 20
99.0555708261
 30
0.0
 10
166.1035154791
 20
98.8935784509
 30
0.0
 10
166.7329461885
 20
98.9095155222
 30
0.0
 10
167.1118970831
 20
99.0470397364
 30
0.0
 10
167.2768263928
 20
99.1422611789
 30
0.0
  0
SPLINE
  5
2E4
100
AcDbEntity
  8
0
100
AcDbSpline
 62
7
  6
CONTINUOUS
 70
0
 71
3
 72
9
 73
5
 74
0
 42
0.0000001
 43
0.0000001
 44
0.0000000001
 40
0.0
 40
0.0
 40
0.0
 40
0.0
 40
0.2736808751
 40
1.0
 40
1.0
 40
1.0
 40
1.0
 10
127.088019468
 20
104.8193950153
 30
0.0
 10
126.9647961072
 20
104.7482523994
 30
0.0
 10
126.5274220412
 20
104.4686903594
 30
0.0
 10
126.1386642574
 20
104.0985267613
 30
0.0
 10
125.9347820372
 20
103.7806868416
 30
0.0
  0
SPLINE
  5
2E5
100
AcDbEntity
  8
0
100
AcDbSpline
 62
7
  6
CONTINUOUS
 70
0
 71
3
 72
8
 73
4
 74
0
 42
0.0000001
 43
0.0000001
 44
0.0000000001
 40
0.0
 40
0.0
 40
0.0
 40
0.0
 40
1.0
 40
1.0
 40
1.0
 40
1.0
 10
125.9347820372
 20
103.7806868416
 30
0.0
 10
125.8819783753
 20
103.6983691601
 30
0.0
 10
125.8342893518
 20
103.6124617669
 30
0.0
 10
125.793210057
 20
103.5237097588
 30
0.0
  0
SPLINE
  5
2E6
100
AcDbEntity
  8
0
100
AcDbSpline
 62
7
  6
CONTINUOUS
 70
0
 71
3
 72
11
 73
7
 74
0
 42
0.0000001
 43
0.0000001
 44
0.0000000001
 40
0.0
 40
0.0
 40
0.0
 40
0.0
 40
0.2253709002
 40
0.4875899527
 40
0.7566874432
 40
1.0
 40
1.0
 40
1.0
 40
1.0
 10
36.2859558227
 20
63.2130834467
 30
0.0
 10
36.6131871422
 20
63.333889116
 30
0.0
 10
37.2557909049
 20
63.7671272267
 30
0.0
 10
38.0101238965
 20
64.6763852244
 30
0.0
 10
38.5407907724
 20
65.7633592573
 30
0.0
 10
38.6977579569
 20
66.5566115469
 30
0.0
 10
38.6977579569
 20
66.9331993011
 30
0.0
  0
SPLINE
  5
2E7
100
AcDbEntity
  8
0
100
AcDbSpline
 62
7
  6
CONTINUOUS
 70
0
 71
3
 72
11
 73
7
 74
0
 42
0.0000001
 43
0.0000001
 44
0.0000000001
 40
0.0
 40
0.0
 40
0.0
 40
0.0
 40
0.2176899422
 40
0.4508856506
 40
0.7106204681
 40
1.0
 40
1.0
 40
1.0
 40
1.0
 10
36.4739046398
 20
62.5071564484
 30
0.0
 10
36.3783506979
 20
62.5622268827
 30
0.0
 10
36.1995544714
 20
62.7124839567
 30
0.0
 10
36.0090185643
 20
63.0237797743
 30
0.0
 10
35.8964161599
 20
63.4074663467
 30
0.0
 10
35.8738797374
 20
63.6865560261
 30
0.0
 10
35.8738797374
 20
63.8331632288
 30
0.0
  0
SPLINE
  5
2E8
100
AcDbEntity
  8
0
100
AcDbSpline
 62
7
  6
CONTINUOUS
 70
0
 71
3
 72
11
 73
7
 74
0
 42
0.0000001
 43
0.0000001
 44
0.0000000001
 40
0.0
 40
0.0
 40
0.0
 40
0.0
 40
0.2253709002
 40
0.4875899527
 40
0.7566874432
 40
1.0
 40
1.0
 40
1.0
 40
1.0
 10
36.2859558227
 20
221.6145523698
 30
0.0
 10
36.6131871422
 20
221.7353580391
 30
0.0
 10
37.2557909049
 20
222.1685961498
 30
0.0
 10
38.0101238965
 20
223.0778541475
 30
0.0
 10
38.5407907724
 20
224.1648281804
 30
0.0
 10
38.6977579569
 20
224.95808047
 30
0.0
 10
38.6977579569
 20
225.3346682242
 30
0.0
  0
SPLINE
  5
2E9
100
AcDbEntity
  8
0
100
AcDbSpline
 62
7
  6
CONTINUOUS
 70
0
 71
3
 72
15
 73
11
 74
0
 42
0.0000001
 43
0.0000001
 44
0.0000000001
 40
0.0
 40
0.0
 40
0.0
 40
0.0
 40
0.1287974769
 40
0.2706060703
 40
0.4178807568
 40
0.5623765801
 40
0.6961925898
 40
0.8135912016
 40
0.913066129
 40
1.0
 40
1.0
 40
1.0
 40
1.0
 10
35.8738797374
 20
222.234632152
 30
0.0
 10
35.8738797374
 20
222.4821720064
 30
0.0
 10
35.9432850692
 20
223.0028273744
 30
0.0
 10
36.2016024837
 20
223.7672874468
 30
0.0
 10
36.6002476722
 20
224.5036296205
 30
0.0
 10
37.1061486769
 20
225.1514438521
 30
0.0
 10
37.679377891
 20
225.6590491075
 30
0.0
 10
38.2771317305
 20
225.9856230046
 30
0.0
 10
38.8623568653
 20
226.1029620653
 30
0.0
 10
39.225770238
 20
226.0092711067
 30
0.0
 10
39.3705305598
 20
225.9258416465
 30
0.0
  0
SPLINE
  5
2EA
100
AcDbEntity
  8
0
100
AcDbSpline
 62
7
  6
CONTINUOUS
 70
0
 71
3
 72
15
 73
11
 74
0
 42
0.0000001
 43
0.0000001
 44
0.0000000001
 40
0.0
 40
0.0
 40
0.0
 40
0.0
 40
0.1287974769
 40
0.2706060703
 40
0.4178807568
 40
0.5623765801
 40
0.6961925898
 40
0.8135912016
 40
0.913066129
 40
1.0
 40
1.0
 40
1.0
 40
1.0
 10
35.8738797374
 20
63.8331632288
 30
0.0
 10
35.8738797374
 20
64.0807030832
 30
0.0
 10
35.9432850692
 20
64.6013584513
 30
0.0
 10
36.2016024837
 20
65.3658185237
 30
0.0
 10
36.6002476722
 20
66.1021606974
 30
0.0
 10
37.1061486769
 20
66.749974929
 30
0.0
 10
37.679377891
 20
67.2575801843
 30
0.0
 10
38.2771317305
 20
67.5841540815
 30
0.0
 10
38.8623568653
 20
67.7014931422
 30
0.0
 10
39.225770238
 20
67.6078021835
 30
0.0
 10
39.3705305598
 20
67.5243727234
 30
0.0
  0
SPLINE
  5
2EB
100
AcDbEntity
  8
0
100
AcDbSpline
 62
7
  6
CONTINUOUS
 70
0
 71
3
 72
11
 73
7
 74
0
 42
0.0000001
 43
0.0000001
 44
0.0000000001
 40
0.0
 40
0.0
 40
0.0
 40
0.0
 40
0.2176899422
 40
0.4508856506
 40
0.7106204681
 40
1.0
 40
1.0
 40
1.0
 40
1.0
 10
36.4739046398
 20
220.9086253715
 30
0.0
 10
36.3783506979
 20
220.9636958058
 30
0.0
 10
36.1995544714
 20
221.1139528798
 30
0.0
 10
36.0090185643
 20
221.4252486975
 30
0.0
 10
35.8964161599
 20
221.8089352698
 30
0.0
 10
35.8738797374
 20
222.0880249492
 30
0.0
 10
35.8738797374
 20
222.234632152
 30
0.0
  0
SPLINE
  5
2EC
100
AcDbEntity
  8
0
100
AcDbSpline
 62
7
  6
CONTINUOUS
 70
0
 71
3
 72
11
 73
7
 74
0
 42
0.0000001
 43
0.0000001
 44
0.0000000001
 40
0.0
 40
0.0
 40
0.0
 40
0.0
 40
0.2897033281
 40
0.5490895198
 40
0.7822165953
 40
1.0
 40
1.0
 40
1.0
 40
1.0
 10
150.634802755
 20
91.2250654335
 30
0.0
 10
150.634802755
 20
90.9717247115
 30
0.0
 10
150.5963925743
 20
90.4899243514
 30
0.0
 10
150.4012692089
 20
89.8279559049
 30
0.0
 10
150.0727462646
 20
89.2908059458
 30
0.0
 10
149.7641635031
 20
89.0313808263
 30
0.0
 10
149.5992304625
 20
88.9361573322
 30
0.0
  0
SPLINE
  5
2ED
100
AcDbEntity
  8
0
100
AcDbSpline
 62
7
  6
CONTINUOUS
 70
0
 71
3
 72
10
 73
6
 74
0
 42
0.0000001
 43
0.0000001
 44
0.0000000001
 40
0.0
 40
0.0
 40
0.0
 40
0.0
 40
0.5377627655
 40
0.7746181974
 40
1.0
 40
1.0
 40
1.0
 40
1.0
 10
126.673781788
 20
102.3963570424
 30
0.0
 10
126.3681709851
 20
102.6237316449
 30
0.0
 10
125.9648122655
 20
103.024931615
 30
0.0
 10
125.6721401613
 20
103.6774324709
 30
0.0
 10
125.6235929983
 20
104.0065995161
 30
0.0
 10
125.6235930431
 20
104.1662453518
 30
0.0
  0
SPLINE
  5
2EE
100
AcDbEntity
  8
0
100
AcDbSpline
 62
7
  6
CONTINUOUS
 70
0
 71
3
 72
11
 73
7
 74
0
 42
0.0000001
 43
0.0000001
 44
0.0000000001
 40
0.0
 40
0.0
 40
0.0
 40
0.0
 40
0.2504882985
 40
0.5007227129
 40
0.7504795045
 40
1.0
 40
1.0
 40
1.0
 40
1.0
 10
68.9377264168
 20
45.6596896371
 30
0.0
 10
69.37974998
 20
45.4044929872
 30
0.0
 10
70.3392485293
 20
45.0148192644
 30
0.0
 10
71.8770655875
 20
44.8432964435
 30
0.0
 10
73.4027702653
 20
45.0814746251
 30
0.0
 10
74.3473444862
 20
45.489691238
 30
0.0
 10
74.7876583851
 20
45.7439050686
 30
0.0
  0
SPLINE
  5
2EF
100
AcDbEntity
  8
0
100
AcDbSpline
 62
7
  6
CONTINUOUS
 70
0
 71
3
 72
11
 73
7
 74
0
 42
0.0000001
 43
0.0000001
 44
0.0000000001
 40
0.0
 40
0.0
 40
0.0
 40
0.0
 40
0.2177821605
 40
0.4509085882
 40
0.7102951949
 40
1.0
 40
1.0
 40
1.0
 40
1.0
 10
243.38632598
 20
324.29468843
 30
0.0
 10
243.3863259266
 20
324.1042484124
 30
0.0
 10
243.3159498036
 20
323.7073114359
 30
0.0
 10
243.015033466
 20
323.1542502035
 30
0.0
 10
242.53932694
 20
322.6543044048
 30
0.0
 10
242.141292617
 20
322.3801505446
 30
0.0
 10
241.921899555
 20
322.2534846573
 30
0.0
  0
SPLINE
  5
2F0
100
AcDbEntity
  8
0
100
AcDbSpline
 62
7
  6
CONTINUOUS
 70
0
 71
3
 72
11
 73
7
 74
0
 42
0.0000001
 43
0.0000001
 44
0.0000000001
 40
0.0
 40
0.0
 40
0.0
 40
0.0
 40
0.2372392641
 40
0.4999983132
 40
0.7627582764
 40
1.0
 40
1.0
 40
1.0
 40
1.0
 10
213.637510549
 20
158.9525830696
 30
0.0
 10
214.1394554089
 20
159.2423793389
 30
0.0
 10
215.0893168391
 20
160.0418196046
 30
0.0
 10
216.1979329545
 20
161.5567955274
 30
0.0
 10
216.9556261693
 20
163.2743826112
 30
0.0
 10
217.1730297352
 20
164.4967147814
 30
0.0
 10
217.1730297352
 20
165.0763159247
 30
0.0
  0
SPLINE
  5
2F1
100
AcDbEntity
  8
0
100
AcDbSpline
 62
7
  6
CONTINUOUS
 70
0
 71
3
 72
9
 73
5
 74
0
 42
0.0000001
 43
0.0000001
 44
0.0000000001
 40
0.0
 40
0.0
 40
0.0
 40
0.0
 40
0.2244919075
 40
1.0
 40
1.0
 40
1.0
 40
1.0
 10
129.9873682845
 20
237.7628463075
 30
0.0
 10
130.1250459962
 20
237.7505479176
 30
0.0
 10
130.7444689159
 20
237.7595397711
 30
0.0
 10
131.3415908956
 20
237.99773435
 30
0.0
 10
131.7551202919
 20
238.2364842331
 30
0.0
  0
SPLINE
  5
2F2
100
AcDbEntity
  8
0
100
AcDbSpline
 62
7
  6
CONTINUOUS
 70
0
 71
3
 72
9
 73
5
 74
0
 42
0.0000001
 43
0.0000001
 44
0.0000000001
 40
0.0
 40
0.0
 40
0.0
 40
0.0
 40
0.2677076699
 40
1.0
 40
1.0
 40
1.0
 40
1.0
 10
38.6977579569
 20
225.3346682242
 30
0.0
 10
38.6977579569
 20
225.4004365841
 30
0.0
 10
38.6887110261
 20
225.6457975969
 30
0.0
 10
38.6420367935
 20
225.8914729367
 30
0.0
 10
38.5789140158
 20
226.0599393838
 30
0.0
  0
SPLINE
  5
2F3
100
AcDbEntity
  8
0
100
AcDbSpline
 62
7
  6
CONTINUOUS
 70
0
 71
3
 72
9
 73
5
 74
0
 42
0.0000001
 43
0.0000001
 44
0.0000000001
 40
0.0
 40
0.0
 40
0.0
 40
0.0
 40
0.2677076699
 40
1.0
 40
1.0
 40
1.0
 40
1.0
 10
38.6977579569
 20
66.9331993011
 30
0.0
 10
38.6977579569
 20
66.998967661
 30
0.0
 10
38.6887110261
 20
67.2443286738
 30
0.0
 10
38.6420367935
 20
67.4900040136
 30
0.0
 10
38.5789140158
 20
67.6584704606
 30
0.0
  0
SPLINE
  5
2F4
100
AcDbEntity
  8
0
100
AcDbSpline
 62
7
  6
CONTINUOUS
 70
0
 71
3
 72
11
 73
7
 74
0
 42
0.0000001
 43
0.0000001
 44
0.0000000001
 40
0.0
 40
0.0
 40
0.0
 40
0.0
 40
0.289702809
 40
0.549088757
 40
0.7822160314
 40
1.0
 40
1.0
 40
1.0
 40
1.0
 10
85.2276992379
 20
168.7526233219
 30
0.0
 10
85.0083082312
 20
168.6259586212
 30
0.0
 10
84.5718688342
 20
168.4183317257
 30
0.0
 10
83.9010520728
 20
168.2563355508
 30
0.0
 10
83.2716289912
 20
168.2722670494
 30
0.0
 10
82.8926819082
 20
168.4097865439
 30
0.0
 10
82.72775413
 20
168.5050055059
 30
0.0
  0
SPLINE
  5
2F5
100
AcDbEntity
  8
0
100
AcDbSpline
 62
7
  6
CONTINUOUS
 70
0
 71
3
 72
9
 73
5
 74
0
 42
0.0000001
 43
0.0000001
 44
0.0000000001
 40
0.0
 40
0.0
 40
0.0
 40
0.0
 40
0.2393856904
 40
1.0
 40
1.0
 40
1.0
 40
1.0
 10
109.2692297032
 20
158.9543544568
 30
0.0
 10
109.2692297032
 20
158.8266016275
 30
0.0
 10
109.2537213997
 20
158.2929651672
 30
0.0
 10
109.1797613208
 20
157.7616965171
 30
0.0
 10
109.0977879593
 20
157.3641431628
 30
0.0
  0
SPLINE
  5
2F6
100
AcDbEntity
  8
0
100
AcDbSpline
 62
7
  6
CONTINUOUS
 70
0
 71
3
 72
11
 73
7
 74
0
 42
0.0000001
 43
0.0000001
 44
0.0000000001
 40
0.0
 40
0.0
 40
0.0
 40
0.0
 40
0.2550045963
 40
0.5171679725
 40
0.7702990524
 40
1.0
 40
1.0
 40
1.0
 40
1.0
 10
126.7412243956
 20
195.4309411035
 30
0.0
 10
126.6154960413
 20
194.9514462472
 30
0.0
 10
126.2600167915
 20
194.0036684536
 30
0.0
 10
125.4945270981
 20
192.7083462445
 30
0.0
 10
124.5465153087
 20
191.603818515
 30
0.0
 10
123.798001759
 20
191.0210649405
 30
0.0
 10
123.4113064475
 20
190.797807631
 30
0.0
  0
SPLINE
  5
2F7
100
AcDbEntity
  8
0
100
AcDbSpline
 62
7
  6
CONTINUOUS
 70
0
 71
3
 72
11
 73
7
 74
0
 42
0.0000001
 43
0.0000001
 44
0.0000000001
 40
0.0
 40
0.0
 40
0.0
 40
0.0
 40
0.2897052857
 40
0.5490919933
 40
0.7822182543
 40
1.0
 40
1.0
 40
1.0
 40
1.0
 10
241.9218701154
 20
326.3359091993
 30
0.0
 10
242.1412672815
 20
326.209243052
 30
0.0
 10
242.5393091551
 20
325.9350882478
 30
0.0
 10
243.0150252872
 20
325.4351387204
 30
0.0
 10
243.3159480844
 20
324.8820721557
 30
0.0
 10
243.3863260333
 20
324.4851305386
 30
0.0
 10
243.38632598
 20
324.29468843
 30
0.0
  0
SPLINE
  5
2F8
100
AcDbEntity
  8
0
100
AcDbSpline
 62
7
  6
CONTINUOUS
 70
0
 71
3
 72
9
 73
5
 74
0
 42
0.0000001
 43
0.0000001
 44
0.0000000001
 40
0.0
 40
0.0
 40
0.0
 40
0.0
 40
0.2369200566
 40
1.0
 40
1.0
 40
1.0
 40
1.0
 10
130.8572898849
 20
211.835022063
 30
0.0
 10
130.8572898849
 20
211.7160026839
 30
0.0
 10
130.8382415831
 20
211.2136806206
 30
0.0
 10
130.7489177487
 20
210.715228888
 30
0.0
 10
130.6516886469
 20
210.3444226805
 30
0.0
  0
SPLINE
  5
2F9
100
AcDbEntity
  8
0
100
AcDbSpline
 62
7
  6
CONTINUOUS
 70
0
 71
3
 72
11
 73
7
 74
0
 42
0.0000001
 43
0.0000001
 44
0.0000000001
 40
0.0
 40
0.0
 40
0.0
 40
0.0
 40
0.2177825102
 40
0.4509091639
 40
0.7102957096
 40
1.0
 40
1.0
 40
1.0
 40
1.0
 10
129.8217158068
 20
115.7353899311
 30
0.0
 10
129.9866490134
 20
115.640167835
 30
0.0
 10
130.2952326908
 20
115.3807445684
 30
0.0
 10
130.6237561525
 20
114.8435948426
 30
0.0
 10
130.8188796575
 20
114.1816247458
 30
0.0
 10
130.8572898849
 20
113.6998226644
 30
0.0
 10
130.8572898849
 20
113.4464807989
 30
0.0
  0
SPLINE
  5
2FA
100
AcDbEntity
  8
0
100
AcDbSpline
 62
7
  6
CONTINUOUS
 70
0
 71
3
 72
11
 73
7
 74
0
 42
0.0000001
 43
0.0000001
 44
0.0000000001
 40
0.0
 40
0.0
 40
0.0
 40
0.0
 40
0.2897048043
 40
0.5490913404
 40
0.7822177947
 40
1.0
 40
1.0
 40
1.0
 40
1.0
 10
244.326062611
 20
322.2534904362
 30
0.0
 10
244.5454556731
 20
322.3801563236
 30
0.0
 10
244.9434899924
 20
322.6543100819
 30
0.0
 10
245.4191964601
 20
323.1542559041
 30
0.0
 10
245.7201127756
 20
323.7073171109
 30
0.0
 10
245.7904890713
 20
324.1042541514
 30
0.0
 10
245.790489036
 20
324.2946942088
 30
0.0
  0
SPLINE
  5
2FB
100
AcDbEntity
  8
0
100
AcDbSpline
 62
7
  6
CONTINUOUS
 70
0
 71
3
 72
11
 73
7
 74
0
 42
0.0000001
 43
0.0000001
 44
0.0000000001
 40
0.0
 40
0.0
 40
0.0
 40
0.0
 40
0.2896981464
 40
0.5490851651
 40
0.782197638
 40
1.0
 40
1.0
 40
1.0
 40
1.0
 10
132.9572068247
 20
237.5424749504
 30
0.0
 10
132.7378187996
 20
237.4158119712
 30
0.0
 10
132.3013877732
 20
237.2081604917
 30
0.0
 10
131.6305703954
 20
237.0462441102
 30
0.0
 10
131.0011537615
 20
237.0620747678
 30
0.0
 10
130.6221730433
 20
237.1995765668
 30
0.0
 10
130.4572552607
 20
237.2948459527
 30
0.0
  0
SPLINE
  5
2FC
100
AcDbEntity
  8
0
100
AcDbSpline
 62
7
  6
CONTINUOUS
 70
0
 71
3
 72
11
 73
7
 74
0
 42
0.0000001
 43
0.0000001
 44
0.0000000001
 40
0.0
 40
0.0
 40
0.0
 40
0.0
 40
0.289702809
 40
0.549088757
 40
0.7822160314
 40
1.0
 40
1.0
 40
1.0
 40
1.0
 10
86.6419069124
 20
109.9644351792
 30
0.0
 10
86.334759503
 20
109.7871045982
 30
0.0
 10
85.7237443472
 20
109.4964269445
 30
0.0
 10
84.7846008811
 20
109.2696322997
 30
0.0
 10
83.9034085669
 20
109.2919363977
 30
0.0
 10
83.3728826507
 20
109.4844636899
 30
0.0
 10
83.1419837612
 20
109.6177702369
 30
0.0
  0
SPLINE
  5
2FD
100
AcDbEntity
  8
0
100
AcDbSpline
 62
7
  6
CONTINUOUS
 70
0
 71
3
 72
11
 73
7
 74
0
 42
0.0000001
 43
0.0000001
 44
0.0000000001
 40
0.0
 40
0.0
 40
0.0
 40
0.0
 40
0.2177825102
 40
0.4509091639
 40
0.7102957096
 40
1.0
 40
1.0
 40
1.0
 40
1.0
 10
235.8052205295
 20
236.0510190926
 30
0.0
 10
236.0361270188
 20
235.917708158
 30
0.0
 10
236.4681441672
 20
235.5545155848
 30
0.0
 10
236.9280770135
 20
234.8025059686
 30
0.0
 10
237.2012499206
 20
233.8757478332
 30
0.0
 10
237.2550242389
 20
233.2012249192
 30
0.0
 10
237.2550242389
 20
232.8465463075
 30
0.0
  0
SPLINE
  5
2FE
100
AcDbEntity
  8
0
100
AcDbSpline
 62
7
  6
CONTINUOUS
 70
0
 71
3
 72
11
 73
7
 74
0
 42
0.0000001
 43
0.0000001
 44
0.0000000001
 40
0.0
 40
0.0
 40
0.0
 40
0.0
 40
0.2515973644
 40
0.5140372145
 40
0.7690457998
 40
1.0
 40
1.0
 40
1.0
 40
1.0
 10
102.0267495872
 20
123.0711121904
 30
0.0
 10
101.8798808735
 20
122.3588301912
 30
0.0
 10
101.4107777276
 20
120.9359231055
 30
0.0
 10
100.3267152851
 20
118.981512508
 30
0.0
 10
98.9405423126
 20
117.3049438457
 30
0.0
 10
97.8266196711
 20
116.4218935554
 30
0.0
 10
97.2484644706
 20
116.0880974872
 30
0.0
  0
SPLINE
  5
2FF
100
AcDbEntity
  8
0
100
AcDbSpline
 62
7
  6
CONTINUOUS
 70
0
 71
3
 72
10
 73
6
 74
0
 42
0.0000001
 43
0.0000001
 44
0.0000000001
 40
0.0
 40
0.0
 40
0.0
 40
0.0
 40
0.5217390533
 40
0.7716851727
 40
1.0
 40
1.0
 40
1.0
 40
1.0
 10
189.0518440464
 20
271.9697915746
 30
0.0
 10
188.7397777609
 20
271.1654814654
 30
0.0
 10
188.0891693698
 20
270.036905297
 30
0.0
 10
186.956135128
 20
268.826578081
 30
0.0
 10
186.3169481938
 20
268.3495521003
 30
0.0
 10
185.9899946157
 20
268.1607864908
 30
0.0
  0
SPLINE
  5
300
100
AcDbEntity
  8
0
100
AcDbSpline
 62
7
  6
CONTINUOUS
 70
0
 71
3
 72
11
 73
7
 74
0
 42
0.0000001
 43
0.0000001
 44
0.0000000001
 40
0.0
 40
0.0
 40
0.0
 40
0.0
 40
0.2176899422
 40
0.4508856506
 40
0.7106204681
 40
1.0
 40
1.0
 40
1.0
 40
1.0
 10
39.3705305598
 20
67.5243727234
 30
0.0
 10
39.4660845017
 20
67.4693022891
 30
0.0
 10
39.6448807282
 20
67.3190452151
 30
0.0
 10
39.8354166353
 20
67.0077493975
 30
0.0
 10
39.9480190397
 20
66.6240628252
 30
0.0
 10
39.9705554622
 20
66.3449731457
 30
0.0
 10
39.9705554622
 20
66.198365943
 30
0.0
  0
SPLINE
  5
301
100
AcDbEntity
  8
0
100
AcDbSpline
 62
7
  6
CONTINUOUS
 70
0
 71
3
 72
11
 73
7
 74
0
 42
0.0000001
 43
0.0000001
 44
0.0000000001
 40
0.0
 40
0.0
 40
0.0
 40
0.0
 40
0.2177825102
 40
0.4509091639
 40
0.7102957096
 40
1.0
 40
1.0
 40
1.0
 40
1.0
 10
107.8194259939
 20
162.1588272419
 30
0.0
 10
108.0503324832
 20
162.0255163073
 30
0.0
 10
108.4823496315
 20
161.6623237341
 30
0.0
 10
108.9422824778
 20
160.9103141179
 30
0.0
 10
109.2154553849
 20
159.9835559825
 30
0.0
 10
109.2692297032
 20
159.3090330685
 30
0.0
 10
109.2692297032
 20
158.9543544568
 30
0.0
  0
SPLINE
  5
302
100
AcDbEntity
  8
0
100
AcDbSpline
 62
7
  6
CONTINUOUS
 70
0
 71
3
 72
11
 73
7
 74
0
 42
0.0000001
 43
0.0000001
 44
0.0000000001
 40
0.0
 40
0.0
 40
0.0
 40
0.0
 40
0.2177825102
 40
0.4509091639
 40
0.7102957096
 40
1.0
 40
1.0
 40
1.0
 40
1.0
 10
236.2194501608
 20
275.5523250876
 30
0.0
 10
236.3843833674
 20
275.4571029915
 30
0.0
 10
236.6929670448
 20
275.1976797249
 30
0.0
 10
237.0214905065
 20
274.6605299991
 30
0.0
 10
237.2166140115
 20
273.9985599023
 30
0.0
 10
237.2550242389
 20
273.5167578209
 30
0.0
 10
237.2550242389
 20
273.2634159554
 30
0.0
  0
SPLINE
  5
303
100
AcDbEntity
  8
0
100
AcDbSpline
 62
7
  6
CONTINUOUS
 70
0
 71
3
 72
11
 73
7
 74
0
 42
0.0000001
 43
0.0000001
 44
0.0000000001
 40
0.0
 40
0.0
 40
0.0
 40
0.0
 40
0.289702809
 40
0.549088757
 40
0.7822160314
 40
1.0
 40
1.0
 40
1.0
 40
1.0
 10
138.426566415
 20
199.4668202681
 30
0.0
 10
138.2071754083
 20
199.3401555674
 30
0.0
 10
137.7707360113
 20
199.1325286719
 30
0.0
 10
137.0999192498
 20
198.970532497
 30
0.0
 10
136.4704961682
 20
198.9864639956
 30
0.0
 10
136.0915490852
 20
199.1239834901
 30
0.0
 10
135.926621307
 20
199.2192024522
 30
0.0
  0
SPLINE
  5
304
100
AcDbEntity
  8
0
100
AcDbSpline
 62
7
  6
CONTINUOUS
 70
0
 71
3
 72
11
 73
7
 74
0
 42
0.0000001
 43
0.0000001
 44
0.0000000001
 40
0.0
 40
0.0
 40
0.0
 40
0.0
 40
0.2176899422
 40
0.4508856506
 40
0.7106204681
 40
1.0
 40
1.0
 40
1.0
 40
1.0
 10
39.3705305598
 20
225.9258416465
 30
0.0
 10
39.4660845017
 20
225.8707712123
 30
0.0
 10
39.6448807282
 20
225.7205141382
 30
0.0
 10
39.8354166353
 20
225.4092183206
 30
0.0
 10
39.9480190397
 20
225.0255317483
 30
0.0
 10
39.9705554622
 20
224.7464420688
 30
0.0
 10
39.9705554622
 20
224.5998348661
 30
0.0
  0
SPLINE
  5
305
100
AcDbEntity
  8
0
100
AcDbSpline
 62
7
  6
CONTINUOUS
 70
0
 71
3
 72
11
 73
7
 74
0
 42
0.0000001
 43
0.0000001
 44
0.0000000001
 40
0.0
 40
0.0
 40
0.0
 40
0.0
 40
0.289702809
 40
0.549088757
 40
0.7822160314
 40
1.0
 40
1.0
 40
1.0
 40
1.0
 10
214.6277014481
 20
183.8566270299
 30
0.0
 10
214.3205540387
 20
183.6792964489
 30
0.0
 10
213.7095388829
 20
183.3886187952
 30
0.0
 10
212.7703954169
 20
183.1618241504
 30
0.0
 10
211.8892031026
 20
183.1841282484
 30
0.0
 10
211.3586771864
 20
183.3766555407
 30
0.0
 10
211.127778297
 20
183.5099620876
 30
0.0
  0
SPLINE
  5
306
100
AcDbEntity
  8
0
100
AcDbSpline
 62
7
  6
CONTINUOUS
 70
0
 71
3
 72
15
 73
11
 74
0
 42
0.0000001
 43
0.0000001
 44
0.0000000001
 40
0.0
 40
0.0
 40
0.0
 40
0.0
 40
0.1287974769
 40
0.2706060703
 40
0.4178807568
 40
0.5623765801
 40
0.6961925898
 40
0.8135912016
 40
0.913066129
 40
1.0
 40
1.0
 40
1.0
 40
1.0
 10
39.9705554622
 20
224.5998348661
 30
0.0
 10
39.9705554622
 20
224.3522950117
 30
0.0
 10
39.9011501304
 20
223.8316396437
 30
0.0
 10
39.6428327159
 20
223.0671795713
 30
0.0
 10
39.2441875273
 20
222.3308373975
 30
0.0
 10
38.7382865227
 20
221.6830231659
 30
0.0
 10
38.1650573086
 20
221.1754179106
 30
0.0
 10
37.5673034691
 20
220.8488440135
 30
0.0
 10
36.9820783343
 20
220.7315049528
 30
0.0
 10
36.6186649616
 20
220.8251959114
 30
0.0
 10
36.4739046398
 20
220.9086253715
 30
0.0
  0
SPLINE
  5
307
100
AcDbEntity
  8
0
100
AcDbSpline
 62
7
  6
CONTINUOUS
 70
0
 71
3
 72
15
 73
11
 74
0
 42
0.0000001
 43
0.0000001
 44
0.0000000001
 40
0.0
 40
0.0
 40
0.0
 40
0.0
 40
0.1287974769
 40
0.2706060703
 40
0.4178807568
 40
0.5623765801
 40
0.6961925898
 40
0.8135912016
 40
0.913066129
 40
1.0
 40
1.0
 40
1.0
 40
1.0
 10
39.9705554622
 20
66.198365943
 30
0.0
 10
39.9705554622
 20
65.9508260886
 30
0.0
 10
39.9011501304
 20
65.4301707206
 30
0.0
 10
39.6428327159
 20
64.6657106482
 30
0.0
 10
39.2441875273
 20
63.9293684744
 30
0.0
 10
38.7382865227
 20
63.2815542428
 30
0.0
 10
38.1650573086
 20
62.7739489875
 30
0.0
 10
37.5673034691
 20
62.4473750904
 30
0.0
 10
36.9820783343
 20
62.3300360297
 30
0.0
 10
36.6186649616
 20
62.4237269883
 30
0.0
 10
36.4739046398
 20
62.5071564484
 30
0.0
  0
SPLINE
  5
308
100
AcDbEntity
  8
0
100
AcDbSpline
 62
7
  6
CONTINUOUS
 70
0
 71
3
 72
11
 73
7
 74
0
 42
0.0000001
 43
0.0000001
 44
0.0000000001
 40
0.0
 40
0.0
 40
0.0
 40
0.0
 40
0.2372416196
 40
0.5000015492
 40
0.7627606319
 40
1.0
 40
1.0
 40
1.0
 40
1.0
 10
237.2550242389
 20
202.6359568737
 30
0.0
 10
237.2550242389
 20
201.8245156288
 30
0.0
 10
236.9506594642
 20
200.1132510593
 30
0.0
 10
235.8898893467
 20
197.7086293585
 30
0.0
 10
234.3378267899
 20
195.587662626
 30
0.0
 10
233.0080204897
 20
194.4684458324
 30
0.0
 10
232.3052973784
 20
194.0627308767
 30
0.0
  0
SPLINE
  5
309
100
AcDbEntity
  8
0
100
AcDbSpline
 62
7
  6
CONTINUOUS
 70
0
 71
3
 72
11
 73
7
 74
0
 42
0.0000001
 43
0.0000001
 44
0.0000000001
 40
0.0
 40
0.0
 40
0.0
 40
0.0
 40
0.2177825102
 40
0.4509091639
 40
0.7102957096
 40
1.0
 40
1.0
 40
1.0
 40
1.0
 10
183.0205829838
 20
244.8381281414
 30
0.0
 10
183.1855161904
 20
244.7429060453
 30
0.0
 10
183.4940998679
 20
244.4834827787
 30
0.0
 10
183.8226233295
 20
243.9463330529
 30
0.0
 10
184.0177468345
 20
243.2843629561
 30
0.0
 10
184.0561570619
 20
242.8025608747
 30
0.0
 10
184.0561570619
 20
242.5492190092
 30
0.0
  0
SPLINE
  5
30A
100
AcDbEntity
  8
0
100
AcDbSpline
 62
7
  6
CONTINUOUS
 70
0
 71
3
 72
11
 73
7
 74
0
 42
0.0000001
 43
0.0000001
 44
0.0000000001
 40
0.0
 40
0.0
 40
0.0
 40
0.0
 40
0.2372159235
 40
0.4999408365
 40
0.7627150318
 40
1.0
 40
1.0
 40
1.0
 40
1.0
 10
74.6211416797
 20
48.7268738242
 30
0.0
 10
74.1192461177
 20
48.4371060161
 30
0.0
 10
72.9521323937
 20
48.0142301067
 30
0.0
 10
71.0859298111
 20
47.8115872026
 30
0.0
 10
69.219540517
 20
48.0140961016
 30
0.0
 10
68.0521176031
 20
48.437008299
 30
0.0
 10
67.5500738679
 20
48.7268568275
 30
0.0
  0
SPLINE
  5
30B
100
AcDbEntity
  8
0
100
AcDbSpline
 62
7
  6
CONTINUOUS
 70
0
 71
3
 72
9
 73
5
 74
0
 42
0.0000001
 43
0.0000001
 44
0.0000000001
 40
0.0
 40
0.0
 40
0.0
 40
0.0
 40
0.2369200566
 40
1.0
 40
1.0
 40
1.0
 40
1.0
 10
130.8572898849
 20
113.4464807989
 30
0.0
 10
130.8572898849
 20
113.3274614198
 30
0.0
 10
130.8382415831
 20
112.8251393564
 30
0.0
 10
130.7489177487
 20
112.3266876239
 30
0.0
 10
130.6516886469
 20
111.9558814163
 30
0.0
  0
SPLINE
  5
30C
100
AcDbEntity
  8
0
100
AcDbSpline
 62
7
  6
CONTINUOUS
 70
0
 71
3
 72
11
 73
7
 74
0
 42
0.0000001
 43
0.0000001
 44
0.0000000001
 40
0.0
 40
0.0
 40
0.0
 40
0.0
 40
0.2897323646
 40
0.549102083
 40
0.7822086243
 40
1.0
 40
1.0
 40
1.0
 40
1.0
 10
67.5500738679
 20
48.7268568314
 30
0.0
 10
67.5500738678
 20
48.3873439545
 30
0.0
 10
67.60156121
 20
47.7417181914
 30
0.0
 10
67.8629840263
 20
46.8546611689
 30
0.0
 10
68.3032421169
 20
46.134954372
 30
0.0
 10
68.7166874851
 20
45.7872615914
 30
0.0
 10
68.9377292145
 20
45.6596944836
 30
0.0
  0
SPLINE
  5
30D
100
AcDbEntity
  8
0
100
AcDbSpline
 62
7
  6
CONTINUOUS
 70
0
 71
3
 72
11
 73
7
 74
0
 42
0.0000001
 43
0.0000001
 44
0.0000000001
 40
0.0
 40
0.0
 40
0.0
 40
0.0
 40
0.2550045963
 40
0.5171679725
 40
0.7702990524
 40
1.0
 40
1.0
 40
1.0
 40
1.0
 10
179.9400915726
 20
226.1451380497
 30
0.0
 10
179.8143632184
 20
225.6656431934
 30
0.0
 10
179.4588839685
 20
224.7178653999
 30
0.0
 10
178.6933942752
 20
223.4225431907
 30
0.0
 10
177.7453824857
 20
222.3180154613
 30
0.0
 10
176.996868936
 20
221.7352618867
 30
0.0
 10
176.6101736245
 20
221.5120045772
 30
0.0
  0
SPLINE
  5
30E
100
AcDbEntity
  8
0
100
AcDbSpline
 62
7
  6
CONTINUOUS
 70
0
 71
3
 72
9
 73
5
 74
0
 42
0.0000001
 43
0.0000001
 44
0.0000000001
 40
0.0
 40
0.0
 40
0.0
 40
0.0
 40
0.2369200566
 40
1.0
 40
1.0
 40
1.0
 40
1.0
 10
184.0561570619
 20
242.5492190092
 30
0.0
 10
184.0561570619
 20
242.4301996301
 30
0.0
 10
184.0371087601
 20
241.9278775668
 30
0.0
 10
183.9477849257
 20
241.4294258343
 30
0.0
 10
183.8505558239
 20
241.0586196267
 30
0.0
  0
SPLINE
  5
30F
100
AcDbEntity
  8
0
100
AcDbSpline
 62
7
  6
CONTINUOUS
 70
0
 71
3
 72
11
 73
7
 74
0
 42
0.0000001
 43
0.0000001
 44
0.0000000001
 40
0.0
 40
0.0
 40
0.0
 40
0.0
 40
0.2372422927
 40
0.4999983821
 40
0.7627553519
 40
1.0
 40
1.0
 40
1.0
 40
1.0
 10
243.1239759983
 20
144.6233957575
 30
0.0
 10
243.2946402497
 20
144.7219282209
 30
0.0
 10
243.6175849115
 20
144.9937519761
 30
0.0
 10
243.9945140213
 20
145.5088430424
 30
0.0
 10
244.2521291586
 20
146.0928219046
 30
0.0
 10
244.326062611
 20
146.5084146385
 30
0.0
 10
244.326062611
 20
146.7054824039
 30
0.0
  0
SPLINE
  5
310
100
AcDbEntity
  8
0
100
AcDbSpline
 62
7
  6
CONTINUOUS
 70
0
 71
3
 72
11
 73
7
 74
0
 42
0.0000001
 43
0.0000001
 44
0.0000000001
 40
0.0
 40
0.0
 40
0.0
 40
0.0
 40
0.289702809
 40
0.549088757
 40
0.7822160314
 40
1.0
 40
1.0
 40
1.0
 40
1.0
 10
85.2276992379
 20
70.3640820578
 30
0.0
 10
85.0083082312
 20
70.2374173571
 30
0.0
 10
84.5718688342
 20
70.0297904616
 30
0.0
 10
83.9010520728
 20
69.8677942867
 30
0.0
 10
83.2716289912
 20
69.8837257853
 30
0.0
 10
82.8926819082
 20
70.0212452797
 30
0.0
 10
82.72775413
 20
70.1164642418
 30
0.0
  0
SPLINE
  5
311
100
AcDbEntity
  8
0
100
AcDbSpline
 62
7
  6
CONTINUOUS
 70
0
 71
3
 72
9
 73
5
 74
0
 42
0.0000001
 43
0.0000001
 44
0.0000000001
 40
0.0
 40
0.0
 40
0.0
 40
0.0
 40
0.473811999
 40
1.0
 40
1.0
 40
1.0
 40
1.0
 10
125.6235930431
 20
104.1662453518
 30
0.0
 10
125.6235931119
 20
104.4118763756
 30
0.0
 10
125.745258576
 20
104.9345150729
 30
0.0
 10
126.0568057576
 20
105.3630610552
 30
0.0
 10
126.2452432455
 20
105.5602973431
 30
0.0
  0
SPLINE
  5
312
100
AcDbEntity
  8
0
100
AcDbSpline
 62
7
  6
CONTINUOUS
 70
0
 71
3
 72
9
 73
5
 74
0
 42
0.0000001
 43
0.0000001
 44
0.0000000001
 40
0.0
 40
0.0
 40
0.0
 40
0.0
 40
0.2359026707
 40
1.0
 40
1.0
 40
1.0
 40
1.0
 10
126.2452432455
 20
105.5602973431
 30
0.0
 10
126.3030754019
 20
105.6208298835
 30
0.0
 10
126.5592069919
 20
105.8669095567
 30
0.0
 10
126.8531820547
 20
106.07186649
 30
0.0
 10
127.088019468
 20
106.2074491244
 30
0.0
  0
SPLINE
  5
313
100
AcDbEntity
  8
0
100
AcDbSpline
 62
7
  6
CONTINUOUS
 70
0
 71
3
 72
11
 73
7
 74
0
 42
0.0000001
 43
0.0000001
 44
0.0000000001
 40
0.0
 40
0.0
 40
0.0
 40
0.0
 40
0.2550045963
 40
0.5171679725
 40
0.7702990524
 40
1.0
 40
1.0
 40
1.0
 40
1.0
 10
126.7412243956
 20
97.0423998393
 30
0.0
 10
126.6154960413
 20
96.5629049831
 30
0.0
 10
126.2600167915
 20
95.6151271895
 30
0.0
 10
125.4945270981
 20
94.3198049804
 30
0.0
 10
124.5465153087
 20
93.2152772509
 30
0.0
 10
123.798001759
 20
92.6325236764
 30
0.0
 10
123.4113064475
 20
92.4092663668
 30
0.0
  0
SPLINE
  5
314
100
AcDbEntity
  8
0
100
AcDbSpline
 62
7
  6
CONTINUOUS
 70
0
 71
3
 72
11
 73
7
 74
0
 42
0.0000001
 43
0.0000001
 44
0.0000000001
 40
0.0
 40
0.0
 40
0.0
 40
0.0
 40
0.2177633766
 40
0.4508775964
 40
0.7102957801
 40
1.0
 40
1.0
 40
1.0
 40
1.0
 10
74.7876563019
 20
45.7439086763
 30
0.0
 10
74.9525593964
 20
45.8391511108
 30
0.0
 10
75.2611568559
 20
46.0984999542
 30
0.0
 10
75.5896872632
 20
46.6356671762
 30
0.0
 10
75.7847695666
 20
47.2976643755
 30
0.0
 10
75.823218203
 20
47.7794918741
 30
0.0
 10
75.823218203
 20
48.0328347767
 30
0.0
  0
SPLINE
  5
315
100
AcDbEntity
  8
0
100
AcDbSpline
 62
7
  6
CONTINUOUS
 70
0
 71
3
 72
11
 73
7
 74
0
 42
0.0000001
 43
0.0000001
 44
0.0000000001
 40
0.0
 40
0.0
 40
0.0
 40
0.0
 40
0.2177843137
 40
0.4509117637
 40
0.7102976701
 40
1.0
 40
1.0
 40
1.0
 40
1.0
 10
166.0747398601
 20
101.2243245708
 30
0.0
 10
165.9098105406
 20
101.129103225
 30
0.0
 10
165.5308597878
 20
100.9915788932
 30
0.0
 10
164.9014290451
 20
100.9756418282
 30
0.0
 10
164.2306033873
 20
101.1376342656
 30
0.0
 10
163.7941576471
 20
101.3452599702
 30
0.0
 10
163.5747635268
 20
101.4719243591
 30
0.0
  0
SPLINE
  5
316
100
AcDbEntity
  8
0
100
AcDbSpline
 62
7
  6
CONTINUOUS
 70
0
 71
3
 72
11
 73
7
 74
0
 42
0.0000001
 43
0.0000001
 44
0.0000000001
 40
0.0
 40
0.0
 40
0.0
 40
0.0
 40
0.2177825102
 40
0.4509091639
 40
0.7102957096
 40
1.0
 40
1.0
 40
1.0
 40
1.0
 10
129.8217158068
 20
214.1239311952
 30
0.0
 10
129.9866490134
 20
214.0287090991
 30
0.0
 10
130.2952326908
 20
213.7692858325
 30
0.0
 10
130.6237561525
 20
213.2321361067
 30
0.0
 10
130.8188796575
 20
212.5701660099
 30
0.0
 10
130.8572898849
 20
212.0883639285
 30
0.0
 10
130.8572898849
 20
211.835022063
 30
0.0
  0
SPLINE
  5
317
100
AcDbEntity
  8
0
100
AcDbSpline
 62
7
  6
CONTINUOUS
 70
0
 71
3
 72
11
 73
7
 74
0
 42
0.0000001
 43
0.0000001
 44
0.0000000001
 40
0.0
 40
0.0
 40
0.0
 40
0.0
 40
0.2753974159
 40
0.5000030368
 40
0.7246066126
 40
1.0
 40
1.0
 40
1.0
 40
1.0
 10
74.6211416797
 20
48.7268854747
 30
0.0
 10
74.6211416797
 20
48.5645329178
 30
0.0
 10
74.6606582676
 20
48.2628054265
 30
0.0
 10
74.9472430913
 20
47.9036513271
 30
0.0
 10
75.4015685481
 20
47.8350269678
 30
0.0
 10
75.6826287007
 20
47.9516658742
 30
0.0
 10
75.8232282925
 20
48.0328406018
 30
0.0
  0
SPLINE
  5
318
100
AcDbEntity
  8
0
100
AcDbSpline
 62
7
  6
CONTINUOUS
 70
0
 71
3
 72
11
 73
7
 74
0
 42
0.0000001
 43
0.0000001
 44
0.0000000001
 40
0.0
 40
0.0
 40
0.0
 40
0.0
 40
0.289702809
 40
0.549088757
 40
0.7822160314
 40
1.0
 40
1.0
 40
1.0
 40
1.0
 10
191.625433592
 20
131.7924759502
 30
0.0
 10
191.4060425853
 20
131.6658112495
 30
0.0
 10
190.9696031883
 20
131.458184354
 30
0.0
 10
190.2987864269
 20
131.2961881791
 30
0.0
 10
189.6693633453
 20
131.3121196777
 30
0.0
 10
189.2904162623
 20
131.4496391722
 30
0.0
 10
189.1254884841
 20
131.5448581343
 30
0.0
  0
SPLINE
  5
319
100
AcDbEntity
  8
0
100
AcDbSpline
 62
7
  6
CONTINUOUS
 70
0
 71
3
 72
11
 73
7
 74
0
 42
0.0000001
 43
0.0000001
 44
0.0000000001
 40
0.0
 40
0.0
 40
0.0
 40
0.0
 40
0.2177825102
 40
0.4509091639
 40
0.7102957096
 40
1.0
 40
1.0
 40
1.0
 40
1.0
 10
236.2194501608
 20
177.1637838235
 30
0.0
 10
236.3843833674
 20
177.0685617274
 30
0.0
 10
236.6929670448
 20
176.8091384608
 30
0.0
 10
237.0214905065
 20
176.271988735
 30
0.0
 10
237.2166140115
 20
175.6100186382
 30
0.0
 10
237.2550242389
 20
175.1282165568
 30
0.0
 10
237.2550242389
 20
174.8748746913
 30
0.0
  0
SPLINE
  5
31A
100
AcDbEntity
  8
0
100
AcDbSpline
 62
7
  6
CONTINUOUS
 70
0
 71
3
 72
11
 73
7
 74
0
 42
0.0000001
 43
0.0000001
 44
0.0000000001
 40
0.0
 40
0.0
 40
0.0
 40
0.0
 40
0.2550045963
 40
0.5171679725
 40
0.7702990524
 40
1.0
 40
1.0
 40
1.0
 40
1.0
 10
233.1389587495
 20
158.4707937315
 30
0.0
 10
233.0132303953
 20
157.9912988753
 30
0.0
 10
232.6577511455
 20
157.0435210818
 30
0.0
 10
231.8922614521
 20
155.7481988727
 30
0.0
 10
230.9442496627
 20
154.6436711433
 30
0.0
 10
230.1957361131
 20
154.0609175688
 30
0.0
 10
229.8090408016
 20
153.8376602593
 30
0.0
  0
SPLINE
  5
31B
100
AcDbEntity
  8
0
100
AcDbSpline
 62
7
  6
CONTINUOUS
 70
0
 71
3
 72
11
 73
7
 74
0
 42
0.0000001
 43
0.0000001
 44
0.0000000001
 40
0.0
 40
0.0
 40
0.0
 40
0.0
 40
0.2177833598
 40
0.4509104088
 40
0.7102966711
 40
1.0
 40
1.0
 40
1.0
 40
1.0
 10
167.2768263928
 20
99.1422611789
 30
0.0
 10
167.4417593546
 20
99.2374847299
 30
0.0
 10
167.7503421469
 20
99.4969096678
 30
0.0
 10
168.0788651025
 20
100.0340596589
 30
0.0
 10
168.2739884184
 20
100.6960281442
 30
0.0
 10
168.3123986854
 20
101.1778285584
 30
0.0
 10
168.3123986854
 20
101.4311692803
 30
0.0
  0
SPLINE
  5
31C
100
AcDbEntity
  8
0
100
AcDbSpline
 62
7
  6
CONTINUOUS
 70
0
 71
3
 72
9
 73
5
 74
0
 42
0.0000001
 43
0.0000001
 44
0.0000000001
 40
0.0
 40
0.0
 40
0.0
 40
0.0
 40
0.2369200566
 40
1.0
 40
1.0
 40
1.0
 40
1.0
 10
237.2550242389
 20
174.8748746913
 30
0.0
 10
237.2550242389
 20
174.7558553122
 30
0.0
 10
237.2359759371
 20
174.2535332488
 30
0.0
 10
237.1466521027
 20
173.7550815163
 30
0.0
 10
237.0494230009
 20
173.3842753087
 30
0.0
  0
SPLINE
  5
31D
100
AcDbEntity
  8
0
100
AcDbSpline
 62
7
  6
CONTINUOUS
 70
0
 71
3
 72
11
 73
7
 74
0
 42
0.0000001
 43
0.0000001
 44
0.0000000001
 40
0.0
 40
0.0
 40
0.0
 40
0.0
 40
0.289702809
 40
0.549088757
 40
0.7822160314
 40
1.0
 40
1.0
 40
1.0
 40
1.0
 10
191.625433592
 20
230.1810172143
 30
0.0
 10
191.4060425853
 20
230.0543525136
 30
0.0
 10
190.9696031883
 20
229.8467256181
 30
0.0
 10
190.2987864269
 20
229.6847294432
 30
0.0
 10
189.6693633453
 20
229.7006609418
 30
0.0
 10
189.2904162623
 20
229.8381804363
 30
0.0
 10
189.1254884841
 20
229.9333993984
 30
0.0
  0
SPLINE
  5
31E
100
AcDbEntity
  8
0
100
AcDbSpline
 62
7
  6
CONTINUOUS
 70
0
 71
3
 72
11
 73
7
 74
0
 42
0.0000001
 43
0.0000001
 44
0.0000000001
 40
0.0
 40
0.0
 40
0.0
 40
0.0
 40
0.2897314032
 40
0.5491008385
 40
0.7822077747
 40
1.0
 40
1.0
 40
1.0
 40
1.0
 10
243.1239860878
 20
144.6234015827
 30
0.0
 10
243.1239860878
 20
144.370034908
 30
0.0
 10
243.0855626579
 20
143.8882263047
 30
0.0
 10
242.8904711935
 20
143.2262450635
 30
0.0
 10
242.561920883
 20
142.6891501774
 30
0.0
 10
242.2533804537
 20
142.4296762765
 30
0.0
 10
242.088424183
 20
142.3344754896
 30
0.0
  0
SPLINE
  5
31F
100
AcDbEntity
  8
0
100
AcDbSpline
 62
7
  6
CONTINUOUS
 70
0
 71
3
 72
11
 73
7
 74
0
 42
0.0000001
 43
0.0000001
 44
0.0000000001
 40
0.0
 40
0.0
 40
0.0
 40
0.0
 40
0.217762177
 40
0.4508757762
 40
0.7102943052
 40
1.0
 40
1.0
 40
1.0
 40
1.0
 10
245.7905098133
 20
148.7466745262
 30
0.0
 10
245.7904784815
 20
148.5562509324
 30
0.0
 10
245.7201755889
 20
148.1593392978
 30
0.0
 10
245.4192480533
 20
147.6062629973
 30
0.0
 10
244.9434961536
 20
147.1063383607
 30
0.0
 10
244.5454575605
 20
146.8321377304
 30
0.0
 10
244.326062611
 20
146.7054707534
 30
0.0
  0
SPLINE
  5
320
100
AcDbEntity
  8
0
100
AcDbSpline
 62
7
  6
CONTINUOUS
 70
0
 71
3
 72
11
 73
7
 74
0
 42
0.0000001
 43
0.0000001
 44
0.0000000001
 40
0.0
 40
0.0
 40
0.0
 40
0.0
 40
0.2550045963
 40
0.5171679725
 40
0.7702990524
 40
1.0
 40
1.0
 40
1.0
 40
1.0
 10
233.1389587495
 20
256.8593349956
 30
0.0
 10
233.0132303953
 20
256.3798401394
 30
0.0
 10
232.6577511455
 20
255.4320623459
 30
0.0
 10
231.8922614521
 20
254.1367401368
 30
0.0
 10
230.9442496627
 20
253.0322124074
 30
0.0
 10
230.1957361131
 20
252.4494588329
 30
0.0
 10
229.8090408016
 20
252.2262015234
 30
0.0
  0
SPLINE
  5
321
100
AcDbEntity
  8
0
100
AcDbSpline
 62
7
  6
CONTINUOUS
 70
0
 71
3
 72
11
 73
7
 74
0
 42
0.0000001
 43
0.0000001
 44
0.0000000001
 40
0.0
 40
0.0
 40
0.0
 40
0.0
 40
0.2177825102
 40
0.4509091639
 40
0.7102957096
 40
1.0
 40
1.0
 40
1.0
 40
1.0
 10
44.259613725
 20
59.9073209231
 30
0.0
 10
44.0386032281
 20
60.0349185319
 30
0.0
 10
43.6251011003
 20
60.3825457091
 30
0.0
 10
43.1848796618
 20
61.1023263418
 30
0.0
 10
42.9234141649
 20
61.9893662713
 30
0.0
 10
42.8719444601
 20
62.6349810604
 30
0.0
 10
42.8719444603
 20
62.9744591602
 30
0.0
  0
SPLINE
  5
322
100
AcDbEntity
  8
0
100
AcDbSpline
 62
7
  6
CONTINUOUS
 70
0
 71
3
 72
11
 73
7
 74
0
 42
0.0000001
 43
0.0000001
 44
0.0000000001
 40
0.0
 40
0.0
 40
0.0
 40
0.0
 40
0.2372405738
 40
0.5000004574
 40
0.7627600882
 40
1.0
 40
1.0
 40
1.0
 40
1.0
 10
67.5500738679
 20
224.2748765103
 30
0.0
 10
68.0520229958
 20
223.9850826022
 30
0.0
 10
69.2192951932
 20
223.5622066518
 30
0.0
 10
71.0856129033
 20
223.3596077679
 30
0.0
 10
72.9519280679
 20
223.5622150089
 30
0.0
 10
74.1191960422
 20
223.985096788
 30
0.0
 10
74.6211416797
 20
224.2748935071
 30
0.0
  0
SPLINE
  5
323
100
AcDbEntity
  8
0
100
AcDbSpline
 62
7
  6
CONTINUOUS
 70
0
 71
3
 72
11
 73
7
 74
0
 42
0.0000001
 43
0.0000001
 44
0.0000000001
 40
0.0
 40
0.0
 40
0.0
 40
0.0
 40
0.2237367484
 40
0.4595098308
 40
0.7165200675
 40
1.0
 40
1.0
 40
1.0
 40
1.0
 10
165.7234572738
 20
145.9372961764
 30
0.0
 10
166.0790227837
 20
145.7320989449
 30
0.0
 10
166.7487905089
 20
145.1968682596
 30
0.0
 10
167.5144603778
 20
144.1104099642
 30
0.0
 10
168.0376907256
 20
142.7735877101
 30
0.0
 10
168.211102864
 20
141.7909555733
 30
0.0
 10
168.2619156928
 20
141.2732952131
 30
0.0
  0
SPLINE
  5
324
100
AcDbEntity
  8
0
100
AcDbSpline
 62
7
  6
CONTINUOUS
 70
0
 71
3
 72
9
 73
5
 74
0
 42
0.0000001
 43
0.0000001
 44
0.0000000001
 40
0.0
 40
0.0
 40
0.0
 40
0.0
 40
0.245007022
 40
1.0
 40
1.0
 40
1.0
 40
1.0
 10
168.2619156928
 20
141.2732952131
 30
0.0
 10
168.2703702024
 20
141.1871641205
 30
0.0
 10
168.3003149991
 20
140.8351799777
 30
0.0
 10
168.3123986854
 20
140.481723989
 30
0.0
 10
168.3123986854
 20
140.2150340939
 30
0.0
  0
SPLINE
  5
325
100
AcDbEntity
  8
0
100
AcDbSpline
 62
7
  6
CONTINUOUS
 70
0
 71
3
 72
9
 73
5
 74
0
 42
0.0000001
 43
0.0000001
 44
0.0000000001
 40
0.0
 40
0.0
 40
0.0
 40
0.0
 40
0.2369200566
 40
1.0
 40
1.0
 40
1.0
 40
1.0
 10
237.2550242389
 20
273.2634159554
 30
0.0
 10
237.2550242389
 20
273.1443965763
 30
0.0
 10
237.2359759371
 20
272.642074513
 30
0.0
 10
237.1466521027
 20
272.1436227804
 30
0.0
 10
237.0494230009
 20
271.7728165729
 30
0.0
  0
ENDSEC
  0
SECTION
  2
OBJECTS
  0
DICTIONARY
  5
C
100
AcDbDictionary
280
0
281
1
  3
ACAD_GROUP
350
D
  3
ACAD_MLINESTYLE
350
17
  3
ACAD_LAYOUT
350
1A
  3
ACAD_PLOTSETTINGS
350
19
  3
ACAD_PLOTSTYLENAME
350
E
  0
DICTIONARY
  5
D
102
{ACAD_REACTORS
330
C
102
}
100
AcDbDictionary
280
0
281
1
  0
ACDBDICTIONARYWDFLT
  5
E
102
{ACAD_REACTORS
330
C
102
}
100
AcDbDictionary
281
1
  3
Normal
350
F
100
AcDbDictionaryWithDefault
340
F
  0
DICTIONARY
  5
17
102
{ACAD_REACTORS
330
C
102
}
100
AcDbDictionary
280
0
281
1
  3
Standard
350
18
  0
DICTIONARY
  5
19
102
{ACAD_REACTORS
330
C
102
}
100
AcDbDictionary
281
1
  0
DICTIONARY
  5
1A
102
{ACAD_REACTORS
330
C
102
}
100
AcDbDictionary
281
1
  3
Model
350
326
  3
Layout1
350
327
  0
ACDBPLACEHOLDER
  5
F
102
{ACAD_REACTORS
330
E
102
}
  0
MLINESTYLE
  5
18
102
{ACAD_REACTORS
330
17
102
}
100
AcDbMlineStyle
  2
STANDARD
 70
0
  3

 62
256
 51
90.0
 52
90.0
 71
2
 49
0.5
 62
256
  6
BYLAYER
 49
-0.5
 62
256
  6
BYLAYER
  0
LAYOUT
  5
326
102
{ACAD_REACTORS
330
1A
102
}
100
AcDbPlotSettings
  1

  2
none_device
  4

  6

 40
0.0
 41
0.0
 42
0.0
 43
0.0
 44
210.0
 45
297.0
 46
0.0
 47
0.0
 48
0.0
 49
0.0
140
0.0
141
0.0
142
1.0
143
1.0
 70
1024
 72
1
 73
0
 74
0
  7

 75
0
147
1.0
148
0.0
149
0.0
100
AcDbLayout
  1
Model
 70
0
 71
0
 10
0.0
 20
0.0
 11
210.0
 21
297.0
 12
0.0
 22
0.0
 32
0.0
 14
0.0
 24
0.0
 34
0.0
 15
0.0
 25
0.0
 35
0.0
146
0.0
 13
0.0
 23
0.0
 33
0.0
 16
1.0
 26
0.0
 36
0.0
 17
0.0
 27
1.0
 37
0.0
 76
0
330
210
345
0
346
0
  0
LAYOUT
  5
327
102
{ACAD_REACTORS
330
1A
102
}
100
AcDbPlotSettings
  1

  2
none_device
  4

  6

 40
0.0
 41
0.0
 42
0.0
 43
0.0
 44
210.0
 45
297.0
 46
0.0
 47
0.0
 48
0.0
 49
0.0
140
0.0
141
0.0
142
1.0
143
1.0
 70
0
 72
1
 73
0
 74
0
  7

 75
0
147
1.0
148
0.0
149
0.0
100
AcDbLayout
  1
Layout1
 70
0
 71
1
 10
0.0
 20
0.0
 11
210.0
 21
297.0
 12
0.0
 22
0.0
 32
0.0
 14
0.0
 24
0.0
 34
0.0
 15
0.0
 25
0.0
 35
0.0
146
0.0
 13
0.0
 23
0.0
 33
0.0
 16
1.0
 26
0.0
 36
0.0
 17
0.0
 27
1.0
 37
0.0
 76
0
330
211
345
0
346
0
  0
ENDSEC
  0
EOF
