  0
SECTION
  2
HEADER
  9
$ACADVER
  1
AC1009
  9
$DWGCODEPAGE
  3
ansi_1250
  9
$INSBASE
 10
0.0
 20
0.0
 30
0.0
  9
$EXTMIN
 10
-0.54125
 20
-0.67
 30
0.0
  9
$EXTMAX
 10
2.8742
 20
0.963858
 30
0.0
  9
$LIMMIN
 10
0.0
 20
0.0
  9
$LIMMAX
 10
0.0
 20
0.0
  9
$ORTHOMODE
 70
     0
  9
$REGENMODE
 70
     1
  9
$FILLMODE
 70
     1
  9
$QTEXTMODE
 70
     0
  9
$MIRRTEXT
 70
     1
  9
$DRAGMODE
 70
     2
  9
$LTSCALE
 40
1.0
  9
$OSMODE
 70
     0
  9
$ATTMODE
 70
     1
  9
$TEXTSIZE
 40
0.2
  9
$TRACEWID
 40
0.05
  9
$TEXTSTYLE
  7
STANDARD
  9
$CLAYER
  8
0
  9
$CELTYPE
  6
CONTINUOUS
  9
$CECOLOR
 62
   256
  9
$DIMSCALE
 40
1.0
  9
$DIMASZ
 40
0.18
  9
$DIMEXO
 40
0.0625
  9
$DIMDLI
 40
0.38
  9
$DIMRND
 40
0.0
  9
$DIMDLE
 40
0.0
  9
$DIMEXE
 40
0.18
  9
$DIMTP
 40
0.0
  9
$DIMTM
 40
0.0
  9
$DIMTXT
 40
0.18
  9
$DIMCEN
 40
0.09
  9
$DIMTSZ
 40
0.0
  9
$DIMTOL
 70
     0
  9
$DIMLIM
 70
     0
  9
$DIMTIH
 70
     1
  9
$DIMTOH
 70
     1
  9
$DIMSE1
 70
     0
  9
$DIMSE2
 70
     0
  9
$DIMTAD
 70
     0
  9
$DIMZIN
 70
     0
  9
$DIMBLK
  1

  9
$DIMASO
 70
     1
  9
$DIMSHO
 70
     1
  9
$DIMPOST
  1

  9
$DIMAPOST
  1

  9
$DIMALT
 70
     0
  9
$DIMALTD
 70
     2
  9
$DIMALTF
 40
25.4
  9
$DIMLFAC
 40
1.0
  9
$DIMTOFL
 70
     0
  9
$DIMTVP
 40
0.0
  9
$DIMTIX
 70
     0
  9
$DIMSOXD
 70
     0
  9
$DIMSAH
 70
     0
  9
$DIMBLK1
  1

  9
$DIMBLK2
  1

  9
$DIMSTYLE
  2
STANDARD
  9
$DIMCLRD
 70
     0
  9
$DIMCLRE
 70
     0
  9
$DIMCLRT
 70
     0
  9
$DIMTFAC
 40
1.0
  9
$DIMGAP
 40
0.09
  9
$LUNITS
 70
     2
  9
$LUPREC
 70
     4
  9
$AXISMODE
 70
     0
  9
$AXISUNIT
 10
0.0
 20
0.0
  9
$SKETCHINC
 40
0.1
  9
$FILLETRAD
 40
0.0
  9
$AUNITS
 70
     0
  9
$AUPREC
 70
     0
  9
$MENU
  1
acad
  9
$ELEVATION
 40
0.0
  9
$PELEVATION
 40
0.0
  9
$THICKNESS
 40
0.0
  9
$LIMCHECK
 70
     0
  9
$BLIPMODE
 70
     1
  9
$CHAMFERA
 40
0.0
  9
$CHAMFERB
 40
0.0
  9
$SKPOLY
 70
     0
  9
$TDCREATE
 40
0.000000000
  9
$TDUPDATE
 40
0.000000000
  9
$TDINDWG
 40
0.0000000000
  9
$TDUSRTIMER
 40
0.0000000000
  9
$USRTIMER
 70
     1
  9
$ANGBASE
 50
0.0
  9
$ANGDIR
 70
     0
  9
$PDMODE
 70
     0
  9
$PDSIZE
 40
0.0
  9
$PLINEWID
 40
0.0
  9
$COORDS
 70
     0
  9
$SPLFRAME
 70
     0
  9
$SPLINETYPE
 70
     6
  9
$SPLINESEGS
 70
     8
  9
$ATTDIA
 70
     0
  9
$ATTREQ
 70
     1
  9
$HANDLING
 70
     1
  9
$HANDSEED
  5
11C
  9
$SURFTAB1
 70
     6
  9
$SURFTAB2
 70
     6
  9
$SURFTYPE
 70
     6
  9
$SURFU
 70
     6
  9
$SURFV
 70
     6
  9
$UCSNAME
  2

  9
$UCSORG
 10
0.0
 20
0.0
 30
0.0
  9
$UCSXDIR
 10
1.0
 20
0.0
 30
0.0
  9
$UCSYDIR
 10
0.0
 20
1.0
 30
0.0
  9
$PUCSNAME
  2

  9
$PUCSORG
 10
0.0
 20
0.0
 30
0.0
  9
$PUCSXDIR
 10
1.0
 20
0.0
 30
0.0
  9
$PUCSYDIR
 10
0.0
 20
1.0
 30
0.0
  9
$USERI1
 70
     0
  9
$USERI2
 70
     0
  9
$USERI3
 70
     0
  9
$USERI4
 70
     0
  9
$USERI5
 70
     0
  9
$USERR1
 40
0.0
  9
$USERR2
 40
0.0
  9
$USERR3
 40
0.0
  9
$USERR4
 40
0.0
  9
$USERR5
 40
0.0
  9
$WORLDVIEW
 70
     1
  9
$SHADEDGE
 70
     3
  9
$SHADEDIF
 70
    70
  9
$TILEMODE
 70
     1
  9
$MAXACTVP
 70
    16
  9
$PINSBASE
 10
0.0
 20
0.0
 30
0.0
  9
$PLIMCHECK
 70
     0
  9
$PEXTMIN
 10
1.000000E+20
 20
1.000000E+20
 30
1.000000E+20
  9
$PEXTMAX
 10
-1.000000E+20
 20
-1.000000E+20
 30
-1.000000E+20
  9
$PLIMMIN
 10
0.0
 20
0.0
  9
$PLIMMAX
 10
12.0
 20
9.0
  9
$UNITMODE
 70
     0
  9
$VISRETAIN
 70
     0
  9
$PLINEGEN
 70
     1
  9
$PSLTSCALE
 70
     0
  9
$TREEDEPTH
 70
  3020
  0
ENDSEC
  0
SECTION
  2
TABLES
  0
TABLE
  2
VPORT
 70
     1
  0
VPORT
  2
*ACTIVE
 70
     0
 10
0.0
 20
0.0
 11
1.0
 21
1.0
 12
6.591288
 22
4.579184
 13
0.0
 23
0.0
 14
1.0
 24
1.0
 15
0.0
 25
0.0
 16
0.0
 26
0.0
 36
1.0
 17
0.0
 27
0.0
 37
0.0
 40
9.158369
 41
0.688564
 42
50.0
 43
0.0
 44
0.0
 50
0.0
 51
0.0
 71
     0
 72
   100
 73
     1
 74
     1
 75
     0
 76
     0
 77
     0
 78
     0
  0
ENDTAB
  0
TABLE
  2
LTYPE
 70
     5
  0
LTYPE
  2
CONTINUOUS
 70
    64
  3
Solid line
 72
    65
 73
     0
 40
0.0
  0
LTYPE
  2
CENTER
 70
    64
  3
Center ____ _ ____ _ ____ _ ____ _ ____ _ ____
 72
    65
 73
     4
 40
50.8
 49
31.75
 49
-6.35
 49
6.35
 49
-6.35
  0
LTYPE
  2
HIDDEN
 70
    64
  3
Hidden __ __ __ __ __ __ __ __ __ __ __ __ __ __
 72
    65
 73
     2
 40
9.525
 49
6.35
 49
-3.175
  0
LTYPE
  2
CENTER2
 70
    64
  3
Center (.5x) ___ _ ___ _ ___ _ ___ _ ___ _ ___
 72
    65
 73
     4
 40
28.575
 49
19.05
 49
-3.175
 49
3.175
 49
-3.175
  0
LTYPE
  2
HIDDEN2
 70
    64
  3
Hidden (.5x) _ _ _ _ _ _ _ _ _ _ _ _ _ _ _ _ _
 72
    65
 73
     2
 40
4.7625
 49
3.175
 49
-1.5875
  0
ENDTAB
  0
TABLE
  2
LAYER
 70
     1
  0
LAYER
  2
0
 70
     0
 62
     7
  6
CONTINUOUS
  0
ENDTAB
  0
TABLE
  2
STYLE
 70
     1
  0
STYLE
  2
STANDARD
 70
     0
 40
0.0
 41
1.0
 50
0.0
 71
     0
 42
0.0
  3
txt
  4

  0
ENDTAB
  0
TABLE
  2
VIEW
 70
     0
  0
ENDTAB
  0
TABLE
  2
UCS
 70
     0
  0
ENDTAB
  0
TABLE
  2
APPID
 70
     1
  0
APPID
  2
ACAD
 70
     0
  0
ENDTAB
  0
TABLE
  2
DIMSTYLE
 70
     1
  0
DIMSTYLE
  2
STANDARD
 70
     0
  3

  4

  5

  6

  7

 40
1.0
 41
0.18
 42
0.0625
 43
0.38
 44
0.18
 45
0.0
 46
0.0
 47
0.0
 48
0.0
 71
     0
 72
     0
 73
     1
 74
     1
 75
     0
 76
     0
 77
     0
 78
     0
140
0.18
141
0.09
142
0.0
143
25.4
144
1.0
145
0.0
146
1.0
147
0.09
170
     0
171
     2
172
     0
173
     0
174
     0
175
     0
176
     0
177
     0
178
     0
  0
ENDTAB
  0
ENDSEC
  0
SECTION
  2
BLOCKS
  0
ENDSEC
  0
SECTION
  2
ENTITIES
  0
LINE
  8
0
  6
CONTINUOUS
 62
     7
  5
B9
 10
0.19685
 20
-0.188386
 30
0.0
 11
0.314961
 21
-0.276304
 31
0.0
  0
ARC
  8
0
  6
CONTINUOUS
 62
     7
  5
BA
 10
-0.018834
 20
0.727625
 30
0.0
 40
0.026906
 50
45.572996
 51
146.418621
  0
ARC
  8
0
  6
CONTINUOUS
 62
     7
  5
BB
 10
-0.018834
 20
-0.55
 30
0.0
 40
0.026906
 50
180.0
 51
314.427004
  0
LINE
  8
0
  6
CONTINUOUS
 62
     7
  5
BC
 10
-0.045741
 20
0.727621
 30
0.0
 11
-0.045737
 21
0.728049
 31
0.0
  0
LINE
  8
0
  6
CONTINUOUS
 62
     7
  5
BD
 10
-0.045737
 20
0.728049
 30
0.0
 11
-0.045727
 21
0.728483
 31
0.0
  0
LINE
  8
0
  6
CONTINUOUS
 62
     7
  5
BE
 10
-0.045727
 20
0.728483
 30
0.0
 11
-0.045709
 21
0.728922
 31
0.0
  0
LINE
  8
0
  6
CONTINUOUS
 62
     7
  5
BF
 10
-0.045709
 20
0.728922
 30
0.0
 11
-0.045684
 21
0.729365
 31
0.0
  0
LINE
  8
0
  6
CONTINUOUS
 62
     7
  5
C0
 10
-0.045684
 20
0.729365
 30
0.0
 11
-0.045651
 21
0.729813
 31
0.0
  0
LINE
  8
0
  6
CONTINUOUS
 62
     7
  5
C1
 10
-0.045651
 20
0.729813
 30
0.0
 11
-0.045611
 21
0.730264
 31
0.0
  0
LINE
  8
0
  6
CONTINUOUS
 62
     7
  5
C2
 10
-0.045611
 20
0.730264
 30
0.0
 11
-0.045562
 21
0.730717
 31
0.0
  0
LINE
  8
0
  6
CONTINUOUS
 62
     7
  5
C3
 10
-0.045562
 20
0.730717
 30
0.0
 11
-0.045505
 21
0.731172
 31
0.0
  0
LINE
  8
0
  6
CONTINUOUS
 62
     7
  5
C4
 10
-0.045505
 20
0.731172
 30
0.0
 11
-0.045441
 21
0.731628
 31
0.0
  0
LINE
  8
0
  6
CONTINUOUS
 62
     7
  5
C5
 10
-0.045441
 20
0.731628
 30
0.0
 11
-0.045368
 21
0.732085
 31
0.0
  0
LINE
  8
0
  6
CONTINUOUS
 62
     7
  5
C6
 10
-0.045368
 20
0.732085
 30
0.0
 11
-0.045287
 21
0.732541
 31
0.0
  0
LINE
  8
0
  6
CONTINUOUS
 62
     7
  5
C7
 10
-0.045287
 20
0.732541
 30
0.0
 11
-0.045198
 21
0.732996
 31
0.0
  0
LINE
  8
0
  6
CONTINUOUS
 62
     7
  5
C8
 10
-0.045198
 20
0.732996
 30
0.0
 11
-0.045102
 21
0.733449
 31
0.0
  0
LINE
  8
0
  6
CONTINUOUS
 62
     7
  5
C9
 10
-0.045102
 20
0.733449
 30
0.0
 11
-0.044998
 21
0.7339
 31
0.0
  0
LINE
  8
0
  6
CONTINUOUS
 62
     7
  5
CA
 10
-0.044998
 20
0.7339
 30
0.0
 11
-0.044886
 21
0.734348
 31
0.0
  0
LINE
  8
0
  6
CONTINUOUS
 62
     7
  5
CB
 10
-0.044886
 20
0.734348
 30
0.0
 11
-0.044767
 21
0.734792
 31
0.0
  0
LINE
  8
0
  6
CONTINUOUS
 62
     7
  5
CC
 10
-0.044767
 20
0.734792
 30
0.0
 11
-0.044642
 21
0.735232
 31
0.0
  0
LINE
  8
0
  6
CONTINUOUS
 62
     7
  5
CD
 10
-0.044642
 20
0.735232
 30
0.0
 11
-0.04451
 21
0.735666
 31
0.0
  0
LINE
  8
0
  6
CONTINUOUS
 62
     7
  5
CE
 10
-0.04451
 20
0.735666
 30
0.0
 11
-0.044372
 21
0.736095
 31
0.0
  0
LINE
  8
0
  6
CONTINUOUS
 62
     7
  5
CF
 10
-0.044372
 20
0.736095
 30
0.0
 11
-0.044227
 21
0.736517
 31
0.0
  0
LINE
  8
0
  6
CONTINUOUS
 62
     7
  5
D0
 10
-0.044227
 20
0.736517
 30
0.0
 11
-0.044078
 21
0.736933
 31
0.0
  0
LINE
  8
0
  6
CONTINUOUS
 62
     7
  5
D1
 10
-0.044078
 20
0.736933
 30
0.0
 11
-0.043924
 21
0.737341
 31
0.0
  0
LINE
  8
0
  6
CONTINUOUS
 62
     7
  5
D2
 10
-0.043924
 20
0.737341
 30
0.0
 11
-0.043765
 21
0.737742
 31
0.0
  0
LINE
  8
0
  6
CONTINUOUS
 62
     7
  5
D3
 10
-0.043765
 20
0.737742
 30
0.0
 11
-0.043601
 21
0.738136
 31
0.0
  0
LINE
  8
0
  6
CONTINUOUS
 62
     7
  5
D4
 10
-0.043601
 20
0.738136
 30
0.0
 11
-0.043429
 21
0.738531
 31
0.0
  0
LINE
  8
0
  6
CONTINUOUS
 62
     7
  5
D5
 10
-0.043429
 20
0.738531
 30
0.0
 11
-0.043249
 21
0.73893
 31
0.0
  0
LINE
  8
0
  6
CONTINUOUS
 62
     7
  5
D6
 10
-0.043249
 20
0.73893
 30
0.0
 11
-0.04306
 21
0.73933
 31
0.0
  0
LINE
  8
0
  6
CONTINUOUS
 62
     7
  5
D7
 10
-0.04306
 20
0.73933
 30
0.0
 11
-0.042862
 21
0.739731
 31
0.0
  0
LINE
  8
0
  6
CONTINUOUS
 62
     7
  5
D8
 10
-0.042862
 20
0.739731
 30
0.0
 11
-0.042655
 21
0.740132
 31
0.0
  0
LINE
  8
0
  6
CONTINUOUS
 62
     7
  5
D9
 10
-0.042655
 20
0.740132
 30
0.0
 11
-0.042441
 21
0.740532
 31
0.0
  0
LINE
  8
0
  6
CONTINUOUS
 62
     7
  5
DA
 10
-0.042441
 20
0.740532
 30
0.0
 11
-0.042218
 21
0.740932
 31
0.0
  0
LINE
  8
0
  6
CONTINUOUS
 62
     7
  5
DB
 10
-0.042218
 20
0.740932
 30
0.0
 11
-0.041987
 21
0.741329
 31
0.0
  0
LINE
  8
0
  6
CONTINUOUS
 62
     7
  5
DC
 10
-0.041987
 20
0.741329
 30
0.0
 11
-0.041749
 21
0.741724
 31
0.0
  0
LINE
  8
0
  6
CONTINUOUS
 62
     7
  5
DD
 10
-0.041749
 20
0.741724
 30
0.0
 11
-0.041503
 21
0.742116
 31
0.0
  0
LINE
  8
0
  6
CONTINUOUS
 62
     7
  5
DE
 10
-0.041503
 20
0.742116
 30
0.0
 11
-0.04125
 21
0.742504
 31
0.0
  0
LINE
  8
0
  6
CONTINUOUS
 62
     7
  5
DF
 10
-0.04125
 20
-0.600394
 30
0.0
 11
-0.04125
 21
-0.564882
 31
0.0
  0
LINE
  8
0
  6
CONTINUOUS
 62
     7
  5
E0
 10
-0.11
 20
-0.408195
 30
0.0
 11
-0.045741
 21
-0.408195
 31
0.0
  0
LINE
  8
0
  6
CONTINUOUS
 62
     7
  5
E1
 10
-0.045741
 20
-0.544141
 30
0.0
 11
-0.11
 21
-0.544141
 31
0.0
  0
LINE
  8
0
  6
CONTINUOUS
 62
     7
  5
E2
 10
-0.11
 20
-0.600394
 30
0.0
 11
-0.11
 21
-0.544141
 31
0.0
  0
LINE
  8
0
  6
CONTINUOUS
 62
     7
  5
E3
 10
-0.11
 20
-0.544141
 30
0.0
 11
-0.11
 21
-0.408195
 31
0.0
  0
LINE
  8
0
  6
CONTINUOUS
 62
     7
  5
E4
 10
-0.04125
 20
0.742504
 30
0.0
 11
-0.04125
 21
0.85
 31
0.0
  0
LINE
  8
0
  6
CONTINUOUS
 62
     7
  5
E5
 10
-0.04125
 20
0.85
 30
0.0
 11
-0.11
 21
0.85
 31
0.0
  0
LINE
  8
0
  6
CONTINUOUS
 62
     7
  5
E6
 10
-0.11
 20
0.85
 30
0.0
 11
-0.11
 21
0.6
 31
0.0
  0
LINE
  8
0
  6
CONTINUOUS
 62
     7
  5
E7
 10
-0.11
 20
0.6
 30
0.0
 11
-0.045741
 21
0.6
 31
0.0
  0
LINE
  8
0
  6
CONTINUOUS
 62
     7
  5
E8
 10
-0.04125
 20
0.742507
 30
0.0
 11
-0.04125
 21
0.85
 31
0.0
  0
LINE
  8
0
  6
CONTINUOUS
 62
     7
  5
E9
 10
0.0
 20
-0.67
 30
0.0
 11
0.0
 21
-0.57
 31
0.0
  0
LINE
  8
0
  6
CONTINUOUS
 62
     7
  5
EA
 10
0.314961
 20
-0.276304
 30
0.0
 11
0.314961
 21
-0.608649
 31
0.0
  0
LINE
  8
0
  6
CONTINUOUS
 62
     7
  5
EB
 10
0.0
 20
0.896929
 30
0.0
 11
0.0
 21
0.963858
 31
0.0
  0
LINE
  8
0
  6
CONTINUOUS
 62
     7
  5
EC
 10
0.08
 20
0.963858
 30
0.0
 11
0.08
 21
0.83
 31
0.0
  0
LINE
  8
0
  6
CONTINUOUS
 62
     7
  5
ED
 10
0.070866
 20
0.896929
 30
0.0
 11
0.070866
 21
0.784691
 31
0.0
  0
LINE
  8
0
  6
CONTINUOUS
 62
     7
  5
EE
 10
0.0
 20
0.896929
 30
0.0
 11
0.070866
 21
0.896929
 31
0.0
  0
LINE
  8
0
  6
CONTINUOUS
 62
     7
  5
EF
 10
0.0
 20
-0.67
 30
0.0
 11
0.0
 21
0.896929
 31
0.0
  0
LINE
  8
0
  6
CONTINUOUS
 62
     7
  5
F0
 10
0.070866
 20
0.784691
 30
0.0
 11
0.19685
 21
0.70039
 31
0.0
  0
LINE
  8
0
  6
CONTINUOUS
 62
     7
  5
F1
 10
0.19685
 20
0.70039
 30
0.0
 11
0.19685
 21
-0.188386
 31
0.0
  0
LINE
  8
0
  6
CONTINUOUS
 62
     7
  5
F2
 10
0.314961
 20
-0.608649
 30
0.0
 11
0.048418
 21
-0.67
 31
0.0
  0
LINE
  8
0
  6
CONTINUOUS
 62
     7
  5
F3
 10
0.048418
 20
-0.67
 30
0.0
 11
0.0
 21
-0.67
 31
0.0
  0
LINE
  8
0
  6
CONTINUOUS
 62
     7
  5
F4
 10
0.533589
 20
-0.475692
 30
0.0
 11
0.314961
 21
-0.418115
 31
0.0
  0
LINE
  8
0
  6
CONTINUOUS
 62
     7
  5
F5
 10
0.2252
 20
-0.209489
 30
0.0
 11
0.2252
 21
0.563853
 31
0.0
  0
LINE
  8
0
  6
CONTINUOUS
 62
     7
  5
F6
 10
1.67112
 20
-0.582886
 30
0.0
 11
1.67112
 21
-0.614886
 31
0.0
  0
LINE
  8
0
  6
CONTINUOUS
 62
     7
  5
F7
 10
0.412808
 20
0.610601
 30
0.0
 11
0.412808
 21
0.675977
 31
0.0
  0
LINE
  8
0
  6
CONTINUOUS
 62
     7
  5
F8
 10
1.77671
 20
0.715824
 30
0.0
 11
1.77671
 21
0.676957
 31
0.0
  0
LINE
  8
0
  6
CONTINUOUS
 62
     7
  5
F9
 10
0.572718
 20
0.715824
 30
0.0
 11
1.77671
 21
0.715824
 31
0.0
  0
LINE
  8
0
  6
CONTINUOUS
 62
     7
  5
FA
 10
0.412808
 20
0.675977
 30
0.0
 11
0.572718
 21
0.715824
 31
0.0
  0
LINE
  8
0
  6
CONTINUOUS
 62
     7
  5
FB
 10
0.412808
 20
-0.521327
 30
0.0
 11
0.412808
 21
-0.443884
 31
0.0
  0
LINE
  8
0
  6
CONTINUOUS
 62
     7
  5
FC
 10
1.377243
 20
-0.521327
 30
0.0
 11
0.412808
 21
-0.521327
 31
0.0
  0
LINE
  8
0
  6
CONTINUOUS
 62
     7
  5
FD
 10
1.508028
 20
-0.614886
 30
0.0
 11
1.377243
 21
-0.521327
 31
0.0
  0
LINE
  8
0
  6
CONTINUOUS
 62
     7
  5
FE
 10
1.67112
 20
-0.614886
 30
0.0
 11
1.508028
 21
-0.614886
 31
0.0
  0
LINE
  8
0
  6
CONTINUOUS
 62
     7
  5
FF
 10
1.579784
 20
-0.475692
 30
0.0
 11
0.533589
 21
-0.475692
 31
0.0
  0
LINE
  8
0
  6
CONTINUOUS
 62
     7
  5
100
 10
1.579784
 20
-0.582886
 30
0.0
 11
1.579784
 21
-0.475692
 31
0.0
  0
LINE
  8
0
  6
CONTINUOUS
 62
     7
  5
101
 10
0.2252
 20
0.563853
 30
0.0
 11
0.679099
 21
0.676957
 31
0.0
  0
LINE
  8
0
  6
CONTINUOUS
 62
     7
  5
102
 10
0.679099
 20
0.676957
 30
0.0
 11
1.9452
 21
0.676957
 31
0.0
  0
LINE
  8
0
  6
CONTINUOUS
 62
     7
  5
103
 10
1.9452
 20
-0.582886
 30
0.0
 11
1.579784
 21
-0.582886
 31
0.0
  0
LINE
  8
0
  6
CONTINUOUS
 62
     7
  5
104
 10
1.9452
 20
0.676957
 30
0.0
 11
1.9452
 21
-0.582886
 31
0.0
  0
LINE
  8
0
  6
CONTINUOUS
 62
     7
  5
105
 10
2.052269
 20
-0.4799
 30
0.0
 11
1.9452
 21
-0.4799
 31
0.0
  0
LINE
  8
0
  6
CONTINUOUS
 62
     7
  5
106
 10
2.8742
 20
0.56691
 30
0.0
 11
2.765098
 21
0.6299
 31
0.0
  0
LINE
  8
0
  6
CONTINUOUS
 62
     7
  5
107
 10
1.9452
 20
-0.44093
 30
0.0
 11
2.464391
 21
-0.6299
 31
0.0
  0
LINE
  8
0
  6
CONTINUOUS
 62
     7
  5
108
 10
2.464391
 20
-0.6299
 30
0.0
 11
2.765098
 21
-0.6299
 31
0.0
  0
LINE
  8
0
  6
CONTINUOUS
 62
     7
  5
109
 10
2.765098
 20
-0.6299
 30
0.0
 11
2.8742
 21
-0.56691
 31
0.0
  0
LINE
  8
0
  6
CONTINUOUS
 62
     7
  5
10A
 10
2.8742
 20
0.56691
 30
0.0
 11
2.8742
 21
-0.56691
 31
0.0
  0
LINE
  8
0
  6
CONTINUOUS
 62
     7
  5
10B
 10
1.9452
 20
0.6299
 30
0.0
 11
2.765098
 21
0.6299
 31
0.0
  0
LINE
  8
0
  6
CONTINUOUS
 62
     7
  5
10C
 10
-0.54125
 20
0.10825
 30
0.0
 11
-0.54125
 21
-0.10825
 31
0.0
  0
ARC
  8
0
  6
CONTINUOUS
 62
     7
  5
10D
 10
-0.018834
 20
0.727625
 30
0.0
 40
0.026906
 50
45.572996
 51
146.418621
  0
LINE
  8
0
  6
CONTINUOUS
 62
     7
  5
10E
 10
-0.045741
 20
0.727621
 30
0.0
 11
-0.045741
 21
0.667625
 31
0.0
  0
LINE
  8
0
  6
CONTINUOUS
 62
     7
  5
10F
 10
-0.045741
 20
0.667625
 30
0.0
 11
-0.045741
 21
-0.49
 31
0.0
  0
LINE
  8
0
  6
CONTINUOUS
 62
     7
  5
110
 10
-0.045741
 20
-0.49
 30
0.0
 11
-0.045741
 21
-0.55
 31
0.0
  0
LINE
  8
0
  6
CONTINUOUS
 62
     7
  5
111
 10
-0.11
 20
-0.600394
 30
0.0
 11
-0.04125
 21
-0.600394
 31
0.0
  0
LINE
  8
0
  6
CONTINUOUS
 62
     7
  5
112
 10
0.08
 20
0.963858
 30
0.0
 11
0.0
 21
0.963858
 31
0.0
  0
LINE
  8
0
  6
CONTINUOUS
 62
     7
  5
113
 10
0.070866
 20
0.83
 30
0.0
 11
0.08
 21
0.83
 31
0.0
  0
LINE
  8
0
  6
CONTINUOUS
 62
     7
  5
114
 10
0.19685
 20
-0.162375
 30
0.0
 11
0.2252
 21
-0.162375
 31
0.0
  0
LINE
  8
0
  6
CONTINUOUS
 62
     7
  5
115
 10
0.2252
 20
0.162375
 30
0.0
 11
0.19685
 21
0.162375
 31
0.0
  0
ARC
  8
0
  6
CONTINUOUS
 62
     7
  5
116
 10
-0.433
 20
-0.10825
 30
0.0
 40
0.10825
 50
180.0
 51
270.0
  0
ARC
  8
0
  6
CONTINUOUS
 62
     7
  5
117
 10
-0.433
 20
0.10825
 30
0.0
 40
0.10825
 50
90.0
 51
180.0
  0
LINE
  8
0
  6
CONTINUOUS
 62
     7
  5
118
 10
-0.045741
 20
0.2165
 30
0.0
 11
-0.433
 21
0.2165
 31
0.0
  0
LINE
  8
0
  6
CONTINUOUS
 62
     7
  5
119
 10
-0.433
 20
-0.2165
 30
0.0
 11
-0.045741
 21
-0.2165
 31
0.0
  0
ENDSEC
  0
EOF
