999
DXF file: C:\Users\sesa63760\OneDrive - Schneider Electric\Documents\7-Dev\_Creo\CAD\MCADUE0000286_3D-CAD\drw0001_5.dxf
999
Pro/ENGINEER 2019471 by Parametric Technology Corporation
  0
SECTION
  2
HEADER
  9
$ACADVER
  1
AC1024
  9
$DWGCODEPAGE
  3
ANSI_1252
  9
$EXTMAX
 10
337.0954487498
 20
476.7492775175
 30
0.0
  9
$EXTMIN
 10
0.0
 20
0.0
 30
0.0
  9
$LIMMIN
 10
0.0
 20
0.0
  9
$LIMMAX
 10
337.0954487498
 20
476.7492775175
  9
$VIEWCTR
 10
168.5477243749
 20
238.3746387588
  9
$VIEWSIZE
 40
476.7492775175
  9
$CLAYER
  8
0
  9
$LTSCALE
 40
31.0769899419
  9
$CELTYPE
  6
BYLAYER
  9
$DIMSCALE
 40
1.0
  9
$DIMASZ
 40
4.0130410565
  9
$DIMEXO
 40
1.0
  9
$DIMDLI
 40
21.4713748689
  9
$DIMEXE
 40
1.0
  9
$DIMCEN
 40
5.0853256269
  9
$DIMLFAC
 40
1.0
  9
$DIMBLK
  1
_FILLED
  9
$DIMALT
 70
0
  9
$DIMALTF
 40
0.0393700787
  9
$DIMTXT
 40
5.6182574792
  9
$DIMTOL
 70
1
  9
$DIMLIM
 70
0
  9
$DIMTFAC
 40
1.0
  9
$DIMTP
 40
0.01
  9
$DIMTM
 40
0.01
  9
$DIMGAP
 40
0.625
  9
$DIMDSEP
 70
46
  9
$AUNITS
 70
0
  9
$PDMODE
 70
3
  9
$PDSIZE
 40
0.3125
  9
$HANDSEED
  5
6AD
  9
$TILEMODE
 70
1
  9
$MEASUREMENT
 70
1
  9
$INSUNITS
 70
4
  0
ENDSEC
  0
SECTION
  2
CLASSES
  0
CLASS
  1
ACDBDICTIONARYWDFLT
  2
AcDbDictionaryWithDefault
  3
AutoCAD 2000
 90
0
 91
1
280
0
281
0
  0
CLASS
  1
ACDBPLACEHOLDER
  2
AcDbPlaceHolder
  3
AutoCAD 2000
 90
0
 91
1
280
0
281
0
  0
CLASS
  1
LAYOUT
  2
AcDbLayout
  3
AutoCAD 2000
 90
0
 91
0
280
0
281
0
  0
ENDSEC
  0
SECTION
  2
TABLES
  0
TABLE
  2
VPORT
  5
8
100
AcDbSymbolTable
 70
2
  0
VPORT
  5
1F4
100
AcDbSymbolTableRecord
100
AcDbViewportTableRecord
  2
*ACTIVE
 70
0
 10
0.0
 20
0.0
 11
1.0
 21
1.0
 12
168.5477243749
 22
238.3746387588
 13
0.0
 23
0.0
 14
1.0
 24
1.0
 15
0.0
 25
0.0
 16
0.0
 26
0.0
 36
1.0
 17
0.0
 27
0.0
 37
0.0
 40
476.7492775175
 41
0.7070707071
 42
50.0
 43
0.0
 44
0.0
 50
0.0
 51
0.0
 71
0
 72
100
 73
1
 74
1
 75
0
 76
0
 77
0
 78
0
  0
ENDTAB
  0
TABLE
  2
LTYPE
  5
5
100
AcDbSymbolTable
 70
6
  0
LTYPE
  5
14
100
AcDbSymbolTableRecord
100
AcDbLinetypeTableRecord
  2
BYBLOCK
 70
0
  3

 72
65
 73
0
 40
0.0
  0
LTYPE
  5
15
100
AcDbSymbolTableRecord
100
AcDbLinetypeTableRecord
  2
BYLAYER
 70
0
  3

 72
65
 73
0
 40
0.0
  0
LTYPE
  5
16
100
AcDbSymbolTableRecord
100
AcDbLinetypeTableRecord
  2
CONTINUOUS
 70
64
  3
Solid line
 72
65
 73
0
 40
0.0
  0
LTYPE
  5
1F5
100
AcDbSymbolTableRecord
100
AcDbLinetypeTableRecord
  2
CENTER
 70
64
  3
____ _ ____ _ ____ _ ____ _ ____ _ ____ _ ____
 72
65
 73
4
 40
0.6
 49
0.375
 74
0
 49
-0.075
 74
0
 49
0.075
 74
0
 49
-0.075
 74
0
  0
LTYPE
  5
1F6
100
AcDbSymbolTableRecord
100
AcDbLinetypeTableRecord
  2
HIDDEN
 70
64
  3
- - - - - - - - - - - - - - - - - - - -
 72
65
 73
2
 40
0.2
 49
0.1
 74
0
 49
-0.1
 74
0
  0
LTYPE
  5
1F7
100
AcDbSymbolTableRecord
100
AcDbLinetypeTableRecord
  2
PHANTOM
 70
64
  3
_____ _ _ _____ _ _ _____ _ _ _____
 72
65
 73
6
 40
0.8
 49
0.45
 74
0
 49
-0.05
 74
0
 49
0.1
 74
0
 49
-0.05
 74
0
 49
0.1
 74
0
 49
-0.05
 74
0
  0
LTYPE
  5
1F8
100
AcDbSymbolTableRecord
100
AcDbLinetypeTableRecord
  2
DOT
 70
64
  3
. . . . . . . . . . . . . . . . . . . .
 72
65
 73
2
 40
0.2
 49
0.1
 74
0
 49
-0.1
 74
0
  0
LTYPE
  5
1F9
100
AcDbSymbolTableRecord
100
AcDbLinetypeTableRecord
  2
DASHED
 70
64
  3
- - - - - - - - - - - - - - - - - - - -
 72
65
 73
2
 40
0.2
 49
0.1
 74
0
 49
-0.1
 74
0
  0
ENDTAB
  0
TABLE
  2
LAYER
  5
2
100
AcDbSymbolTable
 70
36
  0
LAYER
  5
10
100
AcDbSymbolTableRecord
100
AcDbLayerTableRecord
  2
0
 70
0
 62
7
  6
CONTINUOUS
370
-3
390
F
  0
LAYER
  5
1FA
100
AcDbSymbolTableRecord
100
AcDbLayerTableRecord
  2
DEFAULT_1
 70
0
 62
7
  6
CENTER
370
-3
390
F
  0
LAYER
  5
1FB
100
AcDbSymbolTableRecord
100
AcDbLayerTableRecord
  2
DEFAULT_2
 70
0
 62
8
  6
HIDDEN
370
-3
390
F
  0
LAYER
  5
1FC
100
AcDbSymbolTableRecord
100
AcDbLayerTableRecord
  2
DEFAULT_3
 70
0
 62
7
  6
PHANTOM
370
-3
390
F
  0
LAYER
  5
1FD
100
AcDbSymbolTableRecord
100
AcDbLayerTableRecord
  2
00_COMPONENTS
 70
0
 62
7
  6
CONTINUOUS
370
-3
390
F
  0
LAYER
  5
1FE
100
AcDbSymbolTableRecord
100
AcDbLayerTableRecord
  2
01_1_DEFAULT_DATUMS
 70
0
 62
7
  6
CONTINUOUS
370
-3
390
F
  0
LAYER
  5
1FF
100
AcDbSymbolTableRecord
100
AcDbLayerTableRecord
  2
01_PLANES
 70
0
 62
7
  6
CONTINUOUS
370
-3
390
F
  0
LAYER
  5
200
100
AcDbSymbolTableRecord
100
AcDbLayerTableRecord
  2
02_COORD_SYS
 70
0
 62
7
  6
CONTINUOUS
370
-3
390
F
  0
LAYER
  5
201
100
AcDbSymbolTableRecord
100
AcDbLayerTableRecord
  2
03_AXES
 70
0
 62
7
  6
CONTINUOUS
370
-3
390
F
  0
LAYER
  5
202
100
AcDbSymbolTableRecord
100
AcDbLayerTableRecord
  2
04_POINTS
 70
0
 62
7
  6
CONTINUOUS
370
-3
390
F
  0
LAYER
  5
203
100
AcDbSymbolTableRecord
100
AcDbLayerTableRecord
  2
05_CURVES
 70
0
 62
7
  6
CONTINUOUS
370
-3
390
F
  0
LAYER
  5
204
100
AcDbSymbolTableRecord
100
AcDbLayerTableRecord
  2
06_SURFS
 70
0
 62
7
  6
CONTINUOUS
370
-3
390
F
  0
LAYER
  5
205
100
AcDbSymbolTableRecord
100
AcDbLayerTableRecord
  2
07_COSMETICS
 70
0
 62
7
  6
CONTINUOUS
370
-3
390
F
  0
LAYER
  5
206
100
AcDbSymbolTableRecord
100
AcDbLayerTableRecord
  2
10_NOTES
 70
0
 62
7
  6
CONTINUOUS
370
-3
390
F
  0
LAYER
  5
207
100
AcDbSymbolTableRecord
100
AcDbLayerTableRecord
  2
11_NOTES_PUB
 70
0
 62
7
  6
CONTINUOUS
370
-3
390
F
  0
LAYER
  5
208
100
AcDbSymbolTableRecord
100
AcDbLayerTableRecord
  2
13_REF_GTOL
 70
0
 62
7
  6
CONTINUOUS
370
-3
390
F
  0
LAYER
  5
209
100
AcDbSymbolTableRecord
100
AcDbLayerTableRecord
  2
16_MISC
 70
0
 62
7
  6
CONTINUOUS
370
-3
390
F
  0
LAYER
  5
20A
100
AcDbSymbolTableRecord
100
AcDbLayerTableRecord
  2
17_NO_PRINT
 70
0
 62
7
  6
CONTINUOUS
370
-3
390
F
  0
LAYER
  5
20B
100
AcDbSymbolTableRecord
100
AcDbLayerTableRecord
  2
18_DATUM_CAMS_JOINTS
 70
0
 62
7
  6
CONTINUOUS
370
-3
390
F
  0
LAYER
  5
20C
100
AcDbSymbolTableRecord
100
AcDbLayerTableRecord
  2
19_DATUM_FUNCTIONAL
 70
0
 62
7
  6
CONTINUOUS
370
-3
390
F
  0
LAYER
  5
20D
100
AcDbSymbolTableRecord
100
AcDbLayerTableRecord
  2
20_DATUM_KINEMATIC_SCHEME
 70
0
 62
7
  6
CONTINUOUS
370
-3
390
F
  0
ENDTAB
  0
TABLE
  2
STYLE
  5
3
100
AcDbSymbolTable
 70
1
  0
STYLE
  5
11
100
AcDbSymbolTableRecord
100
AcDbTextStyleTableRecord
  2
STANDARD
 70
0
 40
0.0
 41
0.8
 50
0.0
 71
0
 42
0.2
  3
txt
  4

  0
STYLE
  5
20E
100
AcDbSymbolTableRecord
100
AcDbTextStyleTableRecord
  2
TEXTSTYLE_1
 70
0
 40
0.0
 41
0.8
 50
0.0
 71
0
 42
0.2
  3
gdt
  4

  0
ENDTAB
  0
TABLE
  2
VIEW
  5
6
100
AcDbSymbolTable
 70
0
  0
ENDTAB
  0
TABLE
  2
UCS
  5
7
100
AcDbSymbolTable
 70
0
  0
ENDTAB
  0
TABLE
  2
APPID
  5
9
100
AcDbSymbolTable
 70
1
  0
APPID
  5
20F
100
AcDbSymbolTableRecord
100
AcDbRegAppTableRecord
  2
ACAD
 70
0
  0
ENDTAB
  0
TABLE
  2
BLOCK_RECORD
  5
1
100
AcDbSymbolTable
 70
0
  0
BLOCK_RECORD
  5
210
100
AcDbSymbolTableRecord
100
AcDbBlockTableRecord
  2
*Model_Space
  0
BLOCK_RECORD
  5
211
100
AcDbSymbolTableRecord
100
AcDbBlockTableRecord
  2
*Paper_Space
  0
BLOCK_RECORD
  5
212
100
AcDbSymbolTableRecord
100
AcDbBlockTableRecord
  2
_FILLED
  0
ENDTAB
  0
TABLE
  2
DIMSTYLE
  5
A
100
AcDbSymbolTable
 70
1
100
AcDbDimStyleTable
 71
0
  0
DIMSTYLE
105
213
100
AcDbSymbolTableRecord
100
AcDbDimStyleTableRecord
  2
STANDARD
 70
0
  3

  4

 40
1.0
 41
4.0130410565
 42
1.0
 43
0.38
 44
1.0
 45
0.0
 46
0.0
 47
0.01
 48
0.01
140
5.6182574792
141
0.09
142
0.0
143
25.4
144
1.0
145
0.0
146
1.0
147
0.625
 71
1
 72
0
 73
0
 74
0
 75
0
 76
0
 77
1
 78
8
 79
2
170
0
171
1
172
0
173
0
174
0
175
0
176
0
177
0
178
0
270
2
179
2
271
2
272
2
273
2
274
2
275
0
280
0
281
0
282
0
283
1
284
8
285
0
286
0
287
3
288
0
340
11
278
46
341
212
342
212
343
212
344
212
  0
ENDTAB
  0
ENDSEC
  0
SECTION
  2
BLOCKS
  0
BLOCK
  5
20
100
AcDbEntity
  8
0
100
AcDbBlockBegin
  2
*Model_Space
 70
0
 10
0.0
 20
0.0
 30
0.0
  3
*Model_Space
  1

  0
ENDBLK
  5
21
100
AcDbEntity
  8
0
100
AcDbBlockEnd
  0
BLOCK
  5
1C
100
AcDbEntity
  8
0
100
AcDbBlockBegin
  2
*Paper_Space
 70
0
 10
0.0
 20
0.0
 30
0.0
  3
*Paper_Space
  1

  0
ENDBLK
  5
1D
100
AcDbEntity
  8
0
100
AcDbBlockEnd
  0
BLOCK
  5
214
100
AcDbEntity
  8
0
100
AcDbBlockBegin
  2
_FILLED
 70
64
 10
0.0
 20
0.0
  3
_FILLED
  1

  0
SOLID
  5
215
100
AcDbEntity
  8
0
  6
BYBLOCK
 62
0
100
AcDbTrace
 10
0.0
 20
0.0
 11
-1.0
 21
0.25
 12
-1.0
 22
-0.25
 13
-1.0
 23
-0.25
  0
ENDBLK
  5
216
100
AcDbEntity
  8
0
  6
BYBLOCK
 62
0
100
AcDbBlockEnd
  0
ENDSEC
  0
SECTION
  2
ENTITIES
  0
LINE
  5
217
100
AcDbEntity
  8
0
100
AcDbLine
 62
7
  6
CONTINUOUS
 10
40.5764670325
 20
281.5796500417
 11
40.5764670325
 21
285.5796500417
  0
LINE
  5
218
100
AcDbEntity
  8
0
100
AcDbLine
 62
7
  6
CONTINUOUS
 10
41.3764670325
 20
281.5796500417
 11
41.3764670325
 21
285.5796500417
  0
LINE
  5
219
100
AcDbEntity
  8
0
100
AcDbLine
 62
7
  6
CONTINUOUS
 10
45.2133441257
 20
281.4796500417
 11
45.2133441257
 21
281.5796500417
  0
LINE
  5
21A
100
AcDbEntity
  8
0
100
AcDbLine
 62
7
  6
CONTINUOUS
 10
48.2133441257
 20
281.4796500417
 11
48.2133441257
 21
281.5796500417
  0
LINE
  5
21B
100
AcDbEntity
  8
0
100
AcDbLine
 62
7
  6
CONTINUOUS
 10
48.6611013068
 20
281.5796500417
 11
48.6611013068
 21
285.5796500417
  0
LINE
  5
21C
100
AcDbEntity
  8
0
100
AcDbLine
 62
7
  6
CONTINUOUS
 10
48.6876595123
 20
285.5796500417
 11
48.6876595123
 21
281.5796500417
  0
LINE
  5
21D
100
AcDbEntity
  8
0
100
AcDbLine
 62
7
  6
CONTINUOUS
 10
49.3490482604
 20
285.5796500417
 11
49.3490482604
 21
281.5796500417
  0
LINE
  5
21E
100
AcDbEntity
  8
0
100
AcDbLine
 62
7
  6
CONTINUOUS
 10
49.4150879327
 20
281.5796500417
 11
49.4150879327
 21
285.5796500417
  0
LINE
  5
21F
100
AcDbEntity
  8
0
100
AcDbLine
 62
7
  6
CONTINUOUS
 10
50.5815626408
 20
285.8824211395
 11
50.5815562924
 21
284.6145473996
  0
LINE
  5
220
100
AcDbEntity
  8
0
100
AcDbLine
 62
7
  6
CONTINUOUS
 10
52.8449052083
 20
281.5796500417
 11
52.8449052083
 21
281.4796500417
  0
LINE
  5
221
100
AcDbEntity
  8
0
100
AcDbLine
 62
7
  6
CONTINUOUS
 10
55.8197083442
 20
281.4796500417
 11
55.8197083442
 21
281.5796500417
  0
LINE
  5
222
100
AcDbEntity
  8
0
100
AcDbLine
 62
7
  6
CONTINUOUS
 10
56.8113093902
 20
281.5796500417
 11
56.8113093902
 21
280.4796500445
  0
LINE
  5
223
100
AcDbEntity
  8
0
100
AcDbLine
 62
7
  6
CONTINUOUS
 10
63.2133441257
 20
281.5796500417
 11
63.2133441257
 21
263.5796500417
  0
LINE
  5
224
100
AcDbEntity
  8
0
100
AcDbLine
 62
7
  6
CONTINUOUS
 10
65.7133441257
 20
266.1796500417
 11
65.7133441257
 21
283.0796500417
  0
LINE
  5
225
100
AcDbEntity
  8
0
100
AcDbLine
 62
7
  6
CONTINUOUS
 10
74.7672127187
 20
297.6218901173
 11
68.9633441257
 21
290.7051088706
  0
LINE
  5
226
100
AcDbEntity
  8
0
100
AcDbLine
 62
7
  6
CONTINUOUS
 10
78.8133441257
 20
299.332434104
 11
70.4995073261
 21
289.4243892298
  0
LINE
  5
227
100
AcDbEntity
  8
0
100
AcDbLine
 62
7
  6
CONTINUOUS
 10
67.8126995257
 20
281.5796500417
 11
68.2133441257
 21
266.2796500417
  0
LINE
  5
228
100
AcDbEntity
  8
0
100
AcDbLine
 62
7
  6
CONTINUOUS
 10
67.8126995257
 20
281.5796500417
 11
67.8126995257
 21
284.5796500417
  0
LINE
  5
229
100
AcDbEntity
  8
0
100
AcDbLine
 62
7
  6
CONTINUOUS
 10
68.2133441257
 20
266.2796500417
 11
68.2133441257
 21
263.5796500417
  0
LINE
  5
22A
100
AcDbEntity
  8
0
100
AcDbLine
 62
7
  6
CONTINUOUS
 10
68.9633441257
 20
298.9453365103
 11
68.9633441257
 21
290.7051088706
  0
LINE
  5
22B
100
AcDbEntity
  8
0
100
AcDbLine
 62
7
  6
CONTINUOUS
 10
68.9633441257
 20
289.4399124
 11
68.9633441257
 21
283.0796500417
  0
LINE
  5
22C
100
AcDbEntity
  8
0
100
AcDbLine
 62
7
  6
CONTINUOUS
 10
69.9633441257
 20
280.5796500417
 11
69.9633441257
 21
264.3796500417
  0
LINE
  5
22D
100
AcDbEntity
  8
0
100
AcDbLine
 62
7
  6
CONTINUOUS
 10
70.7133441257
 20
283.0796500417
 11
70.7133441257
 21
266.2796500417
  0
LINE
  5
22E
100
AcDbEntity
  8
0
100
AcDbLine
 62
7
  6
CONTINUOUS
 10
71.2133441257
 20
263.5796500417
 11
71.2133441257
 21
262.5796500417
  0
LINE
  5
22F
100
AcDbEntity
  8
0
100
AcDbLine
 62
7
  6
CONTINUOUS
 10
71.4633441257
 20
275.5796500417
 11
71.4633441257
 21
272.0087776382
  0
LINE
  5
230
100
AcDbEntity
  8
0
100
AcDbLine
 62
7
  6
CONTINUOUS
 10
72.7133441257
 20
271.1796500417
 11
72.7133441257
 21
266.1796500417
  0
LINE
  5
231
100
AcDbEntity
  8
0
100
AcDbLine
 62
7
  6
CONTINUOUS
 10
74.2133441257
 20
271.1796500417
 11
74.2133441257
 21
262.5796500417
  0
LINE
  5
232
100
AcDbEntity
  8
0
100
AcDbLine
 62
7
  6
CONTINUOUS
 10
74.9633441257
 20
275.5796500417
 11
74.9633441257
 21
272.0087776382
  0
LINE
  5
233
100
AcDbEntity
  8
0
100
AcDbLine
 62
7
  6
CONTINUOUS
 10
76.4633441257
 20
280.5796500417
 11
76.4633441257
 21
264.3796500417
  0
LINE
  5
234
100
AcDbEntity
  8
0
100
AcDbLine
 62
7
  6
CONTINUOUS
 10
87.0678722759
 20
297.4589861308
 11
80.2337423088
 21
289.3143871903
  0
LINE
  5
235
100
AcDbEntity
  8
0
100
AcDbLine
 62
7
  6
CONTINUOUS
 10
91.1133441257
 20
299.1687440878
 11
82.8172273418
 21
289.281817106
  0
LINE
  5
236
100
AcDbEntity
  8
0
100
AcDbLine
 62
7
  6
CONTINUOUS
 10
84.4126995257
 20
281.5796500417
 11
84.8133441257
 21
266.2796500417
  0
LINE
  5
237
100
AcDbEntity
  8
0
100
AcDbLine
 62
7
  6
CONTINUOUS
 10
78.6139887257
 20
284.5796500417
 11
78.6139887257
 21
281.5796500417
  0
LINE
  5
238
100
AcDbEntity
  8
0
100
AcDbLine
 62
7
  6
CONTINUOUS
 10
78.8133441257
 20
299.332434104
 11
78.8133441257
 21
289.3316909721
  0
LINE
  5
239
100
AcDbEntity
  8
0
100
AcDbLine
 62
7
  6
CONTINUOUS
 10
84.2133441257
 20
271.1796500417
 11
84.2133441257
 21
262.5796500417
  0
LINE
  5
23A
100
AcDbEntity
  8
0
100
AcDbLine
 62
7
  6
CONTINUOUS
 10
84.4126995257
 20
281.5796500417
 11
84.4126995257
 21
284.5796500417
  0
LINE
  5
23B
100
AcDbEntity
  8
0
100
AcDbLine
 62
7
  6
CONTINUOUS
 10
86.2133441257
 20
263.5796500417
 11
86.2133441257
 21
262.5796500417
  0
LINE
  5
23C
100
AcDbEntity
  8
0
100
AcDbLine
 62
7
  6
CONTINUOUS
 10
78.6139887257
 20
281.5796500417
 11
78.2133441257
 21
266.2796500417
  0
LINE
  5
23D
100
AcDbEntity
  8
0
100
AcDbLine
 62
7
  6
CONTINUOUS
 10
99.3685021196
 20
297.2640173787
 11
92.5569259974
 21
289.146297064
  0
LINE
  5
23E
100
AcDbEntity
  8
0
100
AcDbLine
 62
7
  6
CONTINUOUS
 10
103.4133441257
 20
298.9730247173
 11
95.1348163278
 21
289.1070594727
  0
LINE
  5
23F
100
AcDbEntity
  8
0
100
AcDbLine
 62
7
  6
CONTINUOUS
 10
86.5633441257
 20
280.2270102217
 11
86.5633441257
 21
264.3796500417
  0
LINE
  5
240
100
AcDbEntity
  8
0
100
AcDbLine
 62
7
  6
CONTINUOUS
 10
88.0633441257
 20
275.5796500417
 11
88.0633441257
 21
272.0087776382
  0
LINE
  5
241
100
AcDbEntity
  8
0
100
AcDbLine
 62
7
  6
CONTINUOUS
 10
91.1133441257
 20
299.1687440878
 11
91.1133441257
 21
289.1676537244
  0
LINE
  5
242
100
AcDbEntity
  8
0
100
AcDbLine
 62
7
  6
CONTINUOUS
 10
91.5633441257
 20
275.5796500417
 11
91.5633441257
 21
272.0087776382
  0
LINE
  5
243
100
AcDbEntity
  8
0
100
AcDbLine
 62
7
  6
CONTINUOUS
 10
93.0633441257
 20
280.2270102217
 11
93.0633441257
 21
264.3796500417
  0
LINE
  5
244
100
AcDbEntity
  8
0
100
AcDbLine
 62
7
  6
CONTINUOUS
 10
95.2139887257
 20
284.5796500417
 11
95.2139887257
 21
281.5796500417
  0
LINE
  5
245
100
AcDbEntity
  8
0
100
AcDbLine
 62
7
  6
CONTINUOUS
 10
95.2139887257
 20
281.5796500417
 11
94.8133441257
 21
266.2796500417
  0
LINE
  5
246
100
AcDbEntity
  8
0
100
AcDbLine
 62
7
  6
CONTINUOUS
 10
111.6691024472
 20
297.0369801154
 11
104.8799562577
 21
288.9459907534
  0
LINE
  5
247
100
AcDbEntity
  8
0
100
AcDbLine
 62
7
  6
CONTINUOUS
 10
115.7133441257
 20
298.7452720113
 11
107.4522754649
 21
288.9001137562
  0
LINE
  5
248
100
AcDbEntity
  8
0
100
AcDbLine
 62
7
  6
CONTINUOUS
 10
78.8133441257
 20
299.332434104
 11
80.2337423089
 21
289.3143871904
  0
LINE
  5
249
100
AcDbEntity
  8
0
100
AcDbLine
 62
7
  6
CONTINUOUS
 10
101.0126995257
 20
281.5796500417
 11
101.4133441257
 21
266.2796500417
  0
LINE
  5
24A
100
AcDbEntity
  8
0
100
AcDbLine
 62
7
  6
CONTINUOUS
 10
101.0126995257
 20
281.5796500417
 11
101.0126995257
 21
284.5796500417
  0
LINE
  5
24B
100
AcDbEntity
  8
0
100
AcDbLine
 62
7
  6
CONTINUOUS
 10
103.1633441257
 20
278.9585215255
 11
103.1633441257
 21
264.3796500417
  0
LINE
  5
24C
100
AcDbEntity
  8
0
100
AcDbLine
 62
7
  6
CONTINUOUS
 10
103.4133441257
 20
298.9730247173
 11
103.4133441257
 21
288.9715191474
  0
LINE
  5
24D
100
AcDbEntity
  8
0
100
AcDbLine
 62
7
  6
CONTINUOUS
 10
104.6548779166
 20
273.5796500417
 11
104.6548779166
 21
269.179314599
  0
LINE
  5
24E
100
AcDbEntity
  8
0
100
AcDbLine
 62
7
  6
CONTINUOUS
 10
123.9696734528
 20
296.7778699387
 11
117.2028345167
 21
288.7134653262
  0
LINE
  5
24F
100
AcDbEntity
  8
0
100
AcDbLine
 62
7
  6
CONTINUOUS
 10
128.0133441257
 20
298.4854813367
 11
119.7696059178
 21
288.660976711
  0
LINE
  5
250
100
AcDbEntity
  8
0
100
AcDbLine
 62
7
  6
CONTINUOUS
 10
91.1133441257
 20
299.1687440878
 11
92.5569259974
 21
289.1462970639
  0
LINE
  5
251
100
AcDbEntity
  8
0
100
AcDbLine
 62
7
  6
CONTINUOUS
 10
108.1718103348
 20
273.5796500417
 11
108.1718103348
 21
269.179314599
  0
LINE
  5
252
100
AcDbEntity
  8
0
100
AcDbLine
 62
7
  6
CONTINUOUS
 10
109.6633441257
 20
278.9585215255
 11
109.6633441257
 21
264.3796500417
  0
LINE
  5
253
100
AcDbEntity
  8
0
100
AcDbLine
 62
7
  6
CONTINUOUS
 10
111.8139887257
 20
284.5796500417
 11
111.8139887257
 21
281.5796500417
  0
LINE
  5
254
100
AcDbEntity
  8
0
100
AcDbLine
 62
7
  6
CONTINUOUS
 10
112.8975312279
 20
223.1105978396
 11
112.8975312279
 21
221.5796500417
  0
LINE
  5
255
100
AcDbEntity
  8
0
100
AcDbLine
 62
7
  6
CONTINUOUS
 10
113.7133441257
 20
183.0796500417
 11
113.7133441257
 21
221.5796500417
  0
LINE
  5
256
100
AcDbEntity
  8
0
100
AcDbLine
 62
7
  6
CONTINUOUS
 10
115.7085031116
 20
188.0796500417
 11
115.7085031116
 21
183.0814082693
  0
LINE
  5
257
100
AcDbEntity
  8
0
100
AcDbLine
 62
7
  6
CONTINUOUS
 10
115.7133441257
 20
298.7452720113
 11
115.7133441257
 21
288.7432832349
  0
LINE
  5
258
100
AcDbEntity
  8
0
100
AcDbLine
 62
7
  6
CONTINUOUS
 10
115.7133441257
 20
196.929744812
 11
115.7133441257
 21
183.0796500417
  0
LINE
  5
259
100
AcDbEntity
  8
0
100
AcDbLine
 62
7
  6
CONTINUOUS
 10
111.8139887257
 20
281.5796500417
 11
111.4133441257
 21
266.2796500417
  0
LINE
  5
25A
100
AcDbEntity
  8
0
100
AcDbLine
 62
7
  6
CONTINUOUS
 10
136.270215327
 20
296.4866817897
 11
129.5255621831
 21
288.4487171746
  0
LINE
  5
25B
100
AcDbEntity
  8
0
100
AcDbLine
 62
7
  6
CONTINUOUS
 10
140.3133441257
 20
298.1936474071
 11
132.0868088349
 21
288.3896444197
  0
LINE
  5
25C
100
AcDbEntity
  8
0
100
AcDbLine
 62
7
  6
CONTINUOUS
 10
230.2892459335
 20
180.6796500417
 11
220.7892459335
 21
180.6796500417
  0
LINE
  5
25D
100
AcDbEntity
  8
0
100
AcDbLine
 62
7
  6
CONTINUOUS
 10
125.6374423179
 20
180.6796500417
 11
116.1374423179
 21
180.6796500417
  0
LINE
  5
25E
100
AcDbEntity
  8
0
100
AcDbLine
 62
7
  6
CONTINUOUS
 10
227.6605662771
 20
181.0796500417
 11
223.4179255899
 21
181.0796500417
  0
LINE
  5
25F
100
AcDbEntity
  8
0
100
AcDbLine
 62
7
  6
CONTINUOUS
 10
123.0087626614
 20
181.0796500417
 11
118.7661219743
 21
181.0796500417
  0
LINE
  5
260
100
AcDbEntity
  8
0
100
AcDbLine
 62
7
  6
CONTINUOUS
 10
230.2892459335
 20
181.1796500417
 11
220.7892459335
 21
181.1796500417
  0
LINE
  5
261
100
AcDbEntity
  8
0
100
AcDbLine
 62
7
  6
CONTINUOUS
 10
125.6374423179
 20
181.1796500417
 11
116.1374423179
 21
181.1796500417
  0
LINE
  5
262
100
AcDbEntity
  8
0
100
AcDbLine
 62
7
  6
CONTINUOUS
 10
103.4133441257
 20
298.9730247173
 11
104.8799562578
 21
288.9459907535
  0
LINE
  5
263
100
AcDbEntity
  8
0
100
AcDbLine
 62
7
  6
CONTINUOUS
 10
117.0126995257
 20
281.5796500417
 11
117.4133441257
 21
266.2796500417
  0
LINE
  5
264
100
AcDbEntity
  8
0
100
AcDbLine
 62
7
  6
CONTINUOUS
 10
116.1374423179
 20
180.6796500417
 11
116.1374423179
 21
181.1796500417
  0
LINE
  5
265
100
AcDbEntity
  8
0
100
AcDbLine
 62
7
  6
CONTINUOUS
 10
116.2133441257
 20
198.0796500417
 11
116.2133441257
 21
224.0832818747
  0
LINE
  5
266
100
AcDbEntity
  8
0
100
AcDbLine
 62
7
  6
CONTINUOUS
 10
116.6104583967
 20
216.5796500417
 11
116.6104583967
 21
188.0796500417
  0
LINE
  5
267
100
AcDbEntity
  8
0
100
AcDbLine
 62
7
  6
CONTINUOUS
 10
117.2355619344
 20
189.1619326722
 11
117.2355619344
 21
191.4973674112
  0
LINE
  5
268
100
AcDbEntity
  8
0
100
AcDbLine
 62
7
  6
CONTINUOUS
 10
117.3748763396
 20
188.0796500417
 11
117.3748763396
 21
183.0796500417
  0
LINE
  5
269
100
AcDbEntity
  8
0
100
AcDbLine
 62
7
  6
CONTINUOUS
 10
117.3874423179
 20
213.0796500417
 11
117.3874423179
 21
216.5796500417
  0
LINE
  5
26A
100
AcDbEntity
  8
0
100
AcDbLine
 62
7
  6
CONTINUOUS
 10
117.7133441257
 20
198.0796500417
 11
117.7133441257
 21
188.0796500417
  0
LINE
  5
26B
100
AcDbEntity
  8
0
100
AcDbLine
 62
7
  6
CONTINUOUS
 10
118.054529564
 20
216.5796500417
 11
118.054529564
 21
188.0796500417
  0
LINE
  5
26C
100
AcDbEntity
  8
0
100
AcDbLine
 62
7
  6
CONTINUOUS
 10
118.2133441257
 20
221.5796500417
 11
118.2133441257
 21
216.5796500417
  0
LINE
  5
26D
100
AcDbEntity
  8
0
100
AcDbLine
 62
7
  6
CONTINUOUS
 10
118.2133441257
 20
188.0796500417
 11
118.2133441257
 21
183.0796500417
  0
LINE
  5
26E
100
AcDbEntity
  8
0
100
AcDbLine
 62
7
  6
CONTINUOUS
 10
118.4143072235
 20
188.0796500417
 11
118.4143072235
 21
183.0796500417
  0
LINE
  5
26F
100
AcDbEntity
  8
0
100
AcDbLine
 62
7
  6
CONTINUOUS
 10
118.7355619344
 20
189.1619326722
 11
118.7355619344
 21
191.4973674112
  0
LINE
  5
270
100
AcDbEntity
  8
0
100
AcDbLine
 62
7
  6
CONTINUOUS
 10
118.7661219743
 20
181.0796500417
 11
118.7661219743
 21
178.9139793707
  0
LINE
  5
271
100
AcDbEntity
  8
0
100
AcDbLine
 62
7
  6
CONTINUOUS
 10
118.8874423179
 20
181.1796500417
 11
118.8874423179
 21
183.0796500417
  0
LINE
  5
272
100
AcDbEntity
  8
0
100
AcDbLine
 62
7
  6
CONTINUOUS
 10
119.2618762565
 20
216.5796500417
 11
119.2618762565
 21
188.0796500417
  0
LINE
  5
273
100
AcDbEntity
  8
0
100
AcDbLine
 62
7
  6
CONTINUOUS
 10
119.3874423179
 20
215.5796500417
 11
119.3874423179
 21
212.5796500417
  0
LINE
  5
274
100
AcDbEntity
  8
0
100
AcDbLine
 62
7
  6
CONTINUOUS
 10
119.4133441257
 20
281.2574558413
 11
119.4133441257
 21
266.2796500417
  0
LINE
  5
275
100
AcDbEntity
  8
0
100
AcDbLine
 62
7
  6
CONTINUOUS
 10
119.4732287555
 20
181.0796500417
 11
119.4732287555
 21
178.9139793707
  0
LINE
  5
276
100
AcDbEntity
  8
0
100
AcDbLine
 62
7
  6
CONTINUOUS
 10
119.7498273515
 20
189.0978402536
 11
119.7498273515
 21
191.5614598298
  0
LINE
  5
277
100
AcDbEntity
  8
0
100
AcDbLine
 62
7
  6
CONTINUOUS
 10
120.1803355367
 20
181.0796500417
 11
120.1803355367
 21
178.3871819724
  0
LINE
  5
278
100
AcDbEntity
  8
0
100
AcDbLine
 62
7
  6
CONTINUOUS
 10
120.5131583857
 20
188.0796500417
 11
120.5131583857
 21
187.5796500417
  0
LINE
  5
279
100
AcDbEntity
  8
0
100
AcDbLine
 62
7
  6
CONTINUOUS
 10
120.8874423179
 20
215.5796500417
 11
120.8874423179
 21
212.5796500417
  0
LINE
  5
27A
100
AcDbEntity
  8
0
100
AcDbLine
 62
7
  6
CONTINUOUS
 10
120.8874423179
 20
181.0796500417
 11
120.8874423179
 21
178.3871819724
  0
LINE
  5
27B
100
AcDbEntity
  8
0
100
AcDbLine
 62
7
  6
CONTINUOUS
 10
121.2498273515
 20
189.0978402536
 11
121.2498273515
 21
191.5614598298
  0
LINE
  5
27C
100
AcDbEntity
  8
0
100
AcDbLine
 62
7
  6
CONTINUOUS
 10
121.5945490991
 20
181.0796500417
 11
121.5945490991
 21
178.3871819724
  0
LINE
  5
27D
100
AcDbEntity
  8
0
100
AcDbLine
 62
7
  6
CONTINUOUS
 10
121.8651191983
 20
184.0796500417
 11
121.8651191983
 21
198.0796500417
  0
LINE
  5
27E
100
AcDbEntity
  8
0
100
AcDbLine
 62
7
  6
CONTINUOUS
 10
122.1860456394
 20
216.5796500417
 11
122.1860456394
 21
188.0796500417
  0
LINE
  5
27F
100
AcDbEntity
  8
0
100
AcDbLine
 62
7
  6
CONTINUOUS
 10
122.3016558803
 20
181.0796500417
 11
122.3016558803
 21
178.9139793707
  0
LINE
  5
280
100
AcDbEntity
  8
0
100
AcDbLine
 62
7
  6
CONTINUOUS
 10
122.3478215442
 20
188.0796500417
 11
122.3478215442
 21
184.0796500417
  0
LINE
  5
281
100
AcDbEntity
  8
0
100
AcDbLine
 62
7
  6
CONTINUOUS
 10
122.3874423179
 20
215.5796500417
 11
122.3874423179
 21
212.5796500417
  0
LINE
  5
282
100
AcDbEntity
  8
0
100
AcDbLine
 62
7
  6
CONTINUOUS
 10
122.8874423179
 20
181.1796500417
 11
122.8874423179
 21
183.0796500417
  0
LINE
  5
283
100
AcDbEntity
  8
0
100
AcDbLine
 62
7
  6
CONTINUOUS
 10
123.0087626614
 20
181.0796500417
 11
123.0087626614
 21
178.9139793707
  0
LINE
  5
284
100
AcDbEntity
  8
0
100
AcDbLine
 62
7
  6
CONTINUOUS
 10
123.7389832206
 20
187.5796500417
 11
123.7389832206
 21
188.0796500417
  0
LINE
  5
285
100
AcDbEntity
  8
0
100
AcDbLine
 62
7
  6
CONTINUOUS
 10
124.3874423179
 20
213.0796500417
 11
124.3874423179
 21
216.5796500417
  0
LINE
  5
286
100
AcDbEntity
  8
0
100
AcDbLine
 62
7
  6
CONTINUOUS
 10
124.1394259452
 20
245.8597431763
 11
116.2261691424
 21
224.0796500417
  0
LINE
  5
287
100
AcDbEntity
  8
0
100
AcDbLine
 62
7
  6
CONTINUOUS
 10
120.22116885
 20
246.7896378842
 11
112.0248998405
 21
224.2705738569
  0
LINE
  5
288
100
AcDbEntity
  8
0
100
AcDbLine
 62
7
  6
CONTINUOUS
 10
121.1608614707
 20
246.4476177409
 11
118.1048463988
 21
238.0512853373
  0
LINE
  5
289
100
AcDbEntity
  8
0
100
AcDbLine
 62
7
  6
CONTINUOUS
 10
117.0232596041
 20
235.0796500417
 11
113.0195870272
 21
224.0796500417
  0
LINE
  5
28A
100
AcDbEntity
  8
0
100
AcDbLine
 62
7
  6
CONTINUOUS
 10
116.2150892274
 20
224.08780698
 11
116.2134368385
 21
224.083267079
  0
LINE
  5
28B
100
AcDbEntity
  8
0
100
AcDbLine
 62
7
  6
CONTINUOUS
 10
148.5707282574
 20
296.1634099522
 11
141.8481406457
 21
288.1517420145
  0
LINE
  5
28C
100
AcDbEntity
  8
0
100
AcDbLine
 62
7
  6
CONTINUOUS
 10
152.6133441257
 20
297.8697642831
 11
144.4038853491
 21
288.0861122927
  0
LINE
  5
28D
100
AcDbEntity
  8
0
100
AcDbLine
 62
7
  6
CONTINUOUS
 10
232.7133441257
 20
183.0796500417
 11
113.7133441257
 21
183.0796500417
  0
LINE
  5
28E
100
AcDbEntity
  8
0
100
AcDbLine
 62
7
  6
CONTINUOUS
 10
152.2133441257
 20
183.1796500417
 11
194.2133441257
 21
183.1796500417
  0
LINE
  5
28F
100
AcDbEntity
  8
0
100
AcDbLine
 62
7
  6
CONTINUOUS
 10
122.2520274572
 20
184.0796500417
 11
115.7133441257
 21
184.0796500417
  0
LINE
  5
290
100
AcDbEntity
  8
0
100
AcDbLine
 62
7
  6
CONTINUOUS
 10
122.2520274572
 20
184.0796500417
 11
166.685596821
 21
184.0796500417
  0
LINE
  5
291
100
AcDbEntity
  8
0
100
AcDbLine
 62
7
  6
CONTINUOUS
 10
115.7085031116
 20
185.0796500417
 11
113.7133441257
 21
185.0796500417
  0
LINE
  5
292
100
AcDbEntity
  8
0
100
AcDbLine
 62
7
  6
CONTINUOUS
 10
171.231208234
 20
185.5796500417
 11
166.685596821
 21
185.5796500417
  0
LINE
  5
293
100
AcDbEntity
  8
0
100
AcDbLine
 62
7
  6
CONTINUOUS
 10
124.7031741635
 20
185.5796500417
 11
122.5838431691
 21
185.5796500417
  0
LINE
  5
294
100
AcDbEntity
  8
0
100
AcDbLine
 62
7
  6
CONTINUOUS
 10
124.7031741635
 20
185.5796500417
 11
166.685596821
 21
185.5796500417
  0
LINE
  5
295
100
AcDbEntity
  8
0
100
AcDbLine
 62
7
  6
CONTINUOUS
 10
123.7389832206
 20
187.5796500417
 11
120.5131583857
 21
187.5796500417
  0
LINE
  5
296
100
AcDbEntity
  8
0
100
AcDbLine
 62
7
  6
CONTINUOUS
 10
232.7133441257
 20
188.0796500417
 11
113.7133441257
 21
188.0796500417
  0
LINE
  5
297
100
AcDbEntity
  8
0
100
AcDbLine
 62
7
  6
CONTINUOUS
 10
121.2498273515
 20
189.0978402536
 11
119.7498273515
 21
189.0978402536
  0
LINE
  5
298
100
AcDbEntity
  8
0
100
AcDbLine
 62
7
  6
CONTINUOUS
 10
118.7355619344
 20
189.1619326722
 11
117.2355619344
 21
189.1619326722
  0
LWPOLYLINE
  5
299
100
AcDbEntity
  8
0
100
AcDbPolyline
 62
7
  6
CONTINUOUS
 90
3
 70
0
 10
109.2385338032
 20
223.1103602111
 10
110.9264053182
 20
221.9599712782
 10
112.8391949893
 20
221.5796500417
  0
LWPOLYLINE
  5
29A
100
AcDbEntity
  8
0
100
AcDbPolyline
 62
7
  6
CONTINUOUS
 90
3
 70
0
 10
109.2385011305
 20
223.1106839291
 10
110.9009992357
 20
221.9706349676
 10
112.8391950811
 20
221.5796500417
  0
LINE
  5
29B
100
AcDbEntity
  8
0
100
AcDbLine
 62
7
  6
CONTINUOUS
 10
74.2133441257
 20
262.5796500417
 11
112.2133441257
 21
224.0796500417
  0
LINE
  5
29C
100
AcDbEntity
  8
0
100
AcDbLine
 62
7
  6
CONTINUOUS
 10
115.7490280824
 20
224.0796500417
 11
79.1233040272
 21
261.1872915186
  0
LINE
  5
29D
100
AcDbEntity
  8
0
100
AcDbLine
 62
7
  6
CONTINUOUS
 10
79.1490788994
 20
261.1843605887
 11
115.7719100887
 21
224.0796500417
  0
LINE
  5
29E
100
AcDbEntity
  8
0
100
AcDbLine
 62
7
  6
CONTINUOUS
 10
71.2133441257
 20
262.5796500417
 11
109.2384066295
 21
223.1105978225
  0
LINE
  5
29F
100
AcDbEntity
  8
0
100
AcDbLine
 62
7
  6
CONTINUOUS
 10
82.5520079016
 20
262.1087128418
 11
112.897824052
 21
223.1105978225
  0
LINE
  5
2A0
100
AcDbEntity
  8
0
100
AcDbLine
 62
7
  6
CONTINUOUS
 10
115.7133441257
 20
298.7452720113
 11
117.2028345163
 21
288.713465326
  0
LINE
  5
2A1
100
AcDbEntity
  8
0
100
AcDbLine
 62
7
  6
CONTINUOUS
 10
125.6374423179
 20
180.6796500417
 11
125.6374423179
 21
181.1796500417
  0
LINE
  5
2A2
100
AcDbEntity
  8
0
100
AcDbLine
 62
7
  6
CONTINUOUS
 10
125.7708747629
 20
216.5796500417
 11
125.7708747629
 21
188.0796500417
  0
LINE
  5
2A3
100
AcDbEntity
  8
0
100
AcDbLine
 62
7
  6
CONTINUOUS
 10
126.0149785865
 20
214.4796500417
 11
126.0149785865
 21
198.0796500417
  0
LINE
  5
2A4
100
AcDbEntity
  8
0
100
AcDbLine
 62
7
  6
CONTINUOUS
 10
126.0412625211
 20
216.5796500417
 11
126.0412625211
 21
188.0796500417
  0
LINE
  5
2A5
100
AcDbEntity
  8
0
100
AcDbLine
 62
7
  6
CONTINUOUS
 10
127.2948588197
 20
214.4796500417
 11
127.2948588197
 21
198.0796500417
  0
LINE
  5
2A6
100
AcDbEntity
  8
0
100
AcDbLine
 62
7
  6
CONTINUOUS
 10
127.4379056531
 20
184.0796500417
 11
127.4379056531
 21
188.0796500417
  0
LINE
  5
2A7
100
AcDbEntity
  8
0
100
AcDbLine
 62
7
  6
CONTINUOUS
 10
127.4554760835
 20
216.5796500417
 11
127.4554760835
 21
188.0796500417
  0
LINE
  5
2A8
100
AcDbEntity
  8
0
100
AcDbLine
 62
7
  6
CONTINUOUS
 10
127.4595929505
 20
198.0796500417
 11
127.4595929505
 21
214.4796500417
  0
LINE
  5
2A9
100
AcDbEntity
  8
0
100
AcDbLine
 62
7
  6
CONTINUOUS
 10
127.5794947891
 20
216.5796500417
 11
127.5794947891
 21
188.0796500417
  0
LINE
  5
2AA
100
AcDbEntity
  8
0
100
AcDbLine
 62
7
  6
CONTINUOUS
 10
127.9437531754
 20
198.0796500417
 11
127.9437531754
 21
184.0796500417
  0
LINE
  5
2AB
100
AcDbEntity
  8
0
100
AcDbLine
 62
7
  6
CONTINUOUS
 10
128.0133441257
 20
298.4854813367
 11
128.0133441257
 21
288.4829413239
  0
LINE
  5
2AC
100
AcDbEntity
  8
0
100
AcDbLine
 62
7
  6
CONTINUOUS
 10
128.4133441257
 20
281.2574558413
 11
128.4133441257
 21
266.2796500417
  0
LINE
  5
2AD
100
AcDbEntity
  8
0
100
AcDbLine
 62
7
  6
CONTINUOUS
 10
128.6663964462
 20
216.5796500417
 11
128.6663964462
 21
188.0796500417
  0
LINE
  5
2AE
100
AcDbEntity
  8
0
100
AcDbLine
 62
7
  6
CONTINUOUS
 10
130.2133441257
 20
266.2796500417
 11
130.2133441257
 21
283.0796500417
  0
LINE
  5
2AF
100
AcDbEntity
  8
0
100
AcDbLine
 62
7
  6
CONTINUOUS
 10
131.5905658292
 20
216.5796500417
 11
131.5905658292
 21
188.0796500417
  0
LINE
  5
2B0
100
AcDbEntity
  8
0
100
AcDbLine
 62
7
  6
CONTINUOUS
 10
133.7521284326
 20
249.3443644193
 11
133.7521287115
 21
252.5510142728
  0
LINE
  5
2B1
100
AcDbEntity
  8
0
100
AcDbLine
 62
7
  6
CONTINUOUS
 10
135.1759381494
 20
214.4796500417
 11
135.1759381494
 21
198.0796500417
  0
LINE
  5
2B2
100
AcDbEntity
  8
0
100
AcDbLine
 62
7
  6
CONTINUOUS
 10
130.3139887257
 20
281.5796500417
 11
129.9133441257
 21
266.2796500417
  0
LINE
  5
2B3
100
AcDbEntity
  8
0
100
AcDbLine
 62
7
  6
CONTINUOUS
 10
129.0862175193
 20
224.0801193884
 11
134.9068540098
 21
246.6963178895
  0
LINE
  5
2B4
100
AcDbEntity
  8
0
100
AcDbLine
 62
7
  6
CONTINUOUS
 10
129.3661970129
 20
224.0796500417
 11
135.2108318164
 21
246.7890944635
  0
LINE
  5
2B5
100
AcDbEntity
  8
0
100
AcDbLine
 62
7
  6
CONTINUOUS
 10
135.1681880596
 20
246.4470743201
 11
133.0073096553
 21
238.0509384324
  0
LINE
  5
2B6
100
AcDbEntity
  8
0
100
AcDbLine
 62
7
  6
CONTINUOUS
 10
132.2426015798
 20
235.0796500417
 11
129.4120228566
 21
224.081380285
  0
LINE
  5
2B7
100
AcDbEntity
  8
0
100
AcDbLine
 62
7
  6
CONTINUOUS
 10
160.871212428
 20
295.8080480521
 11
154.1705712755
 21
287.8225348859
  0
LINE
  5
2B8
100
AcDbEntity
  8
0
100
AcDbLine
 62
7
  6
CONTINUOUS
 10
164.9133441257
 20
297.5138253708
 11
156.7208365775
 21
287.750375068
  0
LINE
  5
2B9
100
AcDbEntity
  8
0
100
AcDbLine
 62
7
  6
CONTINUOUS
 10
117.2355619344
 20
191.4973674112
 11
118.7355619344
 21
191.4973674112
  0
LINE
  5
2BA
100
AcDbEntity
  8
0
100
AcDbLine
 62
7
  6
CONTINUOUS
 10
119.7498273515
 20
191.5614598298
 11
121.2498273515
 21
191.5614598298
  0
LINE
  5
2BB
100
AcDbEntity
  8
0
100
AcDbLine
 62
7
  6
CONTINUOUS
 10
105.7133441257
 20
193.5796500417
 11
117.7736921691
 21
193.5796500417
  0
LINE
  5
2BC
100
AcDbEntity
  8
0
100
AcDbLine
 62
7
  6
CONTINUOUS
 10
198.7133441257
 20
195.0796500417
 11
147.7133441257
 21
195.0796500417
  0
LINE
  5
2BD
100
AcDbEntity
  8
0
100
AcDbLine
 62
7
  6
CONTINUOUS
 10
105.7133441257
 20
195.0796500417
 11
117.7736921691
 21
195.0796500417
  0
LINE
  5
2BE
100
AcDbEntity
  8
0
100
AcDbLine
 62
7
  6
CONTINUOUS
 10
198.7133441257
 20
197.5796500417
 11
147.7133441257
 21
197.5796500417
  0
LINE
  5
2BF
100
AcDbEntity
  8
0
100
AcDbLine
 62
7
  6
CONTINUOUS
 10
232.7133441257
 20
198.0796500417
 11
113.7133441257
 21
198.0796500417
  0
LINE
  5
2C0
100
AcDbEntity
  8
0
100
AcDbLine
 62
7
  6
CONTINUOUS
 10
123.2095312373
 20
249.7780002715
 11
123.462397933
 21
249.0832547348
  0
LINE
  5
2C1
100
AcDbEntity
  8
0
100
AcDbLine
 62
7
  6
CONTINUOUS
 10
136.2547517545
 20
250.254290005
 11
136.2547517545
 21
253.0828530881
  0
LINE
  5
2C2
100
AcDbEntity
  8
0
100
AcDbLine
 62
7
  6
CONTINUOUS
 10
136.9840149789
 20
198.0796500417
 11
136.9840149789
 21
214.4796500417
  0
LINE
  5
2C3
100
AcDbEntity
  8
0
100
AcDbLine
 62
7
  6
CONTINUOUS
 10
140.3133441257
 20
298.1936474071
 11
140.3133441257
 21
288.1904880946
  0
LINE
  5
2C4
100
AcDbEntity
  8
0
100
AcDbLine
 62
7
  6
CONTINUOUS
 10
144.0726229231
 20
249.3443644193
 11
144.0726186826
 21
252.5510142728
  0
LINE
  5
2C5
100
AcDbEntity
  8
0
100
AcDbLine
 62
7
  6
CONTINUOUS
 10
144.9675022076
 20
253.4208310431
 11
144.9675029669
 21
256.6330768422
  0
LINE
  5
2C6
100
AcDbEntity
  8
0
100
AcDbLine
 62
7
  6
CONTINUOUS
 10
137.2764044188
 20
245.8602566134
 11
131.6803220441
 21
224.0796500417
  0
LINE
  5
2C7
100
AcDbEntity
  8
0
100
AcDbLine
 62
7
  6
CONTINUOUS
 10
136.2714919882
 20
246.7890944634
 11
130.4268571847
 21
224.0796500417
  0
LINE
  5
2C8
100
AcDbEntity
  8
0
100
AcDbLine
 62
7
  6
CONTINUOUS
 10
137.2743511977
 20
245.8591997555
 11
131.670820731
 21
224.0865710151
  0
LINE
  5
2C9
100
AcDbEntity
  8
0
100
AcDbLine
 62
7
  6
CONTINUOUS
 10
131.8868965907
 20
224.081380285
 11
134.717475314
 21
235.0796500417
  0
LINE
  5
2CA
100
AcDbEntity
  8
0
100
AcDbLine
 62
7
  6
CONTINUOUS
 10
135.4821833895
 20
238.0509384324
 11
137.6430617938
 21
246.4470743201
  0
LINE
  5
2CB
100
AcDbEntity
  8
0
100
AcDbLine
 62
7
  6
CONTINUOUS
 10
139.7492249319
 20
245.8591997555
 11
134.1456944651
 21
224.0865710151
  0
LINE
  5
2CC
100
AcDbEntity
  8
0
100
AcDbLine
 62
7
  6
CONTINUOUS
 10
116.2133441257
 20
198.0796500417
 11
115.7133441257
 21
196.9297287681
  0
LINE
  5
2CD
100
AcDbEntity
  8
0
100
AcDbLine
 62
7
  6
CONTINUOUS
 10
173.1716680199
 20
295.4205890567
 11
166.492855425
 21
287.4610901525
  0
LINE
  5
2CE
100
AcDbEntity
  8
0
100
AcDbLine
 62
7
  6
CONTINUOUS
 10
177.2133441257
 20
297.1258234222
 11
169.0376636223
 21
287.3824268104
  0
LWPOLYLINE
  5
2CF
100
AcDbEntity
  8
0
100
AcDbPolyline
 62
7
  6
CONTINUOUS
 90
3
 70
0
 10
233.6858714187
 20
221.5796500417
 10
235.5529286318
 20
221.9383725215
 10
237.1645966047
 20
222.9799285521
  0
LINE
  5
2D0
100
AcDbEntity
  8
0
100
AcDbLine
 62
7
  6
CONTINUOUS
 10
128.0133441257
 20
298.4854813367
 11
129.5255621832
 21
288.4487171747
  0
LINE
  5
2D1
100
AcDbEntity
  8
0
100
AcDbLine
 62
7
  6
CONTINUOUS
 10
145.8422460834
 20
250.254290005
 11
145.8422460834
 21
253.0828530881
  0
LINE
  5
2D2
100
AcDbEntity
  8
0
100
AcDbLine
 62
7
  6
CONTINUOUS
 10
146.5474788984
 20
249.3443644193
 11
146.5474835423
 21
252.5510142728
  0
LINE
  5
2D3
100
AcDbEntity
  8
0
100
AcDbLine
 62
7
  6
CONTINUOUS
 10
147.4727613255
 20
254.3307566287
 11
147.4727613255
 21
257.1593197119
  0
LINE
  5
2D4
100
AcDbEntity
  8
0
100
AcDbLine
 62
7
  6
CONTINUOUS
 10
147.7133441257
 20
188.0796500417
 11
147.7133441257
 21
195.0796500417
  0
LINE
  5
2D5
100
AcDbEntity
  8
0
100
AcDbLine
 62
7
  6
CONTINUOUS
 10
147.7133441257
 20
197.5796500417
 11
147.7133441257
 21
214.4796500417
  0
LINE
  5
2D6
100
AcDbEntity
  8
0
100
AcDbLine
 62
7
  6
CONTINUOUS
 10
148.1007464239
 20
188.0796500417
 11
148.1007464239
 21
183.0796500417
  0
LINE
  5
2D7
100
AcDbEntity
  8
0
100
AcDbLine
 62
7
  6
CONTINUOUS
 10
148.258809445
 20
183.0796500417
 11
148.258809445
 21
188.0796500417
  0
LINE
  5
2D8
100
AcDbEntity
  8
0
100
AcDbLine
 62
7
  6
CONTINUOUS
 10
148.3170995905
 20
250.254290005
 11
148.3170995905
 21
253.0828530881
  0
LINE
  5
2D9
100
AcDbEntity
  8
0
100
AcDbLine
 62
7
  6
CONTINUOUS
 10
149.3501233888
 20
183.0796500417
 11
149.3501233888
 21
188.0796500417
  0
LINE
  5
2DA
100
AcDbEntity
  8
0
100
AcDbLine
 62
7
  6
CONTINUOUS
 10
151.6238104535
 20
183.0796500417
 11
151.6238104535
 21
188.0796500417
  0
LINE
  5
2DB
100
AcDbEntity
  8
0
100
AcDbLine
 62
7
  6
CONTINUOUS
 10
152.0030982043
 20
253.4208310431
 11
152.0030900752
 21
256.6330768422
  0
LINE
  5
2DC
100
AcDbEntity
  8
0
100
AcDbLine
 62
7
  6
CONTINUOUS
 10
152.2133441257
 20
183.0796500417
 11
152.2133441257
 21
183.1796500417
  0
LINE
  5
2DD
100
AcDbEntity
  8
0
100
AcDbLine
 62
7
  6
CONTINUOUS
 10
152.2133441257
 20
195.0796500417
 11
152.2133441257
 21
197.5796500417
  0
LINE
  5
2DE
100
AcDbEntity
  8
0
100
AcDbLine
 62
7
  6
CONTINUOUS
 10
152.3905685567
 20
183.0796500417
 11
152.3905685567
 21
188.0796500417
  0
LINE
  5
2DF
100
AcDbEntity
  8
0
100
AcDbLine
 62
7
  6
CONTINUOUS
 10
152.6133441257
 20
297.8697642831
 11
152.6133441257
 21
287.8659175693
  0
LINE
  5
2E0
100
AcDbEntity
  8
0
100
AcDbLine
 62
7
  6
CONTINUOUS
 10
153.7745873965
 20
254.3307566287
 11
153.7745873965
 21
257.1593197119
  0
LINE
  5
2E1
100
AcDbEntity
  8
0
100
AcDbLine
 62
7
  6
CONTINUOUS
 10
154.4779373258
 20
253.4208310431
 11
154.4779465288
 21
256.6330768422
  0
LINE
  5
2E2
100
AcDbEntity
  8
0
100
AcDbLine
 62
7
  6
CONTINUOUS
 10
185.4720952108
 20
295.0010252742
 11
178.8149944288
 21
287.067401501
  0
LINE
  5
2E3
100
AcDbEntity
  8
0
100
AcDbLine
 62
7
  6
CONTINUOUS
 10
189.5133441257
 20
296.7057505334
 11
181.3543675703
 21
286.9822609117
  0
LINE
  5
2E4
100
AcDbEntity
  8
0
100
AcDbLine
 62
7
  6
CONTINUOUS
 10
161.0157521502
 20
258.0796500417
 11
153.773953659
 21
254.3412538064
  0
LINE
  5
2E5
100
AcDbEntity
  8
0
100
AcDbLine
 62
7
  6
CONTINUOUS
 10
163.4906258844
 20
258.0796500417
 11
156.2488273932
 21
254.3412538064
  0
LINE
  5
2E6
100
AcDbEntity
  8
0
100
AcDbLine
 62
7
  6
CONTINUOUS
 10
160.8116459701
 20
261.9278525812
 11
153.4884932167
 21
258.1583941428
  0
LINE
  5
2E7
100
AcDbEntity
  8
0
100
AcDbLine
 62
7
  6
CONTINUOUS
 10
152.7334541103
 20
257.7697516241
 11
145.5694416015
 21
254.082207705
  0
LINE
  5
2E8
100
AcDbEntity
  8
0
100
AcDbLine
 62
7
  6
CONTINUOUS
 10
144.8059655289
 20
253.6892224128
 11
137.1101595707
 21
249.7279475785
  0
LINE
  5
2E9
100
AcDbEntity
  8
0
100
AcDbLine
 62
7
  6
CONTINUOUS
 10
161.0278113389
 20
261.9785981433
 11
137.3239231252
 21
249.7774568507
  0
LINE
  5
2EA
100
AcDbEntity
  8
0
100
AcDbLine
 62
7
  6
CONTINUOUS
 10
162.0884715106
 20
261.9785981433
 11
138.386636518
 21
249.7785137086
  0
LINE
  5
2EB
100
AcDbEntity
  8
0
100
AcDbLine
 62
7
  6
CONTINUOUS
 10
160.3744526084
 20
260.9420861932
 11
153.726775909
 21
257.5203166529
  0
LINE
  5
2EC
100
AcDbEntity
  8
0
100
AcDbLine
 62
7
  6
CONTINUOUS
 10
152.0030819702
 20
256.6330768422
 11
145.7960556085
 21
253.4381239735
  0
LINE
  5
2ED
100
AcDbEntity
  8
0
100
AcDbLine
 62
7
  6
CONTINUOUS
 10
144.0726144422
 20
252.5510142728
 11
137.3285871655
 21
249.0796500417
  0
LINE
  5
2EE
100
AcDbEntity
  8
0
100
AcDbLine
 62
7
  6
CONTINUOUS
 10
162.8493263426
 20
260.9420861932
 11
156.2016496431
 21
257.5203166529
  0
LINE
  5
2EF
100
AcDbEntity
  8
0
100
AcDbLine
 62
7
  6
CONTINUOUS
 10
154.4779557044
 20
256.6330768422
 11
148.2709293426
 21
253.4381239735
  0
LINE
  5
2F0
100
AcDbEntity
  8
0
100
AcDbLine
 62
7
  6
CONTINUOUS
 10
146.5474881763
 20
252.5510142728
 11
139.8034608996
 21
249.0796500417
  0
LINE
  5
2F1
100
AcDbEntity
  8
0
100
AcDbLine
 62
7
  6
CONTINUOUS
 10
161.0157521502
 20
258.0796500417
 11
153.7714962063
 21
254.3508022875
  0
LINE
  5
2F2
100
AcDbEntity
  8
0
100
AcDbLine
 62
7
  6
CONTINUOUS
 10
152.0002820517
 20
253.4391023181
 11
145.8400957485
 21
250.2682595097
  0
LINE
  5
2F3
100
AcDbEntity
  8
0
100
AcDbLine
 62
7
  6
CONTINUOUS
 10
144.070609367
 20
249.3574488797
 11
137.2743511977
 21
245.8591997555
  0
LINE
  5
2F4
100
AcDbEntity
  8
0
100
AcDbLine
 62
7
  6
CONTINUOUS
 10
163.4906258844
 20
258.0796500417
 11
156.2463699405
 21
254.3508022875
  0
LINE
  5
2F5
100
AcDbEntity
  8
0
100
AcDbLine
 62
7
  6
CONTINUOUS
 10
154.4751557859
 20
253.4391023181
 11
148.3149694827
 21
250.2682595097
  0
LINE
  5
2F6
100
AcDbEntity
  8
0
100
AcDbLine
 62
7
  6
CONTINUOUS
 10
146.5454831011
 20
249.3574488797
 11
139.751278153
 21
245.8602566134
  0
LINE
  5
2F7
100
AcDbEntity
  8
0
100
AcDbLine
 62
7
  6
CONTINUOUS
 10
152.0025219886
 20
253.4303990436
 11
145.8418083087
 21
250.2616053232
  0
LINE
  5
2F8
100
AcDbEntity
  8
0
100
AcDbLine
 62
7
  6
CONTINUOUS
 10
154.4773957227
 20
253.4303990436
 11
148.3166820428
 21
250.2616053232
  0
LINE
  5
2F9
100
AcDbEntity
  8
0
100
AcDbLine
 62
7
  6
CONTINUOUS
 10
144.0722134271
 20
249.3512162722
 11
137.2764044188
 21
245.8602566134
  0
LINE
  5
2FA
100
AcDbEntity
  8
0
100
AcDbLine
 62
7
  6
CONTINUOUS
 10
146.5470871613
 20
249.3512162722
 11
139.7492249319
 21
245.8591997555
  0
LINE
  5
2FB
100
AcDbEntity
  8
0
100
AcDbLine
 62
7
  6
CONTINUOUS
 10
157.7133441257
 20
258.0796500417
 11
147.4718944834
 21
254.3412538064
  0
LINE
  5
2FC
100
AcDbEntity
  8
0
100
AcDbLine
 62
7
  6
CONTINUOUS
 10
156.7303983938
 20
261.9785981433
 11
123.2095312373
 21
249.7780002715
  0
LINE
  5
2FD
100
AcDbEntity
  8
0
100
AcDbLine
 62
7
  6
CONTINUOUS
 10
156.8064096162
 20
260.9420861932
 11
147.4051750695
 21
257.5203166529
  0
LINE
  5
2FE
100
AcDbEntity
  8
0
100
AcDbLine
 62
7
  6
CONTINUOUS
 10
144.967503724
 20
256.6330768422
 11
136.1894428611
 21
253.4381239735
  0
LINE
  5
2FF
100
AcDbEntity
  8
0
100
AcDbLine
 62
7
  6
CONTINUOUS
 10
133.7521289898
 20
252.5510142728
 11
124.2146341501
 21
249.0796500417
  0
LINE
  5
300
100
AcDbEntity
  8
0
100
AcDbLine
 62
7
  6
CONTINUOUS
 10
147.4684191205
 20
254.3508022875
 11
144.9635440555
 21
253.4391023233
  0
LINE
  5
301
100
AcDbEntity
  8
0
100
AcDbLine
 62
7
  6
CONTINUOUS
 10
136.2517250245
 20
250.2682595097
 11
133.7492933853
 21
249.3574488797
  0
LINE
  5
302
100
AcDbEntity
  8
0
100
AcDbLine
 62
7
  6
CONTINUOUS
 10
144.9667117903
 20
253.4303990436
 11
136.2541469503
 21
250.2616053232
  0
LINE
  5
303
100
AcDbEntity
  8
0
100
AcDbLine
 62
7
  6
CONTINUOUS
 10
133.7515618689
 20
249.3512162722
 11
124.1394259452
 21
245.8597431763
  0
LINE
  5
304
100
AcDbEntity
  8
0
100
AcDbLine
 62
7
  6
CONTINUOUS
 10
117.8875092259
 20
212.5796500462
 11
123.8873754099
 21
212.5796500462
  0
LINE
  5
305
100
AcDbEntity
  8
0
100
AcDbLine
 62
7
  6
CONTINUOUS
 10
222.5393128415
 20
212.5796500462
 11
228.5391790255
 21
212.5796500462
  0
LINE
  5
306
100
AcDbEntity
  8
0
100
AcDbLine
 62
7
  6
CONTINUOUS
 10
117.3874423179
 20
213.0796500417
 11
124.3874423179
 21
213.0796500417
  0
LINE
  5
307
100
AcDbEntity
  8
0
100
AcDbLine
 62
7
  6
CONTINUOUS
 10
222.0392459335
 20
213.0796500417
 11
229.0392459335
 21
213.0796500417
  0
LINE
  5
308
100
AcDbEntity
  8
0
100
AcDbLine
 62
7
  6
CONTINUOUS
 10
113.7133441257
 20
214.4796500417
 11
126.0412625211
 21
214.4796500417
  0
LINE
  5
309
100
AcDbEntity
  8
0
100
AcDbLine
 62
7
  6
CONTINUOUS
 10
127.2948588197
 20
214.4796500417
 11
218.9796128021
 21
214.4796500417
  0
LINE
  5
30A
100
AcDbEntity
  8
0
100
AcDbLine
 62
7
  6
CONTINUOUS
 10
220.4117096649
 20
214.4796500417
 11
232.7133441257
 21
214.4796500417
  0
LINE
  5
30B
100
AcDbEntity
  8
0
100
AcDbLine
 62
7
  6
CONTINUOUS
 10
227.0392459335
 20
215.5796500417
 11
224.0392459335
 21
215.5796500417
  0
LINE
  5
30C
100
AcDbEntity
  8
0
100
AcDbLine
 62
7
  6
CONTINUOUS
 10
122.3874423179
 20
215.5796500417
 11
119.3874423179
 21
215.5796500417
  0
LINE
  5
30D
100
AcDbEntity
  8
0
100
AcDbLine
 62
7
  6
CONTINUOUS
 10
232.7133441257
 20
216.5796500417
 11
189.1604441755
 21
216.5796500417
  0
LINE
  5
30E
100
AcDbEntity
  8
0
100
AcDbLine
 62
7
  6
CONTINUOUS
 10
157.2662440758
 20
216.5796500417
 11
113.7133441257
 21
216.5796500417
  0
LINE
  5
30F
100
AcDbEntity
  8
0
100
AcDbLine
 62
7
  6
CONTINUOUS
 10
140.3133441257
 20
298.1936474071
 11
141.8481406457
 21
288.1517420145
  0
LINE
  5
310
100
AcDbEntity
  8
0
100
AcDbLine
 62
7
  6
CONTINUOUS
 10
156.2494195555
 20
254.3307566287
 11
156.2494195555
 21
257.1593197119
  0
LINE
  5
311
100
AcDbEntity
  8
0
100
AcDbLine
 62
7
  6
CONTINUOUS
 10
156.7133441257
 20
261.9723908973
 11
156.7133441257
 21
262.0796500417
  0
LINE
  5
312
100
AcDbEntity
  8
0
100
AcDbLine
 62
7
  6
CONTINUOUS
 10
156.8064096162
 20
260.9420861932
 11
156.8064096162
 21
258.0796500417
  0
LINE
  5
313
100
AcDbEntity
  8
0
100
AcDbLine
 62
7
  6
CONTINUOUS
 10
157.3789460796
 20
183.0796500417
 11
157.3789460796
 21
188.0796500417
  0
LINE
  5
314
100
AcDbEntity
  8
0
100
AcDbLine
 62
7
  6
CONTINUOUS
 10
158.5965520817
 20
185.5796500417
 11
158.5965520817
 21
183.0796500417
  0
LINE
  5
315
100
AcDbEntity
  8
0
100
AcDbLine
 62
7
  6
CONTINUOUS
 10
158.7390878135
 20
185.5796500417
 11
158.7390878135
 21
183.0796500417
  0
LINE
  5
316
100
AcDbEntity
  8
0
100
AcDbLine
 62
7
  6
CONTINUOUS
 10
159.2133441257
 20
283.0796500417
 11
159.2133441257
 21
266.1796500417
  0
LINE
  5
317
100
AcDbEntity
  8
0
100
AcDbLine
 62
7
  6
CONTINUOUS
 10
159.4518947587
 20
185.5796500417
 11
159.4518947587
 21
183.0796500417
  0
LINE
  5
318
100
AcDbEntity
  8
0
100
AcDbLine
 62
7
  6
CONTINUOUS
 10
159.7440535084
 20
185.5796500417
 11
159.7440535084
 21
183.0796500417
  0
LINE
  5
319
100
AcDbEntity
  8
0
100
AcDbLine
 62
7
  6
CONTINUOUS
 10
160.2133441257
 20
281.5796500417
 11
160.2133441257
 21
263.5796500417
  0
LINE
  5
31A
100
AcDbEntity
  8
0
100
AcDbLine
 62
7
  6
CONTINUOUS
 10
160.3744526084
 20
260.9420861932
 11
160.3744526084
 21
258.0796500417
  0
LINE
  5
31B
100
AcDbEntity
  8
0
100
AcDbLine
 62
7
  6
CONTINUOUS
 10
162.8493263426
 20
260.9420861932
 11
162.8493263426
 21
258.0796500417
  0
LINE
  5
31C
100
AcDbEntity
  8
0
100
AcDbLine
 62
7
  6
CONTINUOUS
 10
151.0241284986
 20
221.5796500417
 11
147.7133441257
 21
214.4796500417
  0
LINE
  5
31D
100
AcDbEntity
  8
0
100
AcDbLine
 62
7
  6
CONTINUOUS
 10
197.7724941754
 20
294.549348353
 11
191.1369896036
 21
286.6414619408
  0
LINE
  5
31E
100
AcDbEntity
  8
0
100
AcDbLine
 62
7
  6
CONTINUOUS
 10
201.8133441257
 20
296.2535981446
 11
193.6709494938
 21
286.5498700897
  0
LINE
  5
31F
100
AcDbEntity
  8
0
100
AcDbLine
 62
7
  6
CONTINUOUS
 10
134.1456944651
 20
224.0865710151
 11
130.4268571847
 21
224.0796500417
  0
LINE
  5
320
100
AcDbEntity
  8
0
100
AcDbLine
 62
7
  6
CONTINUOUS
 10
233.6946926198
 20
221.5796500417
 11
233.6418984642
 21
221.5796500417
  0
LINE
  5
321
100
AcDbEntity
  8
0
100
AcDbLine
 62
7
  6
CONTINUOUS
 10
233.6418881773
 20
221.5796500417
 11
112.8391949739
 21
221.5796500417
  0
LINE
  5
322
100
AcDbEntity
  8
0
100
AcDbLine
 62
7
  6
CONTINUOUS
 10
233.6424156712
 20
223.1105978369
 11
112.8978240279
 21
223.1105978369
  0
LINE
  5
323
100
AcDbEntity
  8
0
100
AcDbLine
 62
7
  6
CONTINUOUS
 10
131.670820731
 20
224.0865710151
 11
129.0878779474
 21
224.0796500417
  0
LINE
  5
324
100
AcDbEntity
  8
0
100
AcDbLine
 62
7
  6
CONTINUOUS
 10
112.2133441257
 20
224.0796500417
 11
234.2133441257
 21
224.0796500417
  0
LINE
  5
325
100
AcDbEntity
  8
0
100
AcDbLine
 62
7
  6
CONTINUOUS
 10
214.7558675204
 20
224.0865710151
 11
212.2809937862
 21
224.0865710151
  0
LINE
  5
326
100
AcDbEntity
  8
0
100
AcDbLine
 62
7
  6
CONTINUOUS
 10
131.670820731
 20
224.0865710151
 11
134.1456944651
 21
224.0865710151
  0
LINE
  5
327
100
AcDbEntity
  8
0
100
AcDbLine
 62
7
  6
CONTINUOUS
 10
171.4633441257
 20
224.0865710151
 11
174.9633441257
 21
224.0865710151
  0
LINE
  5
328
100
AcDbEntity
  8
0
100
AcDbLine
 62
7
  6
CONTINUOUS
 10
173.9633441257
 20
224.2678587602
 11
172.4633441257
 21
224.2678587602
  0
LINE
  5
329
100
AcDbEntity
  8
0
100
AcDbLine
 62
7
  6
CONTINUOUS
 10
172.4633441257
 20
224.2715326011
 11
173.9633441257
 21
224.2715326011
  0
LINE
  5
32A
100
AcDbEntity
  8
0
100
AcDbLine
 62
7
  6
CONTINUOUS
 10
230.2133441257
 20
224.0865710151
 11
233.4077667144
 21
224.081380285
  0
LINE
  5
32B
100
AcDbEntity
  8
0
100
AcDbLine
 62
7
  6
CONTINUOUS
 10
214.5397916607
 20
224.081380285
 11
212.2809937862
 21
224.0865710151
  0
LINE
  5
32C
100
AcDbEntity
  8
0
100
AcDbLine
 62
7
  6
CONTINUOUS
 10
129.0862174742
 20
224.081380285
 11
129.4120228566
 21
224.0796500417
  0
LINE
  5
32D
100
AcDbEntity
  8
0
100
AcDbLine
 62
7
  6
CONTINUOUS
 10
217.3404707771
 20
224.0796500417
 11
214.7558675204
 21
224.0865710151
  0
LINE
  5
32E
100
AcDbEntity
  8
0
100
AcDbLine
 62
7
  6
CONTINUOUS
 10
121.1608614707
 20
246.4476177409
 11
120.22116885
 21
246.7896378842
  0
LINE
  5
32F
100
AcDbEntity
  8
0
100
AcDbLine
 62
7
  6
CONTINUOUS
 10
152.6133441257
 20
297.8697642831
 11
154.1705712755
 21
287.8225348859
  0
LINE
  5
330
100
AcDbEntity
  8
0
100
AcDbLine
 62
7
  6
CONTINUOUS
 10
164.9133441257
 20
297.5138253708
 11
164.9133441257
 21
287.5092231125
  0
LINE
  5
331
100
AcDbEntity
  8
0
100
AcDbLine
 62
7
  6
CONTINUOUS
 10
168.7853156091
 20
183.0796500417
 11
168.7853156091
 21
188.0796500417
  0
LINE
  5
332
100
AcDbEntity
  8
0
100
AcDbLine
 62
7
  6
CONTINUOUS
 10
169.4337515192
 20
185.5796500417
 11
169.4337515192
 21
183.0796500417
  0
LINE
  5
333
100
AcDbEntity
  8
0
100
AcDbLine
 62
7
  6
CONTINUOUS
 10
171.231208234
 20
183.0796500417
 11
171.231208234
 21
185.5796500417
  0
LINE
  5
334
100
AcDbEntity
  8
0
100
AcDbLine
 62
7
  6
CONTINUOUS
 10
171.4633441257
 20
260.9420861932
 11
171.4633441257
 21
224.0818090342
  0
LINE
  5
335
100
AcDbEntity
  8
0
100
AcDbLine
 62
7
  6
CONTINUOUS
 10
172.4633441257
 20
224.2678587602
 11
172.4633441257
 21
261.9785981433
  0
LINE
  5
336
100
AcDbEntity
  8
0
100
AcDbLine
 62
7
  6
CONTINUOUS
 10
173.9633441257
 20
261.9785981433
 11
173.9633441257
 21
224.2678587602
  0
LINE
  5
337
100
AcDbEntity
  8
0
100
AcDbLine
 62
7
  6
CONTINUOUS
 10
210.0728650855
 20
294.0655492805
 11
203.4628698198
 21
286.1880636755
  0
LINE
  5
338
100
AcDbEntity
  8
0
100
AcDbLine
 62
7
  6
CONTINUOUS
 10
214.1133441257
 20
295.7693570387
 11
205.9874104502
 21
286.0852463878
  0
LINE
  5
339
100
AcDbEntity
  8
0
100
AcDbLine
 62
7
  6
CONTINUOUS
 10
229.8814109071
 20
235.0796500417
 11
212.8917581519
 21
235.0796500417
  0
LINE
  5
33A
100
AcDbEntity
  8
0
100
AcDbLine
 62
7
  6
CONTINUOUS
 10
212.12118963
 20
235.0796500417
 11
174.8562016458
 21
235.0796500417
  0
LINE
  5
33B
100
AcDbEntity
  8
0
100
AcDbLine
 62
7
  6
CONTINUOUS
 10
171.5692801391
 20
235.0796500417
 11
134.3046207796
 21
235.0796500417
  0
LINE
  5
33C
100
AcDbEntity
  8
0
100
AcDbLine
 62
7
  6
CONTINUOUS
 10
133.5349300995
 20
235.0796500417
 11
116.5452593797
 21
235.0796500417
  0
LINE
  5
33D
100
AcDbEntity
  8
0
100
AcDbLine
 62
7
  6
CONTINUOUS
 10
229.0286160187
 20
237.421670185
 11
213.8433530406
 21
237.421670185
  0
LINE
  5
33E
100
AcDbEntity
  8
0
100
AcDbLine
 62
7
  6
CONTINUOUS
 10
211.5180497095
 20
237.421670185
 11
174.8575818794
 21
237.421670185
  0
LINE
  5
33F
100
AcDbEntity
  8
0
100
AcDbLine
 62
7
  6
CONTINUOUS
 10
171.569106372
 20
237.421670185
 11
134.9086385419
 21
237.421670185
  0
LINE
  5
340
100
AcDbEntity
  8
0
100
AcDbLine
 62
7
  6
CONTINUOUS
 10
132.5833352108
 20
237.421670185
 11
117.3980540056
 21
237.421670185
  0
LINE
  5
341
100
AcDbEntity
  8
0
100
AcDbLine
 62
7
  6
CONTINUOUS
 10
228.0852377721
 20
238.0796500417
 11
212.1192525572
 21
238.0796500417
  0
LINE
  5
342
100
AcDbEntity
  8
0
100
AcDbLine
 62
7
  6
CONTINUOUS
 10
210.7761953526
 20
238.0796500417
 11
174.9633441257
 21
238.0796500417
  0
LINE
  5
343
100
AcDbEntity
  8
0
100
AcDbLine
 62
7
  6
CONTINUOUS
 10
171.4633441257
 20
238.0796500417
 11
135.6504928988
 21
238.0796500417
  0
LINE
  5
344
100
AcDbEntity
  8
0
100
AcDbLine
 62
7
  6
CONTINUOUS
 10
134.3074356942
 20
238.0796500417
 11
118.3414504792
 21
238.0796500417
  0
LINE
  5
345
100
AcDbEntity
  8
0
100
AcDbLine
 62
7
  6
CONTINUOUS
 10
164.9133441257
 20
297.5138253708
 11
166.4928554249
 21
287.4610901524
  0
LINE
  5
346
100
AcDbEntity
  8
0
100
AcDbLine
 62
7
  6
CONTINUOUS
 10
174.9633441257
 20
260.9420861932
 11
174.9633441257
 21
224.0796500417
  0
LINE
  5
347
100
AcDbEntity
  8
0
100
AcDbLine
 62
7
  6
CONTINUOUS
 10
177.2133441257
 20
297.1258234222
 11
177.2133441257
 21
287.1203974295
  0
LINE
  5
348
100
AcDbEntity
  8
0
100
AcDbLine
 62
7
  6
CONTINUOUS
 10
177.6413726422
 20
183.0796500417
 11
177.6413726422
 21
188.0796500417
  0
LINE
  5
349
100
AcDbEntity
  8
0
100
AcDbLine
 62
7
  6
CONTINUOUS
 10
183.5773619088
 20
260.9420861932
 11
183.5773619088
 21
258.0796500417
  0
LINE
  5
34A
100
AcDbEntity
  8
0
100
AcDbLine
 62
7
  6
CONTINUOUS
 10
222.3732081096
 20
293.5496183826
 11
215.7805536472
 21
285.6927987423
  0
LINE
  5
34B
100
AcDbEntity
  8
0
100
AcDbLine
 62
7
  6
CONTINUOUS
 10
226.4133441257
 20
295.2530173406
 11
218.303751483
 21
285.5883811742
  0
LINE
  5
34C
100
AcDbEntity
  8
0
100
AcDbLine
 62
7
  6
CONTINUOUS
 10
226.2070124377
 20
246.7890944635
 11
225.2673198169
 21
246.4470743201
  0
LINE
  5
34D
100
AcDbEntity
  8
0
100
AcDbLine
 62
7
  6
CONTINUOUS
 10
209.1523370536
 20
245.8591997555
 11
206.6774633195
 21
245.8591997555
  0
LINE
  5
34E
100
AcDbEntity
  8
0
100
AcDbLine
 62
7
  6
CONTINUOUS
 10
137.2743511977
 20
245.8591997555
 11
139.7492249319
 21
245.8591997555
  0
LINE
  5
34F
100
AcDbEntity
  8
0
100
AcDbLine
 62
7
  6
CONTINUOUS
 10
171.4633441257
 20
245.8591997555
 11
174.9633441257
 21
245.8591997555
  0
LINE
  5
350
100
AcDbEntity
  8
0
100
AcDbLine
 62
7
  6
CONTINUOUS
 10
224.7755662458
 20
246.0796500417
 11
209.283452156
 21
246.0796500417
  0
LINE
  5
351
100
AcDbEntity
  8
0
100
AcDbLine
 62
7
  6
CONTINUOUS
 10
208.4359041728
 20
246.0796500417
 11
174.9633441257
 21
246.0796500417
  0
LINE
  5
352
100
AcDbEntity
  8
0
100
AcDbLine
 62
7
  6
CONTINUOUS
 10
171.4633441257
 20
246.0796500417
 11
137.9907840786
 21
246.0796500417
  0
LINE
  5
353
100
AcDbEntity
  8
0
100
AcDbLine
 62
7
  6
CONTINUOUS
 10
137.1432360954
 20
246.0796500417
 11
121.6511220056
 21
246.0796500417
  0
LINE
  5
354
100
AcDbEntity
  8
0
100
AcDbLine
 62
7
  6
CONTINUOUS
 10
211.2158564349
 20
246.7890944634
 11
210.1551962631
 21
246.7890944634
  0
LINE
  5
355
100
AcDbEntity
  8
0
100
AcDbLine
 62
7
  6
CONTINUOUS
 10
173.9633441257
 20
246.7890944634
 11
172.4633441257
 21
246.7890944634
  0
LINE
  5
356
100
AcDbEntity
  8
0
100
AcDbLine
 62
7
  6
CONTINUOUS
 10
135.2108318164
 20
246.7890944634
 11
136.2714919882
 21
246.7890944634
  0
LINE
  5
357
100
AcDbEntity
  8
0
100
AcDbLine
 62
7
  6
CONTINUOUS
 10
223.9229048362
 20
248.421670185
 11
210.3024490136
 21
248.421670185
  0
LINE
  5
358
100
AcDbEntity
  8
0
100
AcDbLine
 62
7
  6
CONTINUOUS
 10
207.8383877366
 20
248.421670185
 11
174.9556985639
 21
248.421670185
  0
LINE
  5
359
100
AcDbEntity
  8
0
100
AcDbLine
 62
7
  6
CONTINUOUS
 10
171.4709896875
 20
248.421670185
 11
138.5883005147
 21
248.421670185
  0
LINE
  5
35A
100
AcDbEntity
  8
0
100
AcDbLine
 62
7
  6
CONTINUOUS
 10
136.1242392378
 20
248.421670185
 11
122.5037815527
 21
248.421670185
  0
LINE
  5
35B
100
AcDbEntity
  8
0
100
AcDbLine
 62
7
  6
CONTINUOUS
 10
222.9836307234
 20
249.0796500417
 11
208.5108565946
 21
249.0796500417
  0
LINE
  5
35C
100
AcDbEntity
  8
0
100
AcDbLine
 62
7
  6
CONTINUOUS
 10
207.1938445459
 20
249.0796500417
 11
174.9279453743
 21
249.0796500417
  0
LINE
  5
35D
100
AcDbEntity
  8
0
100
AcDbLine
 62
7
  6
CONTINUOUS
 10
171.4987420866
 20
249.0796500417
 11
139.2328570401
 21
249.0796500417
  0
LINE
  5
35E
100
AcDbEntity
  8
0
100
AcDbLine
 62
7
  6
CONTINUOUS
 10
137.9158316568
 20
249.0796500417
 11
123.4430773387
 21
249.0796500417
  0
LINE
  5
35F
100
AcDbEntity
  8
0
100
AcDbLine
 62
7
  6
CONTINUOUS
 10
212.6745637806
 20
249.3443644193
 11
202.3540049478
 21
249.3443644193
  0
LINE
  5
360
100
AcDbEntity
  8
0
100
AcDbLine
 62
7
  6
CONTINUOUS
 10
199.8792753273
 20
249.3443644193
 11
174.963242222
 21
249.3443644193
  0
LINE
  5
361
100
AcDbEntity
  8
0
100
AcDbLine
 62
7
  6
CONTINUOUS
 10
171.4634460294
 20
249.3443644193
 11
146.5474129241
 21
249.3443644193
  0
LINE
  5
362
100
AcDbEntity
  8
0
100
AcDbLine
 62
7
  6
CONTINUOUS
 10
144.0726833035
 20
249.3443644193
 11
133.7521244708
 21
249.3443644193
  0
LINE
  5
363
100
AcDbEntity
  8
0
100
AcDbLine
 62
7
  6
CONTINUOUS
 10
209.1027651262
 20
249.7774568507
 11
208.0421049544
 21
249.7774568507
  0
LINE
  5
364
100
AcDbEntity
  8
0
100
AcDbLine
 62
7
  6
CONTINUOUS
 10
137.3239231251
 20
249.7774568507
 11
138.3845832969
 21
249.7774568507
  0
LINE
  5
365
100
AcDbEntity
  8
0
100
AcDbLine
 62
7
  6
CONTINUOUS
 10
172.4633441257
 20
249.7774568507
 11
173.9633441257
 21
249.7774568507
  0
LINE
  5
366
100
AcDbEntity
  8
0
100
AcDbLine
 62
7
  6
CONTINUOUS
 10
47.747194121
 20
285.5238696682
 11
50.5815511535
 21
284.6144799879
  0
LINE
  5
367
100
AcDbEntity
  8
0
100
AcDbLine
 62
7
  6
CONTINUOUS
 10
186.0522356429
 20
260.9420861932
 11
186.0522356429
 21
258.0796500417
  0
LINE
  5
368
100
AcDbEntity
  8
0
100
AcDbLine
 62
7
  6
CONTINUOUS
 10
186.2133441257
 20
281.5796500417
 11
186.2133441257
 21
263.5796500417
  0
LINE
  5
369
100
AcDbEntity
  8
0
100
AcDbLine
 62
7
  6
CONTINUOUS
 10
187.2133441257
 20
283.0796500417
 11
187.2133441257
 21
266.1796500417
  0
LINE
  5
36A
100
AcDbEntity
  8
0
100
AcDbLine
 62
7
  6
CONTINUOUS
 10
189.0477421717
 20
183.0796500417
 11
189.0477421717
 21
188.0796500417
  0
LINE
  5
36B
100
AcDbEntity
  8
0
100
AcDbLine
 62
7
  6
CONTINUOUS
 10
189.5133441257
 20
296.7057505334
 11
189.5133441257
 21
286.6994325662
  0
LINE
  5
36C
100
AcDbEntity
  8
0
100
AcDbLine
 62
7
  6
CONTINUOUS
 10
189.6202786352
 20
260.9420861932
 11
189.6202786352
 21
258.0796500417
  0
LINE
  5
36D
100
AcDbEntity
  8
0
100
AcDbLine
 62
7
  6
CONTINUOUS
 10
189.7133441257
 20
261.9723908973
 11
189.7133441257
 21
262.0796500417
  0
LINE
  5
36E
100
AcDbEntity
  8
0
100
AcDbLine
 62
7
  6
CONTINUOUS
 10
190.1772686959
 20
254.3307566287
 11
190.1772686959
 21
257.1593197119
  0
LINE
  5
36F
100
AcDbEntity
  8
0
100
AcDbLine
 62
7
  6
CONTINUOUS
 10
191.9487509255
 20
253.4208310431
 11
191.9487417226
 21
256.6330768422
  0
LINE
  5
370
100
AcDbEntity
  8
0
100
AcDbLine
 62
7
  6
CONTINUOUS
 10
192.1206105156
 20
183.0796500417
 11
192.1206105156
 21
188.0796500417
  0
LINE
  5
371
100
AcDbEntity
  8
0
100
AcDbLine
 62
7
  6
CONTINUOUS
 10
192.6521008549
 20
254.3307566287
 11
192.6521008549
 21
257.1593197119
  0
LINE
  5
372
100
AcDbEntity
  8
0
100
AcDbLine
 62
7
  6
CONTINUOUS
 10
193.2013865155
 20
183.0796500417
 11
193.2013865155
 21
188.0796500417
  0
LINE
  5
373
100
AcDbEntity
  8
0
100
AcDbLine
 62
7
  6
CONTINUOUS
 10
234.6735234134
 20
293.0015453226
 11
228.1021250638
 21
285.1700577311
  0
LINE
  5
374
100
AcDbEntity
  8
0
100
AcDbLine
 62
7
  6
CONTINUOUS
 10
238.7133441257
 20
294.7045685163
 11
230.6199736211
 21
285.0592651412
  0
LINE
  5
375
100
AcDbEntity
  8
0
100
AcDbLine
 62
7
  6
CONTINUOUS
 10
210.1719411641
 20
250.2542900049
 11
200.5843757671
 21
250.2542900049
  0
LINE
  5
376
100
AcDbEntity
  8
0
100
AcDbLine
 62
7
  6
CONTINUOUS
 10
198.1096616623
 20
250.2542900049
 11
174.9632312507
 21
250.2542900049
  0
LINE
  5
377
100
AcDbEntity
  8
0
100
AcDbLine
 62
7
  6
CONTINUOUS
 10
171.4634570007
 20
250.2542900049
 11
148.317026589
 21
250.2542900049
  0
LINE
  5
378
100
AcDbEntity
  8
0
100
AcDbLine
 62
7
  6
CONTINUOUS
 10
145.8423124843
 20
250.2542900049
 11
136.2547470872
 21
250.2542900049
  0
LINE
  5
379
100
AcDbEntity
  8
0
100
AcDbLine
 62
7
  6
CONTINUOUS
 10
212.6769975552
 20
252.900867971
 11
202.3162880341
 21
252.900867971
  0
LINE
  5
37A
100
AcDbEntity
  8
0
100
AcDbLine
 62
7
  6
CONTINUOUS
 10
199.920434118
 20
252.900867971
 11
174.9074686765
 21
252.900867971
  0
LINE
  5
37B
100
AcDbEntity
  8
0
100
AcDbLine
 62
7
  6
CONTINUOUS
 10
171.5192195749
 20
252.900867971
 11
146.5062541333
 21
252.900867971
  0
LINE
  5
37C
100
AcDbEntity
  8
0
100
AcDbLine
 62
7
  6
CONTINUOUS
 10
144.1104002172
 20
252.900867971
 11
133.7496906962
 21
252.900867971
  0
LINE
  5
37D
100
AcDbEntity
  8
0
100
AcDbLine
 62
7
  6
CONTINUOUS
 10
210.171935819
 20
253.0828530881
 11
200.5844518003
 21
253.0828530881
  0
LINE
  5
37E
100
AcDbEntity
  8
0
100
AcDbLine
 62
7
  6
CONTINUOUS
 10
198.1095780585
 20
253.0828530881
 11
174.9633441222
 21
253.0828530881
  0
LINE
  5
37F
100
AcDbEntity
  8
0
100
AcDbLine
 62
7
  6
CONTINUOUS
 10
171.4633441121
 20
253.0828530881
 11
148.3171101803
 21
253.0828530881
  0
LINE
  5
380
100
AcDbEntity
  8
0
100
AcDbLine
 62
7
  6
CONTINUOUS
 10
145.8422364396
 20
253.0828530881
 11
136.2547524316
 21
253.0828530881
  0
LINE
  5
381
100
AcDbEntity
  8
0
100
AcDbLine
 62
7
  6
CONTINUOUS
 10
201.4591969002
 20
253.4208310431
 11
194.4234738103
 21
253.4208310431
  0
LINE
  5
382
100
AcDbEntity
  8
0
100
AcDbLine
 62
7
  6
CONTINUOUS
 10
191.9488825155
 20
253.4208310431
 11
174.9631444108
 21
253.4208310431
  0
LINE
  5
383
100
AcDbEntity
  8
0
100
AcDbLine
 62
7
  6
CONTINUOUS
 10
171.4635438404
 20
253.4208310431
 11
154.4778057357
 21
253.4208310431
  0
LINE
  5
384
100
AcDbEntity
  8
0
100
AcDbLine
 62
7
  6
CONTINUOUS
 10
152.003214441
 20
253.4208310431
 11
144.9674913511
 21
253.4208310431
  0
LINE
  5
385
100
AcDbEntity
  8
0
100
AcDbLine
 62
7
  6
CONTINUOUS
 10
212.0465463765
 20
253.8405605918
 11
201.2577706185
 21
253.8405605918
  0
LINE
  5
386
100
AcDbEntity
  8
0
100
AcDbLine
 62
7
  6
CONTINUOUS
 10
200.0873589263
 20
253.8405605918
 11
174.04095017
 21
253.8405605918
  0
LINE
  5
387
100
AcDbEntity
  8
0
100
AcDbLine
 62
7
  6
CONTINUOUS
 10
172.3857380814
 20
253.8405605918
 11
146.339329325
 21
253.8405605918
  0
LINE
  5
388
100
AcDbEntity
  8
0
100
AcDbLine
 62
7
  6
CONTINUOUS
 10
145.1689176329
 20
253.8405605918
 11
134.3801418749
 21
253.8405605918
  0
LINE
  5
389
100
AcDbEntity
  8
0
100
AcDbLine
 62
7
  6
CONTINUOUS
 10
211.546419349
 20
254.0225457089
 11
200.9045206518
 21
254.0225457089
  0
LINE
  5
38A
100
AcDbEntity
  8
0
100
AcDbLine
 62
7
  6
CONTINUOUS
 10
199.7333224679
 20
254.0225457089
 11
174.0415063036
 21
254.0225457089
  0
LINE
  5
38B
100
AcDbEntity
  8
0
100
AcDbLine
 62
7
  6
CONTINUOUS
 10
172.3851819478
 20
254.0225457089
 11
146.6933657834
 21
254.0225457089
  0
LINE
  5
38C
100
AcDbEntity
  8
0
100
AcDbLine
 62
7
  6
CONTINUOUS
 10
145.5221675996
 20
254.0225457089
 11
134.8802689023
 21
254.0225457089
  0
LINE
  5
38D
100
AcDbEntity
  8
0
100
AcDbLine
 62
7
  6
CONTINUOUS
 10
211.1972220304
 20
254.0828530881
 11
200.8546317313
 21
254.0828530881
  0
LINE
  5
38E
100
AcDbEntity
  8
0
100
AcDbLine
 62
7
  6
CONTINUOUS
 10
199.2893718044
 20
254.0828530881
 11
174.3201500343
 21
254.0828530881
  0
LINE
  5
38F
100
AcDbEntity
  8
0
100
AcDbLine
 62
7
  6
CONTINUOUS
 10
172.1065382171
 20
254.0828530881
 11
147.1373164469
 21
254.0828530881
  0
LINE
  5
390
100
AcDbEntity
  8
0
100
AcDbLine
 62
7
  6
CONTINUOUS
 10
145.57205652
 20
254.0828530881
 11
135.229466221
 21
254.0828530881
  0
LINE
  5
391
100
AcDbEntity
  8
0
100
AcDbLine
 62
7
  6
CONTINUOUS
 10
198.9539406173
 20
254.3307566287
 11
192.651968124
 21
254.3307566287
  0
LINE
  5
392
100
AcDbEntity
  8
0
100
AcDbLine
 62
7
  6
CONTINUOUS
 10
190.1774207896
 20
254.3307566287
 11
174.9631133263
 21
254.3307566287
  0
LINE
  5
393
100
AcDbEntity
  8
0
100
AcDbLine
 62
7
  6
CONTINUOUS
 10
171.4635749252
 20
254.3307566287
 11
156.2492674619
 21
254.3307566287
  0
LINE
  5
394
100
AcDbEntity
  8
0
100
AcDbLine
 62
7
  6
CONTINUOUS
 10
153.7747201275
 20
254.3307566287
 11
147.4727476341
 21
254.3307566287
  0
LINE
  5
395
100
AcDbEntity
  8
0
100
AcDbLine
 62
7
  6
CONTINUOUS
 10
201.4624878056
 20
256.9773345948
 11
194.3876468256
 21
256.9773345948
  0
LINE
  5
396
100
AcDbEntity
  8
0
100
AcDbLine
 62
7
  6
CONTINUOUS
 10
191.9893635433
 20
256.9773345948
 11
174.9091864978
 21
256.9773345948
  0
LINE
  5
397
100
AcDbEntity
  8
0
100
AcDbLine
 62
7
  6
CONTINUOUS
 10
171.5175017535
 20
256.9773345948
 11
154.4373247081
 21
256.9773345948
  0
LINE
  5
398
100
AcDbEntity
  8
0
100
AcDbLine
 62
7
  6
CONTINUOUS
 10
152.0390414257
 20
256.9773345948
 11
144.9642004458
 21
256.9773345948
  0
LINE
  5
399
100
AcDbEntity
  8
0
100
AcDbLine
 62
7
  6
CONTINUOUS
 10
198.9539249243
 20
257.1593197119
 11
192.6521202221
 21
257.1593197119
  0
LINE
  5
39A
100
AcDbEntity
  8
0
100
AcDbLine
 62
7
  6
CONTINUOUS
 10
190.1772464621
 20
257.1593197119
 11
174.9633441149
 21
257.1593197119
  0
LINE
  5
39B
100
AcDbEntity
  8
0
100
AcDbLine
 62
7
  6
CONTINUOUS
 10
171.4633440821
 20
257.1593197119
 11
156.2494417481
 21
257.1593197119
  0
LINE
  5
39C
100
AcDbEntity
  8
0
100
AcDbLine
 62
7
  6
CONTINUOUS
 10
153.7745679935
 20
257.1593197119
 11
147.4727633234
 21
257.1593197119
  0
LINE
  5
39D
100
AcDbEntity
  8
0
100
AcDbLine
 62
7
  6
CONTINUOUS
 10
200.8424834701
 20
257.9170272155
 11
193.3467267433
 21
257.9170272155
  0
LINE
  5
39E
100
AcDbEntity
  8
0
100
AcDbLine
 62
7
  6
CONTINUOUS
 10
192.1534650857
 20
257.9170272155
 11
174.0571075355
 21
257.9170272155
  0
LINE
  5
39F
100
AcDbEntity
  8
0
100
AcDbLine
 62
7
  6
CONTINUOUS
 10
172.3695807158
 20
257.9170272155
 11
154.2732231657
 21
257.9170272155
  0
LINE
  5
3A0
100
AcDbEntity
  8
0
100
AcDbLine
 62
7
  6
CONTINUOUS
 10
153.0799615081
 20
257.9170272155
 11
145.5842047813
 21
257.9170272155
  0
LINE
  5
3A1
100
AcDbEntity
  8
0
100
AcDbLine
 62
7
  6
CONTINUOUS
 10
189.6202786352
 20
258.0796500417
 11
156.8064096162
 21
258.0796500417
  0
LINE
  5
3A2
100
AcDbEntity
  8
0
100
AcDbLine
 62
7
  6
CONTINUOUS
 10
200.3422159992
 20
258.0990123327
 11
192.9936675203
 21
258.0990123327
  0
LINE
  5
3A3
100
AcDbEntity
  8
0
100
AcDbLine
 62
7
  6
CONTINUOUS
 10
191.7990392665
 20
258.0990123327
 11
174.0580738649
 21
258.0990123327
  0
LINE
  5
3A4
100
AcDbEntity
  8
0
100
AcDbLine
 62
7
  6
CONTINUOUS
 10
172.3686143864
 20
258.0990123327
 11
154.6276489849
 21
258.0990123327
  0
LINE
  5
3A5
100
AcDbEntity
  8
0
100
AcDbLine
 62
7
  6
CONTINUOUS
 10
153.4330207311
 20
258.0990123327
 11
146.0844722522
 21
258.0990123327
  0
LINE
  5
3A6
100
AcDbEntity
  8
0
100
AcDbLine
 62
7
  6
CONTINUOUS
 10
199.9902222937
 20
258.1593197119
 11
192.9344745461
 21
258.1593197119
  0
LINE
  5
3A7
100
AcDbEntity
  8
0
100
AcDbLine
 62
7
  6
CONTINUOUS
 10
191.3604379686
 20
258.1593197119
 11
174.3263560635
 21
258.1593197119
  0
LINE
  5
3A8
100
AcDbEntity
  8
0
100
AcDbLine
 62
7
  6
CONTINUOUS
 10
172.1003321879
 20
258.1593197119
 11
155.0662502828
 21
258.1593197119
  0
LINE
  5
3A9
100
AcDbEntity
  8
0
100
AcDbLine
 62
7
  6
CONTINUOUS
 10
153.4922137053
 20
258.1593197119
 11
146.4364659576
 21
258.1593197119
  0
LINE
  5
3AA
100
AcDbEntity
  8
0
100
AcDbLine
 62
7
  6
CONTINUOUS
 10
195.4025597528
 20
221.5796500417
 11
198.7133441257
 21
214.4796500417
  0
LINE
  5
3AB
100
AcDbEntity
  8
0
100
AcDbLine
 62
7
  6
CONTINUOUS
 10
177.2133441257
 20
297.1258234222
 11
178.8149944289
 21
287.0674015011
  0
LINE
  5
3AC
100
AcDbEntity
  8
0
100
AcDbLine
 62
7
  6
CONTINUOUS
 10
194.2133441257
 20
183.0796500417
 11
194.2133441257
 21
183.1796500417
  0
LINE
  5
3AD
100
AcDbEntity
  8
0
100
AcDbLine
 62
7
  6
CONTINUOUS
 10
194.2133441257
 20
195.0796500417
 11
194.2133441257
 21
197.5796500417
  0
LINE
  5
3AE
100
AcDbEntity
  8
0
100
AcDbLine
 62
7
  6
CONTINUOUS
 10
194.423590047
 20
253.4208310431
 11
194.4235981762
 21
256.6330768422
  0
LINE
  5
3AF
100
AcDbEntity
  8
0
100
AcDbLine
 62
7
  6
CONTINUOUS
 10
196.2523696272
 20
183.0796500417
 11
196.2523696272
 21
188.0796500417
  0
LINE
  5
3B0
100
AcDbEntity
  8
0
100
AcDbLine
 62
7
  6
CONTINUOUS
 10
197.0765648626
 20
183.0796500417
 11
197.0765648626
 21
188.0796500417
  0
LINE
  5
3B1
100
AcDbEntity
  8
0
100
AcDbLine
 62
7
  6
CONTINUOUS
 10
198.1095886609
 20
250.254290005
 11
198.1095886609
 21
253.0828530881
  0
LINE
  5
3B2
100
AcDbEntity
  8
0
100
AcDbLine
 62
7
  6
CONTINUOUS
 10
198.3259418275
 20
188.0796500417
 11
198.3259418275
 21
183.0796500417
  0
LINE
  5
3B3
100
AcDbEntity
  8
0
100
AcDbLine
 62
7
  6
CONTINUOUS
 10
198.7133441257
 20
188.0796500417
 11
198.7133441257
 21
195.0796500417
  0
LINE
  5
3B4
100
AcDbEntity
  8
0
100
AcDbLine
 62
7
  6
CONTINUOUS
 10
198.7133441257
 20
197.5796500417
 11
198.7133441257
 21
214.4796500417
  0
LINE
  5
3B5
100
AcDbEntity
  8
0
100
AcDbLine
 62
7
  6
CONTINUOUS
 10
198.9539269259
 20
254.3307566287
 11
198.9539269259
 21
257.1593197119
  0
LINE
  5
3B6
100
AcDbEntity
  8
0
100
AcDbLine
 62
7
  6
CONTINUOUS
 10
199.8792093431
 20
249.3443644193
 11
199.8792047091
 21
252.5510142728
  0
LINE
  5
3B7
100
AcDbEntity
  8
0
100
AcDbLine
 62
7
  6
CONTINUOUS
 10
200.584442168
 20
250.254290005
 11
200.584442168
 21
253.0828530881
  0
LINE
  5
3B8
100
AcDbEntity
  8
0
100
AcDbLine
 62
7
  6
CONTINUOUS
 10
201.4591860415
 20
253.4208310431
 11
201.4591852845
 21
256.6330768422
  0
LINE
  5
3B9
100
AcDbEntity
  8
0
100
AcDbLine
 62
7
  6
CONTINUOUS
 10
201.8133441257
 20
296.2535981446
 11
201.8133441257
 21
286.2463199078
  0
LINE
  5
3BA
100
AcDbEntity
  8
0
100
AcDbLine
 62
7
  6
CONTINUOUS
 10
202.3540653192
 20
249.3443644193
 11
202.3540695688
 21
252.5510142728
  0
LINE
  5
3BB
100
AcDbEntity
  8
0
100
AcDbLine
 62
7
  6
CONTINUOUS
 10
246.9738111594
 20
292.4213191002
 11
240.4235577476
 21
284.6150310642
  0
LINE
  5
3BC
100
AcDbEntity
  8
0
100
AcDbLine
 62
7
  6
CONTINUOUS
 10
251.0133441257
 20
294.1239993714
 11
242.9360778798
 21
284.4978883045
  0
LINE
  5
3BD
100
AcDbEntity
  8
0
100
AcDbLine
 62
7
  6
CONTINUOUS
 10
189.7133441257
 20
262.0796500417
 11
156.7133441257
 21
262.0796500417
  0
LINE
  5
3BE
100
AcDbEntity
  8
0
100
AcDbLine
 62
7
  6
CONTINUOUS
 10
265.2133441257
 20
262.5796500417
 11
84.2133441257
 21
262.5796500417
  0
LINE
  5
3BF
100
AcDbEntity
  8
0
100
AcDbLine
 62
7
  6
CONTINUOUS
 10
188.7133393648
 20
263.0796500417
 11
157.7133488865
 21
263.0796500417
  0
LINE
  5
3C0
100
AcDbEntity
  8
0
100
AcDbLine
 62
7
  6
CONTINUOUS
 10
283.2133441257
 20
263.5796500417
 11
63.2133441257
 21
263.5796500417
  0
LINE
  5
3C1
100
AcDbEntity
  8
0
100
AcDbLine
 62
7
  6
CONTINUOUS
 10
276.4633441257
 20
264.3796500417
 11
269.9633441257
 21
264.3796500417
  0
LINE
  5
3C2
100
AcDbEntity
  8
0
100
AcDbLine
 62
7
  6
CONTINUOUS
 10
259.8633441257
 20
264.3796500417
 11
253.3633441257
 21
264.3796500417
  0
LINE
  5
3C3
100
AcDbEntity
  8
0
100
AcDbLine
 62
7
  6
CONTINUOUS
 10
243.2633441257
 20
264.3796500417
 11
236.7633441257
 21
264.3796500417
  0
LINE
  5
3C4
100
AcDbEntity
  8
0
100
AcDbLine
 62
7
  6
CONTINUOUS
 10
69.9633441257
 20
264.3796500417
 11
76.4633441257
 21
264.3796500417
  0
LINE
  5
3C5
100
AcDbEntity
  8
0
100
AcDbLine
 62
7
  6
CONTINUOUS
 10
86.5633441257
 20
264.3796500417
 11
93.0633441257
 21
264.3796500417
  0
LINE
  5
3C6
100
AcDbEntity
  8
0
100
AcDbLine
 62
7
  6
CONTINUOUS
 10
103.1633441257
 20
264.3796500417
 11
109.6633441257
 21
264.3796500417
  0
LINE
  5
3C7
100
AcDbEntity
  8
0
100
AcDbLine
 62
7
  6
CONTINUOUS
 10
280.7133441257
 20
266.1796500417
 11
65.7133441257
 21
266.1796500417
  0
LINE
  5
3C8
100
AcDbEntity
  8
0
100
AcDbLine
 62
7
  6
CONTINUOUS
 10
280.7133441257
 20
266.2796500417
 11
216.2133441257
 21
266.2796500417
  0
LINE
  5
3C9
100
AcDbEntity
  8
0
100
AcDbLine
 62
7
  6
CONTINUOUS
 10
130.2133441257
 20
266.2796500417
 11
65.7133441257
 21
266.2796500417
  0
LINE
  5
3CA
100
AcDbEntity
  8
0
100
AcDbLine
 62
7
  6
CONTINUOUS
 10
276.4633441257
 20
266.5796500417
 11
269.9633441257
 21
266.5796500417
  0
LINE
  5
3CB
100
AcDbEntity
  8
0
100
AcDbLine
 62
7
  6
CONTINUOUS
 10
259.8633441257
 20
266.5796500417
 11
253.3633441257
 21
266.5796500417
  0
LINE
  5
3CC
100
AcDbEntity
  8
0
100
AcDbLine
 62
7
  6
CONTINUOUS
 10
69.9633441257
 20
266.5796500417
 11
76.4633441257
 21
266.5796500417
  0
LINE
  5
3CD
100
AcDbEntity
  8
0
100
AcDbLine
 62
7
  6
CONTINUOUS
 10
86.5633441257
 20
266.5796500417
 11
93.0633441257
 21
266.5796500417
  0
LINE
  5
3CE
100
AcDbEntity
  8
0
100
AcDbLine
 62
7
  6
CONTINUOUS
 10
243.2633441257
 20
266.7606020289
 11
236.7633441257
 21
266.7606020289
  0
LINE
  5
3CF
100
AcDbEntity
  8
0
100
AcDbLine
 62
7
  6
CONTINUOUS
 10
103.1633441257
 20
266.7606020289
 11
109.6633441257
 21
266.7606020289
  0
LINE
  5
3D0
100
AcDbEntity
  8
0
100
AcDbLine
 62
7
  6
CONTINUOUS
 10
243.2633441257
 20
268.7108131881
 11
236.7633441257
 21
268.7108131881
  0
LINE
  5
3D1
100
AcDbEntity
  8
0
100
AcDbLine
 62
7
  6
CONTINUOUS
 10
103.1633441257
 20
268.7108131881
 11
109.6633441257
 21
268.7108131881
  0
LINE
  5
3D2
100
AcDbEntity
  8
0
100
AcDbLine
 62
7
  6
CONTINUOUS
 10
108.1718103348
 20
269.179314599
 11
104.6548779166
 21
269.179314599
  0
LINE
  5
3D3
100
AcDbEntity
  8
0
100
AcDbLine
 62
7
  6
CONTINUOUS
 10
238.2548779166
 20
269.179314599
 11
241.7718103348
 21
269.179314599
  0
LINE
  5
3D4
100
AcDbEntity
  8
0
100
AcDbLine
 62
7
  6
CONTINUOUS
 10
222.2887553424
 20
245.8591997555
 11
212.6751263825
 21
249.3512162722
  0
LINE
  5
3D5
100
AcDbEntity
  8
0
100
AcDbLine
 62
7
  6
CONTINUOUS
 10
210.1725413011
 20
250.2616053232
 11
201.4599764611
 21
253.4303990436
  0
LINE
  5
3D6
100
AcDbEntity
  8
0
100
AcDbLine
 62
7
  6
CONTINUOUS
 10
212.6773948661
 20
249.3574488797
 11
210.1749632269
 21
250.2682595097
  0
LINE
  5
3D7
100
AcDbEntity
  8
0
100
AcDbLine
 62
7
  6
CONTINUOUS
 10
201.4631441958
 20
253.4391023233
 11
198.9582691309
 21
254.3508022875
  0
LINE
  5
3D8
100
AcDbEntity
  8
0
100
AcDbLine
 62
7
  6
CONTINUOUS
 10
222.2120541013
 20
249.0796500417
 11
212.6745592616
 21
252.5510142728
  0
LINE
  5
3D9
100
AcDbEntity
  8
0
100
AcDbLine
 62
7
  6
CONTINUOUS
 10
210.2372453902
 20
253.4381239735
 11
201.4591845274
 21
256.6330768422
  0
LINE
  5
3DA
100
AcDbEntity
  8
0
100
AcDbLine
 62
7
  6
CONTINUOUS
 10
199.0215131819
 20
257.5203166529
 11
189.6202786352
 21
260.9420861932
  0
LINE
  5
3DB
100
AcDbEntity
  8
0
100
AcDbLine
 62
7
  6
CONTINUOUS
 10
223.2186500504
 20
249.7774568507
 11
189.6962898576
 21
261.9785981433
  0
LINE
  5
3DC
100
AcDbEntity
  8
0
100
AcDbLine
 62
7
  6
CONTINUOUS
 10
198.9547937679
 20
254.3412538064
 11
188.7133441257
 21
258.0796500417
  0
LINE
  5
3DD
100
AcDbEntity
  8
0
100
AcDbLine
 62
7
  6
CONTINUOUS
 10
199.8796010901
 20
249.3512162722
 11
206.6774633195
 21
245.8591997555
  0
LINE
  5
3DE
100
AcDbEntity
  8
0
100
AcDbLine
 62
7
  6
CONTINUOUS
 10
202.3544748242
 20
249.3512162722
 11
209.1523370537
 21
245.8591997555
  0
LINE
  5
3DF
100
AcDbEntity
  8
0
100
AcDbLine
 62
7
  6
CONTINUOUS
 10
191.9492925287
 20
253.4303990436
 11
198.1100062085
 21
250.2616053232
  0
LINE
  5
3E0
100
AcDbEntity
  8
0
100
AcDbLine
 62
7
  6
CONTINUOUS
 10
194.4241662628
 20
253.4303990436
 11
200.5848799427
 21
250.2616053232
  0
LINE
  5
3E1
100
AcDbEntity
  8
0
100
AcDbLine
 62
7
  6
CONTINUOUS
 10
182.936062367
 20
258.0796500417
 11
190.1803183109
 21
254.3508022875
  0
LINE
  5
3E2
100
AcDbEntity
  8
0
100
AcDbLine
 62
7
  6
CONTINUOUS
 10
191.9515324655
 20
253.4391023181
 11
198.1117187687
 21
250.2682595097
  0
LINE
  5
3E3
100
AcDbEntity
  8
0
100
AcDbLine
 62
7
  6
CONTINUOUS
 10
199.8812051502
 20
249.3574488797
 11
206.6774633195
 21
245.8591997555
  0
LINE
  5
3E4
100
AcDbEntity
  8
0
100
AcDbLine
 62
7
  6
CONTINUOUS
 10
185.4109361012
 20
258.0796500417
 11
192.6551920451
 21
254.3508022875
  0
LINE
  5
3E5
100
AcDbEntity
  8
0
100
AcDbLine
 62
7
  6
CONTINUOUS
 10
194.4264061996
 20
253.4391023181
 11
200.5865925029
 21
250.2682595097
  0
LINE
  5
3E6
100
AcDbEntity
  8
0
100
AcDbLine
 62
7
  6
CONTINUOUS
 10
202.3560788844
 20
249.3574488797
 11
209.1523370536
 21
245.8591997555
  0
LINE
  5
3E7
100
AcDbEntity
  8
0
100
AcDbLine
 62
7
  6
CONTINUOUS
 10
206.6232273517
 20
249.0796500417
 11
199.879200075
 21
252.5510142728
  0
LINE
  5
3E8
100
AcDbEntity
  8
0
100
AcDbLine
 62
7
  6
CONTINUOUS
 10
198.1557589088
 20
253.4381239735
 11
191.948732547
 21
256.6330768422
  0
LINE
  5
3E9
100
AcDbEntity
  8
0
100
AcDbLine
 62
7
  6
CONTINUOUS
 10
190.2250386083
 20
257.5203166529
 11
183.5773619088
 21
260.9420861932
  0
LINE
  5
3EA
100
AcDbEntity
  8
0
100
AcDbLine
 62
7
  6
CONTINUOUS
 10
209.0981010859
 20
249.0796500417
 11
202.3540738092
 21
252.5510142728
  0
LINE
  5
3EB
100
AcDbEntity
  8
0
100
AcDbLine
 62
7
  6
CONTINUOUS
 10
200.6306326429
 20
253.4381239735
 11
194.4236062811
 21
256.6330768422
  0
LINE
  5
3EC
100
AcDbEntity
  8
0
100
AcDbLine
 62
7
  6
CONTINUOUS
 10
192.6999123424
 20
257.5203166529
 11
186.0522356429
 21
260.9420861932
  0
LINE
  5
3ED
100
AcDbEntity
  8
0
100
AcDbLine
 62
7
  6
CONTINUOUS
 10
208.0421049544
 20
249.7774568507
 11
184.3382167407
 21
261.9785981433
  0
LINE
  5
3EE
100
AcDbEntity
  8
0
100
AcDbLine
 62
7
  6
CONTINUOUS
 10
209.1027651262
 20
249.7774568507
 11
185.3988769125
 21
261.9785981433
  0
LINE
  5
3EF
100
AcDbEntity
  8
0
100
AcDbLine
 62
7
  6
CONTINUOUS
 10
209.3185819017
 20
249.7268907207
 11
201.6207227225
 21
253.6892224128
  0
LINE
  5
3F0
100
AcDbEntity
  8
0
100
AcDbLine
 62
7
  6
CONTINUOUS
 10
200.8572466498
 20
254.082207705
 11
193.693234141
 21
257.7697516241
  0
LINE
  5
3F1
100
AcDbEntity
  8
0
100
AcDbLine
 62
7
  6
CONTINUOUS
 10
192.9381950347
 20
258.1583941428
 11
185.6150422813
 21
261.9278525812
  0
LINE
  5
3F2
100
AcDbEntity
  8
0
100
AcDbLine
 62
7
  6
CONTINUOUS
 10
182.936062367
 20
258.0796500417
 11
190.1778608582
 21
254.3412538064
  0
LINE
  5
3F3
100
AcDbEntity
  8
0
100
AcDbLine
 62
7
  6
CONTINUOUS
 10
185.4109361012
 20
258.0796500417
 11
192.6527345924
 21
254.3412538064
  0
LINE
  5
3F4
100
AcDbEntity
  8
0
100
AcDbLine
 62
7
  6
CONTINUOUS
 10
189.5133441257
 20
296.7057505334
 11
191.1369896035
 21
286.6414619407
  0
LINE
  5
3F5
100
AcDbEntity
  8
0
100
AcDbLine
 62
7
  6
CONTINUOUS
 10
209.4426732725
 20
198.0796500417
 11
209.4426732725
 21
214.4796500417
  0
LINE
  5
3F6
100
AcDbEntity
  8
0
100
AcDbLine
 62
7
  6
CONTINUOUS
 10
210.1719364969
 20
250.254290005
 11
210.1719364969
 21
253.0828530881
  0
LINE
  5
3F7
100
AcDbEntity
  8
0
100
AcDbLine
 62
7
  6
CONTINUOUS
 10
211.2507501019
 20
214.4796500417
 11
211.2507501019
 21
198.0796500417
  0
LINE
  5
3F8
100
AcDbEntity
  8
0
100
AcDbLine
 62
7
  6
CONTINUOUS
 10
212.6745598181
 20
249.3443644193
 11
212.6745595399
 21
252.5510142728
  0
LINE
  5
3F9
100
AcDbEntity
  8
0
100
AcDbLine
 62
7
  6
CONTINUOUS
 10
259.2740715075
 20
291.8089280502
 11
252.7448529311
 21
284.0277083549
  0
LINE
  5
3FA
100
AcDbEntity
  8
0
100
AcDbLine
 62
7
  6
CONTINUOUS
 10
263.3133441257
 20
293.5112980506
 11
255.2520652606
 21
283.9042400023
  0
LINE
  5
3FB
100
AcDbEntity
  8
0
100
AcDbLine
 62
7
  6
CONTINUOUS
 10
276.4633441257
 20
270.1302159848
 11
269.9633441257
 21
270.1302159848
  0
LINE
  5
3FC
100
AcDbEntity
  8
0
100
AcDbLine
 62
7
  6
CONTINUOUS
 10
259.8633441257
 20
270.1302159848
 11
253.3633441257
 21
270.1302159848
  0
LINE
  5
3FD
100
AcDbEntity
  8
0
100
AcDbLine
 62
7
  6
CONTINUOUS
 10
69.9633441257
 20
270.1302159848
 11
76.4633441257
 21
270.1302159848
  0
LINE
  5
3FE
100
AcDbEntity
  8
0
100
AcDbLine
 62
7
  6
CONTINUOUS
 10
86.5633441257
 20
270.1302159848
 11
93.0633441257
 21
270.1302159848
  0
LINE
  5
3FF
100
AcDbEntity
  8
0
100
AcDbLine
 62
7
  6
CONTINUOUS
 10
276.7133441257
 20
271.1796500417
 11
72.7133441257
 21
271.1796500417
  0
LINE
  5
400
100
AcDbEntity
  8
0
100
AcDbLine
 62
7
  6
CONTINUOUS
 10
91.5633441257
 20
272.0087776382
 11
88.0633441257
 21
272.0087776382
  0
LINE
  5
401
100
AcDbEntity
  8
0
100
AcDbLine
 62
7
  6
CONTINUOUS
 10
74.9633441257
 20
272.0087776382
 11
71.4633441257
 21
272.0087776382
  0
LINE
  5
402
100
AcDbEntity
  8
0
100
AcDbLine
 62
7
  6
CONTINUOUS
 10
254.8633441257
 20
272.0087776382
 11
258.3633441257
 21
272.0087776382
  0
LINE
  5
403
100
AcDbEntity
  8
0
100
AcDbLine
 62
7
  6
CONTINUOUS
 10
271.4633441257
 20
272.0087776382
 11
274.9633441257
 21
272.0087776382
  0
LINE
  5
404
100
AcDbEntity
  8
0
100
AcDbLine
 62
7
  6
CONTINUOUS
 10
241.7718103348
 20
272.5662641376
 11
238.2548779166
 21
272.5662641376
  0
LINE
  5
405
100
AcDbEntity
  8
0
100
AcDbLine
 62
7
  6
CONTINUOUS
 10
104.6548779166
 20
272.5662641376
 11
108.1718103348
 21
272.5662641376
  0
LINE
  5
406
100
AcDbEntity
  8
0
100
AcDbLine
 62
7
  6
CONTINUOUS
 10
243.2633441257
 20
273.3621162591
 11
236.7633441257
 21
273.3621162591
  0
LINE
  5
407
100
AcDbEntity
  8
0
100
AcDbLine
 62
7
  6
CONTINUOUS
 10
103.1633441257
 20
273.3621162591
 11
109.6633441257
 21
273.3621162591
  0
LINE
  5
408
100
AcDbEntity
  8
0
100
AcDbLine
 62
7
  6
CONTINUOUS
 10
241.7718103348
 20
273.5796500417
 11
238.2548779166
 21
273.5796500417
  0
LINE
  5
409
100
AcDbEntity
  8
0
100
AcDbLine
 62
7
  6
CONTINUOUS
 10
108.1718103348
 20
273.5796500417
 11
104.6548779166
 21
273.5796500417
  0
LINE
  5
40A
100
AcDbEntity
  8
0
100
AcDbLine
 62
7
  6
CONTINUOUS
 10
227.0133441257
 20
274.0519077034
 11
218.0133441257
 21
274.0519077034
  0
LINE
  5
40B
100
AcDbEntity
  8
0
100
AcDbLine
 62
7
  6
CONTINUOUS
 10
119.4133441257
 20
274.0519077034
 11
128.4133441257
 21
274.0519077034
  0
LINE
  5
40C
100
AcDbEntity
  8
0
100
AcDbLine
 62
7
  6
CONTINUOUS
 10
243.2633441257
 20
274.282005964
 11
236.7633441257
 21
274.282005964
  0
LINE
  5
40D
100
AcDbEntity
  8
0
100
AcDbLine
 62
7
  6
CONTINUOUS
 10
103.1633441257
 20
274.282005964
 11
109.6633441257
 21
274.282005964
  0
LINE
  5
40E
100
AcDbEntity
  8
0
100
AcDbLine
 62
7
  6
CONTINUOUS
 10
227.0133441257
 20
274.6953064502
 11
218.0133441257
 21
274.6953064502
  0
LINE
  5
40F
100
AcDbEntity
  8
0
100
AcDbLine
 62
7
  6
CONTINUOUS
 10
119.4133441257
 20
274.6953064502
 11
128.4133441257
 21
274.6953064502
  0
LINE
  5
410
100
AcDbEntity
  8
0
100
AcDbLine
 62
7
  6
CONTINUOUS
 10
243.2633441257
 20
275.016105964
 11
236.7633441257
 21
275.016105964
  0
LINE
  5
411
100
AcDbEntity
  8
0
100
AcDbLine
 62
7
  6
CONTINUOUS
 10
109.6633441257
 20
275.016105964
 11
103.1633441257
 21
275.016105964
  0
LINE
  5
412
100
AcDbEntity
  8
0
100
AcDbLine
 62
7
  6
CONTINUOUS
 10
274.9633441257
 20
275.1726709492
 11
271.4633441257
 21
275.1726709492
  0
LINE
  5
413
100
AcDbEntity
  8
0
100
AcDbLine
 62
7
  6
CONTINUOUS
 10
258.3633441257
 20
275.1726709492
 11
254.8633441257
 21
275.1726709492
  0
LINE
  5
414
100
AcDbEntity
  8
0
100
AcDbLine
 62
7
  6
CONTINUOUS
 10
71.4633441257
 20
275.1726709492
 11
74.9633441257
 21
275.1726709492
  0
LINE
  5
415
100
AcDbEntity
  8
0
100
AcDbLine
 62
7
  6
CONTINUOUS
 10
88.0633441257
 20
275.1726709492
 11
91.5633441257
 21
275.1726709492
  0
LINE
  5
416
100
AcDbEntity
  8
0
100
AcDbLine
 62
7
  6
CONTINUOUS
 10
274.9633441257
 20
275.5796500417
 11
271.4633441257
 21
275.5796500417
  0
LINE
  5
417
100
AcDbEntity
  8
0
100
AcDbLine
 62
7
  6
CONTINUOUS
 10
258.3633441257
 20
275.5796500417
 11
254.8633441257
 21
275.5796500417
  0
LINE
  5
418
100
AcDbEntity
  8
0
100
AcDbLine
 62
7
  6
CONTINUOUS
 10
91.5633441257
 20
275.5796500417
 11
88.0633441257
 21
275.5796500417
  0
LINE
  5
419
100
AcDbEntity
  8
0
100
AcDbLine
 62
7
  6
CONTINUOUS
 10
74.9633441257
 20
275.5796500417
 11
71.4633441257
 21
275.5796500417
  0
LINE
  5
41A
100
AcDbEntity
  8
0
100
AcDbLine
 62
7
  6
CONTINUOUS
 10
276.4633441257
 20
276.9523609366
 11
269.9633441257
 21
276.9523609366
  0
LINE
  5
41B
100
AcDbEntity
  8
0
100
AcDbLine
 62
7
  6
CONTINUOUS
 10
69.9633441257
 20
276.9523609366
 11
76.4633441257
 21
276.9523609366
  0
LINE
  5
41C
100
AcDbEntity
  8
0
100
AcDbLine
 62
7
  6
CONTINUOUS
 10
259.8633441257
 20
277.2763110164
 11
253.3633441257
 21
277.2763110164
  0
LINE
  5
41D
100
AcDbEntity
  8
0
100
AcDbLine
 62
7
  6
CONTINUOUS
 10
93.0633441257
 20
277.2763110164
 11
86.5633441257
 21
277.2763110164
  0
LINE
  5
41E
100
AcDbEntity
  8
0
100
AcDbLine
 62
7
  6
CONTINUOUS
 10
243.2633441257
 20
277.5758500417
 11
236.7633441257
 21
277.5758500417
  0
LINE
  5
41F
100
AcDbEntity
  8
0
100
AcDbLine
 62
7
  6
CONTINUOUS
 10
103.1633441257
 20
277.5758500417
 11
109.6633441257
 21
277.5758500417
  0
LINE
  5
420
100
AcDbEntity
  8
0
100
AcDbLine
 62
7
  6
CONTINUOUS
 10
276.4633441257
 20
277.7565609366
 11
269.9633441257
 21
277.7565609366
  0
LINE
  5
421
100
AcDbEntity
  8
0
100
AcDbLine
 62
7
  6
CONTINUOUS
 10
76.4633441257
 20
277.7565609366
 11
69.9633441257
 21
277.7565609366
  0
LINE
  5
422
100
AcDbEntity
  8
0
100
AcDbLine
 62
7
  6
CONTINUOUS
 10
276.4633441257
 20
278.6022167223
 11
269.9633441257
 21
278.6022167223
  0
LINE
  5
423
100
AcDbEntity
  8
0
100
AcDbLine
 62
7
  6
CONTINUOUS
 10
69.9633441257
 20
278.6022167223
 11
76.4633441257
 21
278.6022167223
  0
LINE
  5
424
100
AcDbEntity
  8
0
100
AcDbLine
 62
7
  6
CONTINUOUS
 10
243.2633441257
 20
278.9585500417
 11
236.7633441257
 21
278.9585500417
  0
LINE
  5
425
100
AcDbEntity
  8
0
100
AcDbLine
 62
7
  6
CONTINUOUS
 10
109.6633441257
 20
278.9585500417
 11
103.1633441257
 21
278.9585500417
  0
LINE
  5
426
100
AcDbEntity
  8
0
100
AcDbLine
 62
7
  6
CONTINUOUS
 10
230.2133441257
 20
198.0796500417
 11
230.7133441257
 21
196.9297287681
  0
LINE
  5
427
100
AcDbEntity
  8
0
100
AcDbLine
 62
7
  6
CONTINUOUS
 10
206.6774633195
 20
245.8591997555
 11
212.2809937862
 21
224.0865710151
  0
LINE
  5
428
100
AcDbEntity
  8
0
100
AcDbLine
 62
7
  6
CONTINUOUS
 10
208.7836264576
 20
246.4470743201
 11
210.9445048619
 21
238.0509384324
  0
LINE
  5
429
100
AcDbEntity
  8
0
100
AcDbLine
 62
7
  6
CONTINUOUS
 10
211.7092129374
 20
235.0796500417
 11
214.5397916607
 21
224.081380285
  0
LINE
  5
42A
100
AcDbEntity
  8
0
100
AcDbLine
 62
7
  6
CONTINUOUS
 10
209.1523370537
 20
245.8591997555
 11
214.7558675204
 21
224.0865710151
  0
LINE
  5
42B
100
AcDbEntity
  8
0
100
AcDbLine
 62
7
  6
CONTINUOUS
 10
210.1551962631
 20
246.7890944634
 11
215.9998310667
 21
224.0796500417
  0
LINE
  5
42C
100
AcDbEntity
  8
0
100
AcDbLine
 62
7
  6
CONTINUOUS
 10
211.2585001917
 20
246.4470743201
 11
213.419378596
 21
238.0509384324
  0
LINE
  5
42D
100
AcDbEntity
  8
0
100
AcDbLine
 62
7
  6
CONTINUOUS
 10
214.1840866715
 20
235.0796500417
 11
217.0146653948
 21
224.081380285
  0
LINE
  5
42E
100
AcDbEntity
  8
0
100
AcDbLine
 62
7
  6
CONTINUOUS
 10
211.2158564349
 20
246.7890944634
 11
217.0604912384
 21
224.0796500417
  0
LINE
  5
42F
100
AcDbEntity
  8
0
100
AcDbLine
 62
7
  6
CONTINUOUS
 10
211.5198342415
 20
246.6963178895
 11
217.3404707321
 21
224.0801193884
  0
LINE
  5
430
100
AcDbEntity
  8
0
100
AcDbLine
 62
7
  6
CONTINUOUS
 10
201.8133441257
 20
296.2535981446
 11
203.4631902435
 21
286.1890365006
  0
LINE
  5
431
100
AcDbEntity
  8
0
100
AcDbLine
 62
7
  6
CONTINUOUS
 10
216.1126995257
 20
281.5796500417
 11
216.5133441257
 21
266.2796500417
  0
LINE
  5
432
100
AcDbEntity
  8
0
100
AcDbLine
 62
7
  6
CONTINUOUS
 10
214.1133441257
 20
295.7693570387
 11
214.1133441257
 21
285.7610501786
  0
LINE
  5
433
100
AcDbEntity
  8
0
100
AcDbLine
 62
7
  6
CONTINUOUS
 10
214.5248400807
 20
216.5796500417
 11
214.5248400807
 21
188.0796500417
  0
LINE
  5
434
100
AcDbEntity
  8
0
100
AcDbLine
 62
7
  6
CONTINUOUS
 10
216.2133441257
 20
266.2796500417
 11
216.2133441257
 21
283.0796500417
  0
LINE
  5
435
100
AcDbEntity
  8
0
100
AcDbLine
 62
7
  6
CONTINUOUS
 10
217.706820596
 20
216.5796500417
 11
217.706820596
 21
188.0796500417
  0
LINE
  5
436
100
AcDbEntity
  8
0
100
AcDbLine
 62
7
  6
CONTINUOUS
 10
218.0133441257
 20
281.2574558413
 11
218.0133441257
 21
266.2796500417
  0
LINE
  5
437
100
AcDbEntity
  8
0
100
AcDbLine
 62
7
  6
CONTINUOUS
 10
218.7973383727
 20
216.5796500417
 11
218.7973383727
 21
188.0796500417
  0
LINE
  5
438
100
AcDbEntity
  8
0
100
AcDbLine
 62
7
  6
CONTINUOUS
 10
218.8471934623
 20
216.5796500417
 11
218.8471934623
 21
188.0796500417
  0
LINE
  5
439
100
AcDbEntity
  8
0
100
AcDbLine
 62
7
  6
CONTINUOUS
 10
218.9670953008
 20
198.0796500417
 11
218.9670953008
 21
214.4796500417
  0
LINE
  5
43A
100
AcDbEntity
  8
0
100
AcDbLine
 62
7
  6
CONTINUOUS
 10
218.9796128021
 20
214.4796500417
 11
218.9796128021
 21
198.0796500417
  0
LINE
  5
43B
100
AcDbEntity
  8
0
100
AcDbLine
 62
7
  6
CONTINUOUS
 10
220.4117096649
 20
214.4796500417
 11
220.4117096649
 21
198.0796500417
  0
LINE
  5
43C
100
AcDbEntity
  8
0
100
AcDbLine
 62
7
  6
CONTINUOUS
 10
220.4236839694
 20
216.5796500417
 11
220.4236839694
 21
188.0796500417
  0
LINE
  5
43D
100
AcDbEntity
  8
0
100
AcDbLine
 62
7
  6
CONTINUOUS
 10
220.6558134885
 20
216.5796500417
 11
220.6558134885
 21
188.0796500417
  0
LINE
  5
43E
100
AcDbEntity
  8
0
100
AcDbLine
 62
7
  6
CONTINUOUS
 10
220.7892459335
 20
180.6796500417
 11
220.7892459335
 21
181.1796500417
  0
LINE
  5
43F
100
AcDbEntity
  8
0
100
AcDbLine
 62
7
  6
CONTINUOUS
 10
222.0392459335
 20
213.0796500417
 11
222.0392459335
 21
216.5796500417
  0
LINE
  5
440
100
AcDbEntity
  8
0
100
AcDbLine
 62
7
  6
CONTINUOUS
 10
223.4179255899
 20
181.0796500417
 11
223.4179255899
 21
178.9139793707
  0
LINE
  5
441
100
AcDbEntity
  8
0
100
AcDbLine
 62
7
  6
CONTINUOUS
 10
223.2186500504
 20
249.7774568507
 11
222.9658759118
 21
249.0829656129
  0
LINE
  5
442
100
AcDbEntity
  8
0
100
AcDbLine
 62
7
  6
CONTINUOUS
 10
271.5743046146
 20
291.1643598416
 11
265.0660118308
 21
283.4080785348
  0
LINE
  5
443
100
AcDbEntity
  8
0
100
AcDbLine
 62
7
  6
CONTINUOUS
 10
275.6133441257
 20
292.8664520358
 11
267.5679367516
 21
283.2783088939
  0
LINE
  5
444
100
AcDbEntity
  8
0
100
AcDbLine
 62
7
  6
CONTINUOUS
 10
280.3115595422
 20
290.6869480029
 11
277.4633441257
 21
287.2925770478
  0
LINE
  5
445
100
AcDbEntity
  8
0
100
AcDbLine
 62
7
  6
CONTINUOUS
 10
230.6495128809
 20
224.0796500417
 11
270.2075833244
 21
261.2256430192
  0
LINE
  5
446
100
AcDbEntity
  8
0
100
AcDbLine
 62
7
  6
CONTINUOUS
 10
270.2344472757
 20
261.2276858393
 11
230.6742013613
 21
224.0796500417
  0
LINE
  5
447
100
AcDbEntity
  8
0
100
AcDbLine
 62
7
  6
CONTINUOUS
 10
259.8633441257
 20
279.6517284546
 11
253.3633441257
 21
279.6517284546
  0
LINE
  5
448
100
AcDbEntity
  8
0
100
AcDbLine
 62
7
  6
CONTINUOUS
 10
86.5633441257
 20
279.6517284546
 11
93.0633441257
 21
279.6517284546
  0
LINE
  5
449
100
AcDbEntity
  8
0
100
AcDbLine
 62
7
  6
CONTINUOUS
 10
259.8633441257
 20
280.2270102217
 11
253.3633441257
 21
280.2270102217
  0
LINE
  5
44A
100
AcDbEntity
  8
0
100
AcDbLine
 62
7
  6
CONTINUOUS
 10
93.0633441257
 20
280.2270102217
 11
86.5633441257
 21
280.2270102217
  0
LINE
  5
44B
100
AcDbEntity
  8
0
100
AcDbLine
 62
7
  6
CONTINUOUS
 10
46.2133438965
 20
280.4796500417
 11
303.2133443526
 21
280.4796500417
  0
LINE
  5
44C
100
AcDbEntity
  8
0
100
AcDbLine
 62
7
  6
CONTINUOUS
 10
276.4633441257
 20
280.5796500417
 11
269.9633441257
 21
280.5796500417
  0
LINE
  5
44D
100
AcDbEntity
  8
0
100
AcDbLine
 62
7
  6
CONTINUOUS
 10
76.4633441257
 20
280.5796500417
 11
69.9633441257
 21
280.5796500417
  0
LINE
  5
44E
100
AcDbEntity
  8
0
100
AcDbLine
 62
7
  6
CONTINUOUS
 10
227.0133441257
 20
281.2574558413
 11
218.0133441257
 21
281.2574558413
  0
LINE
  5
44F
100
AcDbEntity
  8
0
100
AcDbLine
 62
7
  6
CONTINUOUS
 10
119.4133441257
 20
281.2574558413
 11
128.4133441257
 21
281.2574558413
  0
LINE
  5
450
100
AcDbEntity
  8
0
100
AcDbLine
 62
7
  6
CONTINUOUS
 10
45.2133441257
 20
281.4796500417
 11
304.2133441257
 21
281.4796500417
  0
LINE
  5
451
100
AcDbEntity
  8
0
100
AcDbLine
 62
7
  6
CONTINUOUS
 10
38.9763647097
 20
281.5796500417
 11
307.4502212189
 21
281.5796500417
  0
LINE
  5
452
100
AcDbEntity
  8
0
100
AcDbLine
 62
7
  6
CONTINUOUS
 10
296.346574462
 20
281.8796500417
 11
297.1133441257
 21
281.8796500417
  0
LINE
  5
453
100
AcDbEntity
  8
0
100
AcDbLine
 62
7
  6
CONTINUOUS
 10
280.7133441257
 20
283.0796500417
 11
65.7133441257
 21
283.0796500417
  0
LINE
  5
454
100
AcDbEntity
  8
0
100
AcDbLine
 62
7
  6
CONTINUOUS
 10
297.6133441257
 20
284.0796500417
 11
289.0133441257
 21
284.0796500417
  0
LINE
  5
455
100
AcDbEntity
  8
0
100
AcDbLine
 62
7
  6
CONTINUOUS
 10
278.6139887257
 20
284.5796500417
 11
267.8126995257
 21
284.5796500417
  0
LINE
  5
456
100
AcDbEntity
  8
0
100
AcDbLine
 62
7
  6
CONTINUOUS
 10
262.0139887257
 20
284.5796500417
 11
251.2126995257
 21
284.5796500417
  0
LINE
  5
457
100
AcDbEntity
  8
0
100
AcDbLine
 62
7
  6
CONTINUOUS
 10
245.4139887257
 20
284.5796500417
 11
234.6126995257
 21
284.5796500417
  0
LINE
  5
458
100
AcDbEntity
  8
0
100
AcDbLine
 62
7
  6
CONTINUOUS
 10
67.8126995257
 20
284.5796500417
 11
78.6139887257
 21
284.5796500417
  0
LINE
  5
459
100
AcDbEntity
  8
0
100
AcDbLine
 62
7
  6
CONTINUOUS
 10
84.4126995257
 20
284.5796500417
 11
95.2139887257
 21
284.5796500417
  0
LINE
  5
45A
100
AcDbEntity
  8
0
100
AcDbLine
 62
7
  6
CONTINUOUS
 10
101.0126995257
 20
284.5796500417
 11
111.8139887257
 21
284.5796500417
  0
LINE
  5
45B
100
AcDbEntity
  8
0
100
AcDbLine
 62
7
  6
CONTINUOUS
 10
299.5127099076
 20
284.6145660537
 11
50.5815597571
 21
284.6145660537
  0
LINE
  5
45C
100
AcDbEntity
  8
0
100
AcDbLine
 62
7
  6
CONTINUOUS
 10
305.8502212189
 20
285.5796500417
 11
40.5764670325
 21
285.5796500417
  0
LINE
  5
45D
100
AcDbEntity
  8
0
100
AcDbLine
 62
7
  6
CONTINUOUS
 10
296.5382543552
 20
285.8824208911
 11
50.5815597571
 21
285.8824208911
  0
LINE
  5
45E
100
AcDbEntity
  8
0
100
AcDbLine
 62
7
  6
CONTINUOUS
 10
298.0133441257
 20
286.5796500417
 11
289.0133441257
 21
286.5796500417
  0
LINE
  5
45F
100
AcDbEntity
  8
0
100
AcDbLine
 62
7
  6
CONTINUOUS
 10
68.9633441257
 20
289.4399124
 11
70.4995073261
 21
289.4243892298
  0
LINE
  5
460
100
AcDbEntity
  8
0
100
AcDbLine
 62
7
  6
CONTINUOUS
 10
80.2337435168
 20
289.314387175
 11
82.8172273418
 21
289.281817106
  0
LINE
  5
461
100
AcDbEntity
  8
0
100
AcDbLine
 62
7
  6
CONTINUOUS
 10
92.5569272005
 20
289.1462970457
 11
95.1348163278
 21
289.1070594727
  0
LINE
  5
462
100
AcDbEntity
  8
0
100
AcDbLine
 62
7
  6
CONTINUOUS
 10
104.8799574615
 20
288.9459907319
 11
107.4522754649
 21
288.9001137562
  0
LINE
  5
463
100
AcDbEntity
  8
0
100
AcDbLine
 62
7
  6
CONTINUOUS
 10
117.2028357178
 20
288.7134653017
 11
119.7696059178
 21
288.660976711
  0
LINE
  5
464
100
AcDbEntity
  8
0
100
AcDbLine
 62
7
  6
CONTINUOUS
 10
129.5255633855
 20
288.4487171469
 11
132.0868088349
 21
288.3896444197
  0
LINE
  5
465
100
AcDbEntity
  8
0
100
AcDbLine
 62
7
  6
CONTINUOUS
 10
141.8481418445
 20
288.1517419837
 11
144.4038853491
 21
288.0861122927
  0
LINE
  5
466
100
AcDbEntity
  8
0
100
AcDbLine
 62
7
  6
CONTINUOUS
 10
154.1705724756
 20
287.822534852
 11
156.7208365775
 21
287.750375068
  0
LINE
  5
467
100
AcDbEntity
  8
0
100
AcDbLine
 62
7
  6
CONTINUOUS
 10
169.0376636223
 20
287.3824268104
 11
166.4928554249
 21
287.4610901524
  0
LINE
  5
468
100
AcDbEntity
  8
0
100
AcDbLine
 62
7
  6
CONTINUOUS
 10
181.3543675703
 20
286.9822609117
 11
178.8149944289
 21
287.0674015011
  0
LINE
  5
469
100
AcDbEntity
  8
0
100
AcDbLine
 62
7
  6
CONTINUOUS
 10
193.6709494938
 20
286.5498700897
 11
191.1369896035
 21
286.6414619407
  0
LINE
  5
46A
100
AcDbEntity
  8
0
100
AcDbLine
 62
7
  6
CONTINUOUS
 10
205.9874104502
 20
286.0852463878
 11
203.4631902435
 21
286.1890365006
  0
LINE
  5
46B
100
AcDbEntity
  8
0
100
AcDbLine
 62
7
  6
CONTINUOUS
 10
218.303751483
 20
285.5883811742
 11
215.7805536473
 21
285.6927987423
  0
LINE
  5
46C
100
AcDbEntity
  8
0
100
AcDbLine
 62
7
  6
CONTINUOUS
 10
230.6199736211
 20
285.0592651412
 11
228.1021250637
 21
285.1700577311
  0
LINE
  5
46D
100
AcDbEntity
  8
0
100
AcDbLine
 62
7
  6
CONTINUOUS
 10
242.9360778798
 20
284.4978883045
 11
240.4235577475
 21
284.6150310642
  0
LINE
  5
46E
100
AcDbEntity
  8
0
100
AcDbLine
 62
7
  6
CONTINUOUS
 10
255.2520652606
 20
283.9042400023
 11
252.7448529309
 21
284.0277083548
  0
LINE
  5
46F
100
AcDbEntity
  8
0
100
AcDbLine
 62
7
  6
CONTINUOUS
 10
267.5679367516
 20
283.2783088939
 11
265.0660118307
 21
283.4080785348
  0
LINE
  5
470
100
AcDbEntity
  8
0
100
AcDbLine
 62
7
  6
CONTINUOUS
 10
275.6133441257
 20
282.8556273828
 11
271.3492504656
 21
283.0796500417
  0
LINE
  5
471
100
AcDbEntity
  8
0
100
AcDbLine
 62
7
  6
CONTINUOUS
 10
222.2887553424
 20
245.8591997555
 11
230.2133441257
 21
224.0865710151
  0
LINE
  5
472
100
AcDbEntity
  8
0
100
AcDbLine
 62
7
  6
CONTINUOUS
 10
214.1133441257
 20
295.7693570387
 11
215.7805536473
 21
285.6927987423
  0
LINE
  5
473
100
AcDbEntity
  8
0
100
AcDbLine
 62
7
  6
CONTINUOUS
 10
223.5392459335
 20
181.1796500417
 11
223.5392459335
 21
183.0796500417
  0
LINE
  5
474
100
AcDbEntity
  8
0
100
AcDbLine
 62
7
  6
CONTINUOUS
 10
223.9293602704
 20
216.5796500417
 11
223.9293602704
 21
188.0796500417
  0
LINE
  5
475
100
AcDbEntity
  8
0
100
AcDbLine
 62
7
  6
CONTINUOUS
 10
224.0392459335
 20
215.5796500417
 11
224.0392459335
 21
212.5796500417
  0
LINE
  5
476
100
AcDbEntity
  8
0
100
AcDbLine
 62
7
  6
CONTINUOUS
 10
224.1250323711
 20
181.0796500417
 11
224.1250323711
 21
178.9139793707
  0
LINE
  5
477
100
AcDbEntity
  8
0
100
AcDbLine
 62
7
  6
CONTINUOUS
 10
224.8321391523
 20
181.0796500417
 11
224.8321391523
 21
178.3871819724
  0
LINE
  5
478
100
AcDbEntity
  8
0
100
AcDbLine
 62
7
  6
CONTINUOUS
 10
225.5392459335
 20
215.5796500417
 11
225.5392459335
 21
212.5796500417
  0
LINE
  5
479
100
AcDbEntity
  8
0
100
AcDbLine
 62
7
  6
CONTINUOUS
 10
225.5392459335
 20
181.0796500417
 11
225.5392459335
 21
178.3871819724
  0
LINE
  5
47A
100
AcDbEntity
  8
0
100
AcDbLine
 62
7
  6
CONTINUOUS
 10
226.2463527147
 20
181.0796500417
 11
226.2463527147
 21
178.3871819724
  0
LINE
  5
47B
100
AcDbEntity
  8
0
100
AcDbLine
 62
7
  6
CONTINUOUS
 10
226.4133441257
 20
295.2530173406
 11
226.4133441257
 21
285.2436134403
  0
LINE
  5
47C
100
AcDbEntity
  8
0
100
AcDbLine
 62
7
  6
CONTINUOUS
 10
226.9534594959
 20
181.0796500417
 11
226.9534594959
 21
178.9139793707
  0
LINE
  5
47D
100
AcDbEntity
  8
0
100
AcDbLine
 62
7
  6
CONTINUOUS
 10
227.0133441257
 20
281.2574558413
 11
227.0133441257
 21
266.2796500417
  0
LINE
  5
47E
100
AcDbEntity
  8
0
100
AcDbLine
 62
7
  6
CONTINUOUS
 10
227.0392459335
 20
215.5796500417
 11
227.0392459335
 21
212.5796500417
  0
LINE
  5
47F
100
AcDbEntity
  8
0
100
AcDbLine
 62
7
  6
CONTINUOUS
 10
227.1113407858
 20
216.5796500417
 11
227.1113407858
 21
188.0796500417
  0
LINE
  5
480
100
AcDbEntity
  8
0
100
AcDbLine
 62
7
  6
CONTINUOUS
 10
227.5392459335
 20
181.1796500417
 11
227.5392459335
 21
183.0796500417
  0
LINE
  5
481
100
AcDbEntity
  8
0
100
AcDbLine
 62
7
  6
CONTINUOUS
 10
227.660566277
 20
181.0796500417
 11
227.660566277
 21
178.9139793707
  0
LINE
  5
482
100
AcDbEntity
  8
0
100
AcDbLine
 62
7
  6
CONTINUOUS
 10
228.2133441257
 20
221.5796500417
 11
228.2133441257
 21
216.5796500417
  0
LINE
  5
483
100
AcDbEntity
  8
0
100
AcDbLine
 62
7
  6
CONTINUOUS
 10
228.2133441257
 20
188.0796500417
 11
228.2133441257
 21
183.0796500417
  0
LINE
  5
484
100
AcDbEntity
  8
0
100
AcDbLine
 62
7
  6
CONTINUOUS
 10
228.3721586874
 20
216.5796500417
 11
228.3721586874
 21
188.0796500417
  0
LINE
  5
485
100
AcDbEntity
  8
0
100
AcDbLine
 62
7
  6
CONTINUOUS
 10
229.0392459335
 20
213.0796500417
 11
229.0392459335
 21
216.5796500417
  0
LINE
  5
486
100
AcDbEntity
  8
0
100
AcDbLine
 62
7
  6
CONTINUOUS
 10
229.8162298547
 20
216.5796500417
 11
229.8162298547
 21
188.0796500417
  0
LINE
  5
487
100
AcDbEntity
  8
0
100
AcDbLine
 62
7
  6
CONTINUOUS
 10
230.2133441257
 20
198.0796500417
 11
230.2133441257
 21
224.0796500417
  0
LINE
  5
488
100
AcDbEntity
  8
0
100
AcDbLine
 62
7
  6
CONTINUOUS
 10
230.2892459335
 20
180.6796500417
 11
230.2892459335
 21
181.1796500417
  0
LINE
  5
489
100
AcDbEntity
  8
0
100
AcDbLine
 62
7
  6
CONTINUOUS
 10
230.7133441257
 20
196.929728768
 11
230.7133441257
 21
183.0796500417
  0
LINE
  5
48A
100
AcDbEntity
  8
0
100
AcDbLine
 62
7
  6
CONTINUOUS
 10
232.7133441257
 20
183.0796500417
 11
232.7133441257
 21
221.5796500417
  0
LINE
  5
48B
100
AcDbEntity
  8
0
100
AcDbLine
 62
7
  6
CONTINUOUS
 10
229.4139887257
 20
281.5796500417
 11
229.0133441257
 21
266.2796500417
  0
LINE
  5
48C
100
AcDbEntity
  8
0
100
AcDbLine
 62
7
  6
CONTINUOUS
 10
266.8736302648
 20
262.1089871458
 11
233.6418984064
 21
223.1105977721
  0
LINE
  5
48D
100
AcDbEntity
  8
0
100
AcDbLine
 62
7
  6
CONTINUOUS
 10
278.2133441257
 20
262.5796500417
 11
237.1661538473
 21
222.9811841261
  0
LINE
  5
48E
100
AcDbEntity
  8
0
100
AcDbLine
 62
7
  6
CONTINUOUS
 10
275.2133441257
 20
262.5796500417
 11
234.2133441257
 21
224.0796500417
  0
LWPOLYLINE
  5
48F
100
AcDbEntity
  8
0
100
AcDbPolyline
 62
7
  6
CONTINUOUS
 90
3
 70
0
 10
66.3894373771
 20
299.4652624144
 10
62.3012618532
 20
299.5018268554
 10
59.0272434039
 20
299.5285587642
  0
LINE
  5
490
100
AcDbEntity
  8
0
100
AcDbLine
 62
7
  6
CONTINUOUS
 10
302.7471552798
 20
291.3301960334
 11
295.0638278195
 21
291.781093412
  0
LINE
  5
491
100
AcDbEntity
  8
0
100
AcDbLine
 62
7
  6
CONTINUOUS
 10
225.2673198169
 20
246.4470743201
 11
228.3232633629
 21
238.0509384324
  0
LINE
  5
492
100
AcDbEntity
  8
0
100
AcDbLine
 62
7
  6
CONTINUOUS
 10
229.4047238945
 20
235.0796500417
 11
233.4077667143
 21
224.081380285
  0
LINE
  5
493
100
AcDbEntity
  8
0
100
AcDbLine
 62
7
  6
CONTINUOUS
 10
226.2070124377
 20
246.7890944634
 11
234.4065432432
 21
224.2610687252
  0
LINE
  5
494
100
AcDbEntity
  8
0
100
AcDbLine
 62
7
  6
CONTINUOUS
 10
234.6126995257
 20
281.5796500417
 11
235.0133441257
 21
266.2796500417
  0
LINE
  5
495
100
AcDbEntity
  8
0
100
AcDbLine
 62
7
  6
CONTINUOUS
 10
233.6418984711
 20
223.1105978396
 11
233.6418984711
 21
221.5796500417
  0
LINE
  5
496
100
AcDbEntity
  8
0
100
AcDbLine
 62
7
  6
CONTINUOUS
 10
234.6126995257
 20
284.5796500417
 11
234.6126995257
 21
281.5796500417
  0
LINE
  5
497
100
AcDbEntity
  8
0
100
AcDbLine
 62
7
  6
CONTINUOUS
 10
236.7633441257
 20
278.9585215255
 11
236.7633441257
 21
264.3796500417
  0
LINE
  5
498
100
AcDbEntity
  8
0
100
AcDbLine
 62
7
  6
CONTINUOUS
 10
238.2548779166
 20
273.5796500417
 11
238.2548779166
 21
269.179314599
  0
LINE
  5
499
100
AcDbEntity
  8
0
100
AcDbLine
 62
7
  6
CONTINUOUS
 10
238.7133441257
 20
294.7045685163
 11
238.7133441257
 21
284.6939990915
  0
LINE
  5
49A
100
AcDbEntity
  8
0
100
AcDbLine
 62
7
  6
CONTINUOUS
 10
241.7718103348
 20
273.5796500417
 11
241.7718103348
 21
269.179314599
  0
LINE
  5
49B
100
AcDbEntity
  8
0
100
AcDbLine
 62
7
  6
CONTINUOUS
 10
226.4133441257
 20
295.2530173406
 11
228.1021250637
 21
285.1700577311
  0
LINE
  5
49C
100
AcDbEntity
  8
0
100
AcDbLine
 62
7
  6
CONTINUOUS
 10
251.2126995257
 20
281.5796500417
 11
251.6133441257
 21
266.2796500417
  0
LINE
  5
49D
100
AcDbEntity
  8
0
100
AcDbLine
 62
7
  6
CONTINUOUS
 10
243.2633441257
 20
278.9585215255
 11
243.2633441257
 21
264.3796500417
  0
LINE
  5
49E
100
AcDbEntity
  8
0
100
AcDbLine
 62
7
  6
CONTINUOUS
 10
245.4139887257
 20
281.5796500417
 11
245.4139887257
 21
284.5796500417
  0
LINE
  5
49F
100
AcDbEntity
  8
0
100
AcDbLine
 62
7
  6
CONTINUOUS
 10
251.0133441257
 20
294.1239993714
 11
251.0133441257
 21
284.1121958662
  0
LINE
  5
4A0
100
AcDbEntity
  8
0
100
AcDbLine
 62
7
  6
CONTINUOUS
 10
251.2126995257
 20
284.5796500417
 11
251.2126995257
 21
281.5796500417
  0
LINE
  5
4A1
100
AcDbEntity
  8
0
100
AcDbLine
 62
7
  6
CONTINUOUS
 10
245.4139887257
 20
281.5796500417
 11
245.0133441257
 21
266.2796500417
  0
LWPOLYLINE
  5
4A2
100
AcDbEntity
  8
0
100
AcDbPolyline
 62
7
  6
CONTINUOUS
 90
6
 70
0
 10
59.0272434039
 20
299.5285587642
 10
53.2024248158
 20
298.7090103356
 10
47.8680262676
 20
296.2304492849
 10
43.4856440409
 20
292.3076003296
 10
40.4337211831
 20
287.2792491917
 10
38.976470892
 20
281.5796500417
  0
LINE
  5
4A3
100
AcDbEntity
  8
0
100
AcDbLine
 62
7
  6
CONTINUOUS
 10
238.7133441257
 20
294.7045685163
 11
240.4235577475
 21
284.6150310642
  0
LINE
  5
4A4
100
AcDbEntity
  8
0
100
AcDbLine
 62
7
  6
CONTINUOUS
 10
253.3633441257
 20
280.2270102217
 11
253.3633441257
 21
264.3796500417
  0
LINE
  5
4A5
100
AcDbEntity
  8
0
100
AcDbLine
 62
7
  6
CONTINUOUS
 10
254.8633441257
 20
275.5796500417
 11
254.8633441257
 21
272.0087776382
  0
LINE
  5
4A6
100
AcDbEntity
  8
0
100
AcDbLine
 62
7
  6
CONTINUOUS
 10
258.3633441257
 20
275.5796500417
 11
258.3633441257
 21
272.0087776382
  0
LINE
  5
4A7
100
AcDbEntity
  8
0
100
AcDbLine
 62
7
  6
CONTINUOUS
 10
259.8633441257
 20
280.2270102217
 11
259.8633441257
 21
264.3796500417
  0
LINE
  5
4A8
100
AcDbEntity
  8
0
100
AcDbLine
 62
7
  6
CONTINUOUS
 10
262.0139887257
 20
281.5796500417
 11
262.0139887257
 21
284.5796500417
  0
LINE
  5
4A9
100
AcDbEntity
  8
0
100
AcDbLine
 62
7
  6
CONTINUOUS
 10
262.0139887257
 20
281.5796500417
 11
261.6133441257
 21
266.2796500417
  0
LINE
  5
4AA
100
AcDbEntity
  8
0
100
AcDbLine
 62
7
  6
CONTINUOUS
 10
297.1133441257
 20
282.5796500417
 11
296.2133441257
 21
282.9072232525
  0
LINE
  5
4AB
100
AcDbEntity
  8
0
100
AcDbLine
 62
7
  6
CONTINUOUS
 10
251.0133441257
 20
294.1239993714
 11
252.7448529309
 21
284.0277083548
  0
LINE
  5
4AC
100
AcDbEntity
  8
0
100
AcDbLine
 62
7
  6
CONTINUOUS
 10
267.8126995257
 20
281.5796500417
 11
268.2133441257
 21
266.2796500417
  0
LINE
  5
4AD
100
AcDbEntity
  8
0
100
AcDbLine
 62
7
  6
CONTINUOUS
 10
263.2133441257
 20
263.5796500417
 11
263.2133441257
 21
262.5796500417
  0
LINE
  5
4AE
100
AcDbEntity
  8
0
100
AcDbLine
 62
7
  6
CONTINUOUS
 10
263.3133441257
 20
293.5112980506
 11
263.3133441257
 21
283.4981918331
  0
LINE
  5
4AF
100
AcDbEntity
  8
0
100
AcDbLine
 62
7
  6
CONTINUOUS
 10
265.2133441257
 20
271.1796500417
 11
265.2133441257
 21
262.5796500417
  0
LINE
  5
4B0
100
AcDbEntity
  8
0
100
AcDbLine
 62
7
  6
CONTINUOUS
 10
267.8126995257
 20
284.5796500417
 11
267.8126995257
 21
281.5796500417
  0
LINE
  5
4B1
100
AcDbEntity
  8
0
100
AcDbLine
 62
7
  6
CONTINUOUS
 10
269.9633441257
 20
280.5796500417
 11
269.9633441257
 21
264.3796500417
  0
LINE
  5
4B2
100
AcDbEntity
  8
0
100
AcDbLine
 62
7
  6
CONTINUOUS
 10
271.4633441257
 20
275.5796500417
 11
271.4633441257
 21
272.0087776382
  0
LINE
  5
4B3
100
AcDbEntity
  8
0
100
AcDbLine
 62
7
  6
CONTINUOUS
 10
263.3133441257
 20
293.5112980506
 11
265.0660118307
 21
283.4080785348
  0
LINE
  5
4B4
100
AcDbEntity
  8
0
100
AcDbLine
 62
7
  6
CONTINUOUS
 10
274.9633441257
 20
275.5796500417
 11
274.9633441257
 21
272.0087776382
  0
LINE
  5
4B5
100
AcDbEntity
  8
0
100
AcDbLine
 62
7
  6
CONTINUOUS
 10
275.2133441257
 20
271.1796500417
 11
275.2133441257
 21
262.5796500417
  0
LINE
  5
4B6
100
AcDbEntity
  8
0
100
AcDbLine
 62
7
  6
CONTINUOUS
 10
275.6133441257
 20
292.8664520358
 11
275.6133441257
 21
282.8556273828
  0
LINE
  5
4B7
100
AcDbEntity
  8
0
100
AcDbLine
 62
7
  6
CONTINUOUS
 10
275.7133441257
 20
283.0796500417
 11
275.7133441257
 21
266.2796500417
  0
LINE
  5
4B8
100
AcDbEntity
  8
0
100
AcDbLine
 62
7
  6
CONTINUOUS
 10
276.4633441257
 20
280.5796500417
 11
276.4633441257
 21
264.3796500417
  0
LINE
  5
4B9
100
AcDbEntity
  8
0
100
AcDbLine
 62
7
  6
CONTINUOUS
 10
276.7133441257
 20
271.1796500417
 11
276.7133441257
 21
266.1796500417
  0
LINE
  5
4BA
100
AcDbEntity
  8
0
100
AcDbLine
 62
7
  6
CONTINUOUS
 10
277.4633441257
 20
287.2925770478
 11
277.4633441257
 21
283.0796500417
  0
LINE
  5
4BB
100
AcDbEntity
  8
0
100
AcDbLine
 62
7
  6
CONTINUOUS
 10
278.2133441257
 20
263.5796500417
 11
278.2133441257
 21
262.5796500417
  0
LINE
  5
4BC
100
AcDbEntity
  8
0
100
AcDbLine
 62
7
  6
CONTINUOUS
 10
278.6139887257
 20
281.5796500417
 11
278.6139887257
 21
284.5796500417
  0
LINE
  5
4BD
100
AcDbEntity
  8
0
100
AcDbLine
 62
7
  6
CONTINUOUS
 10
280.7133441257
 20
292.5896464449
 11
280.7133441257
 21
291.1105383625
  0
LINE
  5
4BE
100
AcDbEntity
  8
0
100
AcDbLine
 62
7
  6
CONTINUOUS
 10
280.7133441257
 20
266.1796500417
 11
280.7133441257
 21
283.0796500417
  0
LINE
  5
4BF
100
AcDbEntity
  8
0
100
AcDbLine
 62
7
  6
CONTINUOUS
 10
278.6139887257
 20
281.5796500417
 11
278.2133441257
 21
266.2796500417
  0
LINE
  5
4C0
100
AcDbEntity
  8
0
100
AcDbLine
 62
7
  6
CONTINUOUS
 10
280.5399442794
 20
281.5796500417
 11
278.1701993228
 21
263.5796500417
  0
LINE
  5
4C1
100
AcDbEntity
  8
0
100
AcDbLine
 62
7
  6
CONTINUOUS
 10
285.5830890822
 20
281.5796500417
 11
283.2133441257
 21
263.5796500417
  0
LINE
  5
4C2
100
AcDbEntity
  8
0
100
AcDbLine
 62
7
  6
CONTINUOUS
 10
289.0133441257
 20
286.5796500417
 11
289.0133441257
 21
281.5796500417
  0
LINE
  5
4C3
100
AcDbEntity
  8
0
100
AcDbLine
 62
7
  6
CONTINUOUS
 10
292.5002834094
 20
288.5432062253
 11
292.1434420539
 21
283.4401370942
  0
LINE
  5
4C4
100
AcDbEntity
  8
0
100
AcDbLine
 62
7
  6
CONTINUOUS
 10
292.6407040905
 20
281.5796500417
 11
292.6407040905
 21
280.4796500445
  0
LINE
  5
4C5
100
AcDbEntity
  8
0
100
AcDbLine
 62
7
  6
CONTINUOUS
 10
293.6323607996
 20
281.4796500417
 11
293.6323607996
 21
281.5796500417
  0
LINE
  5
4C6
100
AcDbEntity
  8
0
100
AcDbLine
 62
7
  6
CONTINUOUS
 10
294.5133441257
 20
284.0796500417
 11
294.5133441257
 21
286.5796500417
  0
LINE
  5
4C7
100
AcDbEntity
  8
0
100
AcDbLine
 62
7
  6
CONTINUOUS
 10
295.1133441257
 20
286.5796500417
 11
295.1133441257
 21
283.4654474429
  0
LINE
  5
4C8
100
AcDbEntity
  8
0
100
AcDbLine
 62
7
  6
CONTINUOUS
 10
296.2133441257
 20
282.9072232525
 11
296.2133441257
 21
286.5796500417
  0
LINE
  5
4C9
100
AcDbEntity
  8
0
100
AcDbLine
 62
7
  6
CONTINUOUS
 10
296.5133441257
 20
284.0796500417
 11
296.5133441257
 21
286.5796500417
  0
LINE
  5
4CA
100
AcDbEntity
  8
0
100
AcDbLine
 62
7
  6
CONTINUOUS
 10
296.5382543552
 20
285.8824208045
 11
296.5382543551
 21
281.5796500417
  0
LINE
  5
4CB
100
AcDbEntity
  8
0
100
AcDbLine
 62
7
  6
CONTINUOUS
 10
296.6073309252
 20
281.5796500417
 11
296.6073309252
 21
281.4796500417
  0
LINE
  5
4CC
100
AcDbEntity
  8
0
100
AcDbLine
 62
7
  6
CONTINUOUS
 10
297.0116003187
 20
285.5796500417
 11
297.0116003187
 21
281.5796500417
  0
LINE
  5
4CD
100
AcDbEntity
  8
0
100
AcDbLine
 62
7
  6
CONTINUOUS
 10
297.077639991
 20
281.5796500417
 11
297.077639991
 21
285.5796500417
  0
LINE
  5
4CE
100
AcDbEntity
  8
0
100
AcDbLine
 62
7
  6
CONTINUOUS
 10
297.1133441257
 20
282.5796500417
 11
297.1133441257
 21
281.8796500417
  0
LINE
  5
4CF
100
AcDbEntity
  8
0
100
AcDbLine
 62
7
  6
CONTINUOUS
 10
297.6133441257
 20
284.0796500417
 11
297.6133441257
 21
286.5796500417
  0
LINE
  5
4D0
100
AcDbEntity
  8
0
100
AcDbLine
 62
7
  6
CONTINUOUS
 10
297.7390287391
 20
281.5796500417
 11
297.7390287391
 21
285.5796500417
  0
LINE
  5
4D1
100
AcDbEntity
  8
0
100
AcDbLine
 62
7
  6
CONTINUOUS
 10
297.7655869446
 20
285.5796500417
 11
297.7655869446
 21
281.5796500417
  0
LINE
  5
4D2
100
AcDbEntity
  8
0
100
AcDbLine
 62
7
  6
CONTINUOUS
 10
298.0133441257
 20
286.5796500417
 11
298.0133441257
 21
281.5796500417
  0
LINE
  5
4D3
100
AcDbEntity
  8
0
100
AcDbLine
 62
7
  6
CONTINUOUS
 10
299.5127099076
 20
284.6145660538
 11
299.5127099076
 21
281.5796500417
  0
LINE
  5
4D4
100
AcDbEntity
  8
0
100
AcDbLine
 62
7
  6
CONTINUOUS
 10
301.2133441257
 20
281.4796500417
 11
301.2133441257
 21
281.5796500417
  0
LINE
  5
4D5
100
AcDbEntity
  8
0
100
AcDbLine
 62
7
  6
CONTINUOUS
 10
296.6710621354
 20
288.0623333707
 11
296.5381261862
 21
285.8824193638
  0
LINE
  5
4D6
100
AcDbEntity
  8
0
100
AcDbLine
 62
7
  6
CONTINUOUS
 10
304.2133441257
 20
281.4796500417
 11
304.2133441257
 21
281.5796500417
  0
LINE
  5
4D7
100
AcDbEntity
  8
0
100
AcDbLine
 62
7
  6
CONTINUOUS
 10
305.0502212189
 20
281.5796500417
 11
305.0502212189
 21
285.5796500417
  0
LINE
  5
4D8
100
AcDbEntity
  8
0
100
AcDbLine
 62
7
  6
CONTINUOUS
 10
305.8502212189
 20
281.5796500417
 11
305.8502212189
 21
285.5796500417
  0
LINE
  5
4D9
100
AcDbEntity
  8
0
100
AcDbLine
 62
7
  6
CONTINUOUS
 10
307.4502212189
 20
281.5796500417
 11
307.4502212189
 21
286.3395702221
  0
LINE
  5
4DA
100
AcDbEntity
  8
0
100
AcDbLine
 62
7
  6
CONTINUOUS
 10
293.4759239099
 20
288.6586808885
 11
295.3928575112
 21
282.5789442423
  0
LWPOLYLINE
  5
4DB
100
AcDbEntity
  8
0
100
AcDbPolyline
 62
7
  6
CONTINUOUS
 90
5
 70
0
 10
307.4501849204
 20
286.3355951826
 10
307.0980785743
 20
288.1821441736
 10
306.0900370176
 20
289.7670669753
 10
304.5682443513
 20
290.8682424803
 10
302.7471801949
 20
291.3301945509
  0
ARC
  5
4DC
100
AcDbEntity
  8
0
100
AcDbCircle
 62
7
  6
CONTINUOUS
 10
22.0829863596
 20
-4425.4691074666
 40
4725.1421232891
100
AcDbArc
 50
86.6880644482
 51
89.4627442599
  0
ARC
  5
4DD
100
AcDbEntity
  8
0
100
AcDbCircle
 62
7
  6
CONTINUOUS
 10
22.0880441257
 20
-4425.3270499583
 40
4725.0
100
AcDbArc
 50
86.5984358949
 51
89.5484880472
  0
ARC
  5
4DE
100
AcDbEntity
  8
0
100
AcDbCircle
 62
7
  6
CONTINUOUS
 10
22.0880441257
 20
-4425.3270499583
 40
4724.8535533912
100
AcDbArc
 50
89.3301839354
 51
89.4332928364
  0
ARC
  5
4DF
100
AcDbEntity
  8
0
100
AcDbCircle
 62
7
  6
CONTINUOUS
 10
22.0880441257
 20
-4425.3270499583
 40
4724.8535533912
100
AcDbArc
 50
87.0893077643
 51
87.2228576676
  0
ARC
  5
4E0
100
AcDbEntity
  8
0
100
AcDbCircle
 62
7
  6
CONTINUOUS
 10
22.0880441257
 20
-4425.3270499583
 40
4724.8535533912
100
AcDbArc
 50
87.2387984872
 51
87.3721793213
  0
ARC
  5
4E1
100
AcDbEntity
  8
0
100
AcDbCircle
 62
7
  6
CONTINUOUS
 10
22.0880441257
 20
-4425.3270499583
 40
4724.8535533912
100
AcDbArc
 50
87.3882706367
 51
87.5214831164
  0
ARC
  5
4E2
100
AcDbEntity
  8
0
100
AcDbCircle
 62
7
  6
CONTINUOUS
 10
22.0880441257
 20
-4425.3270499583
 40
4724.8535533912
100
AcDbArc
 50
87.5377252387
 51
87.6707700726
  0
ARC
  5
4E3
100
AcDbEntity
  8
0
100
AcDbCircle
 62
7
  6
CONTINUOUS
 10
22.0880441257
 20
-4425.3270499583
 40
4724.8535533912
100
AcDbArc
 50
87.687163318
 51
87.8200412088
  0
ARC
  5
4E4
100
AcDbEntity
  8
0
100
AcDbCircle
 62
7
  6
CONTINUOUS
 10
22.0880441257
 20
-4425.3270499583
 40
4724.8535533912
100
AcDbArc
 50
87.8365858985
 51
87.969297543
  0
ARC
  5
4E5
100
AcDbEntity
  8
0
100
AcDbCircle
 62
7
  6
CONTINUOUS
 10
22.0880441257
 20
-4425.3270499583
 40
4724.8535533912
100
AcDbArc
 50
87.9859940031
 51
88.1185400921
  0
ARC
  5
4E6
100
AcDbEntity
  8
0
100
AcDbCircle
 62
7
  6
CONTINUOUS
 10
22.0880441257
 20
-4425.3270499583
 40
4724.8535533912
100
AcDbArc
 50
88.1353886538
 51
88.2677698722
  0
ARC
  5
4E7
100
AcDbEntity
  8
0
100
AcDbCircle
 62
7
  6
CONTINUOUS
 10
22.0880441257
 20
-4425.3270499583
 40
4724.8535533912
100
AcDbArc
 50
88.2847708719
 51
88.4169878987
  0
ARC
  5
4E8
100
AcDbEntity
  8
0
100
AcDbCircle
 62
7
  6
CONTINUOUS
 10
22.0880441257
 20
-4425.3270499583
 40
4724.8535533912
100
AcDbArc
 50
88.434141678
 51
88.5661951863
  0
ARC
  5
4E9
100
AcDbEntity
  8
0
100
AcDbCircle
 62
7
  6
CONTINUOUS
 10
22.0880441257
 20
-4425.3270499583
 40
4724.8535533912
100
AcDbArc
 50
88.5835020919
 51
88.7153927489
  0
ARC
  5
4EA
100
AcDbEntity
  8
0
100
AcDbCircle
 62
7
  6
CONTINUOUS
 10
22.0880441257
 20
-4425.3270499583
 40
4724.8535533912
100
AcDbArc
 50
88.7328531329
 51
88.8645816
  0
ARC
  5
4EB
100
AcDbEntity
  8
0
100
AcDbCircle
 62
7
  6
CONTINUOUS
 10
22.0880441257
 20
-4425.3270499583
 40
4724.8535533912
100
AcDbArc
 50
88.8821958197
 51
89.0137627523
  0
ARC
  5
4EC
100
AcDbEntity
  8
0
100
AcDbCircle
 62
7
  6
CONTINUOUS
 10
22.0880441257
 20
-4425.3270499583
 40
4724.8535533912
100
AcDbArc
 50
89.0315311705
 51
89.1629372182
  0
ARC
  5
4ED
100
AcDbEntity
  8
0
100
AcDbCircle
 62
7
  6
CONTINUOUS
 10
22.0880441257
 20
-4425.3270499583
 40
4724.8535533912
100
AcDbArc
 50
89.1808602033
 51
89.3121060098
  0
ARC
  5
4EE
100
AcDbEntity
  8
0
100
AcDbCircle
 62
7
  6
CONTINUOUS
 10
22.0880441257
 20
-4425.3270499583
 40
4724.8535533912
100
AcDbArc
 50
86.939797441
 51
87.0735171342
  0
ARC
  5
4EF
100
AcDbEntity
  8
0
100
AcDbCircle
 62
7
  6
CONTINUOUS
 10
22.0880441257
 20
-4425.3270499573
 40
4724.8535533902
100
AcDbArc
 50
86.8335827335
 51
86.9241566989
  0
ARC
  5
4F0
100
AcDbEntity
  8
0
100
AcDbCircle
 62
7
  6
CONTINUOUS
 10
22.0783222093
 20
-4424.3120734661
 40
4722.2530192677
100
AcDbArc
 50
86.6880822663
 51
89.4626949932
  0
ARC
  5
4F1
100
AcDbEntity
  8
0
100
AcDbCircle
 62
7
  6
CONTINUOUS
 10
22.0968161032
 20
-4423.7625825677
 40
4721.703306454
100
AcDbArc
 50
86.6879212207
 51
89.4628567515
  0
ARC
  5
4F2
100
AcDbEntity
  8
0
100
AcDbCircle
 62
7
  6
CONTINUOUS
 10
22.0880441257
 20
-4425.3270499573
 40
4714.999979118
100
AcDbArc
 50
87.0460696957
 51
87.0673959257
  0
ARC
  5
4F3
100
AcDbEntity
  8
0
100
AcDbCircle
 62
7
  6
CONTINUOUS
 10
22.0880441257
 20
-4425.3270499573
 40
4714.999979118
100
AcDbArc
 50
87.1959833214
 51
87.2170493334
  0
ARC
  5
4F4
100
AcDbEntity
  8
0
100
AcDbCircle
 62
7
  6
CONTINUOUS
 10
22.0880441257
 20
-4425.3270499573
 40
4714.999979118
100
AcDbArc
 50
87.3458793957
 51
87.3666837425
  0
ARC
  5
4F5
100
AcDbEntity
  8
0
100
AcDbCircle
 62
7
  6
CONTINUOUS
 10
22.0880441257
 20
-4425.3270499573
 40
4714.999979118
100
AcDbArc
 50
87.4957589658
 51
87.5163001804
  0
ARC
  5
4F6
100
AcDbEntity
  8
0
100
AcDbCircle
 62
7
  6
CONTINUOUS
 10
22.0880441257
 20
-4425.3270499573
 40
4714.999979118
100
AcDbArc
 50
87.6456230778
 51
87.6658996735
  0
ARC
  5
4F7
100
AcDbEntity
  8
0
100
AcDbCircle
 62
7
  6
CONTINUOUS
 10
22.0880441257
 20
-4425.3270499573
 40
4714.999979118
100
AcDbArc
 50
87.7954261295
 51
87.8154832471
  0
ARC
  5
4F8
100
AcDbEntity
  8
0
100
AcDbCircle
 62
7
  6
CONTINUOUS
 10
22.0880441257
 20
-4425.3270499573
 40
4714.999979118
100
AcDbArc
 50
87.9453091092
 51
87.9650519255
  0
ARC
  5
4F9
100
AcDbEntity
  8
0
100
AcDbCircle
 62
7
  6
CONTINUOUS
 10
22.0880441257
 20
-4425.3270499573
 40
4714.999979118
100
AcDbArc
 50
88.0951331172
 51
88.1146067321
  0
ARC
  5
4FA
100
AcDbEntity
  8
0
100
AcDbCircle
 62
7
  6
CONTINUOUS
 10
22.0880441257
 20
-4425.3270499573
 40
4714.999979118
100
AcDbArc
 50
88.2449458451
 51
88.2641486894
  0
ARC
  5
4FB
100
AcDbEntity
  8
0
100
AcDbCircle
 62
7
  6
CONTINUOUS
 10
22.0880441257
 20
-4425.3270499573
 40
4714.999979118
100
AcDbArc
 50
88.3947483356
 51
88.4136788192
  0
ARC
  5
4FC
100
AcDbEntity
  8
0
100
AcDbCircle
 62
7
  6
CONTINUOUS
 10
22.0880441257
 20
-4425.3270499573
 40
4714.999979118
100
AcDbArc
 50
88.5445416314
 51
88.5631981425
  0
ARC
  5
4FD
100
AcDbEntity
  8
0
100
AcDbCircle
 62
7
  6
CONTINUOUS
 10
22.0880441257
 20
-4425.3270499573
 40
4714.999979118
100
AcDbArc
 50
88.6943267745
 51
88.7127076798
  0
ARC
  5
4FE
100
AcDbEntity
  8
0
100
AcDbCircle
 62
7
  6
CONTINUOUS
 10
22.0880441257
 20
-4425.3270499573
 40
4714.999979118
100
AcDbArc
 50
88.8441048067
 51
88.8622084507
  0
ARC
  5
4FF
100
AcDbEntity
  8
0
100
AcDbCircle
 62
7
  6
CONTINUOUS
 10
22.0880441257
 20
-4425.3270499573
 40
4714.999979118
100
AcDbArc
 50
88.9938767695
 51
89.0117014744
  0
ARC
  5
500
100
AcDbEntity
  8
0
100
AcDbCircle
 62
7
  6
CONTINUOUS
 10
22.0880441257
 20
-4425.3270499573
 40
4714.999979118
100
AcDbArc
 50
89.1436437043
 51
89.1611877698
  0
ARC
  5
501
100
AcDbEntity
  8
0
100
AcDbCircle
 62
7
  6
CONTINUOUS
 10
22.0880441257
 20
-4425.3270499573
 40
4714.999979118
100
AcDbArc
 50
89.2934066522
 51
89.3106683552
  0
ARC
  5
502
100
AcDbEntity
  8
0
100
AcDbCircle
 62
7
  6
CONTINUOUS
 10
-1933.3042805357
 20
-826.9095956474
 40
2383.9088598037
100
AcDbArc
 50
25.066469984
 51
25.199208964
  0
ARC
  5
503
100
AcDbEntity
  8
0
100
AcDbCircle
 62
7
  6
CONTINUOUS
 10
120.8874423179
 20
184.3453696163
 40
6.0
100
AcDbArc
 50
217.6584676286
 51
263.2313187029
  0
ARC
  5
504
100
AcDbEntity
  8
0
100
AcDbCircle
 62
7
  6
CONTINUOUS
 10
120.8874423179
 20
184.3453696163
 40
6.0
100
AcDbArc
 50
276.7681013687
 51
322.3415379938
  0
ARC
  5
505
100
AcDbEntity
  8
0
100
AcDbCircle
 62
7
  6
CONTINUOUS
 10
112.8391949739
 20
226.5796500417
 40
5.0
100
AcDbArc
 50
223.9325003304
 51
270.0
  0
ARC
  5
506
100
AcDbEntity
  8
0
100
AcDbCircle
 62
7
  6
CONTINUOUS
 10
115.1230554063
 20
191.4991025929
 40
3.6125069449
100
AcDbArc
 50
359.9724793359
 51
34.1063008829
  0
ARC
  5
507
100
AcDbEntity
  8
0
100
AcDbCircle
 62
7
  6
CONTINUOUS
 10
115.1505669426
 20
191.5153204926
 40
3.5806341229
100
AcDbArc
 50
34.1382743598
 51
37.369504929
  0
ARC
  5
508
100
AcDbEntity
  8
0
100
AcDbCircle
 62
7
  6
CONTINUOUS
 10
119.1192450714
 20
181.630301728
 40
2.7392910531
100
AcDbArc
 50
262.5752126794
 51
277.4247869085
  0
ARC
  5
509
100
AcDbEntity
  8
0
100
AcDbCircle
 62
7
  6
CONTINUOUS
 10
122.6556395841
 20
181.6303017267
 40
2.7392910532
100
AcDbArc
 50
262.5752126793
 51
277.4247869086
  0
ARC
  5
50A
100
AcDbEntity
  8
0
100
AcDbCircle
 62
7
  6
CONTINUOUS
 10
122.6552092708
 20
181.6245777852
 40
2.7335588095
100
AcDbArc
 50
262.5686528087
 51
277.4313471914
  0
ARC
  5
50B
100
AcDbEntity
  8
0
100
AcDbCircle
 62
7
  6
CONTINUOUS
 10
119.1196753649
 20
181.6245777852
 40
2.7335588094
100
AcDbArc
 50
262.5686528086
 51
277.4313471915
  0
ARC
  5
50C
100
AcDbEntity
  8
0
100
AcDbCircle
 62
7
  6
CONTINUOUS
 10
118.3414482443
 20
237.0786702853
 40
1.0009797563
100
AcDbArc
 50
89.9998720726
 51
103.6724086892
  0
ARC
  5
50D
100
AcDbEntity
  8
0
100
AcDbCircle
 62
7
  6
CONTINUOUS
 10
105.7133441257
 20
194.3296500417
 40
0.75
100
AcDbArc
 50
90.0
 51
270.0
  0
ARC
  5
50E
100
AcDbEntity
  8
0
100
AcDbCircle
 62
7
  6
CONTINUOUS
 10
123.8874423179
 20
213.0796500417
 40
0.5
100
AcDbArc
 50
270.0
 51
360.0
  0
ARC
  5
50F
100
AcDbEntity
  8
0
100
AcDbCircle
 62
7
  6
CONTINUOUS
 10
117.8874423179
 20
213.0796500417
 40
0.5
100
AcDbArc
 50
180.0
 51
270.0
  0
ARC
  5
510
100
AcDbEntity
  8
0
100
AcDbCircle
 62
7
  6
CONTINUOUS
 10
26.6457715281
 20
283.0922145554
 40
101.9352973849
100
AcDbArc
 50
339.9872800242
 51
340.115628692
  0
ARC
  5
511
100
AcDbEntity
  8
0
100
AcDbCircle
 62
7
  6
CONTINUOUS
 10
29.0727250375
 20
282.2113409203
 40
99.3534304381
100
AcDbArc
 50
339.9856135613
 51
340.1172975868
  0
ARC
  5
512
100
AcDbEntity
  8
0
100
AcDbCircle
 62
7
  6
CONTINUOUS
 10
66.6949881284
 20
279.459614807
 40
19.8945829393
100
AcDbArc
 50
162.2525885541
 51
173.8827482405
  0
ARC
  5
513
100
AcDbEntity
  8
0
100
AcDbCircle
 62
7
  6
CONTINUOUS
 10
66.6915880225
 20
279.4603415543
 40
19.8911141255
100
AcDbArc
 50
162.2515943247
 51
173.8837860258
  0
ARC
  5
514
100
AcDbEntity
  8
0
100
AcDbCircle
 62
7
  6
CONTINUOUS
 10
66.6493096626
 20
279.4595142661
 40
16.8744360471
100
AcDbArc
 50
162.2120879494
 51
172.7821789319
  0
ARC
  5
515
100
AcDbEntity
  8
0
100
AcDbCircle
 62
7
  6
CONTINUOUS
 10
66.6457508693
 20
279.460273461
 40
16.8708069702
100
AcDbArc
 50
162.2108474793
 51
172.7832153197
  0
ARC
  5
516
100
AcDbEntity
  8
0
100
AcDbCircle
 62
7
  6
CONTINUOUS
 10
78.4442260456
 20
294.5365095908
 40
4.8
100
AcDbArc
 50
89.3159086284
 51
140.0
  0
ARC
  5
517
100
AcDbEntity
  8
0
100
AcDbCircle
 62
7
  6
CONTINUOUS
 10
90.7448856028
 20
294.3736056043
 40
4.8
100
AcDbArc
 50
89.1665848963
 51
140.0
  0
ARC
  5
518
100
AcDbEntity
  8
0
100
AcDbCircle
 62
7
  6
CONTINUOUS
 10
47.2133441257
 20
281.4796500417
 40
1.0
100
AcDbArc
 50
270.0
 51
360.0
  0
ARC
  5
519
100
AcDbEntity
  8
0
100
AcDbCircle
 62
7
  6
CONTINUOUS
 10
46.2133441257
 20
281.4796500417
 40
1.0
100
AcDbArc
 50
180.0
 51
269.9999868678
  0
ARC
  5
51A
100
AcDbEntity
  8
0
100
AcDbCircle
 62
7
  6
CONTINUOUS
 10
68.4633441257
 20
298.9453365103
 40
0.5
100
AcDbArc
 50
0.0
 51
89.4375803519
  0
ARC
  5
51B
100
AcDbEntity
  8
0
100
AcDbCircle
 62
7
  6
CONTINUOUS
 10
108.770127403
 20
252.5519847366
 40
24.9820022379
100
AcDbArc
 50
359.9977742584
 51
0.8001836143
  0
ARC
  5
51C
100
AcDbEntity
  8
0
100
AcDbCircle
 62
7
  6
CONTINUOUS
 10
109.0759425031
 20
252.5541109953
 40
24.6761839677
100
AcDbArc
 50
359.9928097021
 51
0.8051635781
  0
ARC
  5
51D
100
AcDbEntity
  8
0
100
AcDbCircle
 62
7
  6
CONTINUOUS
 10
127.1245795354
 20
256.6341622719
 40
17.8429251138
100
AcDbArc
 50
359.9965145543
 51
1.1020358042
  0
ARC
  5
51E
100
AcDbEntity
  8
0
100
AcDbCircle
 62
7
  6
CONTINUOUS
 10
127.374739456
 20
256.6365696597
 40
17.5927604451
100
AcDbArc
 50
359.9886246584
 51
1.1098663282
  0
ARC
  5
51F
100
AcDbEntity
  8
0
100
AcDbCircle
 62
7
  6
CONTINUOUS
 10
124.9196319539
 20
245.0795371676
 40
5.0
100
AcDbArc
 50
110.0
 51
160.0
  0
ARC
  5
520
100
AcDbEntity
  8
0
100
AcDbCircle
 62
7
  6
CONTINUOUS
 10
140.6948964788
 20
247.0162647968
 40
4.7817895703
100
AcDbArc
 50
162.9079042854
 51
165.5911487445
  0
ARC
  5
521
100
AcDbEntity
  8
0
100
AcDbCircle
 62
7
  6
CONTINUOUS
 10
140.5844398757
 20
247.0489554084
 40
4.6666595762
100
AcDbArc
 50
162.8932184415
 51
165.6199421249
  0
ARC
  5
522
100
AcDbEntity
  8
0
100
AcDbCircle
 62
7
  6
CONTINUOUS
 10
124.9196319539
 20
245.0795371676
 40
4.0
100
AcDbArc
 50
128.5677084967
 51
159.9999999993
  0
ARC
  5
523
100
AcDbEntity
  8
0
100
AcDbCircle
 62
7
  6
CONTINUOUS
 10
172.5831272393
 20
252.5516065966
 40
1.1197878625
100
AcDbArc
 50
161.8259403471
 51
180.0303073432
  0
ARC
  5
524
100
AcDbEntity
  8
0
100
AcDbCircle
 62
7
  6
CONTINUOUS
 10
172.5790453886
 20
252.5522580634
 40
1.1156832556
100
AcDbArc
 50
161.79234508
 51
180.0638736614
  0
ARC
  5
525
100
AcDbEntity
  8
0
100
AcDbCircle
 62
7
  6
CONTINUOUS
 10
172.5758601891
 20
256.6344979827
 40
1.1124962041
100
AcDbArc
 50
162.0511798141
 51
180.0731902329
  0
ARC
  5
526
100
AcDbEntity
  8
0
100
AcDbCircle
 62
7
  6
CONTINUOUS
 10
157.7133441257
 20
262.0796500417
 40
1.0
100
AcDbArc
 50
89.9997272234
 51
180.0
  0
ARC
  5
527
100
AcDbEntity
  8
0
100
AcDbCircle
 62
7
  6
CONTINUOUS
 10
135.255762062
 20
253.0828463057
 40
0.9989902949
100
AcDbArc
 50
0.0006597383
 51
20.8324697882
  0
ARC
  5
528
100
AcDbEntity
  8
0
100
AcDbCircle
 62
7
  6
CONTINUOUS
 10
146.4748307623
 20
257.15930481
 40
0.9979324007
100
AcDbArc
 50
0.00145088
 51
21.2083004171
  0
ARC
  5
529
100
AcDbEntity
  8
0
100
AcDbCircle
 62
7
  6
CONTINUOUS
 10
164.548225755
 20
292.7226675256
 40
4.8
100
AcDbArc
 50
88.2704955649
 51
140.0
  0
ARC
  5
52A
100
AcDbEntity
  8
0
100
AcDbCircle
 62
7
  6
CONTINUOUS
 10
152.2477415844
 20
293.0780294258
 40
4.8
100
AcDbArc
 50
88.419866371
 51
140.0
  0
ARC
  5
52B
100
AcDbEntity
  8
0
100
AcDbCircle
 62
7
  6
CONTINUOUS
 10
139.947228654
 20
293.4013012633
 40
4.8
100
AcDbArc
 50
88.5692267848
 51
140.0
  0
ARC
  5
52C
100
AcDbEntity
  8
0
100
AcDbCircle
 62
7
  6
CONTINUOUS
 10
127.6466867798
 20
293.6924894122
 40
4.8
100
AcDbArc
 50
88.7185778258
 51
140.0
  0
ARC
  5
52D
100
AcDbEntity
  8
0
100
AcDbCircle
 62
7
  6
CONTINUOUS
 10
115.3461157742
 20
293.9515995889
 40
4.8
100
AcDbArc
 50
88.8679205127
 51
140.0
  0
ARC
  5
52E
100
AcDbEntity
  8
0
100
AcDbCircle
 62
7
  6
CONTINUOUS
 10
103.0455154465
 20
294.1786368522
 40
4.8
100
AcDbArc
 50
89.0172558635
 51
140.0
  0
ARC
  5
52F
100
AcDbEntity
  8
0
100
AcDbCircle
 62
7
  6
CONTINUOUS
 10
225.5392459335
 20
184.3453696163
 40
6.0
100
AcDbArc
 50
217.6584620815
 51
263.2298480513
  0
ARC
  5
530
100
AcDbEntity
  8
0
100
AcDbCircle
 62
7
  6
CONTINUOUS
 10
225.5392459335
 20
184.3453696163
 40
6.0
100
AcDbArc
 50
276.7681013687
 51
322.3415379938
  0
ARC
  5
531
100
AcDbEntity
  8
0
100
AcDbCircle
 62
7
  6
CONTINUOUS
 10
233.6946926198
 20
226.5796500417
 40
5.0
100
AcDbArc
 50
270.0
 51
313.9708451768
  0
ARC
  5
532
100
AcDbEntity
  8
0
100
AcDbCircle
 62
7
  6
CONTINUOUS
 10
227.3065825929
 20
181.630301728
 40
2.7392910531
100
AcDbArc
 50
262.5752126794
 51
277.4247869085
  0
ARC
  5
533
100
AcDbEntity
  8
0
100
AcDbCircle
 62
7
  6
CONTINUOUS
 10
223.7719092938
 20
181.6303017267
 40
2.7392910532
100
AcDbArc
 50
262.5752126793
 51
277.4247869086
  0
ARC
  5
534
100
AcDbEntity
  8
0
100
AcDbCircle
 62
7
  6
CONTINUOUS
 10
227.3070128865
 20
181.6245777852
 40
2.7335588095
100
AcDbArc
 50
262.5686528086
 51
277.4313471913
  0
ARC
  5
535
100
AcDbEntity
  8
0
100
AcDbCircle
 62
7
  6
CONTINUOUS
 10
223.7714789805
 20
181.6245777852
 40
2.7335588094
100
AcDbArc
 50
262.5686528085
 51
277.4313471914
  0
ARC
  5
536
100
AcDbEntity
  8
0
100
AcDbCircle
 62
7
  6
CONTINUOUS
 10
228.0852400459
 20
237.0786706941
 40
1.0009793476
100
AcDbArc
 50
76.2438331965
 51
90.0001301495
  0
ARC
  5
537
100
AcDbEntity
  8
0
100
AcDbCircle
 62
7
  6
CONTINUOUS
 10
228.5392459335
 20
213.0796500417
 40
0.5
100
AcDbArc
 50
270.0
 51
360.0
  0
ARC
  5
538
100
AcDbEntity
  8
0
100
AcDbCircle
 62
7
  6
CONTINUOUS
 10
222.5392459335
 20
213.0796500417
 40
0.5
100
AcDbArc
 50
180.0
 51
270.0
  0
ARC
  5
539
100
AcDbEntity
  8
0
100
AcDbCircle
 62
7
  6
CONTINUOUS
 10
237.6565608109
 20
252.5519847369
 40
24.9820022004
100
AcDbArc
 50
179.1998163852
 51
180.0022257424
  0
ARC
  5
53A
100
AcDbEntity
  8
0
100
AcDbCircle
 62
7
  6
CONTINUOUS
 10
237.3507457478
 20
252.5541109953
 40
24.6761839671
100
AcDbArc
 50
179.1948364219
 51
180.0071902979
  0
ARC
  5
53B
100
AcDbEntity
  8
0
100
AcDbCircle
 62
7
  6
CONTINUOUS
 10
219.3021086954
 20
256.6341622722
 40
17.8429250932
100
AcDbArc
 50
178.8979641952
 51
180.0034854465
  0
ARC
  5
53C
100
AcDbEntity
  8
0
100
AcDbCircle
 62
7
  6
CONTINUOUS
 10
219.0746594264
 20
256.6363393445
 40
17.6154713689
100
AcDbArc
 50
178.8908154913
 51
180.0106115569
  0
ARC
  5
53D
100
AcDbEntity
  8
0
100
AcDbCircle
 62
7
  6
CONTINUOUS
 10
221.5085493337
 20
245.0789937468
 40
5.0
100
AcDbArc
 50
20.0000000001
 51
70.0000000001
  0
ARC
  5
53E
100
AcDbEntity
  8
0
100
AcDbCircle
 62
7
  6
CONTINUOUS
 10
205.74340043
 20
247.0210907159
 40
4.7693441014
100
AcDbArc
 50
14.4094007649
 51
17.0774142005
  0
ARC
  5
53F
100
AcDbEntity
  8
0
100
AcDbCircle
 62
7
  6
CONTINUOUS
 10
205.8422483757
 20
247.0489554084
 40
4.6666595762
100
AcDbArc
 50
14.3800578753
 51
17.1067815587
  0
ARC
  5
540
100
AcDbEntity
  8
0
100
AcDbCircle
 62
7
  6
CONTINUOUS
 10
221.5085493337
 20
245.0789937468
 40
4.0
100
AcDbArc
 50
20.0000000006
 51
51.4657120414
  0
ARC
  5
541
100
AcDbEntity
  8
0
100
AcDbCircle
 62
7
  6
CONTINUOUS
 10
173.8435610183
 20
252.5516065974
 40
1.1197878625
100
AcDbArc
 50
359.9696926156
 51
18.1740597126
  0
ARC
  5
542
100
AcDbEntity
  8
0
100
AcDbCircle
 62
7
  6
CONTINUOUS
 10
173.8476428563
 20
252.5522580626
 40
1.1156832556
100
AcDbArc
 50
359.9361263823
 51
18.207654857
  0
ARC
  5
543
100
AcDbEntity
  8
0
100
AcDbCircle
 62
7
  6
CONTINUOUS
 10
173.8508162231
 20
256.6344960761
 40
1.1125080965
100
AcDbArc
 50
359.9269087349
 51
17.9487256977
  0
ARC
  5
544
100
AcDbEntity
  8
0
100
AcDbCircle
 62
7
  6
CONTINUOUS
 10
188.7133441257
 20
262.0796500417
 40
1.0
100
AcDbArc
 50
0.0
 51
90.0002727766
  0
ARC
  5
545
100
AcDbEntity
  8
0
100
AcDbCircle
 62
7
  6
CONTINUOUS
 10
211.170926191
 20
253.0828463056
 40
0.9989902968
100
AcDbArc
 50
159.1675302397
 51
179.9993401811
  0
ARC
  5
546
100
AcDbEntity
  8
0
100
AcDbCircle
 62
7
  6
CONTINUOUS
 10
199.9518574895
 20
257.15930481
 40
0.9979324015
100
AcDbArc
 50
158.7916995925
 51
179.9985490971
  0
ARC
  5
547
100
AcDbEntity
  8
0
100
AcDbCircle
 62
7
  6
CONTINUOUS
 10
238.3505367403
 20
289.9161647961
 40
4.8
100
AcDbArc
 50
87.3739953298
 51
140.0
  0
ARC
  5
548
100
AcDbEntity
  8
0
100
AcDbCircle
 62
7
  6
CONTINUOUS
 10
226.0502214366
 20
290.4642378561
 40
4.8
100
AcDbArc
 50
87.5234499317
 51
140.0
  0
ARC
  5
549
100
AcDbEntity
  8
0
100
AcDbCircle
 62
7
  6
CONTINUOUS
 10
213.7498784125
 20
290.980168754
 40
4.8
100
AcDbArc
 50
87.672888011
 51
140.0
  0
ARC
  5
54A
100
AcDbEntity
  8
0
100
AcDbCircle
 62
7
  6
CONTINUOUS
 10
201.4495075024
 20
291.4639678265
 40
4.8
100
AcDbArc
 50
87.8223105915
 51
140.0
  0
ARC
  5
54B
100
AcDbEntity
  8
0
100
AcDbCircle
 62
7
  6
CONTINUOUS
 10
189.1491085377
 20
291.9156447477
 40
4.8
100
AcDbArc
 50
87.9717186961
 51
140.0
  0
ARC
  5
54C
100
AcDbEntity
  8
0
100
AcDbCircle
 62
7
  6
CONTINUOUS
 10
176.8486813468
 20
292.3352085302
 40
4.8
100
AcDbArc
 50
88.1211133467
 51
140.0
  0
ARC
  5
54D
100
AcDbEntity
  8
0
100
AcDbCircle
 62
7
  6
CONTINUOUS
 10
319.6552832755
 20
283.0474599184
 40
101.8019337478
100
AcDbArc
 50
199.8847336439
 51
200.0127053499
  0
ARC
  5
54E
100
AcDbEntity
  8
0
100
AcDbCircle
 62
7
  6
CONTINUOUS
 10
317.2440100272
 20
282.1722692389
 40
99.2367451142
100
AcDbArc
 50
199.8830784605
 51
200.0143581309
  0
ARC
  5
54F
100
AcDbEntity
  8
0
100
AcDbCircle
 62
7
  6
CONTINUOUS
 10
262.9510848345
 20
288.7235475237
 40
4.8
100
AcDbArc
 50
87.0750324573
 51
140.0
  0
ARC
  5
550
100
AcDbEntity
  8
0
100
AcDbCircle
 62
7
  6
CONTINUOUS
 10
283.9885728699
 20
287.6015674773
 40
4.8
100
AcDbArc
 50
86.8193074272
 51
140.0000000133
  0
ARC
  5
551
100
AcDbEntity
  8
0
100
AcDbCircle
 62
7
  6
CONTINUOUS
 10
250.6508244864
 20
289.3359385737
 40
4.8
100
AcDbArc
 50
87.2245231803
 51
140.0
  0
ARC
  5
552
100
AcDbEntity
  8
0
100
AcDbCircle
 62
7
  6
CONTINUOUS
 10
275.2513179416
 20
288.0789793151
 40
4.8
100
AcDbArc
 50
86.9255221345
 51
140.0
  0
ARC
  5
553
100
AcDbEntity
  8
0
100
AcDbCircle
 62
7
  6
CONTINUOUS
 10
290.1483139534
 20
283.5796500417
 40
2.0
100
AcDbArc
 50
270.0
 51
356.0000000011
  0
ARC
  5
554
100
AcDbEntity
  8
0
100
AcDbCircle
 62
7
  6
CONTINUOUS
 10
296.346574462
 20
282.8796500417
 40
1.0
100
AcDbArc
 50
197.4999999894
 51
270.0
  0
ARC
  5
555
100
AcDbEntity
  8
0
100
AcDbCircle
 62
7
  6
CONTINUOUS
 10
302.2133441257
 20
281.4796500417
 40
1.0
100
AcDbArc
 50
180.0
 51
270.0
  0
ARC
  5
556
100
AcDbEntity
  8
0
100
AcDbCircle
 62
7
  6
CONTINUOUS
 10
303.2133441257
 20
281.4796500417
 40
1.0
100
AcDbArc
 50
270.0000130004
 51
360.0
  0
ARC
  5
557
100
AcDbEntity
  8
0
100
AcDbCircle
 62
7
  6
CONTINUOUS
 10
292.9990654346
 20
288.5083279887
 40
0.5
100
AcDbArc
 50
17.5000000033
 51
176.0000000284
  0
ARC
  5
558
100
AcDbEntity
  8
0
100
AcDbCircle
 62
7
  6
CONTINUOUS
 10
5882.7601896464
 20
-1286.1825108503
 40
5943.1427891438
100
AcDbArc
 50
165.5376574632
 51
165.6769993277
  0
ARC
  5
559
100
AcDbEntity
  8
0
100
AcDbCircle
 62
7
  6
CONTINUOUS
 10
2239.5745427508
 20
-935.9226358331
 40
2405.8795158433
100
AcDbArc
 50
151.8782783361
 51
152.0810504131
  0
SPLINE
  5
55A
100
AcDbEntity
  8
0
100
AcDbSpline
 62
7
  6
CONTINUOUS
 70
0
 71
3
 72
11
 73
7
 74
0
 42
0.0000001
 43
0.0000001
 44
0.0000000001
 40
0.0
 40
0.0
 40
0.0
 40
0.0
 40
0.2467371161
 40
0.4953756828
 40
0.7467261468
 40
1.0
 40
1.0
 40
1.0
 40
1.0
 10
115.1963080412
 20
193.5796500417
 30
0.0
 10
115.460839304
 20
193.5796500417
 30
0.0
 10
115.9978711635
 20
193.4711388574
 30
0.0
 10
116.6756544816
 20
193.0077758891
 30
0.0
 10
117.1295398576
 20
192.3157204893
 30
0.0
 10
117.2355619344
 20
191.7689068264
 30
0.0
 10
117.2355619344
 20
191.4973674112
 30
0.0
  0
SPLINE
  5
55B
100
AcDbEntity
  8
0
100
AcDbSpline
 62
7
  6
CONTINUOUS
 70
0
 71
3
 72
15
 73
11
 74
0
 42
0.0000001
 43
0.0000001
 44
0.0000000001
 40
0.0
 40
0.0
 40
0.0
 40
0.0
 40
0.1256796819
 40
0.251255991
 40
0.3766406433
 40
0.5017754605
 40
0.6266399278
 40
0.7512549629
 40
0.8756789568
 40
1.0
 40
1.0
 40
1.0
 40
1.0
 10
117.2355619344
 20
189.1619326722
 30
0.0
 10
117.2355619344
 20
188.8301843186
 30
0.0
 10
117.3000430222
 20
188.1651704027
 30
0.0
 10
117.5866185724
 20
187.206947091
 30
0.0
 10
118.0522638185
 20
186.3229667197
 30
0.0
 10
118.6794091778
 20
185.547645418
 30
0.0
 10
119.4442087821
 20
184.9107906964
 30
0.0
 10
120.3175711504
 20
184.4371940725
 30
0.0
 10
121.2654017054
 20
184.1453715701
 30
0.0
 10
121.9238654124
 20
184.0796500417
 30
0.0
 10
122.2520274572
 20
184.0796500417
 30
0.0
  0
SPLINE
  5
55C
100
AcDbEntity
  8
0
100
AcDbSpline
 62
7
  6
CONTINUOUS
 70
0
 71
3
 72
11
 73
7
 74
0
 42
0.0000001
 43
0.0000001
 44
0.0000000001
 40
0.0
 40
0.0
 40
0.0
 40
0.0
 40
0.2518413411
 40
0.5027503495
 40
0.7521818096
 40
1.0
 40
1.0
 40
1.0
 40
1.0
 10
118.7355619344
 20
189.1619326722
 30
0.0
 10
118.7355619344
 20
188.8095130139
 30
0.0
 10
118.8387797085
 20
188.1017039447
 30
0.0
 10
119.2905403804
 20
187.1348585897
 30
0.0
 10
119.9984382542
 20
186.3435614018
 30
0.0
 10
120.6045777276
 20
185.9775693877
 30
0.0
 10
120.9248594042
 20
185.8445927146
 30
0.0
  0
SPLINE
  5
55D
100
AcDbEntity
  8
0
100
AcDbSpline
 62
7
  6
CONTINUOUS
 70
0
 71
3
 72
13
 73
9
 74
0
 42
0.0000001
 43
0.0000001
 44
0.0000000001
 40
0.0
 40
0.0
 40
0.0
 40
0.0
 40
0.0383190056
 40
0.100759311
 40
0.1925994574
 40
0.3129221284
 40
0.6250810657
 40
1.0
 40
1.0
 40
1.0
 40
1.0
 10
122.2520274572
 20
184.0796500417
 30
0.0
 10
122.2609642736
 20
184.0796500417
 30
0.0
 10
122.2824625713
 20
184.0951177381
 30
0.0
 10
122.3024157835
 20
184.1351301798
 30
0.0
 10
122.3231987173
 20
184.19606493
 30
0.0
 10
122.3494372206
 20
184.3155630712
 30
0.0
 10
122.3721701079
 20
184.5028692374
 30
0.0
 10
122.3799098959
 20
184.6630083646
 30
0.0
 10
122.3815293271
 20
184.7504325271
 30
0.0
  0
SPLINE
  5
55E
100
AcDbEntity
  8
0
100
AcDbSpline
 62
7
  6
CONTINUOUS
 70
0
 71
3
 72
11
 73
7
 74
0
 42
0.0000001
 43
0.0000001
 44
0.0000000001
 40
0.0
 40
0.0
 40
0.0
 40
0.0
 40
0.2397175237
 40
0.4855772095
 40
0.739853021
 40
1.0
 40
1.0
 40
1.0
 40
1.0
 10
166.6855968664
 20
185.57960584
 30
0.0
 10
166.7752188826
 20
185.5796076872
 30
0.0
 10
166.9589673425
 20
185.5392797711
 30
0.0
 10
167.18699882
 20
185.3699402131
 30
0.0
 10
167.3374980644
 20
185.1210909547
 30
0.0
 10
167.372218108
 20
184.9269099183
 30
0.0
 10
167.372218108
 20
184.8296500417
 30
0.0
  0
SPLINE
  5
55F
100
AcDbEntity
  8
0
100
AcDbSpline
 62
7
  6
CONTINUOUS
 70
0
 71
3
 72
11
 73
7
 74
0
 42
0.0000001
 43
0.0000001
 44
0.0000000001
 40
0.0
 40
0.0
 40
0.0
 40
0.0
 40
0.2466815396
 40
0.495297551
 40
0.7466713656
 40
1.0
 40
1.0
 40
1.0
 40
1.0
 10
117.7736921691
 20
193.5796500417
 30
0.0
 10
118.0300009893
 20
193.5796500417
 30
0.0
 10
118.5503749891
 20
193.4744982396
 30
0.0
 10
119.2071778366
 20
193.0254501299
 30
0.0
 10
119.6470676987
 20
192.3546939101
 30
0.0
 10
119.7498273516
 20
191.824675162
 30
0.0
 10
119.7498273516
 20
191.5614598298
 30
0.0
  0
SPLINE
  5
560
100
AcDbEntity
  8
0
100
AcDbSpline
 62
7
  6
CONTINUOUS
 70
0
 71
3
 72
11
 73
7
 74
0
 42
0.0000001
 43
0.0000001
 44
0.0000000001
 40
0.0
 40
0.0
 40
0.0
 40
0.0
 40
0.2489101776
 40
0.4984482511
 40
0.7488948776
 40
1.0
 40
1.0
 40
1.0
 40
1.0
 10
117.7736921691
 20
195.0796500417
 30
0.0
 10
118.2265557823
 20
195.0796500417
 30
0.0
 10
119.1435438742
 20
194.8954177639
 30
0.0
 10
120.2990081901
 20
194.1098397798
 30
0.0
 10
121.0700605528
 20
192.9406391919
 30
0.0
 10
121.2498273516
 20
192.0183168942
 30
0.0
 10
121.2498273516
 20
191.5614598298
 30
0.0
  0
SPLINE
  5
561
100
AcDbEntity
  8
0
100
AcDbSpline
 62
7
  6
CONTINUOUS
 70
0
 71
3
 72
15
 73
11
 74
0
 42
0.0000001
 43
0.0000001
 44
0.0000000001
 40
0.0
 40
0.0
 40
0.0
 40
0.0
 40
0.1256766682
 40
0.2512504164
 40
0.3766333413
 40
0.5017675351
 40
0.6266325849
 40
0.7512493301
 40
0.875675902
 40
1.0
 40
1.0
 40
1.0
 40
1.0
 10
119.7498273516
 20
189.0978402536
 30
0.0
 10
119.7498273516
 20
188.770278706
 30
0.0
 10
119.8134960446
 20
188.1136563154
 30
0.0
 10
120.0964613957
 20
187.1675232033
 30
0.0
 10
120.5562422561
 20
186.2946931632
 30
0.0
 10
121.1754922114
 20
185.5291480014
 30
0.0
 10
121.9306673543
 20
184.9003202447
 30
0.0
 10
122.7930432484
 20
184.432690642
 30
0.0
 10
123.728954066
 20
184.1445438457
 30
0.0
 10
124.3791379324
 20
184.0796500417
 30
0.0
 10
124.7031741635
 20
184.0796500417
 30
0.0
  0
SPLINE
  5
562
100
AcDbEntity
  8
0
100
AcDbSpline
 62
7
  6
CONTINUOUS
 70
0
 71
3
 72
11
 73
7
 74
0
 42
0.0000001
 43
0.0000001
 44
0.0000000001
 40
0.0
 40
0.0
 40
0.0
 40
0.0
 40
0.2601473519
 40
0.5144084291
 40
0.7602685261
 40
1.0
 40
1.0
 40
1.0
 40
1.0
 10
167.372218108
 20
184.8296500417
 30
0.0
 10
167.372218108
 20
184.7323900198
 30
0.0
 10
167.3374999009
 20
184.5382140288
 30
0.0
 10
167.1870057932
 20
184.2893691947
 30
0.0
 10
166.9589778012
 20
184.120023623
 30
0.0
 10
166.7752240129
 20
184.0796960905
 30
0.0
 10
166.6855967757
 20
184.0796942433
 30
0.0
  0
SPLINE
  5
563
100
AcDbEntity
  8
0
100
AcDbSpline
 62
7
  6
CONTINUOUS
 70
0
 71
3
 72
11
 73
7
 74
0
 42
0.0000001
 43
0.0000001
 44
0.0000000001
 40
0.0
 40
0.0
 40
0.0
 40
0.0
 40
0.2525983336
 40
0.5036775602
 40
0.7526022706
 40
1.0
 40
1.0
 40
1.0
 40
1.0
 10
121.2498273516
 20
189.0978402536
 30
0.0
 10
121.2498273516
 20
188.6397606371
 30
0.0
 10
121.4289642009
 20
187.7165663967
 30
0.0
 10
122.1965752179
 20
186.5473213329
 30
0.0
 10
123.3443978831
 20
185.7633500878
 30
0.0
 10
124.2545256892
 20
185.5796500417
 30
0.0
 10
124.7031741635
 20
185.5796500417
 30
0.0
  0
SPLINE
  5
564
100
AcDbEntity
  8
0
100
AcDbSpline
 62
7
  6
CONTINUOUS
 70
0
 71
3
 72
13
 73
9
 74
0
 42
0.0000001
 43
0.0000001
 44
0.0000000001
 40
0.0
 40
0.0
 40
0.0
 40
0.0
 40
0.3688320813
 40
0.6833146346
 40
0.8057629296
 40
0.8993356384
 40
0.9625092168
 40
1.0
 40
1.0
 40
1.0
 40
1.0
 10
113.4722934138
 20
194.3296500417
 30
0.0
 10
113.4722934138
 20
194.4253880805
 30
0.0
 10
113.4665915697
 20
194.6027690028
 30
0.0
 10
113.4446538575
 20
194.8111892098
 30
0.0
 10
113.4178376567
 20
194.9462785198
 30
0.0
 10
113.3958127123
 20
195.015794374
 30
0.0
 10
113.3752062085
 20
195.0612907441
 30
0.0
 10
113.3517887932
 20
195.0796180193
 30
0.0
 10
113.3420572805
 20
195.0796180193
 30
0.0
  0
SPLINE
  5
565
100
AcDbEntity
  8
0
100
AcDbSpline
 62
7
  6
CONTINUOUS
 70
0
 71
3
 72
11
 73
7
 74
0
 42
0.0000001
 43
0.0000001
 44
0.0000000001
 40
0.0
 40
0.0
 40
0.0
 40
0.0
 40
0.2397272964
 40
0.4856063459
 40
0.7398700919
 40
1.0
 40
1.0
 40
1.0
 40
1.0
 10
165.3362171457
 20
184.0796820641
 30
0.0
 10
165.4258436671
 20
184.0796820641
 30
0.0
 10
165.6096063747
 20
184.1200097445
 30
0.0
 10
165.8376346329
 20
184.2893722926
 30
0.0
 10
165.9881266689
 20
184.5382227603
 30
0.0
 10
166.0228384327
 20
184.7323956233
 30
0.0
 10
166.0228384327
 20
184.8296500417
 30
0.0
  0
SPLINE
  5
566
100
AcDbEntity
  8
0
100
AcDbSpline
 62
7
  6
CONTINUOUS
 70
0
 71
3
 72
13
 73
9
 74
0
 42
0.0000001
 43
0.0000001
 44
0.0000000001
 40
0.0
 40
0.0
 40
0.0
 40
0.0
 40
0.0374907832
 40
0.1006643616
 40
0.1942370704
 40
0.3166853654
 40
0.6311679187
 40
1.0
 40
1.0
 40
1.0
 40
1.0
 10
113.3420572805
 20
193.5796820641
 30
0.0
 10
113.3517887932
 20
193.5796820641
 30
0.0
 10
113.3752062085
 20
193.5980093392
 30
0.0
 10
113.3958127123
 20
193.6435057094
 30
0.0
 10
113.4178376567
 20
193.7130215636
 30
0.0
 10
113.4446538575
 20
193.8481108736
 30
0.0
 10
113.4665915697
 20
194.0565310806
 30
0.0
 10
113.4722934138
 20
194.2339120028
 30
0.0
 10
113.4722934138
 20
194.3296500417
 30
0.0
  0
SPLINE
  5
567
100
AcDbEntity
  8
0
100
AcDbSpline
 62
7
  6
CONTINUOUS
 70
0
 71
3
 72
13
 73
9
 74
0
 42
0.0000001
 43
0.0000001
 44
0.0000000001
 40
0.0
 40
0.0
 40
0.0
 40
0.0
 40
0.3688337319
 40
0.6833160965
 40
0.8057714878
 40
0.8993437803
 40
0.9625020446
 40
1.0
 40
1.0
 40
1.0
 40
1.0
 10
117.9039283023
 20
194.3296500417
 30
0.0
 10
117.9039283023
 20
194.2339110359
 30
0.0
 10
117.8982244191
 20
194.0565328162
 30
0.0
 10
117.876290662
 20
193.8480962791
 30
0.0
 10
117.8494632596
 20
193.7130246203
 30
0.0
 10
117.8274876569
 20
193.6434666952
 30
0.0
 10
117.8067877097
 20
193.5980624184
 30
0.0
 10
117.7834255981
 20
193.5796500417
 30
0.0
 10
117.7736921691
 20
193.5796500417
 30
0.0
  0
SPLINE
  5
568
100
AcDbEntity
  8
0
100
AcDbSpline
 62
7
  6
CONTINUOUS
 70
0
 71
3
 72
13
 73
9
 74
0
 42
0.0000001
 43
0.0000001
 44
0.0000000001
 40
0.0
 40
0.0
 40
0.0
 40
0.0
 40
0.0374979554
 40
0.1006562197
 40
0.1942285122
 40
0.3166839035
 40
0.6311662681
 40
1.0
 40
1.0
 40
1.0
 40
1.0
 10
117.7736921691
 20
195.0796500417
 30
0.0
 10
117.7834255981
 20
195.0796500417
 30
0.0
 10
117.8067877097
 20
195.061237665
 30
0.0
 10
117.8274876569
 20
195.0158333881
 30
0.0
 10
117.8494632596
 20
194.946275463
 30
0.0
 10
117.876290662
 20
194.8112038043
 30
0.0
 10
117.8982244191
 20
194.6027672672
 30
0.0
 10
117.9039283023
 20
194.4253890475
 30
0.0
 10
117.9039283023
 20
194.3296500417
 30
0.0
  0
SPLINE
  5
569
100
AcDbEntity
  8
0
100
AcDbSpline
 62
7
  6
CONTINUOUS
 70
0
 71
3
 72
13
 73
9
 74
0
 42
0.0000001
 43
0.0000001
 44
0.0000000001
 40
0.0
 40
0.0
 40
0.0
 40
0.0
 40
0.3688320813
 40
0.6833146346
 40
0.8057629296
 40
0.8993356384
 40
0.9625092168
 40
1.0
 40
1.0
 40
1.0
 40
1.0
 10
163.2409126643
 20
184.8296500417
 30
0.0
 10
163.2409126643
 20
184.7339120028
 30
0.0
 10
163.2352108202
 20
184.5565310806
 30
0.0
 10
163.213273108
 20
184.3481108736
 30
0.0
 10
163.1864569072
 20
184.2130215636
 30
0.0
 10
163.1644319628
 20
184.1435057094
 30
0.0
 10
163.143825459
 20
184.0980093392
 30
0.0
 10
163.1204080437
 20
184.0796820641
 30
0.0
 10
163.110676531
 20
184.0796820641
 30
0.0
  0
SPLINE
  5
56A
100
AcDbEntity
  8
0
100
AcDbSpline
 62
7
  6
CONTINUOUS
 70
0
 71
3
 72
13
 73
9
 74
0
 42
0.0000001
 43
0.0000001
 44
0.0000000001
 40
0.0
 40
0.0
 40
0.0
 40
0.0
 40
0.3688337319
 40
0.6833160965
 40
0.8057714878
 40
0.8993437803
 40
0.9625020446
 40
1.0
 40
1.0
 40
1.0
 40
1.0
 10
124.8334102968
 20
184.8296500417
 30
0.0
 10
124.8334102968
 20
184.9253890475
 30
0.0
 10
124.8277064135
 20
185.1027672672
 30
0.0
 10
124.8057726564
 20
185.3112038043
 30
0.0
 10
124.7789452541
 20
185.446275463
 30
0.0
 10
124.7569696514
 20
185.5158333881
 30
0.0
 10
124.7362697042
 20
185.561237665
 30
0.0
 10
124.7129075926
 20
185.5796500417
 30
0.0
 10
124.7031741635
 20
185.5796500417
 30
0.0
  0
SPLINE
  5
56B
100
AcDbEntity
  8
0
100
AcDbSpline
 62
7
  6
CONTINUOUS
 70
0
 71
3
 72
13
 73
9
 74
0
 42
0.0000001
 43
0.0000001
 44
0.0000000001
 40
0.0
 40
0.0
 40
0.0
 40
0.0
 40
0.0374979554
 40
0.1006562197
 40
0.1942285122
 40
0.3166839035
 40
0.6311662681
 40
1.0
 40
1.0
 40
1.0
 40
1.0
 10
124.7031741635
 20
184.0796500417
 30
0.0
 10
124.7129075926
 20
184.0796500417
 30
0.0
 10
124.7362697042
 20
184.0980624184
 30
0.0
 10
124.7569696514
 20
184.1434666952
 30
0.0
 10
124.7789452541
 20
184.2130246203
 30
0.0
 10
124.8057726564
 20
184.3480962791
 30
0.0
 10
124.8277064135
 20
184.5565328162
 30
0.0
 10
124.8334102968
 20
184.7339110359
 30
0.0
 10
124.8334102968
 20
184.8296500417
 30
0.0
  0
SPLINE
  5
56C
100
AcDbEntity
  8
0
100
AcDbSpline
 62
7
  6
CONTINUOUS
 70
0
 71
3
 72
11
 73
7
 74
0
 42
0.0000001
 43
0.0000001
 44
0.0000000001
 40
0.0
 40
0.0
 40
0.0
 40
0.0
 40
0.2601299081
 40
0.5143936541
 40
0.7602727036
 40
1.0
 40
1.0
 40
1.0
 40
1.0
 10
166.0228384327
 20
184.8296500417
 30
0.0
 10
166.0228384327
 20
184.92690446
 30
0.0
 10
165.9881266689
 20
185.121077323
 30
0.0
 10
165.8376346329
 20
185.3699277907
 30
0.0
 10
165.6096063747
 20
185.5392903388
 30
0.0
 10
165.4258436671
 20
185.5796180193
 30
0.0
 10
165.3362171457
 20
185.5796180193
 30
0.0
  0
SPLINE
  5
56D
100
AcDbEntity
  8
0
100
AcDbSpline
 62
7
  6
CONTINUOUS
 70
0
 71
3
 72
13
 73
9
 74
0
 42
0.0000001
 43
0.0000001
 44
0.0000000001
 40
0.0
 40
0.0
 40
0.0
 40
0.0
 40
0.0374907832
 40
0.1006643616
 40
0.1942370704
 40
0.3166853654
 40
0.6311679187
 40
1.0
 40
1.0
 40
1.0
 40
1.0
 10
163.110676531
 20
185.5796180193
 30
0.0
 10
163.1204080437
 20
185.5796180193
 30
0.0
 10
163.143825459
 20
185.5612907441
 30
0.0
 10
163.1644319628
 20
185.515794374
 30
0.0
 10
163.1864569072
 20
185.4462785198
 30
0.0
 10
163.213273108
 20
185.3111892098
 30
0.0
 10
163.2352108202
 20
185.1027690028
 30
0.0
 10
163.2409126643
 20
184.9253880805
 30
0.0
 10
163.2409126643
 20
184.8296500417
 30
0.0
  0
LINE
  5
56E
100
AcDbEntity
  8
0
100
AcDbLine
 62
7
  6
CONTINUOUS
 10
120.3460559789
 20
183.0796500417
 11
120.813897672
 21
184.0796500417
  0
SPLINE
  5
56F
100
AcDbEntity
  8
0
100
AcDbSpline
 62
7
  6
CONTINUOUS
 70
0
 71
3
 72
10
 73
6
 74
0
 42
0.0000001
 43
0.0000001
 44
0.0000000001
 40
0.0
 40
0.0
 40
0.0
 40
0.0
 40
0.333337945
 40
0.6666720373
 40
1.0
 40
1.0
 40
1.0
 40
1.0
 10
202.5176028796
 20
188.0796500417
 30
0.0
 10
202.5618442639
 20
187.5240934999
 30
0.0
 10
202.6502495014
 20
186.4129807038
 30
0.0
 10
202.782717117
 20
184.746313872
 30
0.0
 10
202.8709369624
 20
183.6352030833
 30
0.0
 10
202.9150117478
 20
183.0796500417
 30
0.0
  0
SPLINE
  5
570
100
AcDbEntity
  8
0
100
AcDbSpline
 62
7
  6
CONTINUOUS
 70
0
 71
3
 72
10
 73
6
 74
0
 42
0.0000001
 43
0.0000001
 44
0.0000000001
 40
0.0
 40
0.0
 40
0.0
 40
0.0
 40
0.3333242339
 40
0.6666589958
 40
1.0
 40
1.0
 40
1.0
 40
1.0
 10
208.4286520259
 20
183.0796500417
 30
0.0
 10
208.3828530675
 20
183.6352033118
 30
0.0
 10
208.2910964744
 20
184.7463144365
 30
0.0
 10
208.1532307279
 20
186.4129813354
 30
0.0
 10
208.0611666428
 20
187.5240951678
 30
0.0
 10
208.0150468935
 20
188.0796500417
 30
0.0
  0
SPLINE
  5
571
100
AcDbEntity
  8
0
100
AcDbSpline
 62
7
  6
CONTINUOUS
 70
0
 71
3
 72
10
 73
6
 74
0
 42
0.0000001
 43
0.0000001
 44
0.0000000001
 40
0.0
 40
0.0
 40
0.0
 40
0.0
 40
0.333400736
 40
0.6667341356
 40
1.0
 40
1.0
 40
1.0
 40
1.0
 10
227.1100296127
 20
188.0796500417
 30
0.0
 10
227.3609038836
 20
187.5241623351
 30
0.0
 10
227.8622367459
 20
186.4131342605
 30
0.0
 10
228.6134998842
 20
184.7464631965
 30
0.0
 10
229.1138583067
 20
183.6352663512
 30
0.0
 10
229.3638473021
 20
183.0796500417
 30
0.0
  0
SPLINE
  5
572
100
AcDbEntity
  8
0
100
AcDbSpline
 62
7
  6
CONTINUOUS
 70
0
 71
3
 72
10
 73
6
 74
0
 42
0.0000001
 43
0.0000001
 44
0.0000000001
 40
0.0
 40
0.0
 40
0.0
 40
0.0
 40
0.333337945
 40
0.6666720373
 40
1.0
 40
1.0
 40
1.0
 40
1.0
 10
143.9090853718
 20
188.0796500417
 30
0.0
 10
143.8648439874
 20
187.5240934999
 30
0.0
 10
143.77643875
 20
186.4129807038
 30
0.0
 10
143.6439711344
 20
184.7463138721
 30
0.0
 10
143.555751289
 20
183.6352030833
 30
0.0
 10
143.5116765035
 20
183.0796500417
 30
0.0
  0
SPLINE
  5
573
100
AcDbEntity
  8
0
100
AcDbSpline
 62
7
  6
CONTINUOUS
 70
0
 71
3
 72
10
 73
6
 74
0
 42
0.0000001
 43
0.0000001
 44
0.0000000001
 40
0.0
 40
0.0
 40
0.0
 40
0.0
 40
0.3333242339
 40
0.6666589958
 40
1.0
 40
1.0
 40
1.0
 40
1.0
 10
137.9980362254
 20
183.0796500417
 30
0.0
 10
138.0438351839
 20
183.6352033118
 30
0.0
 10
138.135591777
 20
184.7463144365
 30
0.0
 10
138.2734575235
 20
186.4129813354
 30
0.0
 10
138.3655216086
 20
187.5240951678
 30
0.0
 10
138.4116413578
 20
188.0796500417
 30
0.0
  0
SPLINE
  5
574
100
AcDbEntity
  8
0
100
AcDbSpline
 62
7
  6
CONTINUOUS
 70
0
 71
3
 72
10
 73
6
 74
0
 42
0.0000001
 43
0.0000001
 44
0.0000000001
 40
0.0
 40
0.0
 40
0.0
 40
0.0
 40
0.381476874
 40
0.7136120891
 40
1.0
 40
1.0
 40
1.0
 40
1.0
 10
115.7133441257
 20
191.6441676149
 30
0.0
 10
116.3873647711
 20
192.5586067097
 30
0.0
 10
117.7064461754
 20
194.2282646528
 30
0.0
 10
119.758408313
 20
196.392381033
 30
0.0
 10
121.1731100916
 20
197.5811984648
 30
0.0
 10
121.8651191983
 20
198.0796500417
 30
0.0
  0
SPLINE
  5
575
100
AcDbEntity
  8
0
100
AcDbSpline
 62
7
  6
CONTINUOUS
 70
0
 71
3
 72
10
 73
6
 74
0
 42
0.0000001
 43
0.0000001
 44
0.0000000001
 40
0.0
 40
0.0
 40
0.0
 40
0.0
 40
0.3371822322
 40
0.6704595783
 40
1.0
 40
1.0
 40
1.0
 40
1.0
 10
173.2133441257
 20
224.0796500417
 30
0.0
 10
173.4100332041
 20
224.0807057654
 30
0.0
 10
173.8011371625
 20
224.0825632598
 30
0.0
 10
174.3844802471
 20
224.0806139271
 30
0.0
 10
174.7711224521
 20
224.0839380084
 30
0.0
 10
174.9633441257
 20
224.0861270192
 30
0.0
  0
SPLINE
  5
576
100
AcDbEntity
  8
0
100
AcDbSpline
 62
7
  6
CONTINUOUS
 70
0
 71
3
 72
10
 73
6
 74
0
 42
0.0000001
 43
0.0000001
 44
0.0000000001
 40
0.0
 40
0.0
 40
0.0
 40
0.0
 40
0.333428451
 40
0.666695668
 40
1.0
 40
1.0
 40
1.0
 40
1.0
 10
171.4633441257
 20
224.0861270192
 30
0.0
 10
171.6578341238
 20
224.0839516275
 30
0.0
 10
172.0467383092
 20
224.080618165
 30
0.0
 10
172.6300813601
 20
224.0825609344
 30
0.0
 10
173.0189172685
 20
224.080712503
 30
0.0
 10
173.2133441257
 20
224.0796500417
 30
0.0
  0
SPLINE
  5
577
100
AcDbEntity
  8
0
100
AcDbSpline
 62
7
  6
CONTINUOUS
 70
0
 71
3
 72
10
 73
6
 74
0
 42
0.0000001
 43
0.0000001
 44
0.0000000001
 40
0.0
 40
0.0
 40
0.0
 40
0.0
 40
0.3305768782
 40
0.6632422206
 40
1.0
 40
1.0
 40
1.0
 40
1.0
 10
133.1756191647
 20
238.0796500417
 30
0.0
 10
133.1567267417
 20
238.0796500417
 30
0.0
 10
133.1187867599
 20
238.0774954755
 30
0.0
 10
133.0623494721
 20
238.0678370182
 30
0.0
 10
133.0254961663
 20
238.057234961
 30
0.0
 10
133.0073096553
 20
238.0509384324
 30
0.0
  0
SPLINE
  5
578
100
AcDbEntity
  8
0
100
AcDbSpline
 62
7
  6
CONTINUOUS
 70
0
 71
3
 72
10
 73
6
 74
0
 42
0.0000001
 43
0.0000001
 44
0.0000000001
 40
0.0
 40
0.0
 40
0.0
 40
0.0
 40
0.3310481734
 40
0.6682763974
 40
1.0
 40
1.0
 40
1.0
 40
1.0
 10
117.3975292322
 20
237.4207353241
 30
0.0
 10
117.4346180122
 20
237.5225911342
 30
0.0
 10
117.5445167354
 20
237.7172452319
 30
0.0
 10
117.7934149106
 20
237.93841381
 30
0.0
 10
117.9993049575
 20
238.0256107603
 30
0.0
 10
118.1048463988
 20
238.0512853373
 30
0.0
  0
SPLINE
  5
579
100
AcDbEntity
  8
0
100
AcDbSpline
 62
7
  6
CONTINUOUS
 70
0
 71
3
 72
10
 73
6
 74
0
 42
0.0000001
 43
0.0000001
 44
0.0000000001
 40
0.0
 40
0.0
 40
0.0
 40
0.0
 40
0.3156418691
 40
0.6500009585
 40
1.0
 40
1.0
 40
1.0
 40
1.0
 10
136.0639785167
 20
248.2079356687
 30
0.0
 10
135.924835635
 20
248.0512192191
 30
0.0
 10
135.6688737892
 20
247.7004438024
 30
0.0
 10
135.3692119313
 20
247.1053139596
 30
0.0
 10
135.2261084217
 20
246.6721250353
 30
0.0
 10
135.1681880596
 20
246.4470743201
 30
0.0
  0
LINE
  5
57A
100
AcDbEntity
  8
0
100
AcDbLine
 62
7
  6
CONTINUOUS
 10
135.5159103444
 20
246.0796500417
 11
136.0639785167
 21
248.2079356687
  0
LINE
  5
57B
100
AcDbEntity
  8
0
100
AcDbLine
 62
7
  6
CONTINUOUS
 10
117.3975292322
 20
237.4207353241
 11
116.545444612
 21
235.0796520705
  0
LINE
  5
57C
100
AcDbEntity
  8
0
100
AcDbLine
 62
7
  6
CONTINUOUS
 10
131.9805106564
 20
235.0796520639
 11
132.5830249084
 21
237.420733137
  0
SPLINE
  5
57D
100
AcDbEntity
  8
0
100
AcDbSpline
 62
7
  6
CONTINUOUS
 70
0
 71
3
 72
10
 73
6
 74
0
 42
0.0000001
 43
0.0000001
 44
0.0000000001
 40
0.0
 40
0.0
 40
0.0
 40
0.0
 40
0.379067317
 40
0.6977845387
 40
1.0
 40
1.0
 40
1.0
 40
1.0
 10
136.8201978954
 20
249.080318842
 30
0.0
 10
136.81351718
 20
249.201458254
 30
0.0
 10
136.8344840561
 20
249.430349116
 30
0.0
 10
137.0203102899
 20
249.7143831824
 30
0.0
 10
137.2271966792
 20
249.7774568507
 30
0.0
 10
137.3239231252
 20
249.7774568507
 30
0.0
  0
LINE
  5
57E
100
AcDbEntity
  8
0
100
AcDbLine
 62
7
  6
CONTINUOUS
 10
200.8435104925
 20
257.916604859
 11
200.3432816674
 21
258.0986732617
  0
LINE
  5
57F
100
AcDbEntity
  8
0
100
AcDbLine
 62
7
  6
CONTINUOUS
 10
212.0471236823
 20
253.8403273938
 11
211.547011099
 21
254.0223534879
  0
SPLINE
  5
580
100
AcDbEntity
  8
0
100
AcDbSpline
 62
7
  6
CONTINUOUS
 70
0
 71
3
 72
10
 73
6
 74
0
 42
0.0000001
 43
0.0000001
 44
0.0000000001
 40
0.0
 40
0.0
 40
0.0
 40
0.0
 40
0.3292246281
 40
0.6633832353
 40
1.0
 40
1.0
 40
1.0
 40
1.0
 10
192.6999122365
 20
257.5203167074
 30
0.0
 10
192.6893117308
 20
257.4816780478
 30
0.0
 10
192.6716045771
 20
257.4027719847
 30
0.0
 10
192.6556748125
 20
257.2819762761
 30
0.0
 10
192.6521202269
 20
257.2002961026
 30
0.0
 10
192.6521202269
 20
257.1593300807
 30
0.0
  0
SPLINE
  5
581
100
AcDbEntity
  8
0
100
AcDbSpline
 62
7
  6
CONTINUOUS
 70
0
 71
3
 72
18
 73
14
 74
0
 42
0.0000001
 43
0.0000001
 44
0.0000000001
 40
0.0
 40
0.0
 40
0.0
 40
0.0
 40
0.1718481857
 40
0.3247381711
 40
0.4423260461
 40
0.5356489411
 40
0.6341045566
 40
0.7103703373
 40
0.7720102792
 40
0.8311118315
 40
0.888867902
 40
0.9411945683
 40
1.0
 40
1.0
 40
1.0
 40
1.0
 10
199.0215131819
 20
257.5203166529
 30
0.0
 10
199.0544636393
 20
257.6052428106
 30
0.0
 10
199.1408417651
 20
257.7574561732
 30
0.0
 10
199.3077836319
 20
257.9252206075
 30
0.0
 10
199.4701716906
 20
258.0311655752
 30
0.0
 10
199.620437289
 20
258.0980828195
 30
0.0
 10
199.7576061669
 20
258.1370997828
 30
0.0
 10
199.8817622681
 20
258.155735185
 30
0.0
 10
199.986211021
 20
258.1607291088
 30
0.0
 10
200.080881113
 20
258.1568738745
 30
0.0
 10
200.1699057602
 20
258.1453008772
 30
0.0
 10
200.2576678688
 20
258.1269463644
 30
0.0
 10
200.3137263347
 20
258.1085814961
 30
0.0
 10
200.3432816674
 20
258.0986732617
 30
0.0
  0
LINE
  5
582
100
AcDbEntity
  8
0
100
AcDbLine
 62
7
  6
CONTINUOUS
 10
200.3432802905
 20
258.0986737628
 11
200.8435127743
 21
257.9166040285
  0
SPLINE
  5
583
100
AcDbEntity
  8
0
100
AcDbSpline
 62
7
  6
CONTINUOUS
 70
0
 71
3
 72
11
 73
7
 74
0
 42
0.0000001
 43
0.0000001
 44
0.0000000001
 40
0.0
 40
0.0
 40
0.0
 40
0.0
 40
0.0722366316
 40
0.2818824998
 40
0.6035122158
 40
1.0
 40
1.0
 40
1.0
 40
1.0
 10
189.6962898576
 20
261.9785981433
 30
0.0
 10
189.6727151238
 20
261.9871786446
 30
0.0
 10
189.6799489337
 20
261.8163135269
 30
0.0
 10
189.6357436982
 20
261.6762725837
 30
0.0
 10
189.6285713247
 20
261.3186223704
 30
0.0
 10
189.6202786352
 20
261.0797859915
 30
0.0
 10
189.6202786352
 20
260.9420861932
 30
0.0
  0
LINE
  5
584
100
AcDbEntity
  8
0
100
AcDbLine
 62
7
  6
CONTINUOUS
 10
211.5470106144
 20
254.0223536643
 11
212.0471290285
 21
253.8403254479
  0
SPLINE
  5
585
100
AcDbEntity
  8
0
100
AcDbSpline
 62
7
  6
CONTINUOUS
 70
0
 71
3
 72
17
 73
13
 74
0
 42
0.0000001
 43
0.0000001
 44
0.0000000001
 40
0.0
 40
0.0
 40
0.0
 40
0.0
 40
0.0612492498
 40
0.1302928695
 40
0.2105389562
 40
0.2874795349
 40
0.3743883597
 40
0.4799742282
 40
0.5894994392
 40
0.6988478702
 40
0.833767801
 40
1.0
 40
1.0
 40
1.0
 40
1.0
 10
193.3477946147
 20
257.916604859
 30
0.0
 10
193.3743223588
 20
257.9029314684
 30
0.0
 10
193.4346572969
 20
257.8822641868
 30
0.0
 10
193.5302436568
 20
257.8453030612
 30
0.0
 10
193.6314673345
 20
257.8014262149
 30
0.0
 10
193.7376115775
 20
257.7476256662
 30
0.0
 10
193.8507170401
 20
257.680752968
 30
0.0
 10
193.9709402315
 20
257.5954934783
 30
0.0
 10
194.0901710743
 20
257.4911946791
 30
0.0
 10
194.2060975435
 20
257.3629942362
 30
0.0
 10
194.3173579987
 20
257.1957242642
 30
0.0
 10
194.3705543675
 20
257.0565089136
 30
0.0
 10
194.3876468256
 20
256.9773345948
 30
0.0
  0
LINE
  5
586
100
AcDbEntity
  8
0
100
AcDbLine
 62
7
  6
CONTINUOUS
 10
193.3477946147
 20
257.916604859
 11
192.9940794203
 21
258.0986732617
  0
LINE
  5
587
100
AcDbEntity
  8
0
100
AcDbLine
 62
7
  6
CONTINUOUS
 10
201.2583754604
 20
253.8403273938
 11
200.9047424614
 21
254.0223534879
  0
LINE
  5
588
100
AcDbEntity
  8
0
100
AcDbLine
 62
7
  6
CONTINUOUS
 10
199.7339371765
 20
254.0223536642
 11
200.0875742985
 21
253.8403254479
  0
LINE
  5
589
100
AcDbEntity
  8
0
100
AcDbLine
 62
7
  6
CONTINUOUS
 10
191.8001334753
 20
258.0986737628
 11
192.1538512568
 21
257.9166040285
  0
SPLINE
  5
58A
100
AcDbEntity
  8
0
100
AcDbSpline
 62
7
  6
CONTINUOUS
 70
0
 71
3
 72
10
 73
6
 74
0
 42
0.0000001
 43
0.0000001
 44
0.0000000001
 40
0.0
 40
0.0
 40
0.0
 40
0.0
 40
0.3532530409
 40
0.6997641421
 40
1.0
 40
1.0
 40
1.0
 40
1.0
 10
211.5184828636
 20
237.4207331234
 30
0.0
 10
211.4925988837
 20
237.5212408203
 30
0.0
 10
211.4033793416
 20
237.7123409577
 30
0.0
 10
211.1958078663
 20
237.9257880273
 30
0.0
 10
211.0278608691
 20
238.0220789391
 30
0.0
 10
210.9445048619
 20
238.0509384324
 30
0.0
  0
SPLINE
  5
58B
100
AcDbEntity
  8
0
100
AcDbSpline
 62
7
  6
CONTINUOUS
 70
0
 71
3
 72
10
 73
6
 74
0
 42
0.0000001
 43
0.0000001
 44
0.0000000001
 40
0.0
 40
0.0
 40
0.0
 40
0.0
 40
0.202886581
 40
0.5562415948
 40
1.0
 40
1.0
 40
1.0
 40
1.0
 10
174.9633441257
 20
238.0516108845
 30
0.0
 10
174.9633441257
 20
238.0082242659
 30
0.0
 10
174.9207053822
 20
237.8939225349
 30
0.0
 10
174.8726295457
 20
237.6867876826
 30
0.0
 10
174.8562961968
 20
237.5156336468
 30
0.0
 10
174.8562890088
 20
237.4207373924
 30
0.0
  0
LINE
  5
58C
100
AcDbEntity
  8
0
100
AcDbLine
 62
7
  6
CONTINUOUS
 10
174.8562890088
 20
235.0796520862
 11
174.8562890088
 21
237.4207373924
  0
SPLINE
  5
58D
100
AcDbEntity
  8
0
100
AcDbSpline
 62
7
  6
CONTINUOUS
 70
0
 71
3
 72
10
 73
6
 74
0
 42
0.0000001
 43
0.0000001
 44
0.0000000001
 40
0.0
 40
0.0
 40
0.0
 40
0.0
 40
0.3366164003
 40
0.6699398467
 40
1.0
 40
1.0
 40
1.0
 40
1.0
 10
174.9633441257
 20
248.2061623565
 30
0.0
 10
174.9633441257
 20
248.230364161
 30
0.0
 10
174.9628072079
 20
248.2785332088
 30
0.0
 10
174.9602733598
 20
248.3503925106
 30
0.0
 10
174.9573660227
 20
248.3980060928
 30
0.0
 10
174.9555929006
 20
248.421670185
 30
0.0
  0
SPLINE
  5
58E
100
AcDbEntity
  8
0
100
AcDbSpline
 62
7
  6
CONTINUOUS
 70
0
 71
3
 72
11
 73
7
 74
0
 42
0.0000001
 43
0.0000001
 44
0.0000000001
 40
0.0
 40
0.0
 40
0.0
 40
0.0
 40
0.2928342921
 40
0.5532435115
 40
0.7836901778
 40
1.0
 40
1.0
 40
1.0
 40
1.0
 10
79.1490788994
 20
261.1843605887
 30
0.0
 10
78.8290625924
 20
260.9939391681
 30
0.0
 10
78.1806042473
 20
260.7009940363
 30
0.0
 10
77.1866424393
 20
260.5286840729
 30
0.0
 10
76.2763724967
 20
260.6653391152
 30
0.0
 10
75.78374297
 20
260.9885880547
 30
0.0
 10
75.5905129364
 20
261.1843605887
 30
0.0
  0
LINE
  5
58F
100
AcDbEntity
  8
0
100
AcDbLine
 62
7
  6
CONTINUOUS
 10
171.5691932387
 20
235.0796520639
 11
171.5691932387
 21
237.420733137
  0
SPLINE
  5
590
100
AcDbEntity
  8
0
100
AcDbSpline
 62
7
  6
CONTINUOUS
 70
0
 71
3
 72
10
 73
6
 74
0
 42
0.0000001
 43
0.0000001
 44
0.0000000001
 40
0.0
 40
0.0
 40
0.0
 40
0.0
 40
0.5397170179
 40
0.8800812279
 40
1.0
 40
1.0
 40
1.0
 40
1.0
 10
171.8093296364
 20
224.0800710758
 30
0.0
 10
171.7470842055
 20
224.0801641784
 30
0.0
 10
171.6336009882
 20
224.068650824
 30
0.0
 10
171.5490623984
 20
224.0990769549
 30
0.0
 10
171.4633441257
 20
224.0675500671
 30
0.0
 10
171.4633441257
 20
224.081380285
 30
0.0
  0
SPLINE
  5
591
100
AcDbEntity
  8
0
100
AcDbSpline
 62
7
  6
CONTINUOUS
 70
0
 71
3
 72
10
 73
6
 74
0
 42
0.0000001
 43
0.0000001
 44
0.0000000001
 40
0.0
 40
0.0
 40
0.0
 40
0.0
 40
0.341887666
 40
0.6715555969
 40
1.0
 40
1.0
 40
1.0
 40
1.0
 10
172.4633441257
 20
224.2715326011
 30
0.0
 10
172.3846569052
 20
224.2715326011
 30
0.0
 10
172.2296614616
 20
224.2571742868
 30
0.0
 10
172.0073241666
 20
224.1931232781
 30
0.0
 10
171.8718122094
 20
224.1223130176
 30
0.0
 10
171.8093296364
 20
224.0797658967
 30
0.0
  0
SPLINE
  5
592
100
AcDbEntity
  8
0
100
AcDbSpline
 62
7
  6
CONTINUOUS
 70
0
 71
3
 72
10
 73
6
 74
0
 42
0.0000001
 43
0.0000001
 44
0.0000000001
 40
0.0
 40
0.0
 40
0.0
 40
0.0
 40
0.325041631
 40
0.6592391334
 40
1.0
 40
1.0
 40
1.0
 40
1.0
 10
171.4972315907
 20
249.0803188457
 30
0.0
 10
171.5350129132
 20
249.212431632
 30
0.0
 10
171.6761898668
 20
249.4657491363
 30
0.0
 10
172.0303961434
 20
249.7180716151
 30
0.0
 10
172.3192899959
 20
249.7774568507
 30
0.0
 10
172.4633441257
 20
249.7774568507
 30
0.0
  0
SPLINE
  5
593
100
AcDbEntity
  8
0
100
AcDbSpline
 62
7
  6
CONTINUOUS
 70
0
 71
3
 72
10
 73
6
 74
0
 42
0.0000001
 43
0.0000001
 44
0.0000000001
 40
0.0
 40
0.0
 40
0.0
 40
0.0
 40
0.3365928164
 40
0.6699163938
 40
1.0
 40
1.0
 40
1.0
 40
1.0
 10
171.4633441257
 20
248.2079356687
 30
0.0
 10
171.4633441257
 20
248.2319364198
 30
0.0
 10
171.4638741515
 20
248.2797069593
 30
0.0
 10
171.4663740399
 20
248.3509746754
 30
0.0
 10
171.4692413322
 20
248.398198599
 30
0.0
 10
171.4709896875
 20
248.421670185
 30
0.0
  0
SPLINE
  5
594
100
AcDbEntity
  8
0
100
AcDbSpline
 62
7
  6
CONTINUOUS
 70
0
 71
3
 72
11
 73
7
 74
0
 42
0.0000001
 43
0.0000001
 44
0.0000000001
 40
0.0
 40
0.0
 40
0.0
 40
0.0
 40
0.34515651
 40
0.6446175672
 40
0.8637515913
 40
1.0
 40
1.0
 40
1.0
 40
1.0
 10
172.4633441257
 20
246.7890944634
 30
0.0
 10
172.335488123
 20
246.7890944634
 30
0.0
 10
172.0963510481
 20
246.7750143583
 30
0.0
 10
171.7818166476
 20
246.7049405389
 30
0.0
 10
171.5572604218
 20
246.6158212447
 30
0.0
 10
171.4633441257
 20
246.4975446905
 30
0.0
 10
171.4633441257
 20
246.4470743201
 30
0.0
  0
LINE
  5
595
100
AcDbEntity
  8
0
100
AcDbLine
 62
7
  6
CONTINUOUS
 10
172.3854600116
 20
253.8403273938
 11
172.3854600116
 21
254.0223534879
  0
LINE
  5
596
100
AcDbEntity
  8
0
100
AcDbLine
 62
7
  6
CONTINUOUS
 10
172.36909754
 20
257.916604859
 11
172.36909754
 21
258.0986732617
  0
SPLINE
  5
597
100
AcDbEntity
  8
0
100
AcDbSpline
 62
7
  6
CONTINUOUS
 70
0
 71
3
 72
17
 73
13
 74
0
 42
0.0000001
 43
0.0000001
 44
0.0000000001
 40
0.0
 40
0.0
 40
0.0
 40
0.0
 40
0.0388144885
 40
0.0961959675
 40
0.1676637415
 40
0.2390396693
 40
0.3224520646
 40
0.427559994
 40
0.5408965618
 40
0.6583466499
 40
0.8087304758
 40
1.0
 40
1.0
 40
1.0
 40
1.0
 10
172.36909754
 20
257.916604859
 30
0.0
 10
172.36918493
 20
257.8998040141
 30
0.0
 10
172.3187567825
 20
257.8787764026
 30
0.0
 10
172.2633011206
 20
257.8440322329
 30
0.0
 10
172.185346375
 20
257.8004338103
 30
0.0
 10
172.1043267144
 20
257.7466576827
 30
0.0
 10
172.0137882588
 20
257.6793607012
 30
0.0
 10
171.9151070869
 20
257.5936079703
 30
0.0
 10
171.813725909
 20
257.4890908274
 30
0.0
 10
171.710096371
 20
257.3603853034
 30
0.0
 10
171.6030582686
 20
257.1924047331
 30
0.0
 10
171.5430777105
 20
257.0560772295
 30
0.0
 10
171.5175017535
 20
256.9773345948
 30
0.0
  0
SPLINE
  5
598
100
AcDbEntity
  8
0
100
AcDbSpline
 62
7
  6
CONTINUOUS
 70
0
 71
3
 72
17
 73
13
 74
0
 42
0.0000001
 43
0.0000001
 44
0.0000000001
 40
0.0
 40
0.0
 40
0.0
 40
0.0
 40
0.2423801238
 40
0.4172703478
 40
0.5429817554
 40
0.6556713935
 40
0.7488943535
 40
0.8161571401
 40
0.8692705788
 40
0.9169367297
 40
0.9539333614
 40
1.0
 40
1.0
 40
1.0
 40
1.0
 10
154.4373247081
 20
256.9773345948
 30
0.0
 10
154.4187294992
 20
257.0537138256
 30
0.0
 10
154.3867144022
 20
257.1852046564
 30
0.0
 10
154.3453767602
 20
257.3563861228
 30
0.0
 10
154.3142835816
 20
257.4867749621
 30
0.0
 10
154.2898556786
 20
257.5915089538
 30
0.0
 10
154.2703944592
 20
257.6779730433
 30
0.0
 10
154.2562309168
 20
257.745720593
 30
0.0
 10
154.2460317924
 20
257.7994429056
 30
0.0
 10
154.2406250983
 20
257.8433474983
 30
0.0
 10
154.238390846
 20
257.8872416696
 30
0.0
 10
154.2595461876
 20
257.9097793264
 30
0.0
 10
154.2728369946
 20
257.9166040285
 30
0.0
  0
LINE
  5
599
100
AcDbEntity
  8
0
100
AcDbLine
 62
7
  6
CONTINUOUS
 10
146.6927510749
 20
254.0223536642
 11
146.3391139529
 21
253.8403254479
  0
LINE
  5
59A
100
AcDbEntity
  8
0
100
AcDbLine
 62
7
  6
CONTINUOUS
 10
154.6265547761
 20
258.0986737628
 11
154.2728369946
 21
257.9166040285
  0
SPLINE
  5
59B
100
AcDbEntity
  8
0
100
AcDbSpline
 62
7
  6
CONTINUOUS
 70
0
 71
3
 72
18
 73
14
 74
0
 42
0.0000001
 43
0.0000001
 44
0.0000000001
 40
0.0
 40
0.0
 40
0.0
 40
0.0
 40
0.0343412206
 40
0.0849825805
 40
0.145754688
 40
0.2102031163
 40
0.2785446089
 40
0.3626194233
 40
0.4689784518
 40
0.5641195937
 40
0.6766578959
 40
0.819770881
 40
1.0
 40
1.0
 40
1.0
 40
1.0
 10
172.3854600116
 20
253.8403273938
 30
0.0
 10
172.3764731998
 20
253.8283219094
 30
0.0
 10
172.3458986105
 20
253.8055251073
 30
0.0
 10
172.2884455825
 20
253.7787098429
 30
0.0
 10
172.22154484
 20
253.7406769222
 30
0.0
 10
172.1494376161
 20
253.6966024334
 30
0.0
 10
172.0715147113
 20
253.642664357
 30
0.0
 10
171.982551871
 20
253.5728627213
 30
0.0
 10
171.8904499147
 20
253.4885449023
 30
0.0
 10
171.7969353542
 20
253.3880711619
 30
0.0
 10
171.7021646443
 20
253.2674294106
 30
0.0
 10
171.6009538668
 20
253.1057447694
 30
0.0
 10
171.543865656
 20
252.9756138161
 30
0.0
 10
171.5192195749
 20
252.900867971
 30
0.0
  0
SPLINE
  5
59C
100
AcDbEntity
  8
0
100
AcDbSpline
 62
7
  6
CONTINUOUS
 70
0
 71
3
 72
18
 73
14
 74
0
 42
0.0000001
 43
0.0000001
 44
0.0000000001
 40
0.0
 40
0.0
 40
0.0
 40
0.0
 40
0.2314265886
 40
0.4005812362
 40
0.5233977591
 40
0.6218780995
 40
0.7197335277
 40
0.7903084369
 40
0.8429683453
 40
0.8892101651
 40
0.9283567453
 40
0.960174492
 40
1.0
 40
1.0
 40
1.0
 40
1.0
 10
146.5062541333
 20
252.900867971
 30
0.0
 10
146.4885524691
 20
252.9736649988
 30
0.0
 10
146.4580591822
 20
253.0997067352
 30
0.0
 10
146.4188090654
 20
253.2645350155
 30
0.0
 10
146.3899809162
 20
253.38760161
 30
0.0
 10
146.3669055694
 20
253.4883120401
 30
0.0
 10
146.3481554336
 20
253.5726512053
 30
0.0
 10
146.3333002617
 20
253.6426875684
 30
0.0
 10
146.3227873855
 20
253.6964856489
 30
0.0
 10
146.3149903757
 20
253.7406427207
 30
0.0
 10
146.310920221
 20
253.7780019969
 30
0.0
 10
146.309413996
 20
253.8151216316
 30
0.0
 10
146.3276476869
 20
253.8344313366
 30
0.0
 10
146.3391139529
 20
253.8403254479
 30
0.0
  0
SPLINE
  5
59D
100
AcDbEntity
  8
0
100
AcDbSpline
 62
7
  6
CONTINUOUS
 70
0
 71
3
 72
10
 73
6
 74
0
 42
0.0000001
 43
0.0000001
 44
0.0000000001
 40
0.0
 40
0.0
 40
0.0
 40
0.0
 40
0.3293338674
 40
0.6634596818
 40
1.0
 40
1.0
 40
1.0
 40
1.0
 10
148.2709293914
 20
253.4381239986
 30
0.0
 10
148.2811732346
 20
253.4000493914
 30
0.0
 10
148.2982830671
 20
253.322352182
 30
0.0
 10
148.3136760884
 20
253.2034876368
 30
0.0
 10
148.3171101836
 20
253.1231491509
 30
0.0
 10
148.3171101836
 20
253.08285781
 30
0.0
  0
SPLINE
  5
59E
100
AcDbEntity
  8
0
100
AcDbSpline
 62
7
  6
CONTINUOUS
 70
0
 71
3
 72
19
 73
15
 74
0
 42
0.0000001
 43
0.0000001
 44
0.0000000001
 40
0.0
 40
0.0
 40
0.0
 40
0.0
 40
0.0458847105
 40
0.0975168753
 40
0.1548876847
 40
0.2181302974
 40
0.276868047
 40
0.3468387311
 40
0.4323150603
 40
0.5299348595
 40
0.6190212331
 40
0.7307423758
 40
0.8609612359
 40
1.0
 40
1.0
 40
1.0
 40
1.0
 10
146.6927510749
 20
254.0223536642
 30
0.0
 10
146.7192268914
 20
254.0321472826
 30
0.0
 10
146.7767576681
 20
254.0499096636
 30
0.0
 10
146.8710394573
 20
254.0647806619
 30
0.0
 10
146.9762754463
 20
254.0772493258
 30
0.0
 10
147.0865457496
 20
254.0832496235
 30
0.0
 10
147.2046900443
 20
254.082924073
 30
0.0
 10
147.3362793903
 20
254.0741046138
 30
0.0
 10
147.4904791683
 20
254.0510944975
 30
0.0
 10
147.6529910793
 20
254.0090016556
 30
0.0
 10
147.8241195682
 20
253.9412534032
 30
0.0
 10
148.0006678971
 20
253.8373180326
 30
0.0
 10
148.1721010202
 20
253.6731122768
 30
0.0
 10
148.2487055938
 20
253.5207258337
 30
0.0
 10
148.2709293426
 20
253.4381239735
 30
0.0
  0
SPLINE
  5
59F
100
AcDbEntity
  8
0
100
AcDbSpline
 62
7
  6
CONTINUOUS
 70
0
 71
3
 72
19
 73
15
 74
0
 42
0.0000001
 43
0.0000001
 44
0.0000000001
 40
0.0
 40
0.0
 40
0.0
 40
0.0
 40
0.1759249432
 40
0.3189182408
 40
0.4299419306
 40
0.5140701066
 40
0.6039727711
 40
0.6830527186
 40
0.7483427944
 40
0.8036998758
 40
0.8638534236
 40
0.9185115245
 40
0.9664883527
 40
1.0
 40
1.0
 40
1.0
 40
1.0
 10
171.4633441257
 20
253.4381239735
 30
0.0
 10
171.4633441257
 20
253.5151108708
 30
0.0
 10
171.4819373125
 20
253.6561072487
 30
0.0
 10
171.5652980147
 20
253.8282473389
 30
0.0
 10
171.6673478356
 20
253.9378783254
 30
0.0
 10
171.7716074121
 20
254.007707155
 30
0.0
 10
171.8744116423
 20
254.0507746546
 30
0.0
 10
171.9746171104
 20
254.0740832571
 30
0.0
 10
172.0617512819
 20
254.0829586929
 30
0.0
 10
172.1409461038
 20
254.083200461
 30
0.0
 10
172.2153268363
 20
254.0773220322
 30
0.0
 10
172.2854176083
 20
254.0644194273
 30
0.0
 10
172.343829212
 20
254.0523064493
 30
0.0
 10
172.3758044092
 20
254.033391361
 30
0.0
 10
172.3854600116
 20
254.0223534879
 30
0.0
  0
SPLINE
  5
5A0
100
AcDbEntity
  8
0
100
AcDbSpline
 62
7
  6
CONTINUOUS
 70
0
 71
3
 72
10
 73
6
 74
0
 42
0.0000001
 43
0.0000001
 44
0.0000000001
 40
0.0
 40
0.0
 40
0.0
 40
0.0
 40
0.3309070073
 40
0.6642442816
 40
1.0
 40
1.0
 40
1.0
 40
1.0
 10
174.9091864978
 20
256.9773345949
 30
0.0
 10
174.9211045754
 20
256.9406415072
 30
0.0
 10
174.9411333394
 20
256.8656549798
 30
0.0
 10
174.9592926552
 20
256.7502952914
 30
0.0
 10
174.9633441257
 20
256.672222237
 30
0.0
 10
174.9633441257
 20
256.6330768422
 30
0.0
  0
LINE
  5
5A1
100
AcDbEntity
  8
0
100
AcDbLine
 62
7
  6
CONTINUOUS
 10
174.0575907113
 20
258.0986737628
 11
174.0575907113
 21
257.9166040285
  0
LINE
  5
5A2
100
AcDbEntity
  8
0
100
AcDbLine
 62
7
  6
CONTINUOUS
 10
174.0412282398
 20
254.0223536643
 11
174.0412282398
 21
253.8403254479
  0
LINE
  5
5A3
100
AcDbEntity
  8
0
100
AcDbLine
 62
7
  6
CONTINUOUS
 10
192.1538496433
 20
257.916604859
 11
191.8001344489
 21
258.0986732617
  0
SPLINE
  5
5A4
100
AcDbEntity
  8
0
100
AcDbSpline
 62
7
  6
CONTINUOUS
 70
0
 71
3
 72
10
 73
6
 74
0
 42
0.0000001
 43
0.0000001
 44
0.0000000001
 40
0.0
 40
0.0
 40
0.0
 40
0.0
 40
0.3378670335
 40
0.6717159487
 40
1.0
 40
1.0
 40
1.0
 40
1.0
 10
191.948732547
 20
256.6330768422
 30
0.0
 10
191.948732547
 20
256.6721991678
 30
0.0
 10
191.9517604638
 20
256.7500149363
 30
0.0
 10
191.9653263677
 20
256.8651185275
 30
0.0
 10
191.9803716611
 20
256.9404007238
 30
0.0
 10
191.9893635433
 20
256.9773345948
 30
0.0
  0
LINE
  5
5A5
100
AcDbEntity
  8
0
100
AcDbLine
 62
7
  6
CONTINUOUS
 10
200.0875705181
 20
253.8403273938
 11
199.7339375192
 21
254.0223534879
  0
SPLINE
  5
5A6
100
AcDbEntity
  8
0
100
AcDbSpline
 62
7
  6
CONTINUOUS
 70
0
 71
3
 72
10
 73
6
 74
0
 42
0.0000001
 43
0.0000001
 44
0.0000000001
 40
0.0
 40
0.0
 40
0.0
 40
0.0
 40
0.3377294784
 40
0.6716132985
 40
1.0
 40
1.0
 40
1.0
 40
1.0
 10
199.879200075
 20
252.5510142728
 30
0.0
 10
199.879200075
 20
252.5907553517
 30
0.0
 10
199.8822725821
 20
252.6698217862
 30
0.0
 10
199.8960355284
 20
252.7867957164
 30
0.0
 10
199.9113038767
 20
252.8633204036
 30
0.0
 10
199.920434118
 20
252.900867971
 30
0.0
  0
SPLINE
  5
5A7
100
AcDbEntity
  8
0
100
AcDbSpline
 62
7
  6
CONTINUOUS
 70
0
 71
3
 72
11
 73
7
 74
0
 42
0.0000001
 43
0.0000001
 44
0.0000000001
 40
0.0
 40
0.0
 40
0.0
 40
0.0
 40
0.2933936271
 40
0.5616834389
 40
0.7956403754
 40
1.0
 40
1.0
 40
1.0
 40
1.0
 10
183.5773619088
 20
260.9420861932
 30
0.0
 10
183.5773619088
 20
261.0802936281
 30
0.0
 10
183.6151825744
 20
261.3468546688
 30
0.0
 10
183.7815555835
 20
261.6901442791
 30
0.0
 10
184.0319065378
 20
261.9241494293
 30
0.0
 10
184.241974244
 20
261.9807541469
 30
0.0
 10
184.3382167407
 20
261.9785981433
 30
0.0
  0
SPLINE
  5
5A8
100
AcDbEntity
  8
0
100
AcDbSpline
 62
7
  6
CONTINUOUS
 70
0
 71
3
 72
10
 73
6
 74
0
 42
0.0000001
 43
0.0000001
 44
0.0000000001
 40
0.0
 40
0.0
 40
0.0
 40
0.0
 40
0.3366291963
 40
0.6707760983
 40
1.0
 40
1.0
 40
1.0
 40
1.0
 10
190.1772464956
 20
257.1593171379
 30
0.0
 10
190.1772464956
 20
257.2002861067
 30
0.0
 10
190.180800233
 20
257.2819692527
 30
0.0
 10
190.1967300856
 20
257.4027693076
 30
0.0
 10
190.2144381722
 20
257.4816765088
 30
0.0
 10
190.2250390356
 20
257.5203164329
 30
0.0
  0
SPLINE
  5
5A9
100
AcDbEntity
  8
0
100
AcDbSpline
 62
7
  6
CONTINUOUS
 70
0
 71
3
 72
18
 73
14
 74
0
 42
0.0000001
 43
0.0000001
 44
0.0000000001
 40
0.0
 40
0.0
 40
0.0
 40
0.0
 40
0.1452744053
 40
0.2832568894
 40
0.3976311534
 40
0.4937671246
 40
0.6000012893
 40
0.6852130032
 40
0.7555277024
 40
0.8236694674
 40
0.8900546419
 40
0.9479130044
 40
1.0
 40
1.0
 40
1.0
 40
1.0
 10
190.2250386083
 20
257.5203166529
 30
0.0
 10
190.2485877003
 20
257.6061525979
 30
0.0
 10
190.3316510103
 20
257.7649032107
 30
0.0
 10
190.5151261075
 20
257.9302125033
 30
0.0
 10
190.7034159546
 20
258.0333929427
 30
0.0
 10
190.8865087337
 20
258.0992818708
 30
0.0
 10
191.0589805847
 20
258.1375605802
 30
0.0
 10
191.2185176489
 20
258.1558371895
 30
0.0
 10
191.3555660496
 20
258.1606976814
 30
0.0
 10
191.4811316527
 20
258.1569530289
 30
0.0
 10
191.5984323423
 20
258.1452135827
 30
0.0
 10
191.7055385072
 20
258.1295612407
 30
0.0
 10
191.7701938678
 20
258.1097186987
 30
0.0
 10
191.8001344489
 20
258.0986732617
 30
0.0
  0
SPLINE
  5
5AA
100
AcDbEntity
  8
0
100
AcDbSpline
 62
7
  6
CONTINUOUS
 70
0
 71
3
 72
10
 73
6
 74
0
 42
0.0000001
 43
0.0000001
 44
0.0000000001
 40
0.0
 40
0.0
 40
0.0
 40
0.0
 40
0.3275462657
 40
0.6615371172
 40
1.0
 40
1.0
 40
1.0
 40
1.0
 10
194.3876468256
 20
256.9773345948
 30
0.0
 10
194.3956348954
 20
256.9403328964
 30
0.0
 10
194.4089598929
 20
256.8649675221
 30
0.0
 10
194.4209406924
 20
256.7499359989
 30
0.0
 10
194.4236062811
 20
256.6721925896
 30
0.0
 10
194.4236062811
 20
256.6330768422
 30
0.0
  0
LINE
  5
5AB
100
AcDbEntity
  8
0
100
AcDbLine
 62
7
  6
CONTINUOUS
 10
192.9940784467
 20
258.0986737628
 11
193.3477962282
 21
257.9166040285
  0
SPLINE
  5
5AC
100
AcDbEntity
  8
0
100
AcDbSpline
 62
7
  6
CONTINUOUS
 70
0
 71
3
 72
11
 73
7
 74
0
 42
0.0000001
 43
0.0000001
 44
0.0000000001
 40
0.0
 40
0.0
 40
0.0
 40
0.0
 40
0.1961700021
 40
0.4206083168
 40
0.6903814018
 40
1.0
 40
1.0
 40
1.0
 40
1.0
 10
185.3988769125
 20
261.9785981433
 30
0.0
 10
185.4867243345
 20
261.9807537082
 30
0.0
 10
185.6793955934
 20
261.9214548037
 30
0.0
 10
185.8900790408
 20
261.6814357864
 30
0.0
 10
186.0227626229
 20
261.3417680856
 30
0.0
 10
186.0522356429
 20
261.0807790737
 30
0.0
 10
186.0522356429
 20
260.9420861932
 30
0.0
  0
SPLINE
  5
5AD
100
AcDbEntity
  8
0
100
AcDbSpline
 62
7
  6
CONTINUOUS
 70
0
 71
3
 72
10
 73
6
 74
0
 42
0.0000001
 43
0.0000001
 44
0.0000000001
 40
0.0
 40
0.0
 40
0.0
 40
0.0
 40
0.3278436867
 40
0.6618319178
 40
1.0
 40
1.0
 40
1.0
 40
1.0
 10
202.3162880342
 20
252.9008679711
 30
0.0
 10
202.3246779564
 20
252.8632697033
 30
0.0
 10
202.3386774074
 20
252.7866828101
 30
0.0
 10
202.3512693451
 20
252.6697626514
 30
0.0
 10
202.3540738092
 20
252.590750419
 30
0.0
 10
202.3540738092
 20
252.5510142728
 30
0.0
  0
LINE
  5
5AE
100
AcDbEntity
  8
0
100
AcDbLine
 62
7
  6
CONTINUOUS
 10
200.9047421188
 20
254.0223536642
 11
201.2583792408
 21
253.8403254479
  0
SPLINE
  5
5AF
100
AcDbEntity
  8
0
100
AcDbSpline
 62
7
  6
CONTINUOUS
 70
0
 71
3
 72
17
 73
13
 74
0
 42
0.0000001
 43
0.0000001
 44
0.0000000001
 40
0.0
 40
0.0
 40
0.0
 40
0.0
 40
0.0721822443
 40
0.1365411765
 40
0.2081994916
 40
0.2766163034
 40
0.3547588965
 40
0.4519849394
 40
0.5566052185
 40
0.6659931904
 40
0.8092656393
 40
1.0
 40
1.0
 40
1.0
 40
1.0
 10
200.8435104925
 20
257.916604859
 30
0.0
 10
200.8706298427
 20
257.9067393924
 30
0.0
 10
200.9210286123
 20
257.8854864367
 30
0.0
 10
200.9945250094
 20
257.846228339
 30
0.0
 10
201.0630698536
 20
257.801488581
 30
0.0
 10
201.1315944799
 20
257.747314924
 30
0.0
 10
201.2021502065
 20
257.6798431103
 30
0.0
 10
201.2740970247
 20
257.5937124184
 30
0.0
 10
201.34133554
 20
257.4885939927
 30
0.0
 10
201.4019464733
 20
257.3587840842
 30
0.0
 10
201.4520108822
 20
257.1879166858
 30
0.0
 10
201.4639743744
 20
257.0535745926
 30
0.0
 10
201.4624878056
 20
256.9773345948
 30
0.0
  0
SPLINE
  5
5B0
100
AcDbEntity
  8
0
100
AcDbSpline
 62
7
  6
CONTINUOUS
 70
0
 71
3
 72
10
 73
6
 74
0
 42
0.0000001
 43
0.0000001
 44
0.0000000001
 40
0.0
 40
0.0
 40
0.0
 40
0.0
 40
0.3293338674
 40
0.6634596818
 40
1.0
 40
1.0
 40
1.0
 40
1.0
 10
200.6306325942
 20
253.4381239986
 30
0.0
 10
200.6203887509
 20
253.4000493914
 30
0.0
 10
200.6032789184
 20
253.322352182
 30
0.0
 10
200.5878858972
 20
253.2034876368
 30
0.0
 10
200.5844518019
 20
253.1231491509
 30
0.0
 10
200.5844518019
 20
253.08285781
 30
0.0
  0
SPLINE
  5
5B1
100
AcDbEntity
  8
0
100
AcDbSpline
 62
7
  6
CONTINUOUS
 70
0
 71
3
 72
19
 73
15
 74
0
 42
0.0000001
 43
0.0000001
 44
0.0000000001
 40
0.0
 40
0.0
 40
0.0
 40
0.0
 40
0.0499402067
 40
0.0738581369
 40
0.090943627
 40
0.1019912798
 40
0.1099065804
 40
0.1262107084
 40
0.1618970536
 40
0.2271846422
 40
0.3123973834
 40
0.4582363672
 40
0.6882932609
 40
1.0
 40
1.0
 40
1.0
 40
1.0
 10
200.9047421188
 20
254.0223536642
 30
0.0
 10
200.8941898659
 20
254.0295565483
 30
0.0
 10
200.8767456892
 20
254.0396955392
 30
0.0
 10
200.8681703177
 20
254.0622399636
 30
0.0
 10
200.8637572272
 20
254.0740920241
 30
0.0
 10
200.8585589845
 20
254.083325091
 30
0.0
 10
200.848323847
 20
254.0820587157
 30
0.0
 10
200.8389274071
 20
254.0689045841
 30
0.0
 10
200.8239762904
 20
254.0435127516
 30
0.0
 10
200.8051727115
 20
253.9992763383
 30
0.0
 10
200.7781493833
 20
253.9286367666
 30
0.0
 10
200.7403261502
 20
253.8167615396
 30
0.0
 10
200.6886851759
 20
253.648641382
 30
0.0
 10
200.6513507397
 20
253.5151295835
 30
0.0
 10
200.6306326429
 20
253.4381239735
 30
0.0
  0
SPLINE
  5
5B2
100
AcDbEntity
  8
0
100
AcDbSpline
 62
7
  6
CONTINUOUS
 70
0
 71
3
 72
19
 73
15
 74
0
 42
0.0000001
 43
0.0000001
 44
0.0000000001
 40
0.0
 40
0.0
 40
0.0
 40
0.0
 40
0.1642881842
 40
0.3094792397
 40
0.4262070235
 40
0.5142748909
 40
0.6061006017
 40
0.6840082836
 40
0.7461648113
 40
0.7974823933
 40
0.8522068862
 40
0.9019375801
 40
0.9483954322
 40
1.0
 40
1.0
 40
1.0
 40
1.0
 10
210.2372453902
 20
253.4381239735
 30
0.0
 10
210.2680931349
 20
253.5191978196
 30
0.0
 10
210.3475837784
 20
253.6647163223
 30
0.0
 10
210.5025205417
 20
253.830526744
 30
0.0
 10
210.6543808015
 20
253.9376203689
 30
0.0
 10
210.7952806382
 20
254.0069964787
 30
0.0
 10
210.9248563208
 20
254.0501466597
 30
0.0
 10
211.0452589351
 20
254.0738372394
 30
0.0
 10
211.1460495454
 20
254.0828960594
 30
0.0
 10
211.234939277
 20
254.0832897364
 30
0.0
 10
211.3170598233
 20
254.077133273
 30
0.0
 10
211.3958403397
 20
254.0647840971
 30
0.0
 10
211.4720260682
 20
254.0474648269
 30
0.0
 10
211.521208641
 20
254.0311081405
 30
0.0
 10
211.547011099
 20
254.0223534879
 30
0.0
  0
SPLINE
  5
5B3
100
AcDbEntity
  8
0
100
AcDbSpline
 62
7
  6
CONTINUOUS
 70
0
 71
3
 72
18
 73
14
 74
0
 42
0.0000001
 43
0.0000001
 44
0.0000000001
 40
0.0
 40
0.0
 40
0.0
 40
0.0
 40
0.0635970727
 40
0.1207326786
 40
0.1824894167
 40
0.2452381508
 40
0.3102582389
 40
0.3890851004
 40
0.4880046057
 40
0.5765423932
 40
0.6822111946
 40
0.8195196667
 40
1.0
 40
1.0
 40
1.0
 40
1.0
 10
212.0471236823
 20
253.8403273938
 30
0.0
 10
212.070946118
 20
253.8310813406
 30
0.0
 10
212.1161109298
 20
253.8132339493
 30
0.0
 10
212.1814004523
 20
253.7796573627
 30
0.0
 10
212.2438457218
 20
253.741756694
 30
0.0
 10
212.3056241027
 20
253.6970817761
 30
0.0
 10
212.3688198538
 20
253.6431161409
 30
0.0
 10
212.4370486844
 20
253.5731823918
 30
0.0
 10
212.5029443146
 20
253.4885212363
 30
0.0
 10
212.5641144206
 20
253.3876127509
 30
0.0
 10
212.619281154
 20
253.2659519406
 30
0.0
 10
212.6663736076
 20
253.1017252154
 30
0.0
 10
212.678023949
 20
252.9733791825
 30
0.0
 10
212.6769975552
 20
252.900867971
 30
0.0
  0
SPLINE
  5
5B4
100
AcDbEntity
  8
0
100
AcDbSpline
 62
7
  6
CONTINUOUS
 70
0
 71
3
 72
10
 73
6
 74
0
 42
0.0000001
 43
0.0000001
 44
0.0000000001
 40
0.0
 40
0.0
 40
0.0
 40
0.0
 40
0.3787914979
 40
0.7082343388
 40
1.0
 40
1.0
 40
1.0
 40
1.0
 10
213.8436633465
 20
237.4207331234
 30
0.0
 10
213.8188628865
 20
237.5170733648
 30
0.0
 10
213.7624243273
 20
237.6946465292
 30
0.0
 10
213.6326506997
 20
237.9282262003
 30
0.0
 10
213.4917874113
 20
238.0258690728
 30
0.0
 10
213.419378596
 20
238.0509384324
 30
0.0
  0
SPLINE
  5
5B5
100
AcDbEntity
  8
0
100
AcDbSpline
 62
7
  6
CONTINUOUS
 70
0
 71
3
 72
10
 73
6
 74
0
 42
0.0000001
 43
0.0000001
 44
0.0000000001
 40
0.0
 40
0.0
 40
0.0
 40
0.0
 40
0.3316178253
 40
0.6689734907
 40
1.0
 40
1.0
 40
1.0
 40
1.0
 10
228.3232633629
 20
238.0509384324
 30
0.0
 10
228.4285771795
 20
238.025156103
 30
0.0
 10
228.634051577
 20
237.9378529518
 30
0.0
 10
228.8824168189
 20
237.7168434219
 30
0.0
 10
228.9921103288
 20
237.5224313086
 30
0.0
 10
229.0291417194
 20
237.420733137
 30
0.0
  0
LINE
  5
5B6
100
AcDbEntity
  8
0
100
AcDbLine
 62
7
  6
CONTINUOUS
 10
229.881225546
 20
235.0796520639
 11
229.0291417194
 21
237.420733137
  0
SPLINE
  5
5B7
100
AcDbEntity
  8
0
100
AcDbSpline
 62
7
  6
CONTINUOUS
 70
0
 71
3
 72
11
 73
7
 74
0
 42
0.0000001
 43
0.0000001
 44
0.0000000001
 40
0.0
 40
0.0
 40
0.0
 40
0.0
 40
0.2901133437
 40
0.5531590712
 40
0.7844603165
 40
1.0
 40
1.0
 40
1.0
 40
1.0
 10
270.2344472757
 20
261.2276858393
 30
0.0
 10
270.5482008993
 20
261.045518542
 30
0.0
 10
271.1878204323
 20
260.7631284952
 30
0.0
 10
272.1662738355
 20
260.5959303317
 30
0.0
 10
273.0639192192
 20
260.7228288252
 30
0.0
 10
273.556796891
 20
261.0241117848
 30
0.0
 10
273.7532902634
 20
261.2086238539
 30
0.0
  0
SPLINE
  5
5B8
100
AcDbEntity
  8
0
100
AcDbSpline
 62
7
  6
CONTINUOUS
 70
0
 71
3
 72
11
 73
7
 74
0
 42
0.0000001
 43
0.0000001
 44
0.0000000001
 40
0.0
 40
0.0
 40
0.0
 40
0.0
 40
0.2509667426
 40
0.5013682531
 40
0.7509682197
 40
1.0
 40
1.0
 40
1.0
 40
1.0
 10
293.6323607996
 20
281.4796500417
 30
0.0
 10
293.6323607996
 20
281.3496309623
 30
0.0
 10
293.6838161294
 20
281.0870748449
 30
0.0
 10
293.9041894071
 20
280.7547095076
 30
0.0
 10
294.2338141636
 20
280.5318419917
 30
0.0
 10
294.4950011059
 20
280.4796500122
 30
0.0
 10
294.6240177336
 20
280.4796500417
 30
0.0
  0
SPLINE
  5
5B9
100
AcDbEntity
  8
0
100
AcDbSpline
 62
7
  6
CONTINUOUS
 70
0
 71
3
 72
11
 73
7
 74
0
 42
0.0000001
 43
0.0000001
 44
0.0000000001
 40
0.0
 40
0.0
 40
0.0
 40
0.0
 40
0.2509732142
 40
0.5013774198
 40
0.7509747114
 40
1.0
 40
1.0
 40
1.0
 40
1.0
 10
55.8197083447
 20
281.4796500417
 30
0.0
 10
55.8197083447
 20
281.3496312356
 30
0.0
 10
55.7682568943
 20
281.0870778574
 30
0.0
 10
55.5478981243
 20
280.7547126754
 30
0.0
 10
55.2182918073
 20
280.5318430269
 30
0.0
 10
54.9571167387
 20
280.4796500119
 30
0.0
 10
54.8281070721
 20
280.4796500417
 30
0.0
  0
SPLINE
  5
5BA
100
AcDbEntity
  8
0
100
AcDbSpline
 62
7
  6
CONTINUOUS
 70
0
 71
3
 72
11
 73
7
 74
0
 42
0.0000001
 43
0.0000001
 44
0.0000000001
 40
0.0
 40
0.0
 40
0.0
 40
0.0
 40
0.2509601235
 40
0.5013550298
 40
0.7509484133
 40
1.0
 40
1.0
 40
1.0
 40
1.0
 10
296.6073309269
 20
281.4796500417
 30
0.0
 10
296.6073309269
 20
281.3496309615
 30
0.0
 10
296.555875615
 20
281.0870748411
 30
0.0
 10
296.3355022514
 20
280.7547095084
 30
0.0
 10
296.0058661885
 20
280.531834124
 30
0.0
 10
295.7446624664
 20
280.4796445259
 30
0.0
 10
295.6156321737
 20
280.4796500426
 30
0.0
  0
SPLINE
  5
5BB
100
AcDbEntity
  8
0
100
AcDbSpline
 62
7
  6
CONTINUOUS
 70
0
 71
3
 72
11
 73
7
 74
0
 42
0.0000001
 43
0.0000001
 44
0.0000000001
 40
0.0
 40
0.0
 40
0.0
 40
0.0
 40
0.2509666024
 40
0.5013642111
 40
0.7509549272
 40
1.0
 40
1.0
 40
1.0
 40
1.0
 10
52.8449052083
 20
281.4796500417
 30
0.0
 10
52.8449052083
 20
281.3496312348
 30
0.0
 10
52.8963566408
 20
281.0870778537
 30
0.0
 10
53.1167154966
 20
280.7547126761
 30
0.0
 10
53.4463331067
 20
280.5318351679
 30
0.0
 10
53.707524936
 20
280.4796445317
 30
0.0
 10
53.8365482518
 20
280.4796500426
 30
0.0
  0
SPLINE
  5
5BC
100
AcDbEntity
  8
0
100
AcDbSpline
 62
7
  6
CONTINUOUS
 70
0
 71
3
 72
14
 73
10
 74
0
 42
0.0000001
 43
0.0000001
 44
0.0000000001
 40
0.0
 40
0.0
 40
0.0
 40
0.0
 40
0.1455692979
 40
0.2884687692
 40
0.4289586084
 40
0.5701646742
 40
0.7115104526
 40
0.8523654815
 40
1.0
 40
1.0
 40
1.0
 40
1.0
 10
66.389402771
 20
299.4652627389
 30
0.0
 10
65.1742959834
 20
299.4766541204
 30
0.0
 10
62.7582694077
 20
299.2813185774
 30
0.0
 10
59.2832419875
 20
298.3401253313
 30
0.0
 10
56.0723857391
 20
296.7911699882
 30
0.0
 10
53.2169890959
 20
294.6776459757
 30
0.0
 10
50.8110315618
 20
292.0585884861
 30
0.0
 10
48.9179974517
 20
288.9865928585
 30
0.0
 10
48.065229998
 20
286.7145741943
 30
0.0
 10
47.7471957651
 20
285.5239173397
 30
0.0
  0
SPLINE
  5
5BD
100
AcDbEntity
  8
0
100
AcDbSpline
 62
7
  6
CONTINUOUS
 70
0
 71
3
 72
11
 73
7
 74
0
 42
0.0000001
 43
0.0000001
 44
0.0000000001
 40
0.0
 40
0.0
 40
0.0
 40
0.0
 40
0.1648715004
 40
0.3910883778
 40
0.6759586346
 40
1.0
 40
1.0
 40
1.0
 40
1.0
 10
47.747017017
 20
285.5239339312
 30
0.0
 10
47.83601833
 20
285.660793116
 30
0.0
 10
48.1791453837
 20
285.8885910995
 30
0.0
 10
48.8370497242
 20
286.0278021754
 30
0.0
 10
49.6690030354
 20
286.0367321524
 30
0.0
 10
50.2677110006
 20
285.9491127448
 30
0.0
 10
50.581564488
 20
285.8824206259
 30
0.0
  0
SPLINE
  5
5BE
100
AcDbEntity
  8
0
100
AcDbSpline
 62
7
  6
CONTINUOUS
 70
0
 71
3
 72
26
 73
22
 74
0
 42
0.0000001
 43
0.0000001
 44
0.0000000001
 40
0.0
 40
0.0
 40
0.0
 40
0.0
 40
0.2023022748
 40
0.3945267035
 40
0.5696658701
 40
0.6487309627
 40
0.7210232736
 40
0.7857889764
 40
0.8425682232
 40
0.890974697
 40
0.9306221685
 40
0.9470524616
 40
0.9612191949
 40
0.9731451124
 40
0.9828530387
 40
0.990365971
 40
0.9957073546
 40
0.9975714795
 40
0.9989025834
 40
0.9997059224
 40
1.0
 40
1.0
 40
1.0
 40
1.0
 10
66.3613095138
 20
297.7332486156
 30
0.0
 10
66.3626427021
 20
297.8500561842
 30
0.0
 10
66.3653208275
 20
298.0778515811
 30
0.0
 10
66.3694559823
 20
298.4067671541
 30
0.0
 10
66.3729656632
 20
298.6645241552
 30
0.0
 10
66.3757355245
 20
298.853032371
 30
0.0
 10
66.37767559
 20
298.97781304
 30
0.0
 10
66.3795362859
 20
299.0897248102
 30
0.0
 10
66.3812993149
 20
299.1878439366
 30
0.0
 10
66.3829497855
 20
299.2714583806
 30
0.0
 10
66.3842866565
 20
299.3317763387
 30
0.0
 10
66.3853119259
 20
299.3723239127
 30
0.0
 10
66.385995914
 20
299.3968700163
 30
0.0
 10
66.3866446202
 20
299.417527476
 30
0.0
 10
66.3872497525
 20
299.4343597698
 30
0.0
 10
66.3878251708
 20
299.4473425602
 30
0.0
 10
66.3882803898
 20
299.4558968878
 30
0.0
 10
66.3886802494
 20
299.4607209467
 30
0.0
 10
66.3888864468
 20
299.4631670858
 30
0.0
 10
66.3891485349
 20
299.464287631
 30
0.0
 10
66.3892625517
 20
299.4651918108
 30
0.0
 10
66.3894323478
 20
299.4651897176
 30
0.0
  0
SPLINE
  5
5BF
100
AcDbEntity
  8
0
100
AcDbSpline
 62
7
  6
CONTINUOUS
 70
0
 71
3
 72
16
 73
12
 74
0
 42
0.0000001
 43
0.0000001
 44
0.0000000001
 40
0.0
 40
0.0
 40
0.0
 40
0.0
 40
0.1298653812
 40
0.2589554399
 40
0.3867179087
 40
0.5127653919
 40
0.6369359353
 40
0.6983933037
 40
0.7594222432
 40
0.8802472157
 40
1.0
 40
1.0
 40
1.0
 40
1.0
 10
66.3613090707
 20
297.7332097939
 30
0.0
 10
65.4409549046
 20
297.7416934502
 30
0.0
 10
63.6007433406
 20
297.6121249474
 30
0.0
 10
60.9233269347
 20
296.9721183831
 30
0.0
 10
58.4137747186
 20
295.9055255014
 30
0.0
 10
56.1494218086
 20
294.4506992146
 30
0.0
 10
54.5109182427
 20
292.9521814087
 30
0.0
 10
53.3793252014
 20
291.6174264575
 30
0.0
 10
52.3765860782
 20
290.21230642
 30
0.0
 10
51.3555746533
 20
288.3229729977
 30
0.0
 10
50.7946371668
 20
286.7039607173
 30
0.0
 10
50.5815403006
 20
285.8824259248
 30
0.0
  0
SPLINE
  5
5C0
100
AcDbEntity
  8
0
100
AcDbSpline
 62
7
  6
CONTINUOUS
 70
0
 71
3
 72
11
 73
7
 74
0
 42
0.0000001
 43
0.0000001
 44
0.0000000001
 40
0.0
 40
0.0
 40
0.0
 40
0.0
 40
0.2468110202
 40
0.4933971406
 40
0.7437901651
 40
1.0
 40
1.0
 40
1.0
 40
1.0
 10
296.6710866758
 20
288.0623404305
 30
0.0
 10
296.6857977894
 20
288.3051798538
 30
0.0
 10
296.6240416374
 20
288.801787713
 30
0.0
 10
296.250107502
 20
289.4548814219
 30
0.0
 10
295.6416826467
 20
289.9143306613
 30
0.0
 10
295.1426232255
 20
290.0391942192
 30
0.0
 10
294.8904994808
 20
290.0538463256
 30
0.0
  0
SPLINE
  5
5C1
100
AcDbEntity
  8
0
100
AcDbSpline
 62
7
  6
CONTINUOUS
 70
0
 71
3
 72
10
 73
6
 74
0
 42
0.0000001
 43
0.0000001
 44
0.0000000001
 40
0.0
 40
0.0
 40
0.0
 40
0.0
 40
0.3333327021
 40
0.6666645994
 40
1.0
 40
1.0
 40
1.0
 40
1.0
 10
299.6460759347
 20
286.7944881227
 30
0.0
 10
299.6312905321
 20
286.5522729981
 30
0.0
 10
299.6017752998
 20
286.067839945
 30
0.0
 10
299.5573220969
 20
285.3411991069
 30
0.0
 10
299.5275578681
 20
284.8567793198
 30
0.0
 10
299.5127099076
 20
284.6145660538
 30
0.0
  0
SPLINE
  5
5C2
100
AcDbEntity
  8
0
100
AcDbSpline
 62
7
  6
CONTINUOUS
 70
0
 71
3
 72
13
 73
9
 74
0
 42
0.0000001
 43
0.0000001
 44
0.0000000001
 40
0.0
 40
0.0
 40
0.0
 40
0.0
 40
0.2185618975
 40
0.3748655822
 40
0.5000000052
 40
0.6251344498
 40
0.7814381415
 40
1.0
 40
1.0
 40
1.0
 40
1.0
 10
299.6462413676
 20
286.8017005595
 30
0.0
 10
300.7833939595
 20
286.7347297351
 30
0.0
 10
302.9025491922
 20
286.6089799736
 30
0.0
 10
304.9566257156
 20
286.4862841398
 30
0.0
 10
308.558883836
 20
286.2685951088
 30
0.0
 10
304.9566253734
 20
286.4862841016
 30
0.0
 10
302.9025489659
 20
286.608979851
 30
0.0
 10
300.7833939142
 20
286.7347296425
 30
0.0
 10
299.6462415282
 20
286.8017005089
 30
0.0
  0
SPLINE
  5
5C3
100
AcDbEntity
  8
0
100
AcDbSpline
 62
7
  6
CONTINUOUS
 70
0
 71
3
 72
21
 73
17
 74
0
 42
0.0000001
 43
0.0000001
 44
0.0000000001
 40
0.0
 40
0.0
 40
0.0
 40
0.0
 40
0.0019703545
 40
0.0056473103
 40
0.0192775391
 40
0.0417107778
 40
0.0731565326
 40
0.1136688673
 40
0.1628981752
 40
0.220390837
 40
0.2856899228
 40
0.3582706723
 40
0.4373425285
 40
0.6115285572
 40
0.8013784915
 40
1.0
 40
1.0
 40
1.0
 40
1.0
 10
295.0639006962
 20
291.7807699745
 30
0.0
 10
295.0627609057
 20
291.7808393851
 30
0.0
 10
295.059882268
 20
291.7783384782
 30
0.0
 10
295.0553371946
 20
291.7684423884
 30
0.0
 10
295.0490082918
 20
291.745894394
 30
0.0
 10
295.0414901782
 20
291.7076852046
 30
0.0
 10
295.0328072056
 20
291.6535806027
 30
0.0
 10
295.0233376898
 20
291.5840185479
 30
0.0
 10
295.0130555805
 20
291.499297893
 30
0.0
 10
295.0021065072
 20
291.4002102427
 30
0.0
 10
294.9905822786
 20
291.2875695039
 30
0.0
 10
294.9786023533
 20
291.1624087256
 30
0.0
 10
294.9615828601
 20
290.9743394717
 30
0.0
 10
294.9401054935
 20
290.7184371882
 30
0.0
 10
294.9148892953
 20
290.3933288502
 30
0.0
 10
294.8985902735
 20
290.1687833982
 30
0.0
 10
294.8904954961
 20
290.0539589779
 30
0.0
  0
SPLINE
  5
5C4
100
AcDbEntity
  8
0
100
AcDbSpline
 62
7
  6
CONTINUOUS
 70
0
 71
3
 72
10
 73
6
 74
0
 42
0.0000001
 43
0.0000001
 44
0.0000000001
 40
0.0
 40
0.0
 40
0.0
 40
0.0
 40
0.3403016427
 40
0.6745529403
 40
1.0
 40
1.0
 40
1.0
 40
1.0
 10
50.5815626408
 20
285.8824211395
 30
0.0
 10
50.4825032779
 20
285.9034788214
 30
0.0
 10
50.2852925852
 20
285.9413401029
 30
0.0
 10
49.9907759841
 20
285.9847401327
 30
0.0
 10
49.7953022282
 20
286.0039109715
 30
0.0
 10
49.6987240346
 20
286.0111902841
 30
0.0
  0
SPLINE
  5
5C5
100
AcDbEntity
  8
0
100
AcDbSpline
 62
7
  6
CONTINUOUS
 70
0
 71
3
 72
26
 73
22
 74
0
 42
0.0000001
 43
0.0000001
 44
0.0000000001
 40
0.0
 40
0.0
 40
0.0
 40
0.0
 40
0.0002938229
 40
0.0010968898
 40
0.0024277231
 40
0.0042915801
 40
0.0096324379
 40
0.0171448598
 40
0.0268522939
 40
0.0387777397
 40
0.0529440244
 40
0.0693738946
 40
0.109020608
 40
0.157426461
 40
0.2142052483
 40
0.2789706775
 40
0.3512629225
 40
0.4303281701
 40
0.6054683535
 40
0.797694786
 40
1.0
 40
1.0
 40
1.0
 40
1.0
 10
66.3894297783
 20
299.4651398828
 30
0.0
 10
66.389260139
 20
299.4651423317
 30
0.0
 10
66.3891458033
 20
299.4642379983
 30
0.0
 10
66.3888840887
 20
299.4631184753
 30
0.0
 10
66.3886777719
 20
299.4606725479
 30
0.0
 10
66.3882780872
 20
299.4558494465
 30
0.0
 10
66.3878228877
 20
299.4472959568
 30
0.0
 10
66.3872476194
 20
299.4343144971
 30
0.0
 10
66.3866425935
 20
299.417483505
 30
0.0
 10
66.3859940195
 20
299.3968274639
 30
0.0
 10
66.3853101631
 20
299.3722828358
 30
0.0
 10
66.384285091
 20
299.3317373676
 30
0.0
 10
66.382948476
 20
299.2714221805
 30
0.0
 10
66.3812983218
 20
299.1878112001
 30
0.0
 10
66.3795356276
 20
299.0896956748
 30
0.0
 10
66.3776752822
 20
298.9777875824
 30
0.0
 10
66.375735579
 20
298.8530106071
 30
0.0
 10
66.3729662268
 20
298.6645071725
 30
0.0
 10
66.3694571838
 20
298.4067557498
 30
0.0
 10
66.3653227717
 20
298.0778461954
 30
0.0
 10
66.3626451239
 20
297.8500544965
 30
0.0
 10
66.361312171
 20
297.7332485908
 30
0.0
  0
SPLINE
  5
5C6
100
AcDbEntity
  8
0
100
AcDbSpline
 62
7
  6
CONTINUOUS
 70
0
 71
3
 72
12
 73
8
 74
0
 42
0.0000001
 43
0.0000001
 44
0.0000000001
 40
0.0
 40
0.0
 40
0.0
 40
0.0
 40
0.127707753
 40
0.2954350464
 40
0.5040189019
 40
0.7438062258
 40
1.0
 40
1.0
 40
1.0
 40
1.0
 10
299.5127282803
 20
284.6147589816
 30
0.0
 10
299.4744147104
 20
284.7532026931
 30
0.0
 10
299.2736248064
 20
285.0385079362
 30
0.0
 10
298.7999495739
 20
285.35781026
 30
0.0
 10
298.1550741202
 20
285.6221467707
 30
0.0
 10
297.3821420129
 20
285.8070898492
 30
0.0
 10
296.8259467718
 20
285.8682263975
 30
0.0
 10
296.5381261862
 20
285.8824193638
 30
0.0
  0
SPLINE
  5
5C7
100
AcDbEntity
  8
0
100
AcDbSpline
 62
7
  6
CONTINUOUS
 70
0
 71
3
 72
21
 73
17
 74
0
 42
0.0000001
 43
0.0000001
 44
0.0000000001
 40
0.0
 40
0.0
 40
0.0
 40
0.0
 40
0.1986199124
 40
0.3884687113
 40
0.5626541348
 40
0.6417258939
 40
0.7143066836
 40
0.7796059453
 40
0.837098909
 40
0.8863286322
 40
0.9268414815
 40
0.9582878309
 40
0.9807217126
 40
0.9943525629
 40
0.9980297335
 40
1.0
 40
1.0
 40
1.0
 40
1.0
 10
294.8905073707
 20
290.053958271
 30
0.0
 10
294.8986002928
 20
290.1687839599
 30
0.0
 10
294.9148955912
 20
290.393332134
 30
0.0
 10
294.9401060377
 20
290.718444831
 30
0.0
 10
294.9615785214
 20
290.9743510658
 30
0.0
 10
294.9785941598
 20
291.1624236763
 30
0.0
 10
294.9905713911
 20
291.2875870412
 30
0.0
 10
295.0020930376
 20
291.4002303836
 30
0.0
 10
295.0130396687
 20
291.4993206146
 30
0.0
 10
295.0233194919
 20
291.5840438156
 30
0.0
 10
295.0327869229
 20
291.6536082778
 30
0.0
 10
295.0414679741
 20
291.7077152925
 30
0.0
 10
295.0489844889
 20
291.7459263993
 30
0.0
 10
295.0553119466
 20
291.7684764383
 30
0.0
 10
295.0598559978
 20
291.7783732782
 30
0.0
 10
295.0627338007
 20
291.7808753566
 30
0.0
 10
295.0638735814
 20
291.7808062889
 30
0.0
  0
SPLINE
  5
5C8
100
AcDbEntity
  8
0
100
AcDbSpline
 62
7
  6
CONTINUOUS
 70
0
 71
3
 72
12
 73
8
 74
0
 42
0.0000001
 43
0.0000001
 44
0.0000000001
 40
0.0
 40
0.0
 40
0.0
 40
0.0
 40
0.202761618
 40
0.4028131941
 40
0.6020594526
 40
0.8007062505
 40
1.0
 40
1.0
 40
1.0
 40
1.0
 10
299.6460121335
 20
286.7944793684
 30
0.0
 10
299.6582747457
 20
287.2989646892
 30
0.0
 10
299.5297922927
 20
288.3120862415
 30
0.0
 10
298.8865360463
 20
289.6909735809
 30
0.0
 10
297.8593195615
 20
290.8013923225
 30
0.0
 10
296.5458424851
 20
291.5443205172
 30
0.0
 10
295.5590384994
 20
291.7519764831
 30
0.0
 10
295.0638735814
 20
291.7808062889
 30
0.0
  0
SPLINE
  5
5C9
100
AcDbEntity
  8
0
100
AcDbSpline
 62
7
  6
CONTINUOUS
 70
0
 71
3
 72
16
 73
12
 74
0
 42
0.0000001
 43
0.0000001
 44
0.0000000001
 40
0.0
 40
0.0
 40
0.0
 40
0.0
 40
0.1515580337
 40
0.3072552847
 40
0.460657479
 40
0.6044868183
 40
0.7323003666
 40
0.7891183908
 40
0.840790721
 40
0.9287479908
 40
1.0
 40
1.0
 40
1.0
 40
1.0
 10
296.671186185
 20
288.0623255171
 30
0.0
 10
296.8417443091
 20
288.0538179675
 30
0.0
 10
297.1870037927
 20
288.0239838578
 30
0.0
 10
297.6999866682
 20
287.941465192
 30
0.0
 10
298.1957892137
 20
287.8176613912
 30
0.0
 10
298.6483585026
 20
287.6584377695
 30
0.0
 10
298.9811298943
 20
287.4934667084
 30
0.0
 10
299.2043852936
 20
287.3477900107
 30
0.0
 10
299.3783573543
 20
287.2105785527
 30
0.0
 10
299.5421786015
 20
287.035446431
 30
0.0
 10
299.6247544261
 20
286.8719048524
 30
0.0
 10
299.646012548
 20
286.7944862006
 30
0.0
  0
SPLINE
  5
5CA
100
AcDbEntity
  8
0
100
AcDbSpline
 62
7
  6
CONTINUOUS
 70
0
 71
3
 72
11
 73
7
 74
0
 42
0.0000001
 43
0.0000001
 44
0.0000000001
 40
0.0
 40
0.0
 40
0.0
 40
0.0
 40
0.1825731102
 40
0.4076604228
 40
0.6851993033
 40
1.0
 40
1.0
 40
1.0
 40
1.0
 10
109.238406608
 20
223.1105978449
 30
0.0
 10
109.4002135991
 20
222.9426462853
 30
0.0
 10
109.8760894195
 20
222.6762502916
 30
0.0
 10
110.7597578672
 20
222.5928396671
 30
0.0
 10
111.8018741182
 20
222.7218089056
 30
0.0
 10
112.5251821522
 20
222.9594745407
 30
0.0
 10
112.897824052
 20
223.1105978225
 30
0.0
  0
SPLINE
  5
5CB
100
AcDbEntity
  8
0
100
AcDbSpline
 62
7
  6
CONTINUOUS
 70
0
 71
3
 72
12
 73
8
 74
0
 42
0.0000001
 43
0.0000001
 44
0.0000000001
 40
0.0
 40
0.0
 40
0.0
 40
0.0
 40
0.2792651438
 40
0.5234992263
 40
0.7284873431
 40
0.885132994
 40
1.0
 40
1.0
 40
1.0
 40
1.0
 10
82.5520079016
 20
262.1087128418
 30
0.0
 10
81.5448146585
 20
261.8455728423
 30
0.0
 10
79.6353586323
 20
261.4286379617
 30
0.0
 10
76.9381611065
 20
261.0864836201
 30
0.0
 10
74.6705484843
 20
261.0607610365
 30
0.0
 10
72.9097934923
 20
261.328067529
 30
0.0
 10
71.9641296534
 20
261.8003536734
 30
0.0
 10
71.6670519158
 20
262.1087128418
 30
0.0
  0
SPLINE
  5
5CC
100
AcDbEntity
  8
0
100
AcDbSpline
 62
7
  6
CONTINUOUS
 70
0
 71
3
 72
11
 73
7
 74
0
 42
0.0000001
 43
0.0000001
 44
0.0000000001
 40
0.0
 40
0.0
 40
0.0
 40
0.0
 40
0.3160492916
 40
0.5938586494
 40
0.8179802556
 40
1.0
 40
1.0
 40
1.0
 40
1.0
 10
233.6418984721
 20
223.1105978438
 30
0.0
 10
233.9973191654
 20
222.9526368497
 30
0.0
 10
234.6875897635
 20
222.6989916753
 30
0.0
 10
235.6869362355
 20
222.5397329882
 30
0.0
 10
236.5394196629
 20
222.5859361167
 30
0.0
 10
237.0049425658
 20
222.8256626545
 30
0.0
 10
237.1661538473
 20
222.9811841261
 30
0.0
  0
SPLINE
  5
5CD
100
AcDbEntity
  8
0
100
AcDbSpline
 62
7
  6
CONTINUOUS
 70
0
 71
3
 72
11
 73
7
 74
0
 42
0.0000001
 43
0.0000001
 44
0.0000000001
 40
0.0
 40
0.0
 40
0.0
 40
0.0
 40
0.1817884123
 40
0.4060406376
 40
0.6834884567
 40
1.0
 40
1.0
 40
1.0
 40
1.0
 10
237.1661538562
 20
222.9811841346
 30
0.0
 10
237.0051501582
 20
222.825862921
 30
0.0
 10
236.5395397459
 20
222.5869781907
 30
0.0
 10
235.687893712
 20
222.5382648905
 30
0.0
 10
234.6883790768
 20
222.6997003407
 30
0.0
 10
233.9979733694
 20
222.9527246768
 30
0.0
 10
233.6418984064
 20
223.1105977721
 30
0.0
  0
SPLINE
  5
5CE
100
AcDbEntity
  8
0
100
AcDbSpline
 62
7
  6
CONTINUOUS
 70
0
 71
3
 72
12
 73
8
 74
0
 42
0.0000001
 43
0.0000001
 44
0.0000000001
 40
0.0
 40
0.0
 40
0.0
 40
0.0
 40
0.2774953326
 40
0.5206000243
 40
0.7250313877
 40
0.8826419926
 40
1.0
 40
1.0
 40
1.0
 40
1.0
 10
266.8736302648
 20
262.1089871459
 30
0.0
 10
267.865944605
 20
261.8498134819
 30
0.0
 10
269.7475825969
 20
261.434949164
 30
0.0
 10
272.4076646925
 20
261.0858371197
 30
0.0
 10
274.6525514206
 20
261.0469760516
 30
0.0
 10
276.4116986706
 20
261.3022693237
 30
0.0
 10
277.3641918122
 20
261.7604678122
 30
0.0
 10
277.6763560473
 20
262.0616144837
 30
0.0
  0
SPLINE
  5
5CF
100
AcDbEntity
  8
0
100
AcDbSpline
 62
7
  6
CONTINUOUS
 70
0
 71
3
 72
19
 73
15
 74
0
 42
0.0000001
 43
0.0000001
 44
0.0000000001
 40
0.0
 40
0.0
 40
0.0
 40
0.0
 40
0.2236179509
 40
0.4247947583
 40
0.5995292732
 40
0.7447561095
 40
0.805463866
 40
0.8579954879
 40
0.9022597759
 40
0.9381676902
 40
0.965677358
 40
0.9849285925
 40
0.9961494121
 40
1.0
 40
1.0
 40
1.0
 40
1.0
 10
233.6240827865
 20
223.1168843976
 30
0.0
 10
233.6246155164
 20
223.0021501354
 30
0.0
 10
233.6257213256
 20
222.7841965998
 30
0.0
 10
233.6277985096
 20
222.4765908144
 30
0.0
 10
233.6303780645
 20
222.2092186824
 30
0.0
 10
233.6331679501
 20
222.013907998
 30
0.0
 10
233.635930375
 20
221.8813411392
 30
0.0
 10
233.6381073873
 20
221.8005087024
 30
0.0
 10
233.6404217583
 20
221.7325984314
 30
0.0
 10
233.6431374276
 20
221.6770288268
 30
0.0
 10
233.6455477508
 20
221.635647405
 30
0.0
 10
233.6492479935
 20
221.6039454124
 30
0.0
 10
233.6507665342
 20
221.5901147502
 30
0.0
 10
233.6547855712
 20
221.5790454768
 30
0.0
 10
233.6566372423
 20
221.5797344281
 30
0.0
  0
SPLINE
  5
5D0
100
AcDbEntity
  8
0
100
AcDbSpline
 62
7
  6
CONTINUOUS
 70
0
 71
3
 72
10
 73
6
 74
0
 42
0.0000001
 43
0.0000001
 44
0.0000000001
 40
0.0
 40
0.0
 40
0.0
 40
0.0
 40
0.3488025917
 40
0.6806598652
 40
1.0
 40
1.0
 40
1.0
 40
1.0
 10
157.2662440758
 20
216.5796500417
 30
0.0
 10
159.0810651471
 20
216.1098264508
 30
0.0
 10
162.6601808993
 20
215.3296836394
 30
0.0
 10
167.9952913242
 20
214.6318715435
 30
0.0
 10
171.4970422878
 20
214.4796500201
 30
0.0
 10
173.2133447214
 20
214.4796500351
 30
0.0
  0
SPLINE
  5
5D1
100
AcDbEntity
  8
0
100
AcDbSpline
 62
7
  6
CONTINUOUS
 70
0
 71
3
 72
10
 73
6
 74
0
 42
0.0000001
 43
0.0000001
 44
0.0000000001
 40
0.0
 40
0.0
 40
0.0
 40
0.0
 40
0.3488026072
 40
0.6806598929
 40
1.0
 40
1.0
 40
1.0
 40
1.0
 10
189.1604441755
 20
216.5796500417
 30
0.0
 10
187.345623091
 20
216.1098264474
 30
0.0
 10
183.7665073248
 20
215.3296836358
 30
0.0
 10
178.4313970967
 20
214.6318715644
 30
0.0
 10
174.929646347
 20
214.4796500417
 30
0.0
 10
173.2133441257
 20
214.4796500417
 30
0.0
  0
LINE
  5
5D2
100
AcDbEntity
  8
0
100
AcDbLine
 62
7
  6
CONTINUOUS
 10
136.9840149789
 20
214.4796500417
 11
135.4867519432
 21
216.5796500417
  0
SPLINE
  5
5D3
100
AcDbEntity
  8
0
100
AcDbSpline
 62
7
  6
CONTINUOUS
 70
0
 71
3
 72
10
 73
6
 74
0
 42
0.0000001
 43
0.0000001
 44
0.0000000001
 40
0.0
 40
0.0
 40
0.0
 40
0.0
 40
0.3333278252
 40
0.6666613254
 40
1.0
 40
1.0
 40
1.0
 40
1.0
 10
123.9203309083
 20
188.0796500417
 30
0.0
 10
124.3134701297
 20
189.1907801698
 30
0.0
 10
125.0998218422
 20
191.4130357875
 30
0.0
 10
126.2795672256
 20
194.7463721831
 30
0.0
 10
127.0662207774
 20
196.9685616676
 30
0.0
 10
127.4595929505
 20
198.0796500417
 30
0.0
  0
SPLINE
  5
5D4
100
AcDbEntity
  8
0
100
AcDbSpline
 62
7
  6
CONTINUOUS
 70
0
 71
3
 72
10
 73
6
 74
0
 42
0.0000001
 43
0.0000001
 44
0.0000000001
 40
0.0
 40
0.0
 40
0.0
 40
0.0
 40
0.3333386746
 40
0.6666721748
 40
1.0
 40
1.0
 40
1.0
 40
1.0
 10
135.1759381494
 20
198.0796500417
 30
0.0
 10
134.7825659763
 20
196.9685616676
 30
0.0
 10
133.9959124245
 20
194.7463721831
 30
0.0
 10
132.8161670412
 20
191.4130357875
 30
0.0
 10
132.0298153286
 20
189.1907801698
 30
0.0
 10
131.6366761072
 20
188.0796500417
 30
0.0
  0
LINE
  5
5D5
100
AcDbEntity
  8
0
100
AcDbLine
 62
7
  6
CONTINUOUS
 10
127.4595929505
 20
214.4796500417
 11
125.968600975
 21
216.5796500417
  0
LINE
  5
5D6
100
AcDbEntity
  8
0
100
AcDbLine
 62
7
  6
CONTINUOUS
 10
133.684946174
 20
216.5796500417
 11
135.1759381494
 21
214.4796500417
  0
SPLINE
  5
5D7
100
AcDbEntity
  8
0
100
AcDbSpline
 62
7
  6
CONTINUOUS
 70
0
 71
3
 72
10
 73
6
 74
0
 42
0.0000001
 43
0.0000001
 44
0.0000000001
 40
0.0
 40
0.0
 40
0.0
 40
0.0
 40
0.3333442053
 40
0.6666778803
 40
1.0
 40
1.0
 40
1.0
 40
1.0
 10
126.0149785865
 20
198.0796500417
 30
0.0
 10
125.6199012586
 20
196.9685859009
 30
0.0
 10
124.8299363527
 20
194.7464296804
 30
0.0
 10
123.6454625417
 20
191.4130901988
 30
0.0
 10
122.856106811
 20
189.1908004272
 30
0.0
 10
122.4615055102
 20
188.0796500417
 30
0.0
  0
SPLINE
  5
5D8
100
AcDbEntity
  8
0
100
AcDbSpline
 62
7
  6
CONTINUOUS
 70
0
 71
3
 72
12
 73
8
 74
0
 42
0.0000001
 43
0.0000001
 44
0.0000000001
 40
0.0
 40
0.0
 40
0.0
 40
0.0
 40
0.184834594
 40
0.3752902114
 40
0.5707465402
 40
0.7766713201
 40
1.0
 40
1.0
 40
1.0
 40
1.0
 10
123.7389832206
 20
187.5796500417
 30
0.0
 10
123.7389832206
 20
187.3790967592
 30
0.0
 10
123.8061878718
 20
186.968895907
 30
0.0
 10
124.101580529
 20
186.4129124827
 30
0.0
 10
124.5708837482
 20
185.9594331971
 30
0.0
 10
125.1865155311
 20
185.652803521
 30
0.0
 10
125.6557526925
 20
185.5796500417
 30
0.0
 10
125.8980736716
 20
185.5796500417
 30
0.0
  0
SPLINE
  5
5D9
100
AcDbEntity
  8
0
100
AcDbSpline
 62
7
  6
CONTINUOUS
 70
0
 71
3
 72
10
 73
6
 74
0
 42
0.0000001
 43
0.0000001
 44
0.0000000001
 40
0.0
 40
0.0
 40
0.0
 40
0.0
 40
0.3333220624
 40
0.6666557392
 40
1.0
 40
1.0
 40
1.0
 40
1.0
 10
223.977299558
 20
188.0796500417
 30
0.0
 10
223.5826836009
 20
189.1908006335
 30
0.0
 10
222.793297735
 20
191.4130907459
 30
0.0
 10
221.6087765042
 20
194.746430258
 30
0.0
 10
220.8187784039
 20
196.9685861478
 30
0.0
 10
220.4236839694
 20
198.0796500417
 30
0.0
  0
SPLINE
  5
5DA
100
AcDbEntity
  8
0
100
AcDbSpline
 62
7
  6
CONTINUOUS
 70
0
 71
3
 72
10
 73
6
 74
0
 42
0.0000001
 43
0.0000001
 44
0.0000000001
 40
0.0
 40
0.0
 40
0.0
 40
0.0
 40
0.3333442053
 40
0.6666778803
 40
1.0
 40
1.0
 40
1.0
 40
1.0
 10
220.4117096649
 20
198.0796500417
 30
0.0
 10
220.8067869927
 20
196.9685859009
 30
0.0
 10
221.5967518987
 20
194.7464296804
 30
0.0
 10
222.7812257097
 20
191.4130901988
 30
0.0
 10
223.5705814404
 20
189.1908004272
 30
0.0
 10
223.9651827412
 20
188.0796500417
 30
0.0
  0
SPLINE
  5
5DB
100
AcDbEntity
  8
0
100
AcDbSpline
 62
7
  6
CONTINUOUS
 70
0
 71
3
 72
10
 73
6
 74
0
 42
0.0000001
 43
0.0000001
 44
0.0000000001
 40
0.0
 40
0.0
 40
0.0
 40
0.0
 40
0.3333386746
 40
0.6666721748
 40
1.0
 40
1.0
 40
1.0
 40
1.0
 10
211.2507501019
 20
198.0796500417
 30
0.0
 10
211.6441222751
 20
196.9685616676
 30
0.0
 10
212.4307758269
 20
194.7463721831
 30
0.0
 10
213.6105212102
 20
191.4130357875
 30
0.0
 10
214.3968729228
 20
189.1907801698
 30
0.0
 10
214.7900121442
 20
188.0796500417
 30
0.0
  0
SPLINE
  5
5DC
100
AcDbEntity
  8
0
100
AcDbSpline
 62
7
  6
CONTINUOUS
 70
0
 71
3
 72
10
 73
6
 74
0
 42
0.0000001
 43
0.0000001
 44
0.0000000001
 40
0.0
 40
0.0
 40
0.0
 40
0.0
 40
0.3333278252
 40
0.6666613254
 40
1.0
 40
1.0
 40
1.0
 40
1.0
 10
222.5063573431
 20
188.0796500417
 30
0.0
 10
222.1132181217
 20
189.1907801698
 30
0.0
 10
221.3268664091
 20
191.4130357875
 30
0.0
 10
220.1471210258
 20
194.7463721831
 30
0.0
 10
219.360467474
 20
196.9685616676
 30
0.0
 10
218.9670953008
 20
198.0796500417
 30
0.0
  0
SPLINE
  5
5DD
100
AcDbEntity
  8
0
100
AcDbSpline
 62
7
  6
CONTINUOUS
 70
0
 71
3
 72
10
 73
6
 74
0
 42
0.0000001
 43
0.0000001
 44
0.0000000001
 40
0.0
 40
0.0
 40
0.0
 40
0.0
 40
0.3333221197
 40
0.6666557947
 40
1.0
 40
1.0
 40
1.0
 40
1.0
 10
212.9961463488
 20
188.0796500417
 30
0.0
 10
212.601545048
 20
189.1908004272
 30
0.0
 10
211.8121893173
 20
191.4130901988
 30
0.0
 10
210.6277155063
 20
194.7464296804
 30
0.0
 10
209.8377506004
 20
196.9685859009
 30
0.0
 10
209.4426732725
 20
198.0796500417
 30
0.0
  0
SPLINE
  5
5DE
100
AcDbEntity
  8
0
100
AcDbSpline
 62
7
  6
CONTINUOUS
 70
0
 71
3
 72
16
 73
12
 74
0
 42
0.0000001
 43
0.0000001
 44
0.0000000001
 40
0.0
 40
0.0
 40
0.0
 40
0.0
 40
0.1468954084
 40
0.2801639196
 40
0.4019582153
 40
0.5144767037
 40
0.6197585788
 40
0.7196494034
 40
0.8152941583
 40
0.9083202969
 40
1.0
 40
1.0
 40
1.0
 40
1.0
 10
148.3503098062
 20
188.0796500417
 30
0.0
 10
149.4075392339
 20
188.8972162225
 30
0.0
 10
151.4653937265
 20
190.4041470818
 30
0.0
 10
154.5419440299
 20
192.3854223579
 30
0.0
 10
157.4666359135
 20
194.0124198648
 30
0.0
 10
160.2658916914
 20
195.3262425653
 30
0.0
 10
162.9675350605
 20
196.3611720935
 30
0.0
 10
165.5936217847
 20
197.1418570105
 30
0.0
 10
168.1648047106
 20
197.6867765209
 30
0.0
 10
170.6979166513
 20
198.0085331954
 30
0.0
 10
172.3792339706
 20
198.0796500663
 30
0.0
 10
173.2133448038
 20
198.0796500537
 30
0.0
  0
SPLINE
  5
5DF
100
AcDbEntity
  8
0
100
AcDbSpline
 62
7
  6
CONTINUOUS
 70
0
 71
3
 72
10
 73
6
 74
0
 42
0.0000001
 43
0.0000001
 44
0.0000000001
 40
0.0
 40
0.0
 40
0.0
 40
0.0
 40
0.3333391941
 40
0.6666727106
 40
1.0
 40
1.0
 40
1.0
 40
1.0
 10
127.2948588197
 20
198.0796500417
 30
0.0
 10
126.9013263689
 20
196.9685639138
 30
0.0
 10
126.114361343
 20
194.7463775812
 30
0.0
 10
124.9341713608
 20
191.413040892
 30
0.0
 10
124.1475372651
 20
189.1907820479
 30
0.0
 10
123.7542605164
 20
188.0796500417
 30
0.0
  0
LINE
  5
5E0
100
AcDbEntity
  8
0
100
AcDbLine
 62
7
  6
CONTINUOUS
 10
125.8032773239
 20
216.5796500417
 11
127.2948588197
 21
214.4796500417
  0
LINE
  5
5E1
100
AcDbEntity
  8
0
100
AcDbLine
 62
7
  6
CONTINUOUS
 10
126.0412625211
 20
214.4796500417
 11
124.5441368984
 21
216.5796500417
  0
LINE
  5
5E2
100
AcDbEntity
  8
0
100
AcDbLine
 62
7
  6
CONTINUOUS
 10
209.4426732725
 20
214.4796500417
 11
210.9399363081
 21
216.5796500417
  0
LINE
  5
5E3
100
AcDbEntity
  8
0
100
AcDbLine
 62
7
  6
CONTINUOUS
 10
212.7417420774
 20
216.5796500417
 11
211.2507501019
 21
214.4796500417
  0
LINE
  5
5E4
100
AcDbEntity
  8
0
100
AcDbLine
 62
7
  6
CONTINUOUS
 10
218.9670953008
 20
214.4796500417
 11
220.4580872763
 21
216.5796500417
  0
LINE
  5
5E5
100
AcDbEntity
  8
0
100
AcDbLine
 62
7
  6
CONTINUOUS
 10
221.9089727005
 20
216.5796500417
 11
220.4117096649
 21
214.4796500417
  0
SPLINE
  5
5E6
100
AcDbEntity
  8
0
100
AcDbSpline
 62
7
  6
CONTINUOUS
 70
0
 71
3
 72
16
 73
12
 74
0
 42
0.0000001
 43
0.0000001
 44
0.0000000001
 40
0.0
 40
0.0
 40
0.0
 40
0.0
 40
0.1468954079
 40
0.280163919
 40
0.4019582149
 40
0.5144767035
 40
0.619758579
 40
0.7196494039
 40
0.815294159
 40
0.9083202974
 40
1.0
 40
1.0
 40
1.0
 40
1.0
 10
198.0763784452
 20
188.0796500417
 30
0.0
 10
197.0191490475
 20
188.8972161993
 30
0.0
 10
194.9612946118
 20
190.4041470192
 30
0.0
 10
191.8847443939
 20
192.3854222519
 30
0.0
 10
188.9600525882
 20
194.0124197341
 30
0.0
 10
186.1607968833
 20
195.3262424253
 30
0.0
 10
183.4591535835
 20
196.3611719578
 30
0.0
 10
180.8330669271
 20
197.1418568914
 30
0.0
 10
178.2618840703
 20
197.6867764283
 30
0.0
 10
175.7287722035
 20
198.0085331447
 30
0.0
 10
174.0474549332
 20
198.0796500417
 30
0.0
 10
173.2133441257
 20
198.0796500417
 30
0.0
  0
SPLINE
  5
5E7
100
AcDbEntity
  8
0
100
AcDbSpline
 62
7
  6
CONTINUOUS
 70
0
 71
3
 72
10
 73
6
 74
0
 42
0.0000001
 43
0.0000001
 44
0.0000000001
 40
0.0
 40
0.0
 40
0.0
 40
0.0
 40
0.3333387132
 40
0.6666722145
 40
1.0
 40
1.0
 40
1.0
 40
1.0
 10
218.9796128021
 20
198.0796500417
 30
0.0
 10
219.3729968617
 20
196.9685618339
 30
0.0
 10
220.1596735145
 20
194.7463725834
 30
0.0
 10
221.339451871
 20
191.413036166
 30
0.0
 10
222.1258245257
 20
189.1907803089
 30
0.0
 10
222.518973947
 20
188.0796500417
 30
0.0
  0
SPLINE
  5
5E8
100
AcDbEntity
  8
0
100
AcDbSpline
 62
7
  6
CONTINUOUS
 70
0
 71
3
 72
10
 73
6
 74
0
 42
0.0000001
 43
0.0000001
 44
0.0000000001
 40
0.0
 40
0.0
 40
0.0
 40
0.0
 40
0.3333221197
 40
0.6666557947
 40
1.0
 40
1.0
 40
1.0
 40
1.0
 10
133.4305419026
 20
188.0796500417
 30
0.0
 10
133.8251432033
 20
189.1908004272
 30
0.0
 10
134.614498934
 20
191.4130901988
 30
0.0
 10
135.7989727451
 20
194.7464296804
 30
0.0
 10
136.588937651
 20
196.9685859009
 30
0.0
 10
136.9840149789
 20
198.0796500417
 30
0.0
  0
SPLINE
  5
5E9
100
AcDbEntity
  8
0
100
AcDbSpline
 62
7
  6
CONTINUOUS
 70
0
 71
3
 72
12
 73
8
 74
0
 42
0.0000001
 43
0.0000001
 44
0.0000000001
 40
0.0
 40
0.0
 40
0.0
 40
0.0
 40
0.192442046
 40
0.3895664678
 40
0.5888946673
 40
0.791561314
 40
1.0
 40
1.0
 40
1.0
 40
1.0
 10
120.5131583857
 20
187.5796500417
 30
0.0
 10
120.5131583857
 20
187.37536326
 30
0.0
 10
120.5798421337
 20
186.9588963465
 30
0.0
 10
120.8727591204
 20
186.3949747418
 30
0.0
 10
121.3347747977
 20
185.942471356
 30
0.0
 10
121.9230680255
 20
185.6479625762
 30
0.0
 10
122.3625751603
 20
185.5796500417
 30
0.0
 10
122.5838431691
 20
185.5796500417
 30
0.0
  0
LINE
  5
5EA
100
AcDbEntity
  8
0
100
AcDbLine
 62
7
  6
CONTINUOUS
 10
220.4706484978
 20
216.5796500417
 11
218.9796128021
 21
214.4796500417
  0
LINE
  5
5EB
100
AcDbEntity
  8
0
100
AcDbLine
 62
7
  6
CONTINUOUS
 10
220.4236839694
 20
214.4796500417
 11
221.9210099105
 21
216.5796500417
  0
SPLINE
  5
5EC
100
AcDbEntity
  8
0
100
AcDbSpline
 62
7
  6
CONTINUOUS
 70
0
 71
3
 72
26
 73
22
 74
0
 42
0.0000001
 43
0.0000001
 44
0.0000000001
 40
0.0
 40
0.0
 40
0.0
 40
0.0
 40
0.0782207079
 40
0.1471228049
 40
0.2081629092
 40
0.2626694918
 40
0.3120554881
 40
0.3574713377
 40
0.4000999667
 40
0.4407032218
 40
0.4801891795
 40
0.5193173335
 40
0.5587524586
 40
0.5993972101
 40
0.6419029259
 40
0.6872626561
 40
0.7365232827
 40
0.7909869998
 40
0.8520389929
 40
0.9211865312
 40
1.0
 40
1.0
 40
1.0
 40
1.0
 10
200.2099747766
 20
183.0796500417
 30
0.0
 10
199.0497598538
 20
184.2136699623
 30
0.0
 10
196.8108154761
 20
186.2900536288
 30
0.0
 10
193.4660282732
 20
189.0247967202
 30
0.0
 10
190.3428486128
 20
191.2398357244
 30
0.0
 10
187.4103011008
 20
193.0077655149
 30
0.0
 10
184.6359205562
 20
194.3914962219
 30
0.0
 10
181.982991612
 20
195.4439056446
 30
0.0
 10
179.421045728
 20
196.2029147605
 30
0.0
 10
176.9200266656
 20
196.6956767862
 30
0.0
 10
174.4554267671
 20
196.9388069533
 30
0.0
 10
172.0030653144
 20
196.9403203334
 30
0.0
 10
169.5383588541
 20
196.7003582589
 30
0.0
 10
167.0394172398
 20
196.2111763715
 30
0.0
 10
164.4793038094
 20
195.4561034442
 30
0.0
 10
161.8309254517
 20
194.409352291
 30
0.0
 10
159.0589961323
 20
193.0311590023
 30
0.0
 10
156.1271513154
 20
191.2683261104
 30
0.0
 10
152.9981483543
 20
189.0537723668
 30
0.0
 10
149.6378572854
 20
186.3100615392
 30
0.0
 10
147.3857205704
 20
184.222263628
 30
0.0
 10
146.2167134748
 20
183.0796500417
 30
0.0
  0
LINE
  5
5ED
100
AcDbEntity
  8
0
100
AcDbLine
 62
7
  6
CONTINUOUS
 10
116.1121833366
 20
184.0796500417
 11
115.7133441257
 21
183.1804497899
  0
SPLINE
  5
5EE
100
AcDbEntity
  8
0
100
AcDbSpline
 62
7
  6
CONTINUOUS
 70
0
 71
3
 72
11
 73
7
 74
0
 42
0.0000001
 43
0.0000001
 44
0.0000000001
 40
0.0
 40
0.0
 40
0.0
 40
0.0
 40
0.2918608792
 40
0.5538712746
 40
0.7890982631
 40
1.0
 40
1.0
 40
1.0
 40
1.0
 10
122.3016558803
 20
178.9139793707
 30
0.0
 10
122.1775829491
 20
178.8332147718
 30
0.0
 10
121.9328636396
 20
178.6935249938
 30
0.0
 10
121.562972012
 20
178.5382278957
 30
0.0
 10
121.2171545609
 20
178.4383392655
 30
0.0
 10
120.9936749338
 20
178.3997894644
 30
0.0
 10
120.8874423179
 20
178.3871819724
 30
0.0
  0
SPLINE
  5
5EF
100
AcDbEntity
  8
0
100
AcDbSpline
 62
7
  6
CONTINUOUS
 70
0
 71
3
 72
11
 73
7
 74
0
 42
0.0000001
 43
0.0000001
 44
0.0000000001
 40
0.0
 40
0.0
 40
0.0
 40
0.0
 40
0.2918608792
 40
0.5538712746
 40
0.7890982631
 40
1.0
 40
1.0
 40
1.0
 40
1.0
 10
123.0087626614
 20
178.9139793707
 30
0.0
 10
122.8846897303
 20
178.8332147718
 30
0.0
 10
122.6399704208
 20
178.6935249938
 30
0.0
 10
122.2700787932
 20
178.5382278957
 30
0.0
 10
121.9242613421
 20
178.4383392655
 30
0.0
 10
121.700781715
 20
178.3997894644
 30
0.0
 10
121.5945490991
 20
178.3871819724
 30
0.0
  0
SPLINE
  5
5F0
100
AcDbEntity
  8
0
100
AcDbSpline
 62
7
  6
CONTINUOUS
 70
0
 71
3
 72
10
 73
6
 74
0
 42
0.0000001
 43
0.0000001
 44
0.0000000001
 40
0.0
 40
0.0
 40
0.0
 40
0.0
 40
0.342673947
 40
0.6748863361
 40
1.0
 40
1.0
 40
1.0
 40
1.0
 10
118.7661219743
 20
178.9139793707
 30
0.0
 10
118.9117340274
 20
178.8191939977
 30
0.0
 10
119.2118622453
 20
178.6518904602
 30
0.0
 10
119.6883310183
 20
178.4732539108
 30
0.0
 10
120.0166433222
 20
178.4066086642
 30
0.0
 10
120.1803355367
 20
178.3871819724
 30
0.0
  0
SPLINE
  5
5F1
100
AcDbEntity
  8
0
100
AcDbSpline
 62
7
  6
CONTINUOUS
 70
0
 71
3
 72
10
 73
6
 74
0
 42
0.0000001
 43
0.0000001
 44
0.0000000001
 40
0.0
 40
0.0
 40
0.0
 40
0.0
 40
0.3251136639
 40
0.657326053
 40
1.0
 40
1.0
 40
1.0
 40
1.0
 10
120.8874423179
 20
178.3871819724
 30
0.0
 10
120.7237501034
 20
178.4066086642
 30
0.0
 10
120.3954377995
 20
178.4732539108
 30
0.0
 10
119.9189690265
 20
178.6518904602
 30
0.0
 10
119.6188408085
 20
178.8191939977
 30
0.0
 10
119.4732287555
 20
178.9139793707
 30
0.0
  0
SPLINE
  5
5F2
100
AcDbEntity
  8
0
100
AcDbSpline
 62
7
  6
CONTINUOUS
 70
0
 71
3
 72
11
 73
7
 74
0
 42
0.0000001
 43
0.0000001
 44
0.0000000001
 40
0.0
 40
0.0
 40
0.0
 40
0.0
 40
0.2918608792
 40
0.5538712746
 40
0.7890982631
 40
1.0
 40
1.0
 40
1.0
 40
1.0
 10
227.660566277
 20
178.9139793707
 30
0.0
 10
227.5364933459
 20
178.8332147718
 30
0.0
 10
227.2917740364
 20
178.6935249938
 30
0.0
 10
226.9218824088
 20
178.5382278957
 30
0.0
 10
226.5760649577
 20
178.4383392655
 30
0.0
 10
226.3525853306
 20
178.3997894644
 30
0.0
 10
226.2463527147
 20
178.3871819724
 30
0.0
  0
SPLINE
  5
5F3
100
AcDbEntity
  8
0
100
AcDbSpline
 62
7
  6
CONTINUOUS
 70
0
 71
3
 72
10
 73
6
 74
0
 42
0.0000001
 43
0.0000001
 44
0.0000000001
 40
0.0
 40
0.0
 40
0.0
 40
0.0
 40
0.3251136639
 40
0.657326053
 40
1.0
 40
1.0
 40
1.0
 40
1.0
 10
225.5392459335
 20
178.3871819724
 30
0.0
 10
225.702938148
 20
178.4066086642
 30
0.0
 10
226.0312504519
 20
178.4732539108
 30
0.0
 10
226.5077192249
 20
178.6518904602
 30
0.0
 10
226.8078474428
 20
178.8191939977
 30
0.0
 10
226.9534594959
 20
178.9139793707
 30
0.0
  0
SPLINE
  5
5F4
100
AcDbEntity
  8
0
100
AcDbSpline
 62
7
  6
CONTINUOUS
 70
0
 71
3
 72
10
 73
6
 74
0
 42
0.0000001
 43
0.0000001
 44
0.0000000001
 40
0.0
 40
0.0
 40
0.0
 40
0.0
 40
0.342673947
 40
0.6748863361
 40
1.0
 40
1.0
 40
1.0
 40
1.0
 10
224.1250323711
 20
178.9139793707
 30
0.0
 10
224.2706444242
 20
178.8191939977
 30
0.0
 10
224.5707726421
 20
178.6518904602
 30
0.0
 10
225.0472414151
 20
178.4732539108
 30
0.0
 10
225.375553719
 20
178.4066086642
 30
0.0
 10
225.5392459335
 20
178.3871819724
 30
0.0
  0
SPLINE
  5
5F5
100
AcDbEntity
  8
0
100
AcDbSpline
 62
7
  6
CONTINUOUS
 70
0
 71
3
 72
10
 73
6
 74
0
 42
0.0000001
 43
0.0000001
 44
0.0000000001
 40
0.0
 40
0.0
 40
0.0
 40
0.0
 40
0.3251136639
 40
0.657326053
 40
1.0
 40
1.0
 40
1.0
 40
1.0
 10
224.8321391523
 20
178.3871819724
 30
0.0
 10
224.6684469378
 20
178.4066086642
 30
0.0
 10
224.3401346339
 20
178.4732539108
 30
0.0
 10
223.8636658609
 20
178.6518904602
 30
0.0
 10
223.563537643
 20
178.8191939977
 30
0.0
 10
223.4179255899
 20
178.9139793707
 30
0.0
  0
LINE
  5
5F6
100
AcDbEntity
  8
0
100
AcDbLine
 62
7
  6
CONTINUOUS
 10
124.5177155508
 20
216.5796500417
 11
126.0149785865
 21
214.4796500417
  0
SPLINE
  5
5F7
100
AcDbEntity
  8
0
100
AcDbSpline
 62
7
  6
CONTINUOUS
 70
0
 71
3
 72
9
 73
5
 74
0
 42
0.0000001
 43
0.0000001
 44
0.0000000001
 40
0.0
 40
0.0
 40
0.0
 40
0.0
 40
0.5
 40
1.0
 40
1.0
 40
1.0
 40
1.0
 10
205.9874104502
 20
286.0852463878
 30
0.0
 10
205.5666656753
 20
286.1026580808
 30
0.0
 10
204.7250924291
 20
286.1354181746
 30
0.0
 10
203.883519183
 20
286.1681782683
 30
0.0
 10
203.462774408
 20
286.1855899613
 30
0.0
  0
SPLINE
  5
5F8
100
AcDbEntity
  8
0
100
AcDbSpline
 62
7
  6
CONTINUOUS
 70
0
 71
3
 72
11
 73
7
 74
0
 42
0.0000001
 43
0.0000001
 44
0.0000000001
 40
0.0
 40
0.0
 40
0.0
 40
0.0
 40
0.2165848288
 40
0.4480561633
 40
0.7105399076
 40
1.0
 40
1.0
 40
1.0
 40
1.0
 10
273.74696329
 20
261.2026826716
 30
0.0
 10
273.5483227316
 20
261.0161543424
 30
0.0
 10
273.0504856433
 20
260.7128046816
 30
0.0
 10
272.1462789874
 20
260.5873689698
 30
0.0
 10
271.163598298
 20
260.7571680071
 30
0.0
 10
270.5220530115
 20
261.0419773453
 30
0.0
 10
270.2075833244
 20
261.2256430192
 30
0.0
  0
LINE
  5
5F9
100
AcDbEntity
  8
0
100
AcDbLine
 62
7
  6
CONTINUOUS
 10
227.577095375
 20
235.0796500417
 11
226.484607486
 21
238.0796500417
  0
LINE
  5
5FA
100
AcDbEntity
  8
0
100
AcDbLine
 62
7
  6
CONTINUOUS
 10
222.4741800984
 20
246.0796500417
 11
221.3815649772
 21
249.0796500417
  0
LINE
  5
5FB
100
AcDbEntity
  8
0
100
AcDbLine
 62
7
  6
CONTINUOUS
 10
224.0004808034
 20
248.2079356687
 11
224.7755662458
 21
246.0796500417
  0
SPLINE
  5
5FC
100
AcDbEntity
  8
0
100
AcDbSpline
 62
7
  6
CONTINUOUS
 70
0
 71
3
 72
10
 73
6
 74
0
 42
0.0000001
 43
0.0000001
 44
0.0000000001
 40
0.0
 40
0.0
 40
0.0
 40
0.0
 40
0.3305768782
 40
0.6632422206
 40
1.0
 40
1.0
 40
1.0
 40
1.0
 10
213.2510690867
 20
238.0796500417
 30
0.0
 10
213.2699615097
 20
238.0796500417
 30
0.0
 10
213.3079014914
 20
238.0774954755
 30
0.0
 10
213.3643387792
 20
238.0678370182
 30
0.0
 10
213.4011920851
 20
238.057234961
 30
0.0
 10
213.419378596
 20
238.0509384324
 30
0.0
  0
SPLINE
  5
5FD
100
AcDbEntity
  8
0
100
AcDbSpline
 62
7
  6
CONTINUOUS
 70
0
 71
3
 72
10
 73
6
 74
0
 42
0.0000001
 43
0.0000001
 44
0.0000000001
 40
0.0
 40
0.0
 40
0.0
 40
0.0
 40
0.3310220428
 40
0.6682985105
 40
1.0
 40
1.0
 40
1.0
 40
1.0
 10
229.0291417243
 20
237.4207331233
 30
0.0
 10
228.9921108318
 20
237.5224299272
 30
0.0
 10
228.8824312446
 20
237.716818051
 30
0.0
 10
228.6340784161
 20
237.9378360653
 30
0.0
 10
228.4286037539
 20
238.0251495972
 30
0.0
 10
228.3232633629
 20
238.0509384324
 30
0.0
  0
SPLINE
  5
5FE
100
AcDbEntity
  8
0
100
AcDbSpline
 62
7
  6
CONTINUOUS
 70
0
 71
3
 72
10
 73
6
 74
0
 42
0.0000001
 43
0.0000001
 44
0.0000000001
 40
0.0
 40
0.0
 40
0.0
 40
0.0
 40
0.2916909348
 40
0.6212040778
 40
1.0
 40
1.0
 40
1.0
 40
1.0
 10
213.419378596
 20
238.0509384324
 30
0.0
 10
213.4917689313
 20
238.025875471
 30
0.0
 10
213.6326361539
 20
237.9282463369
 30
0.0
 10
213.7624186183
 20
237.6946659634
 30
0.0
 10
213.818862571
 20
237.5170745904
 30
0.0
 10
213.843663343
 20
237.420733137
 30
0.0
  0
LINE
  5
5FF
100
AcDbEntity
  8
0
100
AcDbLine
 62
7
  6
CONTINUOUS
 10
212.1192525572
 20
238.0796500417
 11
212.8917581519
 21
235.0796500417
  0
SPLINE
  5
600
100
AcDbEntity
  8
0
100
AcDbSpline
 62
7
  6
CONTINUOUS
 70
0
 71
3
 72
10
 73
6
 74
0
 42
0.0000001
 43
0.0000001
 44
0.0000000001
 40
0.0
 40
0.0
 40
0.0
 40
0.0
 40
0.3156418691
 40
0.6500009585
 40
1.0
 40
1.0
 40
1.0
 40
1.0
 10
210.3627097346
 20
248.2079356687
 30
0.0
 10
210.5018526164
 20
248.0512192191
 30
0.0
 10
210.7578144622
 20
247.7004438024
 30
0.0
 10
211.05747632
 20
247.1053139596
 30
0.0
 10
211.2005798297
 20
246.6721250353
 30
0.0
 10
211.2585001917
 20
246.4470743201
 30
0.0
  0
LINE
  5
601
100
AcDbEntity
  8
0
100
AcDbLine
 62
7
  6
CONTINUOUS
 10
210.910777907
 20
246.0796500417
 11
210.3627097346
 21
248.2079356687
  0
LINE
  5
602
100
AcDbEntity
  8
0
100
AcDbLine
 62
7
  6
CONTINUOUS
 10
208.5108565946
 20
249.0796500417
 11
209.283452156
 21
246.0796500417
  0
LINE
  5
603
100
AcDbEntity
  8
0
100
AcDbLine
 62
7
  6
CONTINUOUS
 10
214.4461775949
 20
235.0796520639
 11
213.843663343
 21
237.420733137
  0
SPLINE
  5
604
100
AcDbEntity
  8
0
100
AcDbSpline
 62
7
  6
CONTINUOUS
 70
0
 71
3
 72
10
 73
6
 74
0
 42
0.0000001
 43
0.0000001
 44
0.0000000001
 40
0.0
 40
0.0
 40
0.0
 40
0.0
 40
0.2881258743
 40
0.6288094119
 40
1.0
 40
1.0
 40
1.0
 40
1.0
 10
208.0421049544
 20
249.7774568507
 30
0.0
 10
207.9308609339
 20
249.7774568507
 30
0.0
 10
207.6884681978
 20
249.7000986115
 30
0.0
 10
207.3902500811
 20
249.445712835
 30
0.0
 10
207.239388159
 20
249.2105387117
 30
0.0
 10
207.1795403925
 20
249.0803180992
 30
0.0
  0
SPLINE
  5
605
100
AcDbEntity
  8
0
100
AcDbSpline
 62
7
  6
CONTINUOUS
 70
0
 71
3
 72
10
 73
6
 74
0
 42
0.0000001
 43
0.0000001
 44
0.0000000001
 40
0.0
 40
0.0
 40
0.0
 40
0.0
 40
0.1273019464
 40
0.4740195508
 40
1.0
 40
1.0
 40
1.0
 40
1.0
 10
174.9277954862
 20
249.0796500417
 30
0.0
 10
174.8996056305
 20
249.0796500417
 30
0.0
 10
174.9052829875
 20
248.9184927367
 30
0.0
 10
174.9176908633
 20
248.7484373289
 30
0.0
 10
174.9468900711
 20
248.5378181716
 30
0.0
 10
174.9555929006
 20
248.421670185
 30
0.0
  0
SPLINE
  5
606
100
AcDbEntity
  8
0
100
AcDbSpline
 62
7
  6
CONTINUOUS
 70
0
 71
3
 72
10
 73
6
 74
0
 42
0.0000001
 43
0.0000001
 44
0.0000000001
 40
0.0
 40
0.0
 40
0.0
 40
0.0
 40
0.3712151652
 40
0.6902435331
 40
1.0
 40
1.0
 40
1.0
 40
1.0
 10
207.8383877366
 20
248.421670185
 30
0.0
 10
207.813847025
 20
248.542538444
 30
0.0
 10
207.7445544466
 20
248.766308923
 30
0.0
 10
207.5114351594
 20
249.0228105843
 30
0.0
 10
207.2968462149
 20
249.0796500417
 30
0.0
 10
207.1939311348
 20
249.0796500417
 30
0.0
  0
LINE
  5
607
100
AcDbEntity
  8
0
100
AcDbLine
 62
7
  6
CONTINUOUS
 10
174.0412282398
 20
253.8403273938
 11
174.0412282398
 21
254.0223534879
  0
SPLINE
  5
608
100
AcDbEntity
  8
0
100
AcDbSpline
 62
7
  6
CONTINUOUS
 70
0
 71
3
 72
11
 73
7
 74
0
 42
0.0000001
 43
0.0000001
 44
0.0000000001
 40
0.0
 40
0.0
 40
0.0
 40
0.0
 40
0.2617373024
 40
0.5150524046
 40
0.7608882766
 40
1.0
 40
1.0
 40
1.0
 40
1.0
 10
174.9633441257
 20
260.9420861932
 30
0.0
 10
174.9633441257
 20
261.0812538248
 30
0.0
 10
174.9118870452
 20
261.358232154
 30
0.0
 10
174.6865338129
 20
261.7067743123
 30
0.0
 10
174.3521490257
 20
261.9322991739
 30
0.0
 10
174.0904641404
 20
261.9807034057
 30
0.0
 10
173.9633441257
 20
261.9785981433
 30
0.0
  0
LINE
  5
609
100
AcDbEntity
  8
0
100
AcDbLine
 62
7
  6
CONTINUOUS
 10
174.0575907113
 20
257.916604859
 11
174.0575907113
 21
258.0986732617
  0
SPLINE
  5
60A
100
AcDbEntity
  8
0
100
AcDbSpline
 62
7
  6
CONTINUOUS
 70
0
 71
3
 72
10
 73
6
 74
0
 42
0.0000001
 43
0.0000001
 44
0.0000000001
 40
0.0
 40
0.0
 40
0.0
 40
0.0
 40
0.3293338662
 40
0.6634596793
 40
1.0
 40
1.0
 40
1.0
 40
1.0
 10
198.1557588601
 20
253.4381239986
 30
0.0
 10
198.1455150168
 20
253.4000493913
 30
0.0
 10
198.1284051842
 20
253.322352182
 30
0.0
 10
198.1130121629
 20
253.2034876363
 30
0.0
 10
198.1095780678
 20
253.12314915
 30
0.0
 10
198.1095780678
 20
253.0828578087
 30
0.0
  0
SPLINE
  5
60B
100
AcDbEntity
  8
0
100
AcDbSpline
 62
7
  6
CONTINUOUS
 70
0
 71
3
 72
19
 73
15
 74
0
 42
0.0000001
 43
0.0000001
 44
0.0000000001
 40
0.0
 40
0.0
 40
0.0
 40
0.0
 40
0.0458847105
 40
0.0975168753
 40
0.1548876847
 40
0.2181302974
 40
0.276868047
 40
0.3468387311
 40
0.4323150603
 40
0.5299348595
 40
0.6190212331
 40
0.7307423758
 40
0.8609612359
 40
1.0
 40
1.0
 40
1.0
 40
1.0
 10
199.7339371765
 20
254.0223536642
 30
0.0
 10
199.7074613599
 20
254.0321472826
 30
0.0
 10
199.6499305833
 20
254.0499096636
 30
0.0
 10
199.555648794
 20
254.0647806619
 30
0.0
 10
199.450412805
 20
254.0772493258
 30
0.0
 10
199.3401425018
 20
254.0832496235
 30
0.0
 10
199.2219982071
 20
254.082924073
 30
0.0
 10
199.090408861
 20
254.0741046138
 30
0.0
 10
198.936209083
 20
254.0510944975
 30
0.0
 10
198.7736971721
 20
254.0090016556
 30
0.0
 10
198.6025686832
 20
253.9412534032
 30
0.0
 10
198.4260203542
 20
253.8373180326
 30
0.0
 10
198.2545872312
 20
253.6731122768
 30
0.0
 10
198.1779826576
 20
253.5207258337
 30
0.0
 10
198.1557589088
 20
253.4381239735
 30
0.0
  0
SPLINE
  5
60C
100
AcDbEntity
  8
0
100
AcDbSpline
 62
7
  6
CONTINUOUS
 70
0
 71
3
 72
19
 73
15
 74
0
 42
0.0000001
 43
0.0000001
 44
0.0000000001
 40
0.0
 40
0.0
 40
0.0
 40
0.0
 40
0.1759249432
 40
0.3189182408
 40
0.4299419306
 40
0.5140701066
 40
0.6039727711
 40
0.6830527186
 40
0.7483427944
 40
0.8036998758
 40
0.8638534236
 40
0.9185115245
 40
0.9664883527
 40
1.0
 40
1.0
 40
1.0
 40
1.0
 10
174.9633441257
 20
253.4381239735
 30
0.0
 10
174.9633441257
 20
253.5151108708
 30
0.0
 10
174.9447509389
 20
253.6561072487
 30
0.0
 10
174.8613902367
 20
253.8282473389
 30
0.0
 10
174.7593404157
 20
253.9378783254
 30
0.0
 10
174.6550808393
 20
254.007707155
 30
0.0
 10
174.552276609
 20
254.0507746546
 30
0.0
 10
174.452071141
 20
254.0740832571
 30
0.0
 10
174.3649369695
 20
254.0829586929
 30
0.0
 10
174.2857421476
 20
254.083200461
 30
0.0
 10
174.2113614151
 20
254.0773220322
 30
0.0
 10
174.141270643
 20
254.0644194273
 30
0.0
 10
174.0828590394
 20
254.0523064493
 30
0.0
 10
174.0508838422
 20
254.033391361
 30
0.0
 10
174.0412282398
 20
254.0223534879
 30
0.0
  0
LINE
  5
60D
100
AcDbEntity
  8
0
100
AcDbLine
 62
7
  6
CONTINUOUS
 10
172.36909754
 20
258.0986737628
 11
172.36909754
 21
257.9166040285
  0
SPLINE
  5
60E
100
AcDbEntity
  8
0
100
AcDbSpline
 62
7
  6
CONTINUOUS
 70
0
 71
3
 72
11
 73
7
 74
0
 42
0.0000001
 43
0.0000001
 44
0.0000000001
 40
0.0
 40
0.0
 40
0.0
 40
0.0
 40
0.24266585
 40
0.4858282795
 40
0.7363123124
 40
1.0
 40
1.0
 40
1.0
 40
1.0
 10
172.4633441257
 20
261.9785981433
 30
0.0
 10
172.3343345244
 20
261.9807346995
 30
0.0
 10
172.0720391503
 20
261.9313736619
 30
0.0
 10
171.7396485048
 20
261.7053415668
 30
0.0
 10
171.5151367057
 20
261.3588785357
 30
0.0
 10
171.4633441257
 20
261.0822909574
 30
0.0
 10
171.4633441257
 20
260.9420861932
 30
0.0
  0
LINE
  5
60F
100
AcDbEntity
  8
0
100
AcDbLine
 62
7
  6
CONTINUOUS
 10
172.3854600116
 20
254.0223536643
 11
172.3854600116
 21
253.8403254479
  0
SPLINE
  5
610
100
AcDbEntity
  8
0
100
AcDbSpline
 62
7
  6
CONTINUOUS
 70
0
 71
3
 72
10
 73
6
 74
0
 42
0.0000001
 43
0.0000001
 44
0.0000000001
 40
0.0
 40
0.0
 40
0.0
 40
0.0
 40
0.3309070073
 40
0.6642442816
 40
1.0
 40
1.0
 40
1.0
 40
1.0
 10
171.5175017536
 20
256.9773345949
 30
0.0
 10
171.505583676
 20
256.9406415072
 30
0.0
 10
171.485554912
 20
256.8656549798
 30
0.0
 10
171.4673955962
 20
256.7502952914
 30
0.0
 10
171.4633441257
 20
256.672222237
 30
0.0
 10
171.4633441257
 20
256.6330768422
 30
0.0
  0
SPLINE
  5
611
100
AcDbEntity
  8
0
100
AcDbSpline
 62
7
  6
CONTINUOUS
 70
0
 71
3
 72
17
 73
13
 74
0
 42
0.0000001
 43
0.0000001
 44
0.0000000001
 40
0.0
 40
0.0
 40
0.0
 40
0.0
 40
0.0461864758
 40
0.0835922064
 40
0.1322333977
 40
0.1853881225
 40
0.2533843427
 40
0.347614538
 40
0.4591331377
 40
0.584692821
 40
0.7590137986
 40
1.0
 40
1.0
 40
1.0
 40
1.0
 10
154.2728386081
 20
257.916604859
 30
0.0
 10
154.259513381
 20
257.9097624825
 30
0.0
 10
154.2382671903
 20
257.8870295086
 30
0.0
 10
154.2406893297
 20
257.842629604
 30
0.0
 10
154.2462238339
 20
257.7982892674
 30
0.0
 10
154.2565695854
 20
257.7440160544
 30
0.0
 10
154.270889999
 20
257.6757127015
 30
0.0
 10
154.2904195111
 20
257.5890754794
 30
0.0
 10
154.3148306651
 20
257.4844438953
 30
0.0
 10
154.3457976102
 20
257.3546573883
 30
0.0
 10
154.3869692465
 20
257.1841435725
 30
0.0
 10
154.4188366541
 20
257.0532736903
 30
0.0
 10
154.4373247081
 20
256.9773345948
 30
0.0
  0
SPLINE
  5
612
100
AcDbEntity
  8
0
100
AcDbSpline
 62
7
  6
CONTINUOUS
 70
0
 71
3
 72
11
 73
7
 74
0
 42
0.0000001
 43
0.0000001
 44
0.0000000001
 40
0.0
 40
0.0
 40
0.0
 40
0.0
 40
0.2933936271
 40
0.5616834389
 40
0.7956403754
 40
1.0
 40
1.0
 40
1.0
 40
1.0
 10
162.8493263426
 20
260.9420861932
 30
0.0
 10
162.8493263426
 20
261.0802936281
 30
0.0
 10
162.8115056769
 20
261.3468546688
 30
0.0
 10
162.6451326679
 20
261.6901442791
 30
0.0
 10
162.3947817135
 20
261.9241494293
 30
0.0
 10
162.1847140073
 20
261.9807541469
 30
0.0
 10
162.0884715106
 20
261.9785981433
 30
0.0
  0
LINE
  5
613
100
AcDbEntity
  8
0
100
AcDbLine
 62
7
  6
CONTINUOUS
 10
154.2728386081
 20
257.916604859
 11
154.6265538025
 21
258.0986732617
  0
SPLINE
  5
614
100
AcDbEntity
  8
0
100
AcDbSpline
 62
7
  6
CONTINUOUS
 70
0
 71
3
 72
10
 73
6
 74
0
 42
0.0000001
 43
0.0000001
 44
0.0000000001
 40
0.0
 40
0.0
 40
0.0
 40
0.0
 40
0.3378670335
 40
0.6717159487
 40
1.0
 40
1.0
 40
1.0
 40
1.0
 10
154.4779557044
 20
256.6330768422
 30
0.0
 10
154.4779557044
 20
256.6721991678
 30
0.0
 10
154.4749277876
 20
256.7500149363
 30
0.0
 10
154.4613618837
 20
256.8651185275
 30
0.0
 10
154.4463165903
 20
256.9404007238
 30
0.0
 10
154.4373247081
 20
256.9773345948
 30
0.0
  0
LINE
  5
615
100
AcDbEntity
  8
0
100
AcDbLine
 62
7
  6
CONTINUOUS
 10
146.3391177332
 20
253.8403273938
 11
146.6927507322
 21
254.0223534879
  0
SPLINE
  5
616
100
AcDbEntity
  8
0
100
AcDbSpline
 62
7
  6
CONTINUOUS
 70
0
 71
3
 72
10
 73
6
 74
0
 42
0.0000001
 43
0.0000001
 44
0.0000000001
 40
0.0
 40
0.0
 40
0.0
 40
0.0
 40
0.3377294784
 40
0.6716132985
 40
1.0
 40
1.0
 40
1.0
 40
1.0
 10
146.5474881763
 20
252.5510142728
 30
0.0
 10
146.5474881763
 20
252.5907553517
 30
0.0
 10
146.5444156693
 20
252.6698217862
 30
0.0
 10
146.530652723
 20
252.7867957164
 30
0.0
 10
146.5153843746
 20
252.8633204036
 30
0.0
 10
146.5062541333
 20
252.900867971
 30
0.0
  0
LINE
  5
617
100
AcDbEntity
  8
0
100
AcDbLine
 62
7
  6
CONTINUOUS
 10
145.5219461326
 20
254.0223536642
 11
145.1683090106
 21
253.8403254479
  0
LINE
  5
618
100
AcDbEntity
  8
0
100
AcDbLine
 62
7
  6
CONTINUOUS
 10
153.4326098047
 20
258.0986737628
 11
153.0788920232
 21
257.9166040285
  0
SPLINE
  5
619
100
AcDbEntity
  8
0
100
AcDbSpline
 62
7
  6
CONTINUOUS
 70
0
 71
3
 72
18
 73
14
 74
0
 42
0.0000001
 43
0.0000001
 44
0.0000000001
 40
0.0
 40
0.0
 40
0.0
 40
0.0
 40
0.0635970727
 40
0.1207326786
 40
0.1824894167
 40
0.2452381508
 40
0.3102582389
 40
0.3890851004
 40
0.4880046057
 40
0.5765423932
 40
0.6822111946
 40
0.8195196667
 40
1.0
 40
1.0
 40
1.0
 40
1.0
 10
134.3795645691
 20
253.8403273938
 30
0.0
 10
134.3557421334
 20
253.8310813406
 30
0.0
 10
134.3105773215
 20
253.8132339493
 30
0.0
 10
134.2452877991
 20
253.7796573627
 30
0.0
 10
134.1828425296
 20
253.741756694
 30
0.0
 10
134.1210641486
 20
253.6970817761
 30
0.0
 10
134.0578683976
 20
253.6431161409
 30
0.0
 10
133.9896395669
 20
253.5731823918
 30
0.0
 10
133.9237439368
 20
253.4885212363
 30
0.0
 10
133.8625738307
 20
253.3876127509
 30
0.0
 10
133.8074070973
 20
253.2659519406
 30
0.0
 10
133.7603146437
 20
253.1017252154
 30
0.0
 10
133.7486643023
 20
252.9733791825
 30
0.0
 10
133.7496906962
 20
252.900867971
 30
0.0
  0
LINE
  5
61A
100
AcDbEntity
  8
0
100
AcDbLine
 62
7
  6
CONTINUOUS
 10
134.3795645691
 20
253.8403273938
 11
134.8796771523
 21
254.0223534879
  0
LINE
  5
61B
100
AcDbEntity
  8
0
100
AcDbLine
 62
7
  6
CONTINUOUS
 10
145.5831777588
 20
257.916604859
 11
146.083406584
 21
258.0986732617
  0
SPLINE
  5
61C
100
AcDbEntity
  8
0
100
AcDbSpline
 62
7
  6
CONTINUOUS
 70
0
 71
3
 72
17
 73
13
 74
0
 42
0.0000001
 43
0.0000001
 44
0.0000000001
 40
0.0
 40
0.0
 40
0.0
 40
0.0
 40
0.0721822443
 40
0.1365411765
 40
0.2081994916
 40
0.2766163034
 40
0.3547588965
 40
0.4519849394
 40
0.5566052185
 40
0.6659931904
 40
0.8092656393
 40
1.0
 40
1.0
 40
1.0
 40
1.0
 10
145.5831777588
 20
257.916604859
 30
0.0
 10
145.5560584087
 20
257.9067393924
 30
0.0
 10
145.5056596391
 20
257.8854864367
 30
0.0
 10
145.432163242
 20
257.846228339
 30
0.0
 10
145.3636183978
 20
257.801488581
 30
0.0
 10
145.2950937715
 20
257.747314924
 30
0.0
 10
145.2245380449
 20
257.6798431103
 30
0.0
 10
145.1525912266
 20
257.5937124184
 30
0.0
 10
145.0853527113
 20
257.4885939927
 30
0.0
 10
145.0247417781
 20
257.3587840842
 30
0.0
 10
144.9746773692
 20
257.1879166858
 30
0.0
 10
144.9627138769
 20
257.0535745926
 30
0.0
 10
144.9642004458
 20
256.9773345948
 30
0.0
  0
SPLINE
  5
61D
100
AcDbEntity
  8
0
100
AcDbSpline
 62
7
  6
CONTINUOUS
 70
0
 71
3
 72
10
 73
6
 74
0
 42
0.0000001
 43
0.0000001
 44
0.0000000001
 40
0.0
 40
0.0
 40
0.0
 40
0.0
 40
0.3292246277
 40
0.6633832345
 40
1.0
 40
1.0
 40
1.0
 40
1.0
 10
153.7267760149
 20
257.5203167074
 30
0.0
 10
153.7373765206
 20
257.4816780478
 30
0.0
 10
153.7550836743
 20
257.4027719847
 30
0.0
 10
153.7710134389
 20
257.281976276
 30
0.0
 10
153.7745680244
 20
257.2002961023
 30
0.0
 10
153.7745680244
 20
257.1593300803
 30
0.0
  0
SPLINE
  5
61E
100
AcDbEntity
  8
0
100
AcDbSpline
 62
7
  6
CONTINUOUS
 70
0
 71
3
 72
18
 73
14
 74
0
 42
0.0000001
 43
0.0000001
 44
0.0000000001
 40
0.0
 40
0.0
 40
0.0
 40
0.0
 40
0.1718481857
 40
0.3247381711
 40
0.4423260461
 40
0.5356489411
 40
0.6341045566
 40
0.7103703373
 40
0.7720102792
 40
0.8311118315
 40
0.888867902
 40
0.9411945683
 40
1.0
 40
1.0
 40
1.0
 40
1.0
 10
147.4051750695
 20
257.5203166529
 30
0.0
 10
147.372224612
 20
257.6052428106
 30
0.0
 10
147.2858464863
 20
257.7574561732
 30
0.0
 10
147.1189046195
 20
257.9252206075
 30
0.0
 10
146.9565165607
 20
258.0311655752
 30
0.0
 10
146.8062509624
 20
258.0980828195
 30
0.0
 10
146.6690820845
 20
258.1370997828
 30
0.0
 10
146.5449259833
 20
258.155735185
 30
0.0
 10
146.4404772304
 20
258.1607291088
 30
0.0
 10
146.3458071383
 20
258.1568738745
 30
0.0
 10
146.2567824912
 20
258.1453008772
 30
0.0
 10
146.1690203826
 20
258.1269463644
 30
0.0
 10
146.1129619166
 20
258.1085814961
 30
0.0
 10
146.083406584
 20
258.0986732617
 30
0.0
  0
LINE
  5
61F
100
AcDbEntity
  8
0
100
AcDbLine
 62
7
  6
CONTINUOUS
 10
134.8796776369
 20
254.0223536643
 11
134.3795592229
 21
253.8403254479
  0
LINE
  5
620
100
AcDbEntity
  8
0
100
AcDbLine
 62
7
  6
CONTINUOUS
 10
146.0834079609
 20
258.0986737628
 11
145.583175477
 21
257.9166040285
  0
SPLINE
  5
621
100
AcDbEntity
  8
0
100
AcDbSpline
 62
7
  6
CONTINUOUS
 70
0
 71
3
 72
11
 73
7
 74
0
 42
0.0000001
 43
0.0000001
 44
0.0000000001
 40
0.0
 40
0.0
 40
0.0
 40
0.0
 40
0.0722366316
 40
0.2818824998
 40
0.6035122158
 40
1.0
 40
1.0
 40
1.0
 40
1.0
 10
156.7303983938
 20
261.9785981433
 30
0.0
 10
156.7539731275
 20
261.9871786446
 30
0.0
 10
156.7467393177
 20
261.8163135269
 30
0.0
 10
156.7909445532
 20
261.6762725837
 30
0.0
 10
156.7981169267
 20
261.3186223703
 30
0.0
 10
156.8064096162
 20
261.0797859915
 30
0.0
 10
156.8064096162
 20
260.9420861932
 30
0.0
  0
SPLINE
  5
622
100
AcDbEntity
  8
0
100
AcDbSpline
 62
7
  6
CONTINUOUS
 70
0
 71
3
 72
18
 73
14
 74
0
 42
0.0000001
 43
0.0000001
 44
0.0000000001
 40
0.0
 40
0.0
 40
0.0
 40
0.0
 40
0.0540729609
 40
0.115283005
 40
0.1842481299
 40
0.2547471457
 40
0.3272932
 40
0.413856241
 40
0.5195525116
 40
0.610841704
 40
0.7152836567
 40
0.843460397
 40
1.0
 40
1.0
 40
1.0
 40
1.0
 10
145.168312791
 20
253.8403273938
 30
0.0
 10
145.1438271269
 20
253.8299131477
 30
0.0
 10
145.0908866665
 20
253.8094620041
 30
0.0
 10
145.0054016757
 20
253.7792397189
 30
0.0
 10
144.9140646371
 20
253.7415720883
 30
0.0
 10
144.8195670576
 20
253.6972674965
 30
0.0
 10
144.7200773757
 20
253.6435775296
 30
0.0
 10
144.6095962257
 20
253.574277698
 30
0.0
 10
144.497950057
 20
253.4901897582
 30
0.0
 10
144.3884856053
 20
253.3897962283
 30
0.0
 10
144.2828931457
 20
253.2698614898
 30
0.0
 10
144.1778577298
 20
253.1088006253
 30
0.0
 10
144.1271766644
 20
252.9760492822
 30
0.0
 10
144.1104002172
 20
252.900867971
 30
0.0
  0
SPLINE
  5
623
100
AcDbEntity
  8
0
100
AcDbSpline
 62
7
  6
CONTINUOUS
 70
0
 71
3
 72
10
 73
6
 74
0
 42
0.0000001
 43
0.0000001
 44
0.0000000001
 40
0.0
 40
0.0
 40
0.0
 40
0.0
 40
0.3388332638
 40
0.6728212083
 40
1.0
 40
1.0
 40
1.0
 40
1.0
 10
152.0030819702
 20
256.6330768422
 30
0.0
 10
152.0030819702
 20
256.6722353889
 30
0.0
 10
152.0057517562
 20
256.7500213794
 30
0.0
 10
152.0177427318
 20
256.8650518099
 30
0.0
 10
152.0310623189
 20
256.9403744135
 30
0.0
 10
152.0390414257
 20
256.9773345948
 30
0.0
  0
LINE
  5
624
100
AcDbEntity
  8
0
100
AcDbLine
 62
7
  6
CONTINUOUS
 10
145.168312791
 20
253.8403273938
 11
145.5219457899
 21
254.0223534879
  0
SPLINE
  5
625
100
AcDbEntity
  8
0
100
AcDbSpline
 62
7
  6
CONTINUOUS
 70
0
 71
3
 72
10
 73
6
 74
0
 42
0.0000001
 43
0.0000001
 44
0.0000000001
 40
0.0
 40
0.0
 40
0.0
 40
0.0
 40
0.3381680894
 40
0.6721563219
 40
1.0
 40
1.0
 40
1.0
 40
1.0
 10
144.0726144422
 20
252.5510142728
 30
0.0
 10
144.0726144422
 20
252.5907504198
 30
0.0
 10
144.0754189073
 20
252.6697626531
 30
0.0
 10
144.0880108441
 20
252.7866828119
 30
0.0
 10
144.1020102952
 20
252.8632697042
 30
0.0
 10
144.1104002172
 20
252.900867971
 30
0.0
  0
SPLINE
  5
626
100
AcDbEntity
  8
0
100
AcDbSpline
 62
7
  6
CONTINUOUS
 70
0
 71
3
 72
11
 73
7
 74
0
 42
0.0000001
 43
0.0000001
 44
0.0000000001
 40
0.0
 40
0.0
 40
0.0
 40
0.0
 40
0.3073697087
 40
0.5802568522
 40
0.8068061471
 40
1.0
 40
1.0
 40
1.0
 40
1.0
 10
160.3744526084
 20
260.9420861932
 30
0.0
 10
160.3744526084
 20
261.0797757895
 30
0.0
 10
160.4037962388
 20
261.3411051687
 30
0.0
 10
160.5365357244
 20
261.6822965368
 30
0.0
 10
160.7490346211
 20
261.9226717752
 30
0.0
 10
160.9412940979
 20
261.9807210687
 30
0.0
 10
161.0278113389
 20
261.9785981433
 30
0.0
  0
LINE
  5
627
100
AcDbEntity
  8
0
100
AcDbLine
 62
7
  6
CONTINUOUS
 10
153.0788936367
 20
257.916604859
 11
153.4326088311
 21
258.0986732617
  0
SPLINE
  5
628
100
AcDbEntity
  8
0
100
AcDbSpline
 62
7
  6
CONTINUOUS
 70
0
 71
3
 72
17
 73
13
 74
0
 42
0.0000001
 43
0.0000001
 44
0.0000000001
 40
0.0
 40
0.0
 40
0.0
 40
0.0
 40
0.0612492498
 40
0.1302928695
 40
0.2105389562
 40
0.2874795349
 40
0.3743883597
 40
0.4799742282
 40
0.5894994392
 40
0.6988478702
 40
0.833767801
 40
1.0
 40
1.0
 40
1.0
 40
1.0
 10
153.0788936367
 20
257.916604859
 30
0.0
 10
153.0523658926
 20
257.9029314684
 30
0.0
 10
152.9920309545
 20
257.8822641868
 30
0.0
 10
152.8964445946
 20
257.8453030612
 30
0.0
 10
152.7952209168
 20
257.8014262149
 30
0.0
 10
152.6890766739
 20
257.7476256662
 30
0.0
 10
152.5759712113
 20
257.680752968
 30
0.0
 10
152.4557480199
 20
257.5954934783
 30
0.0
 10
152.3365171771
 20
257.4911946791
 30
0.0
 10
152.2205907078
 20
257.3629942362
 30
0.0
 10
152.1093302527
 20
257.1957242642
 30
0.0
 10
152.0561338838
 20
257.0565089136
 30
0.0
 10
152.0390414257
 20
256.9773345948
 30
0.0
  0
SPLINE
  5
629
100
AcDbEntity
  8
0
100
AcDbSpline
 62
7
  6
CONTINUOUS
 70
0
 71
3
 72
10
 73
6
 74
0
 42
0.0000001
 43
0.0000001
 44
0.0000000001
 40
0.0
 40
0.0
 40
0.0
 40
0.0
 40
0.3366291962
 40
0.6707760983
 40
1.0
 40
1.0
 40
1.0
 40
1.0
 10
153.7745680216
 20
257.1593171379
 30
0.0
 10
153.7745680216
 20
257.2002861067
 30
0.0
 10
153.7710142843
 20
257.2819692527
 30
0.0
 10
153.7550844316
 20
257.4027693076
 30
0.0
 10
153.737376345
 20
257.4816765088
 30
0.0
 10
153.7267754816
 20
257.5203164329
 30
0.0
  0
SPLINE
  5
62A
100
AcDbEntity
  8
0
100
AcDbSpline
 62
7
  6
CONTINUOUS
 70
0
 71
3
 72
18
 73
14
 74
0
 42
0.0000001
 43
0.0000001
 44
0.0000000001
 40
0.0
 40
0.0
 40
0.0
 40
0.0
 40
0.0589212438
 40
0.1113865859
 40
0.1692654049
 40
0.2282012118
 40
0.2895445084
 40
0.3652782058
 40
0.4629304625
 40
0.556040808
 40
0.6730440661
 40
0.8265174744
 40
1.0
 40
1.0
 40
1.0
 40
1.0
 10
146.0834079609
 20
258.0986737628
 30
0.0
 10
146.1130214393
 20
258.1086001556
 30
0.0
 10
146.1692089641
 20
258.1270029657
 30
0.0
 10
146.2571717966
 20
258.1453722907
 30
0.0
 10
146.346251225
 20
258.1569100961
 30
0.0
 10
146.4407406098
 20
258.1607171901
 30
0.0
 10
146.5446586992
 20
258.15573948
 30
0.0
 10
146.6679618924
 20
258.13729746
 30
0.0
 10
146.8043851286
 20
258.0987127536
 30
0.0
 10
146.9540233823
 20
258.0324892269
 30
0.0
 10
147.1166117779
 20
257.9270913254
 30
0.0
 10
147.284702843
 20
257.7592277381
 30
0.0
 10
147.3719117906
 20
257.6060491606
 30
0.0
 10
147.4051750695
 20
257.5203166529
 30
0.0
  0
SPLINE
  5
62B
100
AcDbEntity
  8
0
100
AcDbSpline
 62
7
  6
CONTINUOUS
 70
0
 71
3
 72
18
 73
14
 74
0
 42
0.0000001
 43
0.0000001
 44
0.0000000001
 40
0.0
 40
0.0
 40
0.0
 40
0.0
 40
0.3205552735
 40
0.5557400225
 40
0.6968725627
 40
0.7818434712
 40
0.8444798102
 40
0.8740230601
 40
0.8875115304
 40
0.8985680557
 40
0.9165063055
 40
0.9426415721
 40
1.0
 40
1.0
 40
1.0
 40
1.0
 10
153.726775909
 20
257.5203166529
 30
0.0
 10
153.7049328622
 20
257.5999340988
 30
0.0
 10
153.6653238045
 20
257.7375251232
 30
0.0
 10
153.6103789479
 20
257.908348993
 30
0.0
 10
153.5697009148
 20
258.0201550917
 30
0.0
 10
153.5414184141
 20
258.0886755176
 30
0.0
 10
153.5205046667
 20
258.1299335848
 30
0.0
 10
153.5060145946
 20
258.1520293054
 30
0.0
 10
153.4931049224
 20
258.1613278471
 30
0.0
 10
153.4824999226
 20
258.1547052952
 30
0.0
 10
153.4767103562
 20
258.1417656461
 30
0.0
 10
153.4644453821
 20
258.1182294106
 30
0.0
 10
153.4449200306
 20
258.1068383127
 30
0.0
 10
153.4326088311
 20
258.0986732617
 30
0.0
  0
SPLINE
  5
62C
100
AcDbEntity
  8
0
100
AcDbSpline
 62
7
  6
CONTINUOUS
 70
0
 71
3
 72
10
 73
6
 74
0
 42
0.0000001
 43
0.0000001
 44
0.0000000001
 40
0.0
 40
0.0
 40
0.0
 40
0.0
 40
0.3292246281
 40
0.6633832353
 40
1.0
 40
1.0
 40
1.0
 40
1.0
 10
156.2016497491
 20
257.5203167074
 30
0.0
 10
156.2122502547
 20
257.4816780478
 30
0.0
 10
156.2299574085
 20
257.4027719847
 30
0.0
 10
156.245887173
 20
257.2819762761
 30
0.0
 10
156.2494417586
 20
257.2002961026
 30
0.0
 10
156.2494417586
 20
257.1593300807
 30
0.0
  0
SPLINE
  5
62D
100
AcDbEntity
  8
0
100
AcDbSpline
 62
7
  6
CONTINUOUS
 70
0
 71
3
 72
18
 73
14
 74
0
 42
0.0000001
 43
0.0000001
 44
0.0000000001
 40
0.0
 40
0.0
 40
0.0
 40
0.0
 40
0.0522090621
 40
0.1102360393
 40
0.176767899
 40
0.2447174602
 40
0.3146935299
 40
0.3993223519
 40
0.5047388945
 40
0.6007326811
 40
0.7146637041
 40
0.8533135994
 40
1.0
 40
1.0
 40
1.0
 40
1.0
 10
154.6265547761
 20
258.0986737628
 30
0.0
 10
154.6565664985
 20
258.109740104
 30
0.0
 10
154.7213957956
 20
258.1296200573
 30
0.0
 10
154.8287692187
 20
258.1452829778
 30
0.0
 10
154.9461463499
 20
258.1569886296
 30
0.0
 10
155.0714739068
 20
258.1606862767
 30
0.0
 10
155.2078350791
 20
258.1558401827
 30
0.0
 10
155.3663129382
 20
258.1377486345
 30
0.0
 10
155.5378923265
 20
258.0998892755
 30
0.0
 10
155.7203078199
 20
258.0346862142
 30
0.0
 10
155.9089265041
 20
257.9320607748
 30
0.0
 10
156.0938060654
 20
257.7668064359
 30
0.0
 10
156.1778722892
 20
257.606984696
 30
0.0
 10
156.2016496431
 20
257.5203166529
 30
0.0
  0
SPLINE
  5
62E
100
AcDbEntity
  8
0
100
AcDbSpline
 62
7
  6
CONTINUOUS
 70
0
 71
3
 72
18
 73
14
 74
0
 42
0.0000001
 43
0.0000001
 44
0.0000000001
 40
0.0
 40
0.0
 40
0.0
 40
0.0
 40
0.1861202664
 40
0.3372744039
 40
0.449621165
 40
0.5394767403
 40
0.6371303589
 40
0.7157516755
 40
0.7813659637
 40
0.8457063965
 40
0.9087253247
 40
0.9622469929
 40
1.0
 40
1.0
 40
1.0
 40
1.0
 10
171.4633441257
 20
257.5203166529
 30
0.0
 10
171.4633441257
 20
257.6005677889
 30
0.0
 10
171.4836423708
 20
257.7477048314
 30
0.0
 10
171.5746614027
 20
257.9230550947
 30
0.0
 10
171.6842600535
 20
258.0315601924
 30
0.0
 10
171.7956114665
 20
258.0989181621
 30
0.0
 10
171.9044599487
 20
258.1376463949
 30
0.0
 10
172.0074843751
 20
258.15591063
 30
0.0
 10
172.0974304574
 20
258.1606570954
 30
0.0
 10
172.180751576
 20
258.1570685423
 30
0.0
 10
172.25780547
 20
258.1448108197
 30
0.0
 10
172.3233112852
 20
258.1322805339
 30
0.0
 10
172.3585508514
 20
258.1110728761
 30
0.0
 10
172.36909754
 20
258.0986732617
 30
0.0
  0
SPLINE
  5
62F
100
AcDbEntity
  8
0
100
AcDbSpline
 62
7
  6
CONTINUOUS
 70
0
 71
3
 72
10
 73
6
 74
0
 42
0.0000001
 43
0.0000001
 44
0.0000000001
 40
0.0
 40
0.0
 40
0.0
 40
0.0
 40
0.3292246277
 40
0.6633832344
 40
1.0
 40
1.0
 40
1.0
 40
1.0
 10
190.2250385023
 20
257.5203167074
 30
0.0
 10
190.2144379967
 20
257.4816780478
 30
0.0
 10
190.1967308429
 20
257.4027719847
 30
0.0
 10
190.1808010784
 20
257.281976276
 30
0.0
 10
190.1772464928
 20
257.2002961022
 30
0.0
 10
190.1772464928
 20
257.1593300802
 30
0.0
  0
SPLINE
  5
630
100
AcDbEntity
  8
0
100
AcDbSpline
 62
7
  6
CONTINUOUS
 70
0
 71
3
 72
18
 73
14
 74
0
 42
0.0000001
 43
0.0000001
 44
0.0000000001
 40
0.0
 40
0.0
 40
0.0
 40
0.0
 40
0.0522090621
 40
0.1102360393
 40
0.176767899
 40
0.2447174602
 40
0.3146935299
 40
0.3993223519
 40
0.5047388945
 40
0.6007326811
 40
0.7146637041
 40
0.8533135994
 40
1.0
 40
1.0
 40
1.0
 40
1.0
 10
191.8001334753
 20
258.0986737628
 30
0.0
 10
191.7701217529
 20
258.109740104
 30
0.0
 10
191.7052924557
 20
258.1296200573
 30
0.0
 10
191.5979190326
 20
258.1452829778
 30
0.0
 10
191.4805419015
 20
258.1569886296
 30
0.0
 10
191.3552143446
 20
258.1606862767
 30
0.0
 10
191.2188531722
 20
258.1558401827
 30
0.0
 10
191.0603753132
 20
258.1377486345
 30
0.0
 10
190.8887959249
 20
258.0998892755
 30
0.0
 10
190.7063804315
 20
258.0346862142
 30
0.0
 10
190.5177617473
 20
257.9320607748
 30
0.0
 10
190.332882186
 20
257.7668064359
 30
0.0
 10
190.2488159622
 20
257.606984696
 30
0.0
 10
190.2250386083
 20
257.5203166529
 30
0.0
  0
SPLINE
  5
631
100
AcDbEntity
  8
0
100
AcDbSpline
 62
7
  6
CONTINUOUS
 70
0
 71
3
 72
18
 73
14
 74
0
 42
0.0000001
 43
0.0000001
 44
0.0000000001
 40
0.0
 40
0.0
 40
0.0
 40
0.0
 40
0.1861202664
 40
0.3372744039
 40
0.449621165
 40
0.5394767403
 40
0.6371303589
 40
0.7157516755
 40
0.7813659637
 40
0.8457063965
 40
0.9087253247
 40
0.9622469929
 40
1.0
 40
1.0
 40
1.0
 40
1.0
 10
174.9633441257
 20
257.5203166529
 30
0.0
 10
174.9633441257
 20
257.6005677889
 30
0.0
 10
174.9430458806
 20
257.7477048314
 30
0.0
 10
174.8520268487
 20
257.9230550947
 30
0.0
 10
174.7424281979
 20
258.0315601924
 30
0.0
 10
174.6310767848
 20
258.0989181621
 30
0.0
 10
174.5222283027
 20
258.1376463949
 30
0.0
 10
174.4192038763
 20
258.15591063
 30
0.0
 10
174.329257794
 20
258.1606570954
 30
0.0
 10
174.2459366754
 20
258.1570685423
 30
0.0
 10
174.1688827814
 20
258.1448108197
 30
0.0
 10
174.1033769662
 20
258.1322805339
 30
0.0
 10
174.0681374
 20
258.1110728761
 30
0.0
 10
174.0575907113
 20
258.0986732617
 30
0.0
  0
SPLINE
  5
632
100
AcDbEntity
  8
0
100
AcDbSpline
 62
7
  6
CONTINUOUS
 70
0
 71
3
 72
17
 73
13
 74
0
 42
0.0000001
 43
0.0000001
 44
0.0000000001
 40
0.0
 40
0.0
 40
0.0
 40
0.0
 40
0.0388144885
 40
0.0961959675
 40
0.1676637415
 40
0.2390396693
 40
0.3224520646
 40
0.427559994
 40
0.5408965618
 40
0.6583466499
 40
0.8087304758
 40
1.0
 40
1.0
 40
1.0
 40
1.0
 10
174.0575907113
 20
257.916604859
 30
0.0
 10
174.0575033214
 20
257.8998040141
 30
0.0
 10
174.1079314689
 20
257.8787764026
 30
0.0
 10
174.1633871308
 20
257.8440322329
 30
0.0
 10
174.2413418764
 20
257.8004338103
 30
0.0
 10
174.322361537
 20
257.7466576827
 30
0.0
 10
174.4128999925
 20
257.6793607012
 30
0.0
 10
174.5115811645
 20
257.5936079703
 30
0.0
 10
174.6129623424
 20
257.4890908274
 30
0.0
 10
174.7165918803
 20
257.3603853034
 30
0.0
 10
174.8236299828
 20
257.1924047331
 30
0.0
 10
174.8836105409
 20
257.0560772295
 30
0.0
 10
174.9091864978
 20
256.9773345948
 30
0.0
  0
SPLINE
  5
633
100
AcDbEntity
  8
0
100
AcDbSpline
 62
7
  6
CONTINUOUS
 70
0
 71
3
 72
17
 73
13
 74
0
 42
0.0000001
 43
0.0000001
 44
0.0000000001
 40
0.0
 40
0.0
 40
0.0
 40
0.0
 40
0.2423801238
 40
0.4172703478
 40
0.5429817554
 40
0.6556713935
 40
0.7488943535
 40
0.8161571401
 40
0.8692705788
 40
0.9169367297
 40
0.9539333614
 40
1.0
 40
1.0
 40
1.0
 40
1.0
 10
191.9893635433
 20
256.9773345948
 30
0.0
 10
192.0079587521
 20
257.0537138256
 30
0.0
 10
192.0399738491
 20
257.1852046564
 30
0.0
 10
192.0813114911
 20
257.3563861228
 30
0.0
 10
192.1124046697
 20
257.4867749621
 30
0.0
 10
192.1368325728
 20
257.5915089538
 30
0.0
 10
192.1562937922
 20
257.6779730433
 30
0.0
 10
192.1704573345
 20
257.745720593
 30
0.0
 10
192.180656459
 20
257.7994429056
 30
0.0
 10
192.186063153
 20
257.8433474983
 30
0.0
 10
192.1882974053
 20
257.8872416696
 30
0.0
 10
192.1671420637
 20
257.9097793264
 30
0.0
 10
192.1538512568
 20
257.9166040285
 30
0.0
  0
SPLINE
  5
634
100
AcDbEntity
  8
0
100
AcDbSpline
 62
7
  6
CONTINUOUS
 70
0
 71
3
 72
18
 73
14
 74
0
 42
0.0000001
 43
0.0000001
 44
0.0000000001
 40
0.0
 40
0.0
 40
0.0
 40
0.0
 40
0.0343412206
 40
0.0849825805
 40
0.145754688
 40
0.2102031163
 40
0.2785446089
 40
0.3626194233
 40
0.4689784518
 40
0.5641195937
 40
0.6766578959
 40
0.819770881
 40
1.0
 40
1.0
 40
1.0
 40
1.0
 10
174.0412282398
 20
253.8403273938
 30
0.0
 10
174.0502150516
 20
253.8283219094
 30
0.0
 10
174.0807896409
 20
253.8055251073
 30
0.0
 10
174.1382426689
 20
253.7787098429
 30
0.0
 10
174.2051434114
 20
253.7406769222
 30
0.0
 10
174.2772506353
 20
253.6966024334
 30
0.0
 10
174.3551735401
 20
253.642664357
 30
0.0
 10
174.4441363804
 20
253.5728627213
 30
0.0
 10
174.5362383366
 20
253.4885449023
 30
0.0
 10
174.6297528972
 20
253.3880711619
 30
0.0
 10
174.7245236071
 20
253.2674294106
 30
0.0
 10
174.8257343845
 20
253.1057447694
 30
0.0
 10
174.8828225954
 20
252.9756138161
 30
0.0
 10
174.9074686765
 20
252.900867971
 30
0.0
  0
SPLINE
  5
635
100
AcDbEntity
  8
0
100
AcDbSpline
 62
7
  6
CONTINUOUS
 70
0
 71
3
 72
18
 73
14
 74
0
 42
0.0000001
 43
0.0000001
 44
0.0000000001
 40
0.0
 40
0.0
 40
0.0
 40
0.0
 40
0.2314265886
 40
0.4005812362
 40
0.5233977591
 40
0.6218780995
 40
0.7197335277
 40
0.7903084369
 40
0.8429683453
 40
0.8892101651
 40
0.9283567453
 40
0.960174492
 40
1.0
 40
1.0
 40
1.0
 40
1.0
 10
199.920434118
 20
252.900867971
 30
0.0
 10
199.9381357823
 20
252.9736649988
 30
0.0
 10
199.9686290692
 20
253.0997067352
 30
0.0
 10
200.007879186
 20
253.2645350155
 30
0.0
 10
200.0367073352
 20
253.38760161
 30
0.0
 10
200.0597826819
 20
253.4883120401
 30
0.0
 10
200.0785328177
 20
253.5726512053
 30
0.0
 10
200.0933879897
 20
253.6426875684
 30
0.0
 10
200.1039008659
 20
253.6964856489
 30
0.0
 10
200.1116978757
 20
253.7406427207
 30
0.0
 10
200.1157680304
 20
253.7780019969
 30
0.0
 10
200.1172742554
 20
253.8151216316
 30
0.0
 10
200.0990405645
 20
253.8344313366
 30
0.0
 10
200.0875742985
 20
253.8403254479
 30
0.0
  0
LINE
  5
636
100
AcDbEntity
  8
0
100
AcDbLine
 62
7
  6
CONTINUOUS
 10
138.5388522509
 20
248.2079356687
 11
137.9907840786
 21
246.0796500417
  0
SPLINE
  5
637
100
AcDbEntity
  8
0
100
AcDbSpline
 62
7
  6
CONTINUOUS
 70
0
 71
3
 72
10
 73
6
 74
0
 42
0.0000001
 43
0.0000001
 44
0.0000000001
 40
0.0
 40
0.0
 40
0.0
 40
0.0
 40
0.3499990415
 40
0.6843581309
 40
1.0
 40
1.0
 40
1.0
 40
1.0
 10
137.6430617938
 20
246.4470743201
 30
0.0
 10
137.7009821558
 20
246.6721250353
 30
0.0
 10
137.8440856655
 20
247.1053139596
 30
0.0
 10
138.1437475233
 20
247.7004438024
 30
0.0
 10
138.3997093692
 20
248.0512192191
 30
0.0
 10
138.5388522509
 20
248.2079356687
 30
0.0
  0
SPLINE
  5
638
100
AcDbEntity
  8
0
100
AcDbSpline
 62
7
  6
CONTINUOUS
 70
0
 71
3
 72
10
 73
6
 74
0
 42
0.0000001
 43
0.0000001
 44
0.0000000001
 40
0.0
 40
0.0
 40
0.0
 40
0.0
 40
0.3367586515
 40
0.6694239857
 40
1.0
 40
1.0
 40
1.0
 40
1.0
 10
135.4821833895
 20
238.0509384324
 30
0.0
 10
135.5003699475
 20
238.0572349773
 30
0.0
 10
135.537223303
 20
238.0678370431
 30
0.0
 10
135.5936605935
 20
238.0774954842
 30
0.0
 10
135.6316005252
 20
238.0796500417
 30
0.0
 10
135.6504928988
 20
238.0796500417
 30
0.0
  0
SPLINE
  5
639
100
AcDbEntity
  8
0
100
AcDbSpline
 62
7
  6
CONTINUOUS
 70
0
 71
3
 72
10
 73
6
 74
0
 42
0.0000001
 43
0.0000001
 44
0.0000000001
 40
0.0
 40
0.0
 40
0.0
 40
0.0
 40
0.3532530408
 40
0.6997641421
 40
1.0
 40
1.0
 40
1.0
 40
1.0
 10
134.9082053878
 20
237.4207331234
 30
0.0
 10
134.9340893677
 20
237.5212408202
 30
0.0
 10
135.0233089098
 20
237.7123409577
 30
0.0
 10
135.230880385
 20
237.9257880273
 30
0.0
 10
135.3988273823
 20
238.0220789391
 30
0.0
 10
135.4821833895
 20
238.0509384324
 30
0.0
  0
SPLINE
  5
63A
100
AcDbEntity
  8
0
100
AcDbSpline
 62
7
  6
CONTINUOUS
 70
0
 71
3
 72
10
 73
6
 74
0
 42
0.0000001
 43
0.0000001
 44
0.0000000001
 40
0.0
 40
0.0
 40
0.0
 40
0.0
 40
0.2035598945
 40
0.5568621302
 40
1.0
 40
1.0
 40
1.0
 40
1.0
 10
171.4633441257
 20
238.0509384324
 30
0.0
 10
171.4633441257
 20
238.0074688414
 30
0.0
 10
171.5054202524
 20
237.8930771104
 30
0.0
 10
171.5530788044
 20
237.6861261376
 30
0.0
 10
171.5691861088
 20
237.5153638693
 30
0.0
 10
171.5691932387
 20
237.420733137
 30
0.0
  0
LINE
  5
63B
100
AcDbEntity
  8
0
100
AcDbLine
 62
7
  6
CONTINUOUS
 10
134.9082053878
 20
237.4207331234
 11
134.3056911382
 21
235.0796520591
  0
SPLINE
  5
63C
100
AcDbEntity
  8
0
100
AcDbSpline
 62
7
  6
CONTINUOUS
 70
0
 71
3
 72
10
 73
6
 74
0
 42
0.0000001
 43
0.0000001
 44
0.0000000001
 40
0.0
 40
0.0
 40
0.0
 40
0.0
 40
0.2881258743
 40
0.6288094119
 40
1.0
 40
1.0
 40
1.0
 40
1.0
 10
138.3845832969
 20
249.7774568507
 30
0.0
 10
138.4958273175
 20
249.7774568507
 30
0.0
 10
138.7382200536
 20
249.7000986115
 30
0.0
 10
139.0364381702
 20
249.445712835
 30
0.0
 10
139.1873000923
 20
249.2105387117
 30
0.0
 10
139.2471478589
 20
249.0803180992
 30
0.0
  0
SPLINE
  5
63D
100
AcDbEntity
  8
0
100
AcDbSpline
 62
7
  6
CONTINUOUS
 70
0
 71
3
 72
10
 73
6
 74
0
 42
0.0000001
 43
0.0000001
 44
0.0000000001
 40
0.0
 40
0.0
 40
0.0
 40
0.0
 40
0.127125889
 40
0.4736993874
 40
1.0
 40
1.0
 40
1.0
 40
1.0
 10
171.4988795029
 20
249.0796500417
 30
0.0
 10
171.527029174
 20
249.0796500417
 30
0.0
 10
171.5212204938
 20
248.9185716531
 30
0.0
 10
171.5088280791
 20
248.7485766439
 30
0.0
 10
171.4796465188
 20
248.5378877278
 30
0.0
 10
171.4709896875
 20
248.421670185
 30
0.0
  0
SPLINE
  5
63E
100
AcDbEntity
  8
0
100
AcDbSpline
 62
7
  6
CONTINUOUS
 70
0
 71
3
 72
10
 73
6
 74
0
 42
0.0000001
 43
0.0000001
 44
0.0000000001
 40
0.0
 40
0.0
 40
0.0
 40
0.0
 40
0.3305768782
 40
0.6632422206
 40
1.0
 40
1.0
 40
1.0
 40
1.0
 10
210.7761953526
 20
238.0796500417
 30
0.0
 10
210.7950877756
 20
238.0796500417
 30
0.0
 10
210.8330277573
 20
238.0774954755
 30
0.0
 10
210.8894650451
 20
238.0678370182
 30
0.0
 10
210.9263183509
 20
238.057234961
 30
0.0
 10
210.9445048619
 20
238.0509384324
 30
0.0
  0
SPLINE
  5
63F
100
AcDbEntity
  8
0
100
AcDbSpline
 62
7
  6
CONTINUOUS
 70
0
 71
3
 72
10
 73
6
 74
0
 42
0.0000001
 43
0.0000001
 44
0.0000000001
 40
0.0
 40
0.0
 40
0.0
 40
0.0
 40
0.4431324355
 40
0.7963681391
 40
1.0
 40
1.0
 40
1.0
 40
1.0
 10
174.8574950127
 20
237.4207331233
 30
0.0
 10
174.8575021425
 20
237.5153626948
 30
0.0
 10
174.8736085394
 20
237.6861092882
 30
0.0
 10
174.9212618822
 20
237.8930617486
 30
0.0
 10
174.9633441257
 20
238.0074534734
 30
0.0
 10
174.9633441257
 20
238.0509384324
 30
0.0
  0
SPLINE
  5
640
100
AcDbEntity
  8
0
100
AcDbSpline
 62
7
  6
CONTINUOUS
 70
0
 71
3
 72
10
 73
6
 74
0
 42
0.0000001
 43
0.0000001
 44
0.0000000001
 40
0.0
 40
0.0
 40
0.0
 40
0.0
 40
0.3001534429
 40
0.646742223
 40
1.0
 40
1.0
 40
1.0
 40
1.0
 10
210.9445048619
 20
238.0509384324
 30
0.0
 10
211.0278379777
 20
238.0220868646
 30
0.0
 10
211.1957863038
 20
237.9258054928
 30
0.0
 10
211.403368057
 20
237.7123642841
 30
0.0
 10
211.4925985363
 20
237.5212421693
 30
0.0
 10
211.51848286
 20
237.420733137
 30
0.0
  0
LINE
  5
641
100
AcDbEntity
  8
0
100
AcDbLine
 62
7
  6
CONTINUOUS
 10
209.644378823
 20
238.0796500417
 11
210.4168844178
 21
235.0796500417
  0
SPLINE
  5
642
100
AcDbEntity
  8
0
100
AcDbSpline
 62
7
  6
CONTINUOUS
 70
0
 71
3
 72
10
 73
6
 74
0
 42
0.0000001
 43
0.0000001
 44
0.0000000001
 40
0.0
 40
0.0
 40
0.0
 40
0.0
 40
0.3156418691
 40
0.6500009585
 40
1.0
 40
1.0
 40
1.0
 40
1.0
 10
207.8878360005
 20
248.2079356687
 30
0.0
 10
208.0269788822
 20
248.0512192191
 30
0.0
 10
208.282940728
 20
247.7004438024
 30
0.0
 10
208.5826025859
 20
247.1053139596
 30
0.0
 10
208.7257060955
 20
246.6721250353
 30
0.0
 10
208.7836264576
 20
246.4470743201
 30
0.0
  0
LINE
  5
643
100
AcDbEntity
  8
0
100
AcDbLine
 62
7
  6
CONTINUOUS
 10
208.4359041728
 20
246.0796500417
 11
207.8878360005
 21
248.2079356687
  0
LINE
  5
644
100
AcDbEntity
  8
0
100
AcDbLine
 62
7
  6
CONTINUOUS
 10
206.0359828604
 20
249.0796500417
 11
206.8085784219
 21
246.0796500417
  0
LINE
  5
645
100
AcDbEntity
  8
0
100
AcDbLine
 62
7
  6
CONTINUOUS
 10
174.8574950127
 20
237.4207331233
 11
174.8574950127
 21
235.0796520591
  0
SPLINE
  5
646
100
AcDbEntity
  8
0
100
AcDbSpline
 62
7
  6
CONTINUOUS
 70
0
 71
3
 72
10
 73
6
 74
0
 42
0.0000001
 43
0.0000001
 44
0.0000000001
 40
0.0
 40
0.0
 40
0.0
 40
0.0
 40
0.3285895961
 40
0.6582666827
 40
1.0
 40
1.0
 40
1.0
 40
1.0
 10
174.6173586149
 20
224.0797658967
 30
0.0
 10
174.5548484281
 20
224.1223318211
 30
0.0
 10
174.4193000123
 20
224.1931523692
 30
0.0
 10
174.1969572622
 20
224.2571839387
 30
0.0
 10
174.0419958128
 20
224.2715326011
 30
0.0
 10
173.9633441257
 20
224.2715326011
 30
0.0
  0
SPLINE
  5
647
100
AcDbEntity
  8
0
100
AcDbSpline
 62
7
  6
CONTINUOUS
 70
0
 71
3
 72
10
 73
6
 74
0
 42
0.0000001
 43
0.0000001
 44
0.0000000001
 40
0.0
 40
0.0
 40
0.0
 40
0.0
 40
0.119972405
 40
0.4603876877
 40
1.0
 40
1.0
 40
1.0
 40
1.0
 10
174.9633441257
 20
224.081380285
 30
0.0
 10
174.9633441257
 20
224.0675438816
 30
0.0
 10
174.8776048417
 20
224.0990796663
 30
0.0
 10
174.7930657937
 20
224.0686538556
 30
0.0
 10
174.6795919701
 20
224.0801641603
 30
0.0
 10
174.6173586149
 20
224.0800710758
 30
0.0
  0
LINE
  5
648
100
AcDbEntity
  8
0
100
AcDbLine
 62
7
  6
CONTINUOUS
 10
212.120997112
 20
235.0796520639
 11
211.51848286
 21
237.420733137
  0
SPLINE
  5
649
100
AcDbEntity
  8
0
100
AcDbSpline
 62
7
  6
CONTINUOUS
 70
0
 71
3
 72
10
 73
6
 74
0
 42
0.0000001
 43
0.0000001
 44
0.0000000001
 40
0.0
 40
0.0
 40
0.0
 40
0.0
 40
0.3021159325
 40
0.6363938581
 40
1.0
 40
1.0
 40
1.0
 40
1.0
 10
208.0421049544
 20
249.7774568507
 30
0.0
 10
208.3783088344
 20
249.6044020757
 30
0.0
 10
209.0179960591
 20
249.100071739
 30
0.0
 10
209.7337349592
 20
248.0569358681
 30
0.0
 10
210.0417681481
 20
247.2298216535
 30
0.0
 10
210.1551962631
 20
246.7890944634
 30
0.0
  0
SPLINE
  5
64A
100
AcDbEntity
  8
0
100
AcDbSpline
 62
7
  6
CONTINUOUS
 70
0
 71
3
 72
10
 73
6
 74
0
 42
0.0000001
 43
0.0000001
 44
0.0000000001
 40
0.0
 40
0.0
 40
0.0
 40
0.0
 40
0.3381876817
 40
0.6715716261
 40
1.0
 40
1.0
 40
1.0
 40
1.0
 10
207.8878360005
 20
248.2079356687
 30
0.0
 10
207.8816680325
 20
248.2318872156
 30
0.0
 10
207.8697805648
 20
248.2795441217
 30
0.0
 10
207.8532582174
 20
248.3507905378
 30
0.0
 10
207.8431670134
 20
248.3981312234
 30
0.0
 10
207.8383877366
 20
248.421670185
 30
0.0
  0
SPLINE
  5
64B
100
AcDbEntity
  8
0
100
AcDbSpline
 62
7
  6
CONTINUOUS
 70
0
 71
3
 72
11
 73
7
 74
0
 42
0.0000001
 43
0.0000001
 44
0.0000000001
 40
0.0
 40
0.0
 40
0.0
 40
0.0
 40
0.226462415
 40
0.4940364804
 40
0.7647373352
 40
1.0
 40
1.0
 40
1.0
 40
1.0
 10
210.1551962631
 20
246.7890944635
 30
0.0
 10
210.047786013
 20
246.7890944635
 30
0.0
 10
209.8136495552
 20
246.7660598231
 30
0.0
 10
209.4577448558
 20
246.6941815294
 30
0.0
 10
209.105767255
 20
246.5891624409
 30
0.0
 10
208.8828389032
 20
246.4981421051
 30
0.0
 10
208.7836264576
 20
246.4470743201
 30
0.0
  0
SPLINE
  5
64C
100
AcDbEntity
  8
0
100
AcDbSpline
 62
7
  6
CONTINUOUS
 70
0
 71
3
 72
10
 73
6
 74
0
 42
0.0000001
 43
0.0000001
 44
0.0000000001
 40
0.0
 40
0.0
 40
0.0
 40
0.0
 40
0.3022152315
 40
0.6209322107
 40
1.0
 40
1.0
 40
1.0
 40
1.0
 10
209.1027651262
 20
249.7774568507
 30
0.0
 10
209.1994915722
 20
249.7774568507
 30
0.0
 10
209.4063778972
 20
249.7143831855
 30
0.0
 10
209.5922045942
 20
249.4303488875
 30
0.0
 10
209.6131704576
 20
249.201457787
 30
0.0
 10
209.6064903142
 20
249.0803180997
 30
0.0
  0
SPLINE
  5
64D
100
AcDbEntity
  8
0
100
AcDbSpline
 62
7
  6
CONTINUOUS
 70
0
 71
3
 72
10
 73
6
 74
0
 42
0.0000001
 43
0.0000001
 44
0.0000000001
 40
0.0
 40
0.0
 40
0.0
 40
0.0
 40
0.3636061419
 40
0.6978840675
 40
1.0
 40
1.0
 40
1.0
 40
1.0
 10
211.2158564349
 20
246.7890944634
 30
0.0
 10
211.1024283199
 20
247.2298216535
 30
0.0
 10
210.794395131
 20
248.0569358681
 30
0.0
 10
210.0786562309
 20
249.100071739
 30
0.0
 10
209.4389690061
 20
249.6044020757
 30
0.0
 10
209.1027651262
 20
249.7774568507
 30
0.0
  0
SPLINE
  5
64E
100
AcDbEntity
  8
0
100
AcDbSpline
 62
7
  6
CONTINUOUS
 70
0
 71
3
 72
11
 73
7
 74
0
 42
0.0000001
 43
0.0000001
 44
0.0000000001
 40
0.0
 40
0.0
 40
0.0
 40
0.0
 40
0.3413833885
 40
0.5228348672
 40
0.6840661054
 40
1.0
 40
1.0
 40
1.0
 40
1.0
 10
211.2585001917
 20
246.4470743201
 30
0.0
 10
211.3294526848
 20
246.4835958134
 30
0.0
 10
211.4277968855
 20
246.5320307665
 30
0.0
 10
211.5597647027
 20
246.6908837924
 30
0.0
 10
211.3959964035
 20
246.7981714682
 30
0.0
 10
211.2897077013
 20
246.7890944634
 30
0.0
 10
211.2158564349
 20
246.7890944634
 30
0.0
  0
SPLINE
  5
64F
100
AcDbEntity
  8
0
100
AcDbSpline
 62
7
  6
CONTINUOUS
 70
0
 71
3
 72
10
 73
6
 74
0
 42
0.0000001
 43
0.0000001
 44
0.0000000001
 40
0.0
 40
0.0
 40
0.0
 40
0.0
 40
0.3911822833
 40
0.7251553793
 40
1.0
 40
1.0
 40
1.0
 40
1.0
 10
210.3024490136
 20
248.421670185
 30
0.0
 10
210.2640403996
 20
248.5462202038
 30
0.0
 10
210.1504040956
 20
248.7654663766
 30
0.0
 10
209.912214821
 20
249.0059715816
 30
0.0
 10
209.7101255721
 20
249.0796500417
 30
0.0
 10
209.6185502869
 20
249.0796500417
 30
0.0
  0
SPLINE
  5
650
100
AcDbEntity
  8
0
100
AcDbSpline
 62
7
  6
CONTINUOUS
 70
0
 71
3
 72
10
 73
6
 74
0
 42
0.0000001
 43
0.0000001
 44
0.0000000001
 40
0.0
 40
0.0
 40
0.0
 40
0.0
 40
0.3084501695
 40
0.6292494106
 40
1.0
 40
1.0
 40
1.0
 40
1.0
 10
207.1939311419
 20
249.0796500417
 30
0.0
 10
207.2964120006
 20
249.0796500417
 30
0.0
 10
207.5111189491
 20
249.0230750798
 30
0.0
 10
207.7445261483
 20
248.7665609453
 30
0.0
 10
207.813877788
 20
248.5423869295
 30
0.0
 10
207.8383877366
 20
248.421670185
 30
0.0
  0
SPLINE
  5
651
100
AcDbEntity
  8
0
100
AcDbSpline
 62
7
  6
CONTINUOUS
 70
0
 71
3
 72
10
 73
6
 74
0
 42
0.0000001
 43
0.0000001
 44
0.0000000001
 40
0.0
 40
0.0
 40
0.0
 40
0.0
 40
0.5269327777
 40
0.8718624975
 40
1.0
 40
1.0
 40
1.0
 40
1.0
 10
174.9556985639
 20
248.421670185
 30
0.0
 10
174.9470315909
 20
248.5380238785
 30
0.0
 10
174.9177672727
 20
248.748494108
 30
0.0
 10
174.9056248266
 20
248.9185670616
 30
0.0
 10
174.899435924
 20
249.0796500417
 30
0.0
 10
174.9278087583
 20
249.0796500417
 30
0.0
  0
SPLINE
  5
652
100
AcDbEntity
  8
0
100
AcDbSpline
 62
7
  6
CONTINUOUS
 70
0
 71
3
 72
10
 73
6
 74
0
 42
0.0000001
 43
0.0000001
 44
0.0000000001
 40
0.0
 40
0.0
 40
0.0
 40
0.0
 40
0.3300836054
 40
0.6634071833
 40
1.0
 40
1.0
 40
1.0
 40
1.0
 10
174.9556985639
 20
248.421670185
 30
0.0
 10
174.9574469192
 20
248.398198599
 30
0.0
 10
174.9603142113
 20
248.3509746755
 30
0.0
 10
174.9628140998
 20
248.2797069593
 30
0.0
 10
174.9633441257
 20
248.2319364198
 30
0.0
 10
174.9633441257
 20
248.2079356687
 30
0.0
  0
SPLINE
  5
653
100
AcDbEntity
  8
0
100
AcDbSpline
 62
7
  6
CONTINUOUS
 70
0
 71
3
 72
10
 73
6
 74
0
 42
0.0000001
 43
0.0000001
 44
0.0000000001
 40
0.0
 40
0.0
 40
0.0
 40
0.0
 40
0.3407606643
 40
0.6749579683
 40
1.0
 40
1.0
 40
1.0
 40
1.0
 10
173.9633441257
 20
249.7774568507
 30
0.0
 10
174.1073982555
 20
249.7774568507
 30
0.0
 10
174.3962919735
 20
249.7180715746
 30
0.0
 10
174.7504990505
 20
249.4657491234
 30
0.0
 10
174.8916746433
 20
249.2124308903
 30
0.0
 10
174.9294568721
 20
249.0803181021
 30
0.0
  0
SPLINE
  5
654
100
AcDbEntity
  8
0
100
AcDbSpline
 62
7
  6
CONTINUOUS
 70
0
 71
3
 72
11
 73
7
 74
0
 42
0.0000001
 43
0.0000001
 44
0.0000000001
 40
0.0
 40
0.0
 40
0.0
 40
0.0
 40
0.1362484087
 40
0.3553824328
 40
0.65484349
 40
1.0
 40
1.0
 40
1.0
 40
1.0
 10
174.9633441257
 20
246.4470743201
 30
0.0
 10
174.9633441257
 20
246.4975446905
 30
0.0
 10
174.8694278295
 20
246.6158212447
 30
0.0
 10
174.6448716038
 20
246.7049405389
 30
0.0
 10
174.3303372032
 20
246.7750143583
 30
0.0
 10
174.0912001283
 20
246.7890944634
 30
0.0
 10
173.9633441257
 20
246.7890944634
 30
0.0
  0
SPLINE
  5
655
100
AcDbEntity
  8
0
100
AcDbSpline
 62
7
  6
CONTINUOUS
 70
0
 71
3
 72
18
 73
14
 74
0
 42
0.0000001
 43
0.0000001
 44
0.0000000001
 40
0.0
 40
0.0
 40
0.0
 40
0.0
 40
0.0402644567
 40
0.0724965751
 40
0.1125798003
 40
0.1588440871
 40
0.2122448799
 40
0.2838128831
 40
0.3830443221
 40
0.4794438695
 40
0.602101629
 40
0.7704935071
 40
1.0
 40
1.0
 40
1.0
 40
1.0
 10
200.0875705181
 20
253.8403273938
 30
0.0
 10
200.0978795346
 20
253.8323516619
 30
0.0
 10
200.1179618252
 20
253.8153915181
 30
0.0
 10
200.1155323921
 20
253.7767443834
 30
0.0
 10
200.1115221316
 20
253.7392633598
 30
0.0
 10
200.1035183237
 20
253.6944723597
 30
0.0
 10
200.0928711757
 20
253.6401629538
 30
0.0
 10
200.0777685008
 20
253.5691364483
 30
0.0
 10
200.0589699083
 20
253.4847217426
 30
0.0
 10
200.0359286543
 20
253.3842922339
 30
0.0
 10
200.0073223558
 20
253.2621770897
 30
0.0
 10
199.9682754349
 20
253.0982518079
 30
0.0
 10
199.9379883021
 20
252.9730584955
 30
0.0
 10
199.920434118
 20
252.900867971
 30
0.0
  0
SPLINE
  5
656
100
AcDbEntity
  8
0
100
AcDbSpline
 62
7
  6
CONTINUOUS
 70
0
 71
3
 72
18
 73
14
 74
0
 42
0.0000001
 43
0.0000001
 44
0.0000000001
 40
0.0
 40
0.0
 40
0.0
 40
0.0
 40
0.181802308
 40
0.3257240772
 40
0.4385998853
 40
0.5360858141
 40
0.6413989698
 40
0.7246241616
 40
0.7922490414
 40
0.8568919555
 40
0.9163985736
 40
0.9663333505
 40
1.0
 40
1.0
 40
1.0
 40
1.0
 10
174.9074686765
 20
252.900867971
 30
0.0
 10
174.8826073688
 20
252.9762665485
 30
0.0
 10
174.8249844914
 20
253.107323055
 30
0.0
 10
174.7228616454
 20
253.2698448911
 30
0.0
 10
174.6268874182
 20
253.3914845501
 30
0.0
 10
174.5325770855
 20
253.4921991253
 30
0.0
 10
174.4399947288
 20
253.5763030161
 30
0.0
 10
174.3518289335
 20
253.6451758573
 30
0.0
 10
174.2740017641
 20
253.6985102921
 30
0.0
 10
174.2033969563
 20
253.7423291116
 30
0.0
 10
174.134112469
 20
253.7789071577
 30
0.0
 10
174.0860964194
 20
253.8079664422
 30
0.0
 10
174.0411839515
 20
253.825623556
 30
0.0
 10
174.0412282398
 20
253.8403254479
 30
0.0
  0
SPLINE
  5
657
100
AcDbEntity
  8
0
100
AcDbSpline
 62
7
  6
CONTINUOUS
 70
0
 71
3
 72
10
 73
6
 74
0
 42
0.0000001
 43
0.0000001
 44
0.0000000001
 40
0.0
 40
0.0
 40
0.0
 40
0.0
 40
0.3365463469
 40
0.6706667103
 40
1.0
 40
1.0
 40
1.0
 40
1.0
 10
198.1095780687
 20
253.0828518824
 30
0.0
 10
198.1095780687
 20
253.1231446017
 30
0.0
 10
198.1130117874
 20
253.2034844771
 30
0.0
 10
198.128404855
 20
253.3223510107
 30
0.0
 10
198.1455151041
 20
253.4000487152
 30
0.0
 10
198.1557590996
 20
253.4381238753
 30
0.0
  0
SPLINE
  5
658
100
AcDbEntity
  8
0
100
AcDbSpline
 62
7
  6
CONTINUOUS
 70
0
 71
3
 72
19
 73
15
 74
0
 42
0.0000001
 43
0.0000001
 44
0.0000000001
 40
0.0
 40
0.0
 40
0.0
 40
0.0
 40
0.137840849
 40
0.2673102228
 40
0.3792882035
 40
0.468801585
 40
0.5665408555
 40
0.652615023
 40
0.7230099922
 40
0.7819942038
 40
0.8453599048
 40
0.9026534011
 40
0.9541849216
 40
1.0
 40
1.0
 40
1.0
 40
1.0
 10
198.1557589088
 20
253.4381239735
 30
0.0
 10
198.1777916542
 20
253.5200158784
 30
0.0
 10
198.2535338279
 20
253.6713700794
 30
0.0
 10
198.4235981784
 20
253.8354708821
 30
0.0
 10
198.59980943
 20
253.9399418573
 30
0.0
 10
198.7712640641
 20
254.0082386773
 30
0.0
 10
198.9344021812
 20
254.0507506397
 30
0.0
 10
199.0892832748
 20
254.074008364
 30
0.0
 10
199.2216531112
 20
254.0829251657
 30
0.0
 10
199.3402889891
 20
254.083252181
 30
0.0
 10
199.4507405733
 20
254.0772229469
 30
0.0
 10
199.5559426034
 20
254.0647366341
 30
0.0
 10
199.6500733221
 20
254.0498748683
 30
0.0
 10
199.7075022361
 20
254.0321349096
 30
0.0
 10
199.7339375192
 20
254.0223534879
 30
0.0
  0
LINE
  5
659
100
AcDbEntity
  8
0
100
AcDbLine
 62
7
  6
CONTINUOUS
 10
174.9633441257
 20
250.2682595097
 11
174.9633441257
 21
249.3574488797
  0
LINE
  5
65A
100
AcDbEntity
  8
0
100
AcDbLine
 62
7
  6
CONTINUOUS
 10
199.8812051502
 20
249.3574488797
 11
198.1117187687
 21
250.2682595097
  0
SPLINE
  5
65B
100
AcDbEntity
  8
0
100
AcDbSpline
 62
7
  6
CONTINUOUS
 70
0
 71
3
 72
10
 73
6
 74
0
 42
0.0000001
 43
0.0000001
 44
0.0000000001
 40
0.0
 40
0.0
 40
0.0
 40
0.0
 40
0.3365463469
 40
0.6706667103
 40
1.0
 40
1.0
 40
1.0
 40
1.0
 10
145.8422364485
 20
253.0828518824
 30
0.0
 10
145.8422364485
 20
253.1231446017
 30
0.0
 10
145.8388027298
 20
253.2034844771
 30
0.0
 10
145.8234096623
 20
253.3223510107
 30
0.0
 10
145.8062994132
 20
253.4000487152
 30
0.0
 10
145.7960554176
 20
253.4381238753
 30
0.0
  0
SPLINE
  5
65C
100
AcDbEntity
  8
0
100
AcDbSpline
 62
7
  6
CONTINUOUS
 70
0
 71
3
 72
19
 73
15
 74
0
 42
0.0000001
 43
0.0000001
 44
0.0000000001
 40
0.0
 40
0.0
 40
0.0
 40
0.0
 40
0.0516703673
 40
0.0982111713
 40
0.1480059352
 40
0.2026240892
 40
0.2537267399
 40
0.3155023717
 40
0.3928446871
 40
0.4845071337
 40
0.5720844035
 40
0.6884144194
 40
0.8343125517
 40
1.0
 40
1.0
 40
1.0
 40
1.0
 10
134.8796776369
 20
254.0223536643
 30
0.0
 10
134.9055128423
 20
254.0311188233
 30
0.0
 10
134.9547701644
 20
254.0474981516
 30
0.0
 10
135.0310678717
 20
254.0648291411
 30
0.0
 10
135.1098721241
 20
254.0771601359
 30
0.0
 10
135.191857071
 20
254.0832868549
 30
0.0
 10
135.2803738674
 20
254.0828953409
 30
0.0
 10
135.3805539587
 20
254.0739369354
 30
0.0
 10
135.500402163
 20
254.0505010258
 30
0.0
 10
135.6294352946
 20
254.0077758185
 30
0.0
 10
135.769984481
 20
253.9389655115
 30
0.0
 10
135.922069243
 20
253.8323782566
 30
0.0
 10
136.0781119991
 20
253.6663392114
 30
0.0
 10
136.1583327969
 20
253.5198872746
 30
0.0
 10
136.1894428611
 20
253.4381239735
 30
0.0
  0
SPLINE
  5
65D
100
AcDbEntity
  8
0
100
AcDbSpline
 62
7
  6
CONTINUOUS
 70
0
 71
3
 72
19
 73
15
 74
0
 42
0.0000001
 43
0.0000001
 44
0.0000000001
 40
0.0
 40
0.0
 40
0.0
 40
0.0
 40
0.3092642908
 40
0.5387877469
 40
0.6857165025
 40
0.7717776226
 40
0.8374924894
 40
0.873619227
 40
0.8900733916
 40
0.8980224105
 40
0.909110669
 40
0.9262017308
 40
0.9500988841
 40
1.0
 40
1.0
 40
1.0
 40
1.0
 10
145.7960556085
 20
253.4381239735
 30
0.0
 10
145.7754999003
 20
253.5145259862
 30
0.0
 10
145.7383781291
 20
253.6473057987
 30
0.0
 10
145.6869339173
 20
253.8149806701
 30
0.0
 10
145.6490473903
 20
253.9272147358
 30
0.0
 10
145.6218580332
 20
253.9984348192
 30
0.0
 10
145.6029193956
 20
254.0430981091
 30
0.0
 10
145.5878734464
 20
254.0687208198
 30
0.0
 10
145.5784159669
 20
254.0820474814
 30
0.0
 10
145.5681112851
 20
254.0833265344
 30
0.0
 10
145.5629198447
 20
254.0740562922
 30
0.0
 10
145.5585038343
 20
254.0622021054
 30
0.0
 10
145.5499221294
 20
254.0396743625
 30
0.0
 10
145.5324908656
 20
254.029549088
 30
0.0
 10
145.5219457899
 20
254.0223534879
 30
0.0
  0
SPLINE
  5
65E
100
AcDbEntity
  8
0
100
AcDbSpline
 62
7
  6
CONTINUOUS
 70
0
 71
3
 72
10
 73
6
 74
0
 42
0.0000001
 43
0.0000001
 44
0.0000000001
 40
0.0
 40
0.0
 40
0.0
 40
0.0
 40
0.2735598099
 40
0.6093253906
 40
1.0
 40
1.0
 40
1.0
 40
1.0
 10
136.808137967
 20
249.0796500417
 30
0.0
 10
136.7169894046
 20
249.0796500417
 30
0.0
 10
136.5147066481
 20
249.0062547286
 30
0.0
 10
136.2763664542
 20
248.7656808425
 30
0.0
 10
136.1625985787
 20
248.5460604229
 30
0.0
 10
136.1242392378
 20
248.421670185
 30
0.0
  0
SPLINE
  5
65F
100
AcDbEntity
  8
0
100
AcDbSpline
 62
7
  6
CONTINUOUS
 70
0
 71
3
 72
10
 73
6
 74
0
 42
0.0000001
 43
0.0000001
 44
0.0000000001
 40
0.0
 40
0.0
 40
0.0
 40
0.0
 40
0.3319520553
 40
0.6635303223
 40
1.0
 40
1.0
 40
1.0
 40
1.0
 10
123.4430722369
 20
249.0796500417
 30
0.0
 10
123.3087995554
 20
249.0796500417
 30
0.0
 10
123.03719446
 20
249.0244900261
 30
0.0
 10
122.6963873345
 20
248.7877274191
 30
0.0
 10
122.5500645547
 20
248.5496588676
 30
0.0
 10
122.5037815527
 20
248.421670185
 30
0.0
  0
LINE
  5
660
100
AcDbEntity
  8
0
100
AcDbLine
 62
7
  6
CONTINUOUS
 10
119.9420807654
 20
238.0796500417
 11
118.8495928763
 21
235.0796500417
  0
LINE
  5
661
100
AcDbEntity
  8
0
100
AcDbLine
 62
7
  6
CONTINUOUS
 10
121.6511220056
 20
246.0796500417
 11
122.4258758013
 21
248.2070250175
  0
LINE
  5
662
100
AcDbEntity
  8
0
100
AcDbLine
 62
7
  6
CONTINUOUS
 10
125.0451232742
 20
249.0796500417
 11
123.952508153
 21
246.0796500417
  0
LINE
  5
663
100
AcDbEntity
  8
0
100
AcDbLine
 62
7
  6
CONTINUOUS
 10
132.5838538567
 20
237.4207373985
 11
131.9813385125
 21
235.0796520813
  0
SPLINE
  5
664
100
AcDbEntity
  8
0
100
AcDbSpline
 62
7
  6
CONTINUOUS
 70
0
 71
3
 72
10
 73
6
 74
0
 42
0.0000001
 43
0.0000001
 44
0.0000000001
 40
0.0
 40
0.0
 40
0.0
 40
0.0
 40
0.3791049181
 40
0.7083370397
 40
1.0
 40
1.0
 40
1.0
 40
1.0
 10
132.5838538567
 20
237.4207373985
 30
0.0
 10
132.6087214605
 20
237.5173386331
 30
0.0
 10
132.665221298
 20
237.6952735377
 30
0.0
 10
132.7952466784
 20
237.9293508203
 30
0.0
 10
132.9366494971
 20
238.0267794387
 30
0.0
 10
133.0092639435
 20
238.0516108845
 30
0.0
  0
SPLINE
  5
665
100
AcDbEntity
  8
0
100
AcDbSpline
 62
7
  6
CONTINUOUS
 70
0
 71
3
 72
10
 73
6
 74
0
 42
0.0000001
 43
0.0000001
 44
0.0000000001
 40
0.0
 40
0.0
 40
0.0
 40
0.0
 40
0.3316384234
 40
0.6689507426
 40
1.0
 40
1.0
 40
1.0
 40
1.0
 10
118.1048463988
 20
238.0512853373
 30
0.0
 10
117.9993320616
 20
238.0256173538
 30
0.0
 10
117.7934412371
 20
237.9384305741
 30
0.0
 10
117.5445306525
 20
237.7172701177
 30
0.0
 10
117.4346181336
 20
237.5225914678
 30
0.0
 10
117.3975292335
 20
237.4207353275
 30
0.0
  0
LINE
  5
666
100
AcDbEntity
  8
0
100
AcDbLine
 62
7
  6
CONTINUOUS
 10
133.5349300995
 20
235.0796500417
 11
134.3074356942
 21
238.0796500417
  0
LINE
  5
667
100
AcDbEntity
  8
0
100
AcDbLine
 62
7
  6
CONTINUOUS
 10
137.1432360954
 20
246.0796500417
 11
137.9158316568
 21
249.0796500417
  0
LINE
  5
668
100
AcDbEntity
  8
0
100
AcDbLine
 62
7
  6
CONTINUOUS
 10
136.0635218559
 20
248.2061623565
 11
135.5159103444
 21
246.0796500417
  0
SPLINE
  5
669
100
AcDbEntity
  8
0
100
AcDbSpline
 62
7
  6
CONTINUOUS
 70
0
 71
3
 72
10
 73
6
 74
0
 42
0.0000001
 43
0.0000001
 44
0.0000000001
 40
0.0
 40
0.0
 40
0.0
 40
0.0
 40
0.3499539596
 40
0.68431063
 40
1.0
 40
1.0
 40
1.0
 40
1.0
 10
135.1702412808
 20
246.448131178
 30
0.0
 10
135.2280446064
 20
246.672727146
 30
0.0
 10
135.3708068136
 20
247.1050782637
 30
0.0
 10
135.6696223031
 20
247.6992103702
 30
0.0
 10
135.9248022553
 20
248.0495584497
 30
0.0
 10
136.0635218559
 20
248.2061623565
 30
0.0
  0
SPLINE
  5
66A
100
AcDbEntity
  8
0
100
AcDbSpline
 62
7
  6
CONTINUOUS
 70
0
 71
3
 72
11
 73
7
 74
0
 42
0.0000001
 43
0.0000001
 44
0.0000000001
 40
0.0
 40
0.0
 40
0.0
 40
0.0
 40
0.2156243863
 40
0.4445145107
 40
0.7062328995
 40
1.0
 40
1.0
 40
1.0
 40
1.0
 10
75.5837915379
 20
261.1911704266
 30
0.0
 10
75.7753315981
 20
260.9971101025
 30
0.0
 10
76.2622991452
 20
260.6769026689
 30
0.0
 10
77.1655623384
 20
260.5382834163
 30
0.0
 10
78.1555095908
 20
260.707200616
 30
0.0
 10
78.8035461984
 20
260.9982060212
 30
0.0
 10
79.1233040272
 20
261.1872915186
 30
0.0
  0
SPLINE
  5
66B
100
AcDbEntity
  8
0
100
AcDbSpline
 62
7
  6
CONTINUOUS
 70
0
 71
3
 72
10
 73
6
 74
0
 42
0.0000001
 43
0.0000001
 44
0.0000000001
 40
0.0
 40
0.0
 40
0.0
 40
0.0
 40
0.3004562411
 40
0.6169161413
 40
1.0
 40
1.0
 40
1.0
 40
1.0
 10
137.3259763462
 20
249.7785137086
 30
0.0
 10
137.2297151777
 20
249.7785137086
 30
0.0
 10
137.0240135374
 20
249.716203776
 30
0.0
 10
136.8366464234
 20
249.432955581
 30
0.0
 10
136.8154688058
 20
249.2029699095
 30
0.0
 10
136.8223049603
 20
249.080426762
 30
0.0
  0
SPLINE
  5
66C
100
AcDbEntity
  8
0
100
AcDbSpline
 62
7
  6
CONTINUOUS
 70
0
 71
3
 72
10
 73
6
 74
0
 42
0.0000001
 43
0.0000001
 44
0.0000000001
 40
0.0
 40
0.0
 40
0.0
 40
0.0
 40
0.3636061419
 40
0.6978840675
 40
1.0
 40
1.0
 40
1.0
 40
1.0
 10
135.2128850375
 20
246.7901513213
 30
0.0
 10
135.3263131526
 20
247.2308785114
 30
0.0
 10
135.6343463415
 20
248.057992726
 30
0.0
 10
136.3500852416
 20
249.1011285969
 30
0.0
 10
136.9897724663
 20
249.6054589336
 30
0.0
 10
137.3259763462
 20
249.7785137086
 30
0.0
  0
SPLINE
  5
66D
100
AcDbEntity
  8
0
100
AcDbSpline
 62
7
  6
CONTINUOUS
 70
0
 71
3
 72
11
 73
7
 74
0
 42
0.0000001
 43
0.0000001
 44
0.0000000001
 40
0.0
 40
0.0
 40
0.0
 40
0.0
 40
0.3413833885
 40
0.5228348672
 40
0.6840661054
 40
1.0
 40
1.0
 40
1.0
 40
1.0
 10
135.1702412807
 20
246.448131178
 30
0.0
 10
135.0992887877
 20
246.4846526712
 30
0.0
 10
135.000944587
 20
246.5330876243
 30
0.0
 10
134.8689767697
 20
246.6919406503
 30
0.0
 10
135.032745069
 20
246.799228326
 30
0.0
 10
135.1390337712
 20
246.7901513213
 30
0.0
 10
135.2128850375
 20
246.7901513213
 30
0.0
  0
SPLINE
  5
66E
100
AcDbEntity
  8
0
100
AcDbSpline
 62
7
  6
CONTINUOUS
 70
0
 71
3
 72
10
 73
6
 74
0
 42
0.0000001
 43
0.0000001
 44
0.0000000001
 40
0.0
 40
0.0
 40
0.0
 40
0.0
 40
0.3021159325
 40
0.6363938581
 40
1.0
 40
1.0
 40
1.0
 40
1.0
 10
138.386636518
 20
249.7785137086
 30
0.0
 10
138.0504326381
 20
249.6054589336
 30
0.0
 10
137.4107454133
 20
249.1011285969
 30
0.0
 10
136.6950065133
 20
248.057992726
 30
0.0
 10
136.3869733243
 20
247.2308785114
 30
0.0
 10
136.2735452093
 20
246.7901513213
 30
0.0
  0
SPLINE
  5
66F
100
AcDbEntity
  8
0
100
AcDbSpline
 62
7
  6
CONTINUOUS
 70
0
 71
3
 72
10
 73
6
 74
0
 42
0.0000001
 43
0.0000001
 44
0.0000000001
 40
0.0
 40
0.0
 40
0.0
 40
0.0
 40
0.3753582084
 40
0.7136959004
 40
1.0
 40
1.0
 40
1.0
 40
1.0
 10
139.2496348362
 20
249.0804278718
 30
0.0
 10
139.1891304764
 20
249.2122625161
 30
0.0
 10
139.0374837263
 20
249.4482513225
 30
0.0
 10
138.7383140924
 20
249.7020046739
 30
0.0
 10
138.4972775953
 20
249.7785137086
 30
0.0
 10
138.386636518
 20
249.7785137086
 30
0.0
  0
SPLINE
  5
670
100
AcDbEntity
  8
0
100
AcDbSpline
 62
7
  6
CONTINUOUS
 70
0
 71
3
 72
10
 73
6
 74
0
 42
0.0000001
 43
0.0000001
 44
0.0000000001
 40
0.0
 40
0.0
 40
0.0
 40
0.0
 40
0.3382213125
 40
0.6716060145
 40
1.0
 40
1.0
 40
1.0
 40
1.0
 10
138.5383955901
 20
248.2061623565
 30
0.0
 10
138.5446151625
 20
248.230314295
 30
0.0
 10
138.5565998349
 20
248.2783680504
 30
0.0
 10
138.5732496405
 20
248.3502055626
 30
0.0
 10
138.5834122973
 20
248.3979376391
 30
0.0
 10
138.5882232324
 20
248.421670185
 30
0.0
  0
SPLINE
  5
671
100
AcDbEntity
  8
0
100
AcDbSpline
 62
7
  6
CONTINUOUS
 70
0
 71
3
 72
11
 73
7
 74
0
 42
0.0000001
 43
0.0000001
 44
0.0000000001
 40
0.0
 40
0.0
 40
0.0
 40
0.0
 40
0.226462415
 40
0.4940364804
 40
0.7647373352
 40
1.0
 40
1.0
 40
1.0
 40
1.0
 10
136.2735452093
 20
246.7901513213
 30
0.0
 10
136.3809554594
 20
246.7901513213
 30
0.0
 10
136.6150919173
 20
246.767116681
 30
0.0
 10
136.9709966167
 20
246.6952383873
 30
0.0
 10
137.3229742175
 20
246.5902192988
 30
0.0
 10
137.5459025693
 20
246.499198963
 30
0.0
 10
137.6451150149
 20
246.448131178
 30
0.0
  0
SPLINE
  5
672
100
AcDbEntity
  8
0
100
AcDbSpline
 62
7
  6
CONTINUOUS
 70
0
 71
3
 72
10
 73
6
 74
0
 42
0.0000001
 43
0.0000001
 44
0.0000000001
 40
0.0
 40
0.0
 40
0.0
 40
0.0
 40
0.3086721223
 40
0.6295347706
 40
1.0
 40
1.0
 40
1.0
 40
1.0
 10
139.2327474104
 20
249.0796500417
 30
0.0
 10
139.1301842112
 20
249.0796500417
 30
0.0
 10
138.9153606884
 20
249.0230189082
 30
0.0
 10
138.6819666481
 20
248.7664493711
 30
0.0
 10
138.6126790374
 20
248.5423117026
 30
0.0
 10
138.5882232324
 20
248.421670185
 30
0.0
  0
SPLINE
  5
673
100
AcDbEntity
  8
0
100
AcDbSpline
 62
7
  6
CONTINUOUS
 70
0
 71
3
 72
10
 73
6
 74
0
 42
0.0000001
 43
0.0000001
 44
0.0000000001
 40
0.0
 40
0.0
 40
0.0
 40
0.0
 40
0.5271786638
 40
0.8718360708
 40
1.0
 40
1.0
 40
1.0
 40
1.0
 10
171.4710953508
 20
248.421670185
 30
0.0
 10
171.4798177938
 20
248.5380799336
 30
0.0
 10
171.5091140344
 20
248.7485271592
 30
0.0
 10
171.5212779703
 20
248.9186991719
 30
0.0
 10
171.5272727996
 20
249.0796500417
 30
0.0
 10
171.4988927555
 20
249.0796500417
 30
0.0
  0
LINE
  5
674
100
AcDbEntity
  8
0
100
AcDbLine
 62
7
  6
CONTINUOUS
 10
136.7823094283
 20
238.0796500417
 11
136.0098038336
 21
235.0796500417
  0
SPLINE
  5
675
100
AcDbEntity
  8
0
100
AcDbSpline
 62
7
  6
CONTINUOUS
 70
0
 71
3
 72
10
 73
6
 74
0
 42
0.0000001
 43
0.0000001
 44
0.0000000001
 40
0.0
 40
0.0
 40
0.0
 40
0.0
 40
0.31568937
 40
0.6500460404
 40
1.0
 40
1.0
 40
1.0
 40
1.0
 10
138.5383955901
 20
248.2061623565
 30
0.0
 10
138.3996759895
 20
248.0495584497
 30
0.0
 10
138.1444960372
 20
247.6992103702
 30
0.0
 10
137.8456805478
 20
247.1050782637
 30
0.0
 10
137.7029183406
 20
246.672727146
 30
0.0
 10
137.6451150149
 20
246.448131178
 30
0.0
  0
LINE
  5
676
100
AcDbEntity
  8
0
100
AcDbLine
 62
7
  6
CONTINUOUS
 10
137.9907840786
 20
246.0796500417
 11
138.5383955901
 21
248.2061623565
  0
LINE
  5
677
100
AcDbEntity
  8
0
100
AcDbLine
 62
7
  6
CONTINUOUS
 10
140.390705391
 20
249.0796500417
 11
139.6181098295
 21
246.0796500417
  0
LINE
  5
678
100
AcDbEntity
  8
0
100
AcDbLine
 62
7
  6
CONTINUOUS
 10
171.5703992426
 20
237.4207373985
 11
171.5703992426
 21
235.0796520813
  0
LINE
  5
679
100
AcDbEntity
  8
0
100
AcDbLine
 62
7
  6
CONTINUOUS
 10
134.3048134497
 20
235.0796520862
 11
134.9073287911
 21
237.4207373924
  0
SPLINE
  5
67A
100
AcDbEntity
  8
0
100
AcDbSpline
 62
7
  6
CONTINUOUS
 70
0
 71
3
 72
10
 73
6
 74
0
 42
0.0000001
 43
0.0000001
 44
0.0000000001
 40
0.0
 40
0.0
 40
0.0
 40
0.0
 40
0.4437609599
 40
0.7970389691
 40
1.0
 40
1.0
 40
1.0
 40
1.0
 10
171.5703992426
 20
237.4207373985
 30
0.0
 10
171.5703920545
 20
237.5156341941
 30
0.0
 10
171.5540593135
 20
237.6867719933
 30
0.0
 10
171.5059886282
 20
237.8939083219
 30
0.0
 10
171.4633441257
 20
238.0082083474
 30
0.0
 10
171.4633441257
 20
238.0516108845
 30
0.0
  0
SPLINE
  5
67B
100
AcDbEntity
  8
0
100
AcDbSpline
 62
7
  6
CONTINUOUS
 70
0
 71
3
 72
10
 73
6
 74
0
 42
0.0000001
 43
0.0000001
 44
0.0000000001
 40
0.0
 40
0.0
 40
0.0
 40
0.0
 40
0.3001229639
 40
0.64670572
 40
1.0
 40
1.0
 40
1.0
 40
1.0
 10
135.4841376777
 20
238.0516108845
 30
0.0
 10
135.4004500185
 20
238.0229928109
 30
0.0
 10
135.2317116451
 20
237.9268692735
 30
0.0
 10
135.0230246358
 20
237.7132252354
 30
0.0
 10
134.9332945499
 20
237.5215625881
 30
0.0
 10
134.9073287911
 20
237.4207373924
 30
0.0
  0
SPLINE
  5
67C
100
AcDbEntity
  8
0
100
AcDbSpline
 62
7
  6
CONTINUOUS
 70
0
 71
3
 72
18
 73
14
 74
0
 42
0.0000001
 43
0.0000001
 44
0.0000000001
 40
0.0
 40
0.0
 40
0.0
 40
0.0
 40
0.0402644567
 40
0.0724965751
 40
0.1125798003
 40
0.1588440871
 40
0.2122448799
 40
0.2838128831
 40
0.3830443221
 40
0.4794438695
 40
0.602101629
 40
0.7704935071
 40
1.0
 40
1.0
 40
1.0
 40
1.0
 10
146.3391177332
 20
253.8403273938
 30
0.0
 10
146.3288087168
 20
253.8323516619
 30
0.0
 10
146.3087264262
 20
253.8153915181
 30
0.0
 10
146.3111558592
 20
253.7767443834
 30
0.0
 10
146.3151661198
 20
253.7392633598
 30
0.0
 10
146.3231699277
 20
253.6944723597
 30
0.0
 10
146.3338170757
 20
253.6401629538
 30
0.0
 10
146.3489197506
 20
253.5691364483
 30
0.0
 10
146.3677183431
 20
253.4847217426
 30
0.0
 10
146.3907595971
 20
253.3842922339
 30
0.0
 10
146.4193658956
 20
253.2621770897
 30
0.0
 10
146.4584128165
 20
253.0982518079
 30
0.0
 10
146.4886999493
 20
252.9730584955
 30
0.0
 10
146.5062541333
 20
252.900867971
 30
0.0
  0
SPLINE
  5
67D
100
AcDbEntity
  8
0
100
AcDbSpline
 62
7
  6
CONTINUOUS
 70
0
 71
3
 72
18
 73
14
 74
0
 42
0.0000001
 43
0.0000001
 44
0.0000000001
 40
0.0
 40
0.0
 40
0.0
 40
0.0
 40
0.181802308
 40
0.3257240772
 40
0.4385998853
 40
0.5360858141
 40
0.6413989698
 40
0.7246241616
 40
0.7922490414
 40
0.8568919555
 40
0.9163985736
 40
0.9663333505
 40
1.0
 40
1.0
 40
1.0
 40
1.0
 10
171.5192195749
 20
252.900867971
 30
0.0
 10
171.5440808826
 20
252.9762665485
 30
0.0
 10
171.60170376
 20
253.107323055
 30
0.0
 10
171.703826606
 20
253.2698448911
 30
0.0
 10
171.7998008332
 20
253.3914845501
 30
0.0
 10
171.8941111659
 20
253.4921991253
 30
0.0
 10
171.9866935226
 20
253.5763030161
 30
0.0
 10
172.0748593178
 20
253.6451758573
 30
0.0
 10
172.1526864873
 20
253.6985102921
 30
0.0
 10
172.2232912951
 20
253.7423291116
 30
0.0
 10
172.2925757823
 20
253.7789071577
 30
0.0
 10
172.3405918319
 20
253.8079664422
 30
0.0
 10
172.3855042999
 20
253.825623556
 30
0.0
 10
172.3854600116
 20
253.8403254479
 30
0.0
  0
SPLINE
  5
67E
100
AcDbEntity
  8
0
100
AcDbSpline
 62
7
  6
CONTINUOUS
 70
0
 71
3
 72
10
 73
6
 74
0
 42
0.0000001
 43
0.0000001
 44
0.0000000001
 40
0.0
 40
0.0
 40
0.0
 40
0.0
 40
0.3365463529
 40
0.6706667134
 40
1.0
 40
1.0
 40
1.0
 40
1.0
 10
148.3171101827
 20
253.0828518792
 30
0.0
 10
148.3171101827
 20
253.1231445995
 30
0.0
 10
148.3136764641
 20
253.203484476
 30
0.0
 10
148.2982833965
 20
253.3223510107
 30
0.0
 10
148.2811731472
 20
253.4000487152
 30
0.0
 10
148.2709291516
 20
253.4381238752
 30
0.0
  0
SPLINE
  5
67F
100
AcDbEntity
  8
0
100
AcDbSpline
 62
7
  6
CONTINUOUS
 70
0
 71
3
 72
19
 73
15
 74
0
 42
0.0000001
 43
0.0000001
 44
0.0000000001
 40
0.0
 40
0.0
 40
0.0
 40
0.0
 40
0.137840849
 40
0.2673102228
 40
0.3792882035
 40
0.468801585
 40
0.5665408555
 40
0.652615023
 40
0.7230099922
 40
0.7819942038
 40
0.8453599048
 40
0.9026534011
 40
0.9541849216
 40
1.0
 40
1.0
 40
1.0
 40
1.0
 10
148.2709293426
 20
253.4381239735
 30
0.0
 10
148.2488965972
 20
253.5200158784
 30
0.0
 10
148.1731544235
 20
253.6713700794
 30
0.0
 10
148.003090073
 20
253.8354708821
 30
0.0
 10
147.8268788214
 20
253.9399418573
 30
0.0
 10
147.6554241873
 20
254.0082386773
 30
0.0
 10
147.4922860701
 20
254.0507506397
 30
0.0
 10
147.3374049766
 20
254.074008364
 30
0.0
 10
147.2050351402
 20
254.0829251657
 30
0.0
 10
147.0863992623
 20
254.083252181
 30
0.0
 10
146.9759476781
 20
254.0772229469
 30
0.0
 10
146.870745648
 20
254.0647366341
 30
0.0
 10
146.7766149293
 20
254.0498748683
 30
0.0
 10
146.7191860152
 20
254.0321349096
 30
0.0
 10
146.6927507322
 20
254.0223534879
 30
0.0
  0
LINE
  5
680
100
AcDbEntity
  8
0
100
AcDbLine
 62
7
  6
CONTINUOUS
 10
171.4633441257
 20
254.3508022875
 11
171.4633441257
 21
253.4391023233
  0
SPLINE
  5
681
100
AcDbEntity
  8
0
100
AcDbSpline
 62
7
  6
CONTINUOUS
 70
0
 71
3
 72
10
 73
6
 74
0
 42
0.0000001
 43
0.0000001
 44
0.0000000001
 40
0.0
 40
0.0
 40
0.0
 40
0.0
 40
0.333335085
 40
0.6666365122
 40
1.0
 40
1.0
 40
1.0
 40
1.0
 10
154.4751557859
 20
253.4391023181
 30
0.0
 10
154.6719284742
 20
253.5404609576
 30
0.0
 10
155.0654738405
 20
253.743129451
 30
0.0
 10
155.6558709215
 20
254.0470443082
 30
0.0
 10
156.0495173054
 20
254.2495577601
 30
0.0
 10
156.2463699405
 20
254.3508022875
 30
0.0
  0
SPLINE
  5
682
100
AcDbEntity
  8
0
100
AcDbSpline
 62
7
  6
CONTINUOUS
 70
0
 71
3
 72
10
 73
6
 74
0
 42
0.0000001
 43
0.0000001
 44
0.0000000001
 40
0.0
 40
0.0
 40
0.0
 40
0.0
 40
0.3366292062
 40
0.6707761033
 40
1.0
 40
1.0
 40
1.0
 40
1.0
 10
156.2494417558
 20
257.1593171324
 30
0.0
 10
156.2494417558
 20
257.200286103
 30
0.0
 10
156.2458880187
 20
257.2819692509
 30
0.0
 10
156.2299581658
 20
257.4027693076
 30
0.0
 10
156.212250079
 20
257.4816765087
 30
0.0
 10
156.2016492156
 20
257.5203164328
 30
0.0
  0
SPLINE
  5
683
100
AcDbEntity
  8
0
100
AcDbSpline
 62
7
  6
CONTINUOUS
 70
0
 71
3
 72
18
 73
14
 74
0
 42
0.0000001
 43
0.0000001
 44
0.0000000001
 40
0.0
 40
0.0
 40
0.0
 40
0.0
 40
0.1452744053
 40
0.2832568894
 40
0.3976311534
 40
0.4937671246
 40
0.6000012893
 40
0.6852130032
 40
0.7555277024
 40
0.8236694674
 40
0.8900546419
 40
0.9479130044
 40
1.0
 40
1.0
 40
1.0
 40
1.0
 10
156.2016496431
 20
257.5203166529
 30
0.0
 10
156.1781005511
 20
257.6061525979
 30
0.0
 10
156.095037241
 20
257.7649032107
 30
0.0
 10
155.9115621438
 20
257.9302125033
 30
0.0
 10
155.7232722967
 20
258.0333929427
 30
0.0
 10
155.5401795176
 20
258.0992818708
 30
0.0
 10
155.3677076667
 20
258.1375605802
 30
0.0
 10
155.2081706024
 20
258.1558371895
 30
0.0
 10
155.0711222017
 20
258.1606976814
 30
0.0
 10
154.9455565986
 20
258.1569530289
 30
0.0
 10
154.828255909
 20
258.1452135827
 30
0.0
 10
154.7211497441
 20
258.1295612407
 30
0.0
 10
154.6564943836
 20
258.1097186987
 30
0.0
 10
154.6265538025
 20
258.0986732617
 30
0.0
  0
LINE
  5
684
100
AcDbEntity
  8
0
100
AcDbLine
 62
7
  6
CONTINUOUS
 10
171.4633441257
 20
250.2682595097
 11
171.4633441257
 21
249.3574488797
  0
LINE
  5
685
100
AcDbEntity
  8
0
100
AcDbLine
 62
7
  6
CONTINUOUS
 10
146.5454831011
 20
249.3574488797
 11
148.3149694827
 21
250.2682595097
  0
SPLINE
  5
686
100
AcDbEntity
  8
0
100
AcDbSpline
 62
7
  6
CONTINUOUS
 70
0
 71
3
 72
10
 73
6
 74
0
 42
0.0000001
 43
0.0000001
 44
0.0000000001
 40
0.0
 40
0.0
 40
0.0
 40
0.0
 40
0.3300601525
 40
0.6633835993
 40
1.0
 40
1.0
 40
1.0
 40
1.0
 10
171.4710953508
 20
248.421670185
 30
0.0
 10
171.4693222287
 20
248.3980060928
 30
0.0
 10
171.4664148918
 20
248.3503925107
 30
0.0
 10
171.4638810435
 20
248.2785332089
 30
0.0
 10
171.4633441257
 20
248.2303641611
 30
0.0
 10
171.4633441257
 20
248.2061623565
 30
0.0
  0
SPLINE
  5
687
100
AcDbEntity
  8
0
100
AcDbSpline
 62
7
  6
CONTINUOUS
 70
0
 71
3
 72
10
 73
6
 74
0
 42
0.0000001
 43
0.0000001
 44
0.0000000001
 40
0.0
 40
0.0
 40
0.0
 40
0.0
 40
0.336980559
 40
0.6701618431
 40
1.0
 40
1.0
 40
1.0
 40
1.0
 10
132.908475426
 20
224.0805677684
 30
0.0
 10
132.7695943082
 20
224.0802663724
 30
0.0
 10
132.4933954854
 20
224.0801189083
 30
0.0
 10
132.0812664299
 20
224.0824971018
 30
0.0
 10
131.8080147103
 20
224.0834543619
 30
0.0
 10
131.6720778711
 20
224.0839685736
 30
0.0
  0
SPLINE
  5
688
100
AcDbEntity
  8
0
100
AcDbSpline
 62
7
  6
CONTINUOUS
 70
0
 71
3
 72
10
 73
6
 74
0
 42
0.0000001
 43
0.0000001
 44
0.0000000001
 40
0.0
 40
0.0
 40
0.0
 40
0.0
 40
0.3318870091
 40
0.665152217
 40
1.0
 40
1.0
 40
1.0
 40
1.0
 10
134.1473614178
 20
224.0861270192
 30
0.0
 10
134.0103045776
 20
224.0855290938
 30
0.0
 10
133.7356217489
 20
224.0843271207
 30
0.0
 10
133.3226571919
 20
224.0830643008
 30
0.0
 10
133.046753367
 20
224.0814638079
 30
0.0
 10
132.908475426
 20
224.0805677684
 30
0.0
  0
LINE
  5
689
100
AcDbEntity
  8
0
100
AcDbLine
 62
7
  6
CONTINUOUS
 10
145.8400957485
 20
250.2682595097
 11
144.070609367
 21
249.3574488797
  0
SPLINE
  5
68A
100
AcDbEntity
  8
0
100
AcDbSpline
 62
7
  6
CONTINUOUS
 70
0
 71
3
 72
10
 73
6
 74
0
 42
0.0000001
 43
0.0000001
 44
0.0000000001
 40
0.0
 40
0.0
 40
0.0
 40
0.0
 40
0.3293338662
 40
0.6634596793
 40
1.0
 40
1.0
 40
1.0
 40
1.0
 10
145.7960556572
 20
253.4381239986
 30
0.0
 10
145.8062995004
 20
253.4000493913
 30
0.0
 10
145.823409333
 20
253.322352182
 30
0.0
 10
145.8388023543
 20
253.2034876363
 30
0.0
 10
145.8422364494
 20
253.12314915
 30
0.0
 10
145.8422364494
 20
253.0828578087
 30
0.0
  0
SPLINE
  5
68B
100
AcDbEntity
  8
0
100
AcDbSpline
 62
7
  6
CONTINUOUS
 70
0
 71
3
 72
19
 73
15
 74
0
 42
0.0000001
 43
0.0000001
 44
0.0000000001
 40
0.0
 40
0.0
 40
0.0
 40
0.0
 40
0.0499402067
 40
0.0738581369
 40
0.090943627
 40
0.1019912798
 40
0.1099065804
 40
0.1262107084
 40
0.1618970536
 40
0.2271846422
 40
0.3123973834
 40
0.4582363672
 40
0.6882932609
 40
1.0
 40
1.0
 40
1.0
 40
1.0
 10
145.5219461326
 20
254.0223536642
 30
0.0
 10
145.5324983854
 20
254.0295565483
 30
0.0
 10
145.5499425622
 20
254.0396955392
 30
0.0
 10
145.5585179337
 20
254.0622399636
 30
0.0
 10
145.5629310241
 20
254.0740920241
 30
0.0
 10
145.5681292669
 20
254.083325091
 30
0.0
 10
145.5783644044
 20
254.0820587157
 30
0.0
 10
145.5877608443
 20
254.0689045841
 30
0.0
 10
145.602711961
 20
254.0435127516
 30
0.0
 10
145.6215155399
 20
253.9992763383
 30
0.0
 10
145.6485388681
 20
253.9286367666
 30
0.0
 10
145.6863621012
 20
253.8167615396
 30
0.0
 10
145.7380030755
 20
253.648641382
 30
0.0
 10
145.7753375117
 20
253.5151295836
 30
0.0
 10
145.7960556085
 20
253.4381239735
 30
0.0
  0
SPLINE
  5
68C
100
AcDbEntity
  8
0
100
AcDbSpline
 62
7
  6
CONTINUOUS
 70
0
 71
3
 72
19
 73
15
 74
0
 42
0.0000001
 43
0.0000001
 44
0.0000000001
 40
0.0
 40
0.0
 40
0.0
 40
0.0
 40
0.1642881842
 40
0.3094792397
 40
0.4262070235
 40
0.5142748909
 40
0.6061006017
 40
0.6840082836
 40
0.7461648113
 40
0.7974823933
 40
0.8522068862
 40
0.9019375801
 40
0.9483954322
 40
1.0
 40
1.0
 40
1.0
 40
1.0
 10
136.1894428611
 20
253.4381239735
 30
0.0
 10
136.1585951165
 20
253.5191978196
 30
0.0
 10
136.079104473
 20
253.6647163223
 30
0.0
 10
135.9241677097
 20
253.830526744
 30
0.0
 10
135.7723074499
 20
253.9376203689
 30
0.0
 10
135.6314076132
 20
254.0069964787
 30
0.0
 10
135.5018319306
 20
254.0501466597
 30
0.0
 10
135.3814293163
 20
254.0738372394
 30
0.0
 10
135.2806387059
 20
254.0828960594
 30
0.0
 10
135.1917489744
 20
254.0832897364
 30
0.0
 10
135.1096284281
 20
254.077133273
 30
0.0
 10
135.0308479117
 20
254.0647840971
 30
0.0
 10
134.9546621832
 20
254.0474648269
 30
0.0
 10
134.9054796104
 20
254.0311081405
 30
0.0
 10
134.8796771523
 20
254.0223534879
 30
0.0
  0
SPLINE
  5
68D
100
AcDbEntity
  8
0
100
AcDbSpline
 62
7
  6
CONTINUOUS
 70
0
 71
3
 72
10
 73
6
 74
0
 42
0.0000001
 43
0.0000001
 44
0.0000000001
 40
0.0
 40
0.0
 40
0.0
 40
0.0
 40
0.3330922034
 40
0.6664107218
 40
1.0
 40
1.0
 40
1.0
 40
1.0
 10
153.7714962063
 20
254.3508022875
 30
0.0
 10
153.5748702852
 20
254.24951092
 30
0.0
 10
153.1814625167
 20
254.0469027082
 30
0.0
 10
152.5910501186
 20
253.7430176084
 30
0.0
 10
152.1972646334
 20
253.5404219978
 30
0.0
 10
152.0002820517
 20
253.4391023181
 30
0.0
  0
SPLINE
  5
68E
100
AcDbEntity
  8
0
100
AcDbSpline
 62
7
  6
CONTINUOUS
 70
0
 71
3
 72
10
 73
6
 74
0
 42
0.0000001
 43
0.0000001
 44
0.0000000001
 40
0.0
 40
0.0
 40
0.0
 40
0.0
 40
0.2735598099
 40
0.6093253906
 40
1.0
 40
1.0
 40
1.0
 40
1.0
 10
209.6185502843
 20
249.0796500417
 30
0.0
 10
209.7096988468
 20
249.0796500417
 30
0.0
 10
209.9119816032
 20
249.0062547286
 30
0.0
 10
210.1503217972
 20
248.7656808425
 30
0.0
 10
210.2640896727
 20
248.5460604229
 30
0.0
 10
210.3024490136
 20
248.421670185
 30
0.0
  0
SPLINE
  5
68F
100
AcDbEntity
  8
0
100
AcDbSpline
 62
7
  6
CONTINUOUS
 70
0
 71
3
 72
10
 73
6
 74
0
 42
0.0000001
 43
0.0000001
 44
0.0000000001
 40
0.0
 40
0.0
 40
0.0
 40
0.0
 40
0.3370402003
 40
0.6667299723
 40
1.0
 40
1.0
 40
1.0
 40
1.0
 10
223.9229048362
 20
248.421670185
 30
0.0
 10
223.8765425728
 20
248.5498753174
 30
0.0
 10
223.7303893902
 20
248.7874554187
 30
0.0
 10
223.3898334517
 20
249.0242882986
 30
0.0
 10
223.1184213041
 20
249.0796500417
 30
0.0
 10
222.9836157766
 20
249.0796500417
 30
0.0
  0
SPLINE
  5
690
100
AcDbEntity
  8
0
100
AcDbSpline
 62
7
  6
CONTINUOUS
 70
0
 71
3
 72
18
 73
14
 74
0
 42
0.0000001
 43
0.0000001
 44
0.0000000001
 40
0.0
 40
0.0
 40
0.0
 40
0.0
 40
0.0540729609
 40
0.115283005
 40
0.1842481299
 40
0.2547471457
 40
0.3272932
 40
0.413856241
 40
0.5195525116
 40
0.610841704
 40
0.7152836567
 40
0.843460397
 40
1.0
 40
1.0
 40
1.0
 40
1.0
 10
201.2583754604
 20
253.8403273938
 30
0.0
 10
201.2828611245
 20
253.8299131477
 30
0.0
 10
201.3358015848
 20
253.8094620041
 30
0.0
 10
201.4212865757
 20
253.7792397189
 30
0.0
 10
201.5126236143
 20
253.7415720883
 30
0.0
 10
201.6071211938
 20
253.6972674965
 30
0.0
 10
201.7066108757
 20
253.6435775296
 30
0.0
 10
201.8170920257
 20
253.574277698
 30
0.0
 10
201.9287381944
 20
253.4901897582
 30
0.0
 10
202.0382026461
 20
253.3897962283
 30
0.0
 10
202.1437951057
 20
253.2698614898
 30
0.0
 10
202.2488305216
 20
253.1088006253
 30
0.0
 10
202.299511587
 20
252.9760492822
 30
0.0
 10
202.3162880342
 20
252.900867971
 30
0.0
  0
SPLINE
  5
691
100
AcDbEntity
  8
0
100
AcDbSpline
 62
7
  6
CONTINUOUS
 70
0
 71
3
 72
10
 73
6
 74
0
 42
0.0000001
 43
0.0000001
 44
0.0000000001
 40
0.0
 40
0.0
 40
0.0
 40
0.0
 40
0.3365463529
 40
0.6706667134
 40
1.0
 40
1.0
 40
1.0
 40
1.0
 10
200.5844518028
 20
253.0828518792
 30
0.0
 10
200.5844518028
 20
253.1231445995
 30
0.0
 10
200.5878855214
 20
253.203484476
 30
0.0
 10
200.6032785891
 20
253.3223510107
 30
0.0
 10
200.6203888384
 20
253.4000487152
 30
0.0
 10
200.6306328339
 20
253.4381238752
 30
0.0
  0
SPLINE
  5
692
100
AcDbEntity
  8
0
100
AcDbSpline
 62
7
  6
CONTINUOUS
 70
0
 71
3
 72
19
 73
15
 74
0
 42
0.0000001
 43
0.0000001
 44
0.0000000001
 40
0.0
 40
0.0
 40
0.0
 40
0.0
 40
0.0516703673
 40
0.0982111713
 40
0.1480059352
 40
0.2026240892
 40
0.2537267399
 40
0.3155023717
 40
0.3928446871
 40
0.4845071337
 40
0.5720844035
 40
0.6884144194
 40
0.8343125517
 40
1.0
 40
1.0
 40
1.0
 40
1.0
 10
211.5470106144
 20
254.0223536643
 30
0.0
 10
211.5211754091
 20
254.0311188233
 30
0.0
 10
211.471918087
 20
254.0474981516
 30
0.0
 10
211.3956203796
 20
254.0648291411
 30
0.0
 10
211.3168161272
 20
254.0771601359
 30
0.0
 10
211.2348311804
 20
254.0832868549
 30
0.0
 10
211.146314384
 20
254.0828953409
 30
0.0
 10
211.0461342927
 20
254.0739369354
 30
0.0
 10
210.9262860884
 20
254.0505010258
 30
0.0
 10
210.7972529568
 20
254.0077758185
 30
0.0
 10
210.6567037704
 20
253.9389655115
 30
0.0
 10
210.5046190084
 20
253.8323782566
 30
0.0
 10
210.3485762522
 20
253.6663392114
 30
0.0
 10
210.2683554544
 20
253.5198872746
 30
0.0
 10
210.2372453902
 20
253.4381239735
 30
0.0
  0
SPLINE
  5
693
100
AcDbEntity
  8
0
100
AcDbSpline
 62
7
  6
CONTINUOUS
 70
0
 71
3
 72
19
 73
15
 74
0
 42
0.0000001
 43
0.0000001
 44
0.0000000001
 40
0.0
 40
0.0
 40
0.0
 40
0.0
 40
0.3092642908
 40
0.5387877469
 40
0.6857165025
 40
0.7717776226
 40
0.8374924894
 40
0.873619227
 40
0.8900733916
 40
0.8980224105
 40
0.909110669
 40
0.9262017308
 40
0.9500988841
 40
1.0
 40
1.0
 40
1.0
 40
1.0
 10
200.6306326429
 20
253.4381239735
 30
0.0
 10
200.6511883511
 20
253.5145259862
 30
0.0
 10
200.6883101223
 20
253.6473057987
 30
0.0
 10
200.7397543341
 20
253.8149806701
 30
0.0
 10
200.7776408611
 20
253.9272147358
 30
0.0
 10
200.8048302182
 20
253.9984348192
 30
0.0
 10
200.8237688558
 20
254.0430981091
 30
0.0
 10
200.838814805
 20
254.0687208198
 30
0.0
 10
200.8482722844
 20
254.0820474814
 30
0.0
 10
200.8585769663
 20
254.0833265344
 30
0.0
 10
200.8637684066
 20
254.0740562922
 30
0.0
 10
200.8681844171
 20
254.0622021054
 30
0.0
 10
200.876766122
 20
254.0396743625
 30
0.0
 10
200.8941973857
 20
254.029549088
 30
0.0
 10
200.9047424614
 20
254.0223534879
 30
0.0
  0
SPLINE
  5
694
100
AcDbEntity
  8
0
100
AcDbSpline
 62
7
  6
CONTINUOUS
 70
0
 71
3
 72
10
 73
6
 74
0
 42
0.0000001
 43
0.0000001
 44
0.0000000001
 40
0.0
 40
0.0
 40
0.0
 40
0.0
 40
0.3335957859
 40
0.6669143731
 40
1.0
 40
1.0
 40
1.0
 40
1.0
 10
194.4264061996
 20
253.4391023181
 30
0.0
 10
194.2294197774
 20
253.5404239787
 30
0.0
 10
193.8356304112
 20
253.7430215914
 30
0.0
 10
193.2452180061
 20
254.0469066775
 30
0.0
 10
192.8518140815
 20
254.2495129151
 30
0.0
 10
192.6551920451
 20
254.3508022875
 30
0.0
  0
SPLINE
  5
695
100
AcDbEntity
  8
0
100
AcDbSpline
 62
7
  6
CONTINUOUS
 70
0
 71
3
 72
10
 73
6
 74
0
 42
0.0000001
 43
0.0000001
 44
0.0000000001
 40
0.0
 40
0.0
 40
0.0
 40
0.0
 40
0.3366292062
 40
0.6707761033
 40
1.0
 40
1.0
 40
1.0
 40
1.0
 10
192.6521202298
 20
257.1593171324
 30
0.0
 10
192.6521202298
 20
257.200286103
 30
0.0
 10
192.6556739668
 20
257.2819692509
 30
0.0
 10
192.6716038197
 20
257.4027693076
 30
0.0
 10
192.6893119066
 20
257.4816765087
 30
0.0
 10
192.69991277
 20
257.5203164328
 30
0.0
  0
SPLINE
  5
696
100
AcDbEntity
  8
0
100
AcDbSpline
 62
7
  6
CONTINUOUS
 70
0
 71
3
 72
18
 73
14
 74
0
 42
0.0000001
 43
0.0000001
 44
0.0000000001
 40
0.0
 40
0.0
 40
0.0
 40
0.0
 40
0.0589212438
 40
0.1113865859
 40
0.1692654049
 40
0.2282012118
 40
0.2895445084
 40
0.3652782058
 40
0.4629304625
 40
0.556040808
 40
0.6730440661
 40
0.8265174744
 40
1.0
 40
1.0
 40
1.0
 40
1.0
 10
200.3432802905
 20
258.0986737628
 30
0.0
 10
200.3136668121
 20
258.1086001556
 30
0.0
 10
200.2574792873
 20
258.1270029657
 30
0.0
 10
200.1695164548
 20
258.1453722908
 30
0.0
 10
200.0804370264
 20
258.1569100961
 30
0.0
 10
199.9859476416
 20
258.1607171901
 30
0.0
 10
199.8820295522
 20
258.15573948
 30
0.0
 10
199.7587263589
 20
258.13729746
 30
0.0
 10
199.6223031227
 20
258.0987127536
 30
0.0
 10
199.4726648691
 20
258.0324892269
 30
0.0
 10
199.3100764735
 20
257.9270913254
 30
0.0
 10
199.1419854084
 20
257.7592277381
 30
0.0
 10
199.0547764608
 20
257.6060491606
 30
0.0
 10
199.0215131819
 20
257.5203166529
 30
0.0
  0
SPLINE
  5
697
100
AcDbEntity
  8
0
100
AcDbSpline
 62
7
  6
CONTINUOUS
 70
0
 71
3
 72
18
 73
14
 74
0
 42
0.0000001
 43
0.0000001
 44
0.0000000001
 40
0.0
 40
0.0
 40
0.0
 40
0.0
 40
0.3205552735
 40
0.5557400225
 40
0.6968725627
 40
0.7818434712
 40
0.8444798102
 40
0.8740230601
 40
0.8875115304
 40
0.8985680557
 40
0.9165063055
 40
0.9426415721
 40
1.0
 40
1.0
 40
1.0
 40
1.0
 10
192.6999123424
 20
257.5203166529
 30
0.0
 10
192.7217553892
 20
257.5999340988
 30
0.0
 10
192.7613644469
 20
257.7375251232
 30
0.0
 10
192.8163093034
 20
257.908348993
 30
0.0
 10
192.8569873366
 20
258.0201550917
 30
0.0
 10
192.8852698373
 20
258.0886755176
 30
0.0
 10
192.9061835847
 20
258.1299335848
 30
0.0
 10
192.9206736567
 20
258.1520293054
 30
0.0
 10
192.933583329
 20
258.1613278471
 30
0.0
 10
192.9441883288
 20
258.1547052952
 30
0.0
 10
192.9499778952
 20
258.1417656461
 30
0.0
 10
192.9622428693
 20
258.1182294106
 30
0.0
 10
192.9817682208
 20
258.1068383127
 30
0.0
 10
192.9940794203
 20
258.0986732617
 30
0.0
  0
LINE
  5
698
100
AcDbEntity
  8
0
100
AcDbLine
 62
7
  6
CONTINUOUS
 10
200.5865925029
 20
250.2682595097
 11
202.3560788844
 21
249.3574488797
  0
LINE
  5
699
100
AcDbEntity
  8
0
100
AcDbLine
 62
7
  6
CONTINUOUS
 10
174.9633441257
 20
254.3508022875
 11
174.9633441257
 21
253.4391023233
  0
SPLINE
  5
69A
100
AcDbEntity
  8
0
100
AcDbSpline
 62
7
  6
CONTINUOUS
 70
0
 71
3
 72
10
 73
6
 74
0
 42
0.0000001
 43
0.0000001
 44
0.0000000001
 40
0.0
 40
0.0
 40
0.0
 40
0.0
 40
0.333335085
 40
0.6666365122
 40
1.0
 40
1.0
 40
1.0
 40
1.0
 10
191.9515324655
 20
253.4391023181
 30
0.0
 10
191.7547597772
 20
253.5404609576
 30
0.0
 10
191.3612144108
 20
253.743129451
 30
0.0
 10
190.7708173298
 20
254.0470443082
 30
0.0
 10
190.3771709459
 20
254.2495577601
 30
0.0
 10
190.1803183109
 20
254.3508022875
 30
0.0
  0
SPLINE
  5
69B
100
AcDbEntity
  8
0
100
AcDbSpline
 62
7
  6
CONTINUOUS
 70
0
 71
3
 72
17
 73
13
 74
0
 42
0.0000001
 43
0.0000001
 44
0.0000000001
 40
0.0
 40
0.0
 40
0.0
 40
0.0
 40
0.0461864758
 40
0.0835922064
 40
0.1322333977
 40
0.1853881225
 40
0.2533843427
 40
0.347614538
 40
0.4591331377
 40
0.584692821
 40
0.7590137986
 40
1.0
 40
1.0
 40
1.0
 40
1.0
 10
192.1538496433
 20
257.916604859
 30
0.0
 10
192.1671748703
 20
257.9097624825
 30
0.0
 10
192.1884210611
 20
257.8870295086
 30
0.0
 10
192.1859989217
 20
257.842629604
 30
0.0
 10
192.1804644174
 20
257.7982892674
 30
0.0
 10
192.170118666
 20
257.7440160544
 30
0.0
 10
192.1557982524
 20
257.6757127015
 30
0.0
 10
192.1362687403
 20
257.5890754794
 30
0.0
 10
192.1118575863
 20
257.4844438953
 30
0.0
 10
192.0808906412
 20
257.3546573883
 30
0.0
 10
192.0397190049
 20
257.1841435725
 30
0.0
 10
192.0078515972
 20
257.0532736903
 30
0.0
 10
191.9893635433
 20
256.9773345948
 30
0.0
  0
SPLINE
  5
69C
100
AcDbEntity
  8
0
100
AcDbSpline
 62
7
  6
CONTINUOUS
 70
0
 71
3
 72
11
 73
7
 74
0
 42
0.0000001
 43
0.0000001
 44
0.0000000001
 40
0.0
 40
0.0
 40
0.0
 40
0.0
 40
0.2702051177
 40
0.5290344132
 40
0.7728170938
 40
1.0
 40
1.0
 40
1.0
 40
1.0
 10
211.5198342415
 20
246.6963178895
 30
0.0
 10
211.4334026481
 20
247.0321495594
 30
0.0
 10
211.208367409
 20
247.6771407741
 30
0.0
 10
210.7105232691
 20
248.5422558281
 30
0.0
 10
210.0805457005
 20
249.2451800975
 30
0.0
 10
209.5778172308
 20
249.5934540942
 30
0.0
 10
209.3185819017
 20
249.7268907207
 30
0.0
  0
SPLINE
  5
69D
100
AcDbEntity
  8
0
100
AcDbSpline
 62
7
  6
CONTINUOUS
 70
0
 71
3
 72
11
 73
7
 74
0
 42
0.0000001
 43
0.0000001
 44
0.0000000001
 40
0.0
 40
0.0
 40
0.0
 40
0.0
 40
0.2702051177
 40
0.5290344132
 40
0.7728170938
 40
1.0
 40
1.0
 40
1.0
 40
1.0
 10
134.9089072309
 20
246.6973747473
 30
0.0
 10
134.9953388243
 20
247.0332064173
 30
0.0
 10
135.2203740635
 20
247.678197632
 30
0.0
 10
135.7182182034
 20
248.5433126859
 30
0.0
 10
136.348195772
 20
249.2462369554
 30
0.0
 10
136.8509242416
 20
249.594510952
 30
0.0
 10
137.1101595707
 20
249.7279475785
 30
0.0
  0
SPLINE
  5
69E
100
AcDbEntity
  8
0
100
AcDbSpline
 62
7
  6
CONTINUOUS
 70
0
 71
3
 72
12
 73
8
 74
0
 42
0.0000001
 43
0.0000001
 44
0.0000000001
 40
0.0
 40
0.0
 40
0.0
 40
0.0
 40
0.2553550843
 40
0.4886205762
 40
0.6967541787
 40
0.8682533253
 40
1.0
 40
1.0
 40
1.0
 40
1.0
 10
296.5382379116
 20
285.8821446347
 30
0.0
 10
296.8249921747
 20
285.8677835645
 30
0.0
 10
297.372685425
 20
285.807164985
 30
0.0
 10
298.1368379297
 20
285.6256765516
 30
0.0
 10
298.7796430178
 20
285.3667330398
 30
0.0
 10
299.2629920914
 20
285.0483046986
 30
0.0
 10
299.4730738645
 20
284.7574829379
 30
0.0
 10
299.5126926176
 20
284.6147490827
 30
0.0
  0
SPLINE
  5
69F
100
AcDbEntity
  8
0
100
AcDbSpline
 62
7
  6
CONTINUOUS
 70
0
 71
3
 72
11
 73
7
 74
0
 42
0.0000001
 43
0.0000001
 44
0.0000000001
 40
0.0
 40
0.0
 40
0.0
 40
0.0
 40
0.2356024207
 40
0.5066942097
 40
0.7746546936
 40
1.0
 40
1.0
 40
1.0
 40
1.0
 10
137.6430617938
 20
246.4470743201
 30
0.0
 10
137.5438493482
 20
246.4981421051
 30
0.0
 10
137.3209209964
 20
246.5891624409
 30
0.0
 10
136.9689433956
 20
246.6941815294
 30
0.0
 10
136.6137098293
 20
246.7659242815
 30
0.0
 10
136.3802690726
 20
246.7889597897
 30
0.0
 10
136.2735438868
 20
246.7890931804
 30
0.0
  0
ELLIPSE
  5
6A0
100
AcDbEntity
  8
0
100
AcDbEllipse
 62
7
  6
CONTINUOUS
 10
173.2133441257
 20
267.9778997627
 30
0.0
 11
16.4642350504
 21
-4.5167794799
 31
0.0
 40
0.2403927813
 41
-0.7650146558
 42
-0.674074231
  0
ELLIPSE
  5
6A1
100
AcDbEntity
  8
0
100
AcDbEllipse
 62
7
  6
CONTINUOUS
 10
173.2133441257
 20
267.9778997627
 30
0.0
 11
16.5
 21
0.0
 31
0.0
 40
0.3639702343
 41
-1.6162665392
 42
-1.5253261144
  0
ELLIPSE
  5
6A2
100
AcDbEntity
  8
0
100
AcDbEllipse
 62
7
  6
CONTINUOUS
 10
173.2133441257
 20
267.9778997627
 30
0.0
 11
16.4642350504
 21
4.5167794799
 31
0.0
 40
0.2403927813
 41
-2.4675184226
 42
-2.3765779978
  0
ELLIPSE
  5
6A3
100
AcDbEntity
  8
0
100
AcDbEllipse
 62
7
  6
CONTINUOUS
 10
173.9633441257
 20
223.4876527515
 30
0.0
 11
1.0
 21
0.0
 31
0.0
 40
0.7802060087
 41
0.8614234135
 42
1.5707963268
  0
ELLIPSE
  5
6A4
100
AcDbEntity
  8
0
100
AcDbEllipse
 62
7
  6
CONTINUOUS
 10
84.2133441257
 20
252.5796500417
 30
0.0
 11
10.0
 21
-0.0
 31
0.0
 40
1.0
 41
1.5707963268
 42
2.1048236207
  0
ELLIPSE
  5
6A5
100
AcDbEntity
  8
0
100
AcDbEllipse
 62
7
  6
CONTINUOUS
 10
84.2133441257
 20
252.4480710943
 30
0.0
 11
0.0
 21
10.1315789474
 31
0.0
 40
0.987012987
 41
0.0
 42
0.5310355184
  0
ELLIPSE
  5
6A6
100
AcDbEntity
  8
0
100
AcDbEllipse
 62
7
  6
CONTINUOUS
 10
265.2133441257
 20
252.5796500417
 30
0.0
 11
10.0
 21
-0.0
 31
0.0
 40
1.0
 41
1.0447590504
 42
1.5707963268
  0
ELLIPSE
  5
6A7
100
AcDbEntity
  8
0
100
AcDbEllipse
 62
7
  6
CONTINUOUS
 10
263.2133441257
 20
247.0100297885
 30
0.0
 11
0.0
 21
15.5696202532
 31
0.0
 40
0.9634146341
 41
-0.2465080623
 42
-0.0
  0
ELLIPSE
  5
6A8
100
AcDbEntity
  8
0
100
AcDbEllipse
 62
7
  6
CONTINUOUS
 10
86.2133441257
 20
247.0100297885
 30
0.0
 11
-0.0
 21
15.5696202532
 31
0.0
 40
0.9634146341
 41
0.0
 42
0.2465802508
  0
ELLIPSE
  5
6A9
100
AcDbEntity
  8
0
100
AcDbEllipse
 62
7
  6
CONTINUOUS
 10
265.2133441257
 20
252.4480710943
 30
0.0
 11
-0.0
 21
10.1315789474
 31
0.0
 40
0.987012987
 41
-0.5229337032
 42
0.0
  0
ELLIPSE
  5
6AA
100
AcDbEntity
  8
0
100
AcDbEllipse
 62
7
  6
CONTINUOUS
 10
172.4633441257
 20
223.4876527515
 30
0.0
 11
1.0
 21
-0.0
 31
0.0
 40
0.7802060087
 41
1.5707963268
 42
2.2801692401
  0
ENDSEC
  0
SECTION
  2
OBJECTS
  0
DICTIONARY
  5
C
100
AcDbDictionary
280
0
281
1
  3
ACAD_GROUP
350
D
  3
ACAD_MLINESTYLE
350
17
  3
ACAD_LAYOUT
350
1A
  3
ACAD_PLOTSETTINGS
350
19
  3
ACAD_PLOTSTYLENAME
350
E
  0
DICTIONARY
  5
D
102
{ACAD_REACTORS
330
C
102
}
100
AcDbDictionary
280
0
281
1
  0
ACDBDICTIONARYWDFLT
  5
E
102
{ACAD_REACTORS
330
C
102
}
100
AcDbDictionary
281
1
  3
Normal
350
F
100
AcDbDictionaryWithDefault
340
F
  0
DICTIONARY
  5
17
102
{ACAD_REACTORS
330
C
102
}
100
AcDbDictionary
280
0
281
1
  3
Standard
350
18
  0
DICTIONARY
  5
19
102
{ACAD_REACTORS
330
C
102
}
100
AcDbDictionary
281
1
  0
DICTIONARY
  5
1A
102
{ACAD_REACTORS
330
C
102
}
100
AcDbDictionary
281
1
  3
Model
350
6AB
  3
Layout1
350
6AC
  0
ACDBPLACEHOLDER
  5
F
102
{ACAD_REACTORS
330
E
102
}
  0
MLINESTYLE
  5
18
102
{ACAD_REACTORS
330
17
102
}
100
AcDbMlineStyle
  2
STANDARD
 70
0
  3

 62
256
 51
90.0
 52
90.0
 71
2
 49
0.5
 62
256
  6
BYLAYER
 49
-0.5
 62
256
  6
BYLAYER
  0
LAYOUT
  5
6AB
102
{ACAD_REACTORS
330
1A
102
}
100
AcDbPlotSettings
  1

  2
none_device
  4

  6

 40
0.0
 41
0.0
 42
0.0
 43
0.0
 44
210.0
 45
297.0
 46
0.0
 47
0.0
 48
0.0
 49
0.0
140
0.0
141
0.0
142
1.0
143
1.0
 70
1024
 72
1
 73
0
 74
0
  7

 75
0
147
1.0
148
0.0
149
0.0
100
AcDbLayout
  1
Model
 70
0
 71
0
 10
0.0
 20
0.0
 11
210.0
 21
297.0
 12
0.0
 22
0.0
 32
0.0
 14
0.0
 24
0.0
 34
0.0
 15
0.0
 25
0.0
 35
0.0
146
0.0
 13
0.0
 23
0.0
 33
0.0
 16
1.0
 26
0.0
 36
0.0
 17
0.0
 27
1.0
 37
0.0
 76
0
330
210
345
0
346
0
  0
LAYOUT
  5
6AC
102
{ACAD_REACTORS
330
1A
102
}
100
AcDbPlotSettings
  1

  2
none_device
  4

  6

 40
0.0
 41
0.0
 42
0.0
 43
0.0
 44
210.0
 45
297.0
 46
0.0
 47
0.0
 48
0.0
 49
0.0
140
0.0
141
0.0
142
1.0
143
1.0
 70
0
 72
1
 73
0
 74
0
  7

 75
0
147
1.0
148
0.0
149
0.0
100
AcDbLayout
  1
Layout1
 70
0
 71
1
 10
0.0
 20
0.0
 11
210.0
 21
297.0
 12
0.0
 22
0.0
 32
0.0
 14
0.0
 24
0.0
 34
0.0
 15
0.0
 25
0.0
 35
0.0
146
0.0
 13
0.0
 23
0.0
 33
0.0
 16
1.0
 26
0.0
 36
0.0
 17
0.0
 27
1.0
 37
0.0
 76
0
330
211
345
0
346
0
  0
ENDSEC
  0
EOF
