999
DXF file: C:\Gen2D\CAD\LC1D183BD_3D-CAD\drw0001_1.dxf
999
Pro/ENGINEER 2019471 by Parametric Technology Corporation
  0
SECTION
  2
HEADER
  9
$ACADVER
  1
AC1024
  9
$DWGCODEPAGE
  3
ANSI_1252
  9
$EXTMAX
 10
131.356771225
 20
185.7760050182
 30
0.0
  9
$EXTMIN
 10
0.0
 20
0.0
 30
0.0
  9
$LIMMIN
 10
0.0
 20
0.0
  9
$LIMMAX
 10
131.356771225
 20
185.7760050182
  9
$VIEWCTR
 10
65.6783856125
 20
92.8880025091
  9
$VIEWSIZE
 40
185.7760050182
  9
$CLAYER
  8
0
  9
$LTSCALE
 40
12.1098432901
  9
$CELTYPE
  6
BYLAYER
  9
$DIMSCALE
 40
1.0
  9
$DIMASZ
 40
1.563771086
  9
$DIMEXO
 40
1.0
  9
$DIMDLI
 40
8.3668008186
  9
$DIMEXE
 40
1.0
  9
$DIMCEN
 40
1.9816107202
  9
$DIMLFAC
 40
1.0
  9
$DIMBLK
  1
_FILLED
  9
$DIMALT
 70
0
  9
$DIMALTF
 40
0.0393700787
  9
$DIMTXT
 40
2.1892795204
  9
$DIMTOL
 70
1
  9
$DIMLIM
 70
0
  9
$DIMTFAC
 40
1.0
  9
$DIMTP
 40
0.01
  9
$DIMTM
 40
0.01
  9
$DIMGAP
 40
0.625
  9
$DIMDSEP
 70
46
  9
$AUNITS
 70
0
  9
$PDMODE
 70
3
  9
$PDSIZE
 40
0.3125
  9
$HANDSEED
  5
44F
  9
$TILEMODE
 70
1
  9
$MEASUREMENT
 70
1
  9
$INSUNITS
 70
4
  0
ENDSEC
  0
SECTION
  2
CLASSES
  0
CLASS
  1
ACDBDICTIONARYWDFLT
  2
AcDbDictionaryWithDefault
  3
AutoCAD 2000
 90
0
 91
1
280
0
281
0
  0
CLASS
  1
ACDBPLACEHOLDER
  2
AcDbPlaceHolder
  3
AutoCAD 2000
 90
0
 91
1
280
0
281
0
  0
CLASS
  1
LAYOUT
  2
AcDbLayout
  3
AutoCAD 2000
 90
0
 91
0
280
0
281
0
  0
ENDSEC
  0
SECTION
  2
TABLES
  0
TABLE
  2
VPORT
  5
8
100
AcDbSymbolTable
 70
2
  0
VPORT
  5
1F4
100
AcDbSymbolTableRecord
100
AcDbViewportTableRecord
  2
*ACTIVE
 70
0
 10
0.0
 20
0.0
 11
1.0
 21
1.0
 12
65.6783856125
 22
92.8880025091
 13
0.0
 23
0.0
 14
1.0
 24
1.0
 15
0.0
 25
0.0
 16
0.0
 26
0.0
 36
1.0
 17
0.0
 27
0.0
 37
0.0
 40
185.7760050182
 41
0.7070707071
 42
50.0
 43
0.0
 44
0.0
 50
0.0
 51
0.0
 71
0
 72
100
 73
1
 74
1
 75
0
 76
0
 77
0
 78
0
  0
ENDTAB
  0
TABLE
  2
LTYPE
  5
5
100
AcDbSymbolTable
 70
6
  0
LTYPE
  5
14
100
AcDbSymbolTableRecord
100
AcDbLinetypeTableRecord
  2
BYBLOCK
 70
0
  3

 72
65
 73
0
 40
0.0
  0
LTYPE
  5
15
100
AcDbSymbolTableRecord
100
AcDbLinetypeTableRecord
  2
BYLAYER
 70
0
  3

 72
65
 73
0
 40
0.0
  0
LTYPE
  5
16
100
AcDbSymbolTableRecord
100
AcDbLinetypeTableRecord
  2
CONTINUOUS
 70
64
  3
Solid line
 72
65
 73
0
 40
0.0
  0
LTYPE
  5
1F5
100
AcDbSymbolTableRecord
100
AcDbLinetypeTableRecord
  2
CENTER
 70
64
  3
____ _ ____ _ ____ _ ____ _ ____ _ ____ _ ____
 72
65
 73
4
 40
0.6
 49
0.375
 74
0
 49
-0.075
 74
0
 49
0.075
 74
0
 49
-0.075
 74
0
  0
LTYPE
  5
1F6
100
AcDbSymbolTableRecord
100
AcDbLinetypeTableRecord
  2
HIDDEN
 70
64
  3
- - - - - - - - - - - - - - - - - - - -
 72
65
 73
2
 40
0.2
 49
0.1
 74
0
 49
-0.1
 74
0
  0
LTYPE
  5
1F7
100
AcDbSymbolTableRecord
100
AcDbLinetypeTableRecord
  2
PHANTOM
 70
64
  3
_____ _ _ _____ _ _ _____ _ _ _____
 72
65
 73
6
 40
0.8
 49
0.45
 74
0
 49
-0.05
 74
0
 49
0.1
 74
0
 49
-0.05
 74
0
 49
0.1
 74
0
 49
-0.05
 74
0
  0
LTYPE
  5
1F8
100
AcDbSymbolTableRecord
100
AcDbLinetypeTableRecord
  2
DOT
 70
64
  3
. . . . . . . . . . . . . . . . . . . .
 72
65
 73
2
 40
0.2
 49
0.1
 74
0
 49
-0.1
 74
0
  0
LTYPE
  5
1F9
100
AcDbSymbolTableRecord
100
AcDbLinetypeTableRecord
  2
DASHED
 70
64
  3
- - - - - - - - - - - - - - - - - - - -
 72
65
 73
2
 40
0.2
 49
0.1
 74
0
 49
-0.1
 74
0
  0
ENDTAB
  0
TABLE
  2
LAYER
  5
2
100
AcDbSymbolTable
 70
36
  0
LAYER
  5
10
100
AcDbSymbolTableRecord
100
AcDbLayerTableRecord
  2
0
 70
0
 62
7
  6
CONTINUOUS
370
-3
390
F
  0
LAYER
  5
1FA
100
AcDbSymbolTableRecord
100
AcDbLayerTableRecord
  2
DEFAULT_1
 70
0
 62
7
  6
CENTER
370
-3
390
F
  0
LAYER
  5
1FB
100
AcDbSymbolTableRecord
100
AcDbLayerTableRecord
  2
DEFAULT_2
 70
0
 62
8
  6
HIDDEN
370
-3
390
F
  0
LAYER
  5
1FC
100
AcDbSymbolTableRecord
100
AcDbLayerTableRecord
  2
DEFAULT_3
 70
0
 62
7
  6
PHANTOM
370
-3
390
F
  0
LAYER
  5
1FD
100
AcDbSymbolTableRecord
100
AcDbLayerTableRecord
  2
00_COMPONENTS
 70
0
 62
7
  6
CONTINUOUS
370
-3
390
F
  0
LAYER
  5
1FE
100
AcDbSymbolTableRecord
100
AcDbLayerTableRecord
  2
00_COMPONENTS_1
 70
0
 62
7
  6
CONTINUOUS
370
-3
390
F
  0
LAYER
  5
1FF
100
AcDbSymbolTableRecord
100
AcDbLayerTableRecord
  2
01_1_DEFAULT_DATUMS
 70
0
 62
7
  6
CONTINUOUS
370
-3
390
F
  0
LAYER
  5
200
100
AcDbSymbolTableRecord
100
AcDbLayerTableRecord
  2
01_PLANES
 70
0
 62
7
  6
CONTINUOUS
370
-3
390
F
  0
LAYER
  5
201
100
AcDbSymbolTableRecord
100
AcDbLayerTableRecord
  2
02_COORD_SYS
 70
0
 62
7
  6
CONTINUOUS
370
-3
390
F
  0
LAYER
  5
202
100
AcDbSymbolTableRecord
100
AcDbLayerTableRecord
  2
03_AXES
 70
0
 62
7
  6
CONTINUOUS
370
-3
390
F
  0
LAYER
  5
203
100
AcDbSymbolTableRecord
100
AcDbLayerTableRecord
  2
03_AXES_1
 70
0
 62
7
  6
CONTINUOUS
370
-3
390
F
  0
LAYER
  5
204
100
AcDbSymbolTableRecord
100
AcDbLayerTableRecord
  2
04_POINTS
 70
0
 62
7
  6
CONTINUOUS
370
-3
390
F
  0
LAYER
  5
205
100
AcDbSymbolTableRecord
100
AcDbLayerTableRecord
  2
05_CURVES
 70
0
 62
7
  6
CONTINUOUS
370
-3
390
F
  0
LAYER
  5
206
100
AcDbSymbolTableRecord
100
AcDbLayerTableRecord
  2
06_SURFS
 70
0
 62
7
  6
CONTINUOUS
370
-3
390
F
  0
LAYER
  5
207
100
AcDbSymbolTableRecord
100
AcDbLayerTableRecord
  2
07_COSMETICS
 70
0
 62
7
  6
CONTINUOUS
370
-3
390
F
  0
LAYER
  5
208
100
AcDbSymbolTableRecord
100
AcDbLayerTableRecord
  2
10_NOTES
 70
0
 62
7
  6
CONTINUOUS
370
-3
390
F
  0
LAYER
  5
209
100
AcDbSymbolTableRecord
100
AcDbLayerTableRecord
  2
11_NOTES_PUB
 70
0
 62
7
  6
CONTINUOUS
370
-3
390
F
  0
LAYER
  5
20A
100
AcDbSymbolTableRecord
100
AcDbLayerTableRecord
  2
13_REF_GTOL
 70
0
 62
7
  6
CONTINUOUS
370
-3
390
F
  0
LAYER
  5
20B
100
AcDbSymbolTableRecord
100
AcDbLayerTableRecord
  2
16_MISC
 70
0
 62
7
  6
CONTINUOUS
370
-3
390
F
  0
LAYER
  5
20C
100
AcDbSymbolTableRecord
100
AcDbLayerTableRecord
  2
17_NO_PRINT
 70
0
 62
7
  6
CONTINUOUS
370
-3
390
F
  0
LAYER
  5
20D
100
AcDbSymbolTableRecord
100
AcDbLayerTableRecord
  2
18_DATUM_CAMS_JOINTS
 70
0
 62
7
  6
CONTINUOUS
370
-3
390
F
  0
LAYER
  5
20E
100
AcDbSymbolTableRecord
100
AcDbLayerTableRecord
  2
19_DATUM_FUNCTIONAL
 70
0
 62
7
  6
CONTINUOUS
370
-3
390
F
  0
LAYER
  5
20F
100
AcDbSymbolTableRecord
100
AcDbLayerTableRecord
  2
20_DATUM_KINEMATIC_SCHEME
 70
0
 62
7
  6
CONTINUOUS
370
-3
390
F
  0
LAYER
  5
210
100
AcDbSymbolTableRecord
100
AcDbLayerTableRecord
  2
INTFCLR_36
 70
0
 62
7
  6
CONTINUOUS
370
-3
390
F
  0
LAYER
  5
211
100
AcDbSymbolTableRecord
100
AcDbLayerTableRecord
  2
INTF_BLANK
 70
0
 62
7
  6
CONTINUOUS
370
-3
390
F
  0
LAYER
  5
212
100
AcDbSymbolTableRecord
100
AcDbLayerTableRecord
  2
_BLACK_HOLE
 70
0
 62
7
  6
CONTINUOUS
370
-3
390
F
  0
ENDTAB
  0
TABLE
  2
STYLE
  5
3
100
AcDbSymbolTable
 70
1
  0
STYLE
  5
11
100
AcDbSymbolTableRecord
100
AcDbTextStyleTableRecord
  2
STANDARD
 70
0
 40
0.0
 41
0.8
 50
0.0
 71
0
 42
0.2
  3
txt
  4

  0
STYLE
  5
213
100
AcDbSymbolTableRecord
100
AcDbTextStyleTableRecord
  2
TEXTSTYLE_1
 70
0
 40
0.0
 41
0.8
 50
0.0
 71
0
 42
0.2
  3
gdt
  4

  0
ENDTAB
  0
TABLE
  2
VIEW
  5
6
100
AcDbSymbolTable
 70
0
  0
ENDTAB
  0
TABLE
  2
UCS
  5
7
100
AcDbSymbolTable
 70
0
  0
ENDTAB
  0
TABLE
  2
APPID
  5
9
100
AcDbSymbolTable
 70
1
  0
APPID
  5
214
100
AcDbSymbolTableRecord
100
AcDbRegAppTableRecord
  2
ACAD
 70
0
  0
ENDTAB
  0
TABLE
  2
BLOCK_RECORD
  5
1
100
AcDbSymbolTable
 70
0
  0
BLOCK_RECORD
  5
215
100
AcDbSymbolTableRecord
100
AcDbBlockTableRecord
  2
*Model_Space
  0
BLOCK_RECORD
  5
216
100
AcDbSymbolTableRecord
100
AcDbBlockTableRecord
  2
*Paper_Space
  0
BLOCK_RECORD
  5
217
100
AcDbSymbolTableRecord
100
AcDbBlockTableRecord
  2
_FILLED
  0
ENDTAB
  0
TABLE
  2
DIMSTYLE
  5
A
100
AcDbSymbolTable
 70
1
100
AcDbDimStyleTable
 71
0
  0
DIMSTYLE
105
218
100
AcDbSymbolTableRecord
100
AcDbDimStyleTableRecord
  2
STANDARD
 70
0
  3

  4

 40
1.0
 41
1.563771086
 42
1.0
 43
0.38
 44
1.0
 45
0.0
 46
0.0
 47
0.01
 48
0.01
140
2.1892795204
141
0.09
142
0.0
143
25.4
144
1.0
145
0.0
146
1.0
147
0.625
 71
1
 72
0
 73
0
 74
0
 75
0
 76
0
 77
1
 78
8
 79
2
170
0
171
1
172
0
173
0
174
0
175
0
176
0
177
0
178
0
270
2
179
2
271
2
272
2
273
2
274
2
275
0
280
0
281
0
282
0
283
1
284
8
285
0
286
0
287
3
288
0
340
11
278
46
341
217
342
217
343
217
344
217
  0
ENDTAB
  0
ENDSEC
  0
SECTION
  2
BLOCKS
  0
BLOCK
  5
20
100
AcDbEntity
  8
0
100
AcDbBlockBegin
  2
*Model_Space
 70
0
 10
0.0
 20
0.0
 30
0.0
  3
*Model_Space
  1

  0
ENDBLK
  5
21
100
AcDbEntity
  8
0
100
AcDbBlockEnd
  0
BLOCK
  5
1C
100
AcDbEntity
  8
0
100
AcDbBlockBegin
  2
*Paper_Space
 70
0
 10
0.0
 20
0.0
 30
0.0
  3
*Paper_Space
  1

  0
ENDBLK
  5
1D
100
AcDbEntity
  8
0
100
AcDbBlockEnd
  0
BLOCK
  5
219
100
AcDbEntity
  8
0
100
AcDbBlockBegin
  2
_FILLED
 70
64
 10
0.0
 20
0.0
  3
_FILLED
  1

  0
SOLID
  5
21A
100
AcDbEntity
  8
0
  6
BYBLOCK
 62
0
100
AcDbTrace
 10
0.0
 20
0.0
 11
-1.0
 21
0.25
 12
-1.0
 22
-0.25
 13
-1.0
 23
-0.25
  0
ENDBLK
  5
21B
100
AcDbEntity
  8
0
  6
BYBLOCK
 62
0
100
AcDbBlockEnd
  0
ENDSEC
  0
SECTION
  2
ENTITIES
  0
LINE
  5
21C
100
AcDbEntity
  8
00_COMPONENTS_1
100
AcDbLine
 62
7
  6
CONTINUOUS
 10
64.2414558672
 20
33.6227926037
 11
62.6151034993
 21
34.5617463391
  0
LINE
  5
21D
100
AcDbEntity
  8
00_COMPONENTS_1
100
AcDbLine
 62
7
  6
CONTINUOUS
 10
34.1892925484
 20
50.9730246708
 11
32.5629401806
 21
51.9119784062
  0
LINE
  5
21E
100
AcDbEntity
  8
00_COMPONENTS_1
100
AcDbLine
 62
7
  6
CONTINUOUS
 10
15.2388967576
 20
75.0325207771
 11
15.2388967576
 21
92.5331482493
  0
LINE
  5
21F
100
AcDbEntity
  8
00_COMPONENTS_1
100
AcDbLine
 62
7
  6
CONTINUOUS
 10
19.8350711107
 20
96.5395769394
 11
19.8350711107
 21
98.779344134
  0
LINE
  5
220
100
AcDbEntity
  8
00_COMPONENTS_1
100
AcDbLine
 62
7
  6
CONTINUOUS
 10
19.9764918782
 20
63.9963397533
 11
19.9764918782
 21
69.0313211687
  0
LINE
  5
221
100
AcDbEntity
  8
00_COMPONENTS_1
100
AcDbLine
 62
7
  6
CONTINUOUS
 10
19.9764918782
 20
99.0242934481
 11
19.9764918782
 21
109.2305736622
  0
LINE
  5
222
100
AcDbEntity
  8
00_COMPONENTS_1
100
AcDbLine
 62
7
  6
CONTINUOUS
 10
31.1487325061
 20
131.7659289109
 11
32.5275849887
 21
132.5620050109
  0
LINE
  5
223
100
AcDbEntity
  8
00_COMPONENTS_1
100
AcDbLine
 62
7
  6
CONTINUOUS
 10
33.658960549
 20
131.9088198037
 11
57.8419117817
 21
145.8707698661
  0
LINE
  5
224
100
AcDbEntity
  8
00_COMPONENTS_1
100
AcDbLine
 62
7
  6
CONTINUOUS
 10
63.251502252
 20
35.5823837692
 11
62.6151034993
 21
35.9498004482
  0
LINE
  5
225
100
AcDbEntity
  8
00_COMPONENTS_1
100
AcDbLine
 62
7
  6
CONTINUOUS
 10
34.1892925484
 20
52.3610787799
 11
33.5528937958
 21
52.728495459
  0
LINE
  5
226
100
AcDbEntity
  8
00_COMPONENTS_1
100
AcDbLine
 62
7
  6
CONTINUOUS
 10
62.8272481927
 20
36.3989149313
 11
52.4680907193
 21
42.3796419851
  0
LINE
  5
227
100
AcDbEntity
  8
00_COMPONENTS_1
100
AcDbLine
 62
7
  6
CONTINUOUS
 10
51.4074261316
 20
42.9920031168
 11
50.1699841126
 21
43.7064244372
  0
LINE
  5
228
100
AcDbEntity
  8
00_COMPONENTS_1
100
AcDbLine
 62
7
  6
CONTINUOUS
 10
43.8059965863
 20
47.3805912279
 11
42.5685545673
 21
48.0950125483
  0
LINE
  5
229
100
AcDbEntity
  8
00_COMPONENTS_1
100
AcDbLine
 62
7
  6
CONTINUOUS
 10
41.5078899796
 20
48.7073736801
 11
31.1487325061
 21
54.6881007338
  0
LINE
  5
22A
100
AcDbEntity
  8
00_COMPONENTS_1
100
AcDbLine
 62
7
  6
CONTINUOUS
 10
52.4680907193
 20
42.8695308905
 11
51.8316884339
 21
43.2369496092
  0
LINE
  5
22B
100
AcDbEntity
  8
00_COMPONENTS_1
100
AcDbLine
 62
7
  6
CONTINUOUS
 10
42.5685545673
 20
48.5849014538
 11
41.9321522819
 21
48.9523201724
  0
LINE
  5
22C
100
AcDbEntity
  8
00_COMPONENTS_1
100
AcDbLine
 62
7
  6
CONTINUOUS
 10
45.2202101486
 20
47.338966912
 11
50.1699782247
 21
44.4812816304
  0
LINE
  5
22D
100
AcDbEntity
  8
00_COMPONENTS_1
100
AcDbLine
 62
7
  6
CONTINUOUS
 10
43.8059965863
 20
48.1970936451
 11
50.1699841126
 21
44.5229268544
  0
LINE
  5
22E
100
AcDbEntity
  8
00_COMPONENTS_1
100
AcDbLine
 62
7
  6
CONTINUOUS
 10
59.9963077193
 20
39.5921433192
 11
57.7385597446
 21
40.8956252315
  0
LINE
  5
22F
100
AcDbEntity
  8
00_COMPONENTS_1
100
AcDbLine
 62
7
  6
CONTINUOUS
 10
56.0364932584
 20
41.8782915446
 11
53.7787452837
 21
43.1817734568
  0
LINE
  5
230
100
AcDbEntity
  8
00_COMPONENTS_1
100
AcDbLine
 62
7
  6
CONTINUOUS
 10
50.0967715672
 20
45.3075138825
 11
47.8390235925
 21
46.6109957948
  0
LINE
  5
231
100
AcDbEntity
  8
00_COMPONENTS_1
100
AcDbLine
 62
7
  6
CONTINUOUS
 10
46.1369571064
 20
47.5936621078
 11
43.8792091317
 21
48.8971440201
  0
LINE
  5
232
100
AcDbEntity
  8
00_COMPONENTS_1
100
AcDbLine
 62
7
  6
CONTINUOUS
 10
40.1972354151
 20
51.0228844458
 11
37.9394874404
 21
52.3263663581
  0
LINE
  5
233
100
AcDbEntity
  8
00_COMPONENTS_1
100
AcDbLine
 62
7
  6
CONTINUOUS
 10
36.2374209543
 20
53.3090326711
 11
33.9796729796
 21
54.6125145834
  0
LINE
  5
234
100
AcDbEntity
  8
00_COMPONENTS_1
100
AcDbLine
 62
7
  6
CONTINUOUS
 10
51.6550075648
 20
45.7071539508
 11
43.5939566981
 21
50.3610985523
  0
LINE
  5
235
100
AcDbEntity
  8
00_COMPONENTS_1
100
AcDbLine
 62
7
  6
CONTINUOUS
 10
43.028268918
 20
50.6876911559
 11
36.0985936115
 21
54.6884505502
  0
LINE
  5
236
100
AcDbEntity
  8
00_COMPONENTS_1
100
AcDbLine
 62
7
  6
CONTINUOUS
 10
35.5329058314
 20
55.0150431538
 11
19.9764918782
 21
63.9963397533
  0
LINE
  5
237
100
AcDbEntity
  8
00_COMPONENTS_1
100
AcDbLine
 62
7
  6
CONTINUOUS
 10
43.5939566981
 20
50.8509874577
 11
43.4525312203
 21
50.9326376482
  0
LINE
  5
238
100
AcDbEntity
  8
00_COMPONENTS_1
100
AcDbLine
 62
7
  6
CONTINUOUS
 10
36.0985936115
 20
55.1783394556
 11
35.9571681337
 21
55.2599896461
  0
LINE
  5
239
100
AcDbEntity
  8
00_COMPONENTS_1
100
AcDbLine
 62
7
  6
CONTINUOUS
 10
19.9764918782
 20
99.0242934481
 11
19.8350711107
 21
98.779344134
  0
LINE
  5
23A
100
AcDbEntity
  8
00_COMPONENTS_1
100
AcDbLine
 62
7
  6
CONTINUOUS
 10
34.7011904702
 20
127.8295411639
 11
33.3407726541
 21
127.0441082599
  0
LINE
  5
23B
100
AcDbEntity
  8
00_COMPONENTS_1
100
AcDbLine
 62
7
  6
CONTINUOUS
 10
33.3407726541
 20
124.7848664981
 11
36.4475966253
 21
126.5785814471
  0
LINE
  5
23C
100
AcDbEntity
  8
00_COMPONENTS_1
100
AcDbLine
 62
7
  6
CONTINUOUS
 10
36.8763212798
 20
124.5601568956
 11
33.9596336132
 21
122.8762165379
  0
LINE
  5
23D
100
AcDbEntity
  8
00_COMPONENTS_1
100
AcDbLine
 62
7
  6
CONTINUOUS
 10
38.661004931
 20
125.5433929385
 11
37.3005871149
 21
124.7579600346
  0
LINE
  5
23E
100
AcDbEntity
  8
00_COMPONENTS_1
100
AcDbLine
 62
7
  6
CONTINUOUS
 10
81.5298809077
 20
149.7488920013
 11
86.4796077681
 21
152.6066010784
  0
LINE
  5
23F
100
AcDbEntity
  8
00_COMPONENTS_1
100
AcDbLine
 62
7
  6
CONTINUOUS
 10
33.9796726198
 20
128.2461002652
 11
33.8588321192
 21
128.1880904375
  0
LINE
  5
240
100
AcDbEntity
  8
00_COMPONENTS_1
100
AcDbLine
 62
7
  6
CONTINUOUS
 10
37.9394870806
 20
125.9599520399
 11
37.81864658
 21
125.9019422122
  0
LINE
  5
241
100
AcDbEntity
  8
00_COMPONENTS_1
100
AcDbLine
 62
7
  6
CONTINUOUS
 10
55.1903311934
 20
47.7482618157
 11
56.0565365838
 21
47.2481692139
  0
LINE
  5
242
100
AcDbEntity
  8
00_COMPONENTS_1
100
AcDbLine
 62
7
  6
CONTINUOUS
 10
57.7185164192
 20
46.2886464159
 11
60.0163510446
 21
44.9620209886
  0
LINE
  5
243
100
AcDbEntity
  8
00_COMPONENTS_1
100
AcDbLine
 62
7
  6
CONTINUOUS
 10
29.3671255128
 20
62.9022403594
 11
31.4455951354
 21
61.7022625104
  0
LINE
  5
244
100
AcDbEntity
  8
00_COMPONENTS_1
100
AcDbLine
 62
7
  6
CONTINUOUS
 10
32.690541221
 20
60.9835088131
 11
34.7690108435
 21
59.7835309642
  0
LINE
  5
245
100
AcDbEntity
  8
00_COMPONENTS_1
100
AcDbLine
 62
7
  6
CONTINUOUS
 10
36.8624885994
 20
58.5748883614
 11
38.9409582219
 21
57.3749105125
  0
LINE
  5
246
100
AcDbEntity
  8
00_COMPONENTS_1
100
AcDbLine
 62
7
  6
CONTINUOUS
 10
40.1859043076
 20
56.6561568152
 11
42.2643739301
 21
55.4561789663
  0
LINE
  5
247
100
AcDbEntity
  8
00_COMPONENTS_1
100
AcDbLine
 62
7
  6
CONTINUOUS
 10
44.3578516859
 20
54.2475363635
 11
46.4363213085
 21
53.0475585146
  0
LINE
  5
248
100
AcDbEntity
  8
00_COMPONENTS_1
100
AcDbLine
 62
7
  6
CONTINUOUS
 10
47.6812673941
 20
52.3288048173
 11
49.7597370167
 21
51.1288269683
  0
LINE
  5
249
100
AcDbEntity
  8
00_COMPONENTS_1
100
AcDbLine
 62
7
  6
CONTINUOUS
 10
43.8768406261
 20
55.2327605505
 11
18.0673356582
 21
70.1335480905
  0
LINE
  5
24A
100
AcDbEntity
  8
00_COMPONENTS_1
100
AcDbLine
 62
7
  6
CONTINUOUS
 10
45.9206223018
 20
55.0599458153
 11
46.9173724063
 21
54.4844848928
  0
LINE
  5
24B
100
AcDbEntity
  8
00_COMPONENTS_1
100
AcDbLine
 62
7
  6
CONTINUOUS
 10
47.2002162963
 20
54.321188591
 11
49.7458113069
 21
52.8515218747
  0
LINE
  5
24C
100
AcDbEntity
  8
00_COMPONENTS_1
100
AcDbLine
 62
7
  6
CONTINUOUS
 10
57.1703703916
 20
48.6055424351
 11
60.1402312372
 21
46.8909312661
  0
LINE
  5
24D
100
AcDbEntity
  8
00_COMPONENTS_1
100
AcDbLine
 62
7
  6
CONTINUOUS
 10
28.9214299013
 20
61.1945010766
 11
28.9214299013
 21
61.9348033914
  0
LINE
  5
24E
100
AcDbEntity
  8
00_COMPONENTS_1
100
AcDbLine
 62
7
  6
CONTINUOUS
 10
28.9214299013
 20
100.9636189325
 11
28.9214299013
 21
101.7039212418
  0
LINE
  5
24F
100
AcDbEntity
  8
00_COMPONENTS_1
100
AcDbLine
 62
7
  6
CONTINUOUS
 10
29.3810512226
 20
97.7588537404
 11
29.3810512226
 21
93.6763416547
  0
LINE
  5
250
100
AcDbEntity
  8
00_COMPONENTS_1
100
AcDbLine
 62
7
  6
CONTINUOUS
 10
41.9321522819
 20
126.0301483495
 11
41.5078899796
 21
125.7852018571
  0
LINE
  5
251
100
AcDbEntity
  8
00_COMPONENTS_1
100
AcDbLine
 62
7
  6
CONTINUOUS
 10
37.3005871149
 20
122.4987182728
 11
40.4074110861
 21
124.2924332218
  0
LINE
  5
252
100
AcDbEntity
  8
00_COMPONENTS_1
100
AcDbLine
 62
7
  6
CONTINUOUS
 10
42.9928168696
 20
125.4177872177
 11
42.5685545673
 21
125.1728407254
  0
LINE
  5
253
100
AcDbEntity
  8
00_COMPONENTS_1
100
AcDbLine
 62
7
  6
CONTINUOUS
 10
81.5298809077
 20
146.8911335413
 11
68.8023214704
 21
139.542917537
  0
LINE
  5
254
100
AcDbEntity
  8
00_COMPONENTS_1
100
AcDbLine
 62
7
  6
CONTINUOUS
 10
46.4929911677
 20
126.0097471897
 11
43.8059965863
 21
124.458419405
  0
LINE
  5
255
100
AcDbEntity
  8
00_COMPONENTS_1
100
AcDbLine
 62
7
  6
CONTINUOUS
 10
40.8361357407
 20
122.2740086703
 11
37.9194480741
 21
120.5900683126
  0
LINE
  5
256
100
AcDbEntity
  8
00_COMPONENTS_1
100
AcDbLine
 62
7
  6
CONTINUOUS
 10
43.8059965863
 20
123.6419169878
 11
46.4929911677
 21
125.1932447725
  0
LINE
  5
257
100
AcDbEntity
  8
00_COMPONENTS_1
100
AcDbLine
 62
7
  6
CONTINUOUS
 10
19.9764918782
 20
109.2305736622
 11
31.1487325061
 21
115.6808312934
  0
LINE
  5
258
100
AcDbEntity
  8
00_COMPONENTS_1
100
AcDbLine
 62
7
  6
CONTINUOUS
 10
44.6007266222
 20
122.1141706006
 11
43.2403088062
 21
121.3287376967
  0
LINE
  5
259
100
AcDbEntity
  8
00_COMPONENTS_1
100
AcDbLine
 62
7
  6
CONTINUOUS
 10
36.2574603207
 20
121.549595682
 11
36.3582807937
 21
121.5996490104
  0
LINE
  5
25A
100
AcDbEntity
  8
00_COMPONENTS_1
100
AcDbLine
 62
7
  6
CONTINUOUS
 10
43.8792087718
 20
122.5307297019
 11
43.7583682713
 21
122.4727198743
  0
LINE
  5
25B
100
AcDbEntity
  8
00_COMPONENTS_1
100
AcDbLine
 62
7
  6
CONTINUOUS
 10
49.4562320237
 20
57.1012188552
 11
49.7458113069
 21
56.9340339604
  0
LINE
  5
25C
100
AcDbEntity
  8
00_COMPONENTS_1
100
AcDbLine
 62
7
  6
CONTINUOUS
 10
51.6550075648
 20
55.9134341649
 11
49.5269478396
 21
57.1420464068
  0
LINE
  5
25D
100
AcDbEntity
  8
00_COMPONENTS_1
100
AcDbLine
 62
7
  6
CONTINUOUS
 10
31.1487325061
 20
54.6881007338
 11
31.1487325061
 21
57.5461895412
  0
LINE
  5
25E
100
AcDbEntity
  8
00_COMPONENTS_1
100
AcDbLine
 62
7
  6
CONTINUOUS
 10
31.1487325061
 20
115.6808312934
 11
31.1487325061
 21
131.7659289109
  0
LINE
  5
25F
100
AcDbEntity
  8
00_COMPONENTS_1
100
AcDbLine
 62
7
  6
CONTINUOUS
 10
31.8912907469
 20
99.9893100806
 11
31.8912907469
 21
99.2490077659
  0
LINE
  5
260
100
AcDbEntity
  8
00_COMPONENTS_1
100
AcDbLine
 62
7
  6
CONTINUOUS
 10
31.8912907469
 20
60.2201922247
 11
31.8912907469
 21
59.479889931
  0
LINE
  5
261
100
AcDbEntity
  8
00_COMPONENTS_1
100
AcDbLine
 62
7
  6
CONTINUOUS
 10
31.9266462332
 20
92.2066749384
 11
31.9266462332
 21
96.2891870241
  0
LINE
  5
262
100
AcDbEntity
  8
00_COMPONENTS_1
100
AcDbLine
 62
7
  6
CONTINUOUS
 10
32.2094901232
 20
96.1258907223
 11
32.2094901232
 21
92.0433786366
  0
LINE
  5
263
100
AcDbEntity
  8
00_COMPONENTS_1
100
AcDbLine
 62
7
  6
CONTINUOUS
 10
32.2448456095
 20
59.2757695304
 11
32.2448456095
 21
60.0160718451
  0
LINE
  5
264
100
AcDbEntity
  8
00_COMPONENTS_1
100
AcDbLine
 62
7
  6
CONTINUOUS
 10
32.2448456095
 20
99.0448873862
 11
32.2448456095
 21
99.7851896955
  0
LINE
  5
265
100
AcDbEntity
  8
00_COMPONENTS_1
100
AcDbLine
 62
7
  6
CONTINUOUS
 10
32.5629401806
 20
53.8716260234
 11
32.5629401806
 21
51.9119784062
  0
LINE
  5
266
100
AcDbEntity
  8
00_COMPONENTS_1
100
AcDbLine
 62
7
  6
CONTINUOUS
 10
33.3407726541
 20
124.7848664981
 11
33.3407726541
 21
127.0441082599
  0
LINE
  5
267
100
AcDbEntity
  8
00_COMPONENTS_1
100
AcDbLine
 62
7
  6
CONTINUOUS
 10
33.5528937958
 20
52.728495459
 11
33.5528937958
 21
53.3000889671
  0
LINE
  5
268
100
AcDbEntity
  8
00_COMPONENTS_1
100
AcDbLine
 62
7
  6
CONTINUOUS
 10
33.8357494617
 20
120.9473116086
 11
33.8357494617
 21
114.9051937222
  0
LINE
  5
269
100
AcDbEntity
  8
00_COMPONENTS_1
100
AcDbLine
 62
7
  6
CONTINUOUS
 10
34.1892925484
 20
52.3610787799
 11
34.1892925484
 21
50.9730246708
  0
LINE
  5
26A
100
AcDbEntity
  8
00_COMPONENTS_1
100
AcDbLine
 62
7
  6
CONTINUOUS
 10
34.7550851337
 20
90.5737119204
 11
34.7550851337
 21
94.656224006
  0
LINE
  5
26B
100
AcDbEntity
  8
00_COMPONENTS_1
100
AcDbLine
 62
7
  6
CONTINUOUS
 10
35.2147064551
 20
98.0705785344
 11
35.2147064551
 21
97.3302762196
  0
LINE
  5
26C
100
AcDbEntity
  8
00_COMPONENTS_1
100
AcDbLine
 62
7
  6
CONTINUOUS
 10
35.2147064551
 20
58.3014606785
 11
35.2147064551
 21
57.5611583848
  0
LINE
  5
26D
100
AcDbEntity
  8
00_COMPONENTS_1
100
AcDbLine
 62
7
  6
CONTINUOUS
 10
35.5329058314
 20
55.0150431538
 11
35.5329058314
 21
60.0500245693
  0
LINE
  5
26E
100
AcDbEntity
  8
00_COMPONENTS_1
100
AcDbLine
 62
7
  6
CONTINUOUS
 10
35.5329058314
 20
90.0429968487
 11
35.5329058314
 21
100.2492770628
  0
LINE
  5
26F
100
AcDbEntity
  8
00_COMPONENTS_1
100
AcDbLine
 62
7
  6
CONTINUOUS
 10
36.8056103073
 20
116.6198334458
 11
33.8357494617
 21
114.9051937222
  0
LINE
  5
270
100
AcDbEntity
  8
00_COMPONENTS_1
100
AcDbLine
 62
7
  6
CONTINUOUS
 10
73.6004736137
 20
136.7727657747
 11
86.328033051
 21
144.120981779
  0
LINE
  5
271
100
AcDbEntity
  8
00_COMPONENTS_1
100
AcDbLine
 62
7
  6
CONTINUOUS
 10
43.2403088062
 20
119.0694959348
 11
46.3471327773
 21
120.8632108838
  0
LINE
  5
272
100
AcDbEntity
  8
00_COMPONENTS_1
100
AcDbLine
 62
7
  6
CONTINUOUS
 10
46.7758574319
 20
118.8447863323
 11
43.8591697653
 21
117.1608459746
  0
LINE
  5
273
100
AcDbEntity
  8
00_COMPONENTS_1
100
AcDbLine
 62
7
  6
CONTINUOUS
 10
52.856978694
 20
122.335580399
 11
50.1699841126
 21
120.7842526143
  0
LINE
  5
274
100
AcDbEntity
  8
00_COMPONENTS_1
100
AcDbLine
 62
7
  6
CONTINUOUS
 10
48.5605410831
 20
119.8280223753
 11
47.200123267
 21
119.0425894713
  0
LINE
  5
275
100
AcDbEntity
  8
00_COMPONENTS_1
100
AcDbLine
 62
7
  6
CONTINUOUS
 10
40.3411589331
 20
114.5786296732
 11
37.3712980874
 21
112.8639899496
  0
LINE
  5
276
100
AcDbEntity
  8
00_COMPONENTS_1
100
AcDbLine
 62
7
  6
CONTINUOUS
 10
51.8316884339
 20
120.3147777862
 11
51.4074261316
 21
120.0698312939
  0
LINE
  5
277
100
AcDbEntity
  8
00_COMPONENTS_1
100
AcDbLine
 62
7
  6
CONTINUOUS
 10
40.2172747815
 20
119.2634474567
 11
40.3180952546
 21
119.3135007851
  0
LINE
  5
278
100
AcDbEntity
  8
00_COMPONENTS_1
100
AcDbLine
 62
7
  6
CONTINUOUS
 10
47.8390232326
 20
120.2445814766
 11
47.7181827321
 21
120.1865716489
  0
LINE
  5
279
100
AcDbEntity
  8
00_COMPONENTS_1
100
AcDbLine
 62
7
  6
CONTINUOUS
 10
35.9571681337
 20
55.2599896461
 11
35.9571681337
 21
59.8050821561
  0
LINE
  5
27A
100
AcDbEntity
  8
00_COMPONENTS_1
100
AcDbLine
 62
7
  6
CONTINUOUS
 10
35.9571681337
 20
90.287943341
 11
35.9571681337
 21
100.4942235551
  0
LINE
  5
27B
100
AcDbEntity
  8
00_COMPONENTS_1
100
AcDbLine
 62
7
  6
CONTINUOUS
 10
36.0985936115
 20
54.6884505502
 11
36.0985936115
 21
59.7234319656
  0
LINE
  5
27C
100
AcDbEntity
  8
00_COMPONENTS_1
100
AcDbLine
 62
7
  6
CONTINUOUS
 10
36.0985936115
 20
89.7164042451
 11
36.0985936115
 21
99.9226844592
  0
LINE
  5
27D
100
AcDbEntity
  8
00_COMPONENTS_1
100
AcDbLine
 62
7
  6
CONTINUOUS
 10
36.4167929878
 20
56.8671490787
 11
36.4167929878
 21
57.6074513935
  0
LINE
  5
27E
100
AcDbEntity
  8
00_COMPONENTS_1
100
AcDbLine
 62
7
  6
CONTINUOUS
 10
36.4167929878
 20
96.6362669346
 11
36.4167929878
 21
97.3765692439
  0
LINE
  5
27F
100
AcDbEntity
  8
00_COMPONENTS_1
100
AcDbLine
 62
7
  6
CONTINUOUS
 10
36.8056103073
 20
113.1905825532
 11
36.8056103073
 21
119.2327004396
  0
LINE
  5
280
100
AcDbEntity
  8
00_COMPONENTS_1
100
AcDbLine
 62
7
  6
CONTINUOUS
 10
36.8763212798
 20
125.0029061608
 11
36.8763212798
 21
122.7436627255
  0
LINE
  5
281
100
AcDbEntity
  8
00_COMPONENTS_1
100
AcDbLine
 62
7
  6
CONTINUOUS
 10
36.8764143092
 20
93.4315017425
 11
36.8764143092
 21
89.3489896568
  0
LINE
  5
282
100
AcDbEntity
  8
00_COMPONENTS_1
100
AcDbLine
 62
7
  6
CONTINUOUS
 10
37.3005871149
 20
122.4987182728
 11
37.3005871149
 21
124.7579600346
  0
LINE
  5
283
100
AcDbEntity
  8
00_COMPONENTS_1
100
AcDbLine
 62
7
  6
CONTINUOUS
 10
37.3712980874
 20
118.906107836
 11
37.3712980874
 21
112.8639899496
  0
LINE
  5
284
100
AcDbEntity
  8
00_COMPONENTS_1
100
AcDbLine
 62
7
  6
CONTINUOUS
 10
39.3866538335
 20
95.6619580827
 11
39.3866538335
 21
94.921655768
  0
LINE
  5
285
100
AcDbEntity
  8
00_COMPONENTS_1
100
AcDbLine
 62
7
  6
CONTINUOUS
 10
39.3866538335
 20
55.8928402268
 11
39.3866538335
 21
55.1525379331
  0
LINE
  5
286
100
AcDbEntity
  8
00_COMPONENTS_1
100
AcDbLine
 62
7
  6
CONTINUOUS
 10
39.4220093197
 20
87.8793229405
 11
39.4220093197
 21
91.9618350262
  0
LINE
  5
287
100
AcDbEntity
  8
00_COMPONENTS_1
100
AcDbLine
 62
7
  6
CONTINUOUS
 10
39.7048532098
 20
91.7985387244
 11
39.7048532098
 21
87.7160266387
  0
LINE
  5
288
100
AcDbEntity
  8
00_COMPONENTS_1
100
AcDbLine
 62
7
  6
CONTINUOUS
 10
39.740208696
 20
54.9484175325
 11
39.740208696
 21
55.6887198472
  0
LINE
  5
289
100
AcDbEntity
  8
00_COMPONENTS_1
100
AcDbLine
 62
7
  6
CONTINUOUS
 10
39.740208696
 20
94.7175353883
 11
39.740208696
 21
95.4578376976
  0
LINE
  5
28A
100
AcDbEntity
  8
00_COMPONENTS_1
100
AcDbLine
 62
7
  6
CONTINUOUS
 10
40.3411589331
 20
111.1493787806
 11
40.3411589331
 21
117.191496667
  0
LINE
  5
28B
100
AcDbEntity
  8
00_COMPONENTS_1
100
AcDbLine
 62
7
  6
CONTINUOUS
 10
40.8361357407
 20
122.7167579355
 11
40.8361357407
 21
120.4575145002
  0
LINE
  5
28C
100
AcDbEntity
  8
00_COMPONENTS_1
100
AcDbLine
 62
7
  6
CONTINUOUS
 10
47.200123267
 20
116.7833477095
 11
50.3069472381
 21
118.5770626585
  0
LINE
  5
28D
100
AcDbEntity
  8
00_COMPONENTS_1
100
AcDbLine
 62
7
  6
CONTINUOUS
 10
52.8923530217
 20
119.7024166544
 11
52.4680907193
 21
119.4574701621
  0
LINE
  5
28E
100
AcDbEntity
  8
00_COMPONENTS_1
100
AcDbLine
 62
7
  6
CONTINUOUS
 10
50.7356718927
 20
116.558638107
 11
47.8189842261
 21
114.8746977493
  0
LINE
  5
28F
100
AcDbEntity
  8
00_COMPONENTS_1
100
AcDbLine
 62
7
  6
CONTINUOUS
 10
41.9321522819
 20
110.6799029074
 11
41.5078899796
 21
110.4349564151
  0
LINE
  5
290
100
AcDbEntity
  8
00_COMPONENTS_1
100
AcDbLine
 62
7
  6
CONTINUOUS
 10
16.067344612
 20
94.3642920158
 11
20.6635195539
 21
97.0178790159
  0
LINE
  5
291
100
AcDbEntity
  8
00_COMPONENTS_1
100
AcDbLine
 62
7
  6
CONTINUOUS
 10
30.3914200724
 20
102.5526153968
 11
28.9214299013
 21
101.7039212418
  0
LINE
  5
292
100
AcDbEntity
  8
00_COMPONENTS_1
100
AcDbLine
 62
7
  6
CONTINUOUS
 10
54.5002627743
 20
116.3988000373
 11
53.1398449582
 21
115.6133671334
  0
LINE
  5
293
100
AcDbEntity
  8
00_COMPONENTS_1
100
AcDbLine
 62
7
  6
CONTINUOUS
 10
28.9214299013
 20
100.9636189325
 11
30.9029261181
 21
102.1076294778
  0
LINE
  5
294
100
AcDbEntity
  8
00_COMPONENTS_1
100
AcDbLine
 62
7
  6
CONTINUOUS
 10
46.1569964728
 20
115.8342251187
 11
46.2578169458
 21
115.8842784472
  0
LINE
  5
295
100
AcDbEntity
  8
00_COMPONENTS_1
100
AcDbLine
 62
7
  6
CONTINUOUS
 10
50.1168109336
 20
113.5480768934
 11
50.2176314066
 21
113.5981302218
  0
LINE
  5
296
100
AcDbEntity
  8
00_COMPONENTS_1
100
AcDbLine
 62
7
  6
CONTINUOUS
 10
53.7787449239
 20
116.8153591386
 11
53.6579044233
 21
116.757349311
  0
LINE
  5
297
100
AcDbEntity
  8
00_COMPONENTS_1
100
AcDbLine
 62
7
  6
CONTINUOUS
 10
41.5078899796
 20
51.5654624874
 11
41.5078899796
 21
48.7073736801
  0
LINE
  5
298
100
AcDbEntity
  8
00_COMPONENTS_1
100
AcDbLine
 62
7
  6
CONTINUOUS
 10
41.5078899796
 20
110.4349564151
 11
41.5078899796
 21
125.7852018571
  0
LINE
  5
299
100
AcDbEntity
  8
00_COMPONENTS_1
100
AcDbLine
 62
7
  6
CONTINUOUS
 10
41.9321522819
 20
48.9523201724
 11
41.9321522819
 21
51.3205200743
  0
LINE
  5
29A
100
AcDbEntity
  8
00_COMPONENTS_1
100
AcDbLine
 62
7
  6
CONTINUOUS
 10
41.9321522819
 20
110.6799029074
 11
41.9321522819
 21
126.0301483495
  0
LINE
  5
29B
100
AcDbEntity
  8
00_COMPONENTS_1
100
AcDbLine
 62
7
  6
CONTINUOUS
 10
42.2504482203
 20
86.2463599225
 11
42.2504482203
 21
90.3288720081
  0
LINE
  5
29C
100
AcDbEntity
  8
00_COMPONENTS_1
100
AcDbLine
 62
7
  6
CONTINUOUS
 10
42.5685545673
 20
50.9531013556
 11
42.5685545673
 21
48.0950125483
  0
LINE
  5
29D
100
AcDbEntity
  8
00_COMPONENTS_1
100
AcDbLine
 62
7
  6
CONTINUOUS
 10
42.5685545673
 20
109.8225952833
 11
42.5685545673
 21
125.1728407254
  0
LINE
  5
29E
100
AcDbEntity
  8
00_COMPONENTS_1
100
AcDbLine
 62
7
  6
CONTINUOUS
 10
42.7100695416
 20
93.7432265365
 11
42.7100695416
 21
93.0029242217
  0
LINE
  5
29F
100
AcDbEntity
  8
00_COMPONENTS_1
100
AcDbLine
 62
7
  6
CONTINUOUS
 10
42.7100695416
 20
53.9741086805
 11
42.7100695416
 21
53.2338063869
  0
LINE
  5
2A0
100
AcDbEntity
  8
00_COMPONENTS_1
100
AcDbLine
 62
7
  6
CONTINUOUS
 10
43.028268918
 20
50.6876911559
 11
43.028268918
 21
55.7226725714
  0
LINE
  5
2A1
100
AcDbEntity
  8
00_COMPONENTS_1
100
AcDbLine
 62
7
  6
CONTINUOUS
 10
43.028268918
 20
85.7156448508
 11
43.028268918
 21
95.9219250649
  0
LINE
  5
2A2
100
AcDbEntity
  8
00_COMPONENTS_1
100
AcDbLine
 62
7
  6
CONTINUOUS
 10
43.2403088062
 20
119.0694959348
 11
43.2403088062
 21
121.3287376967
  0
LINE
  5
2A3
100
AcDbEntity
  8
00_COMPONENTS_1
100
AcDbLine
 62
7
  6
CONTINUOUS
 10
43.4525312203
 20
50.9326376482
 11
43.4525312203
 21
55.4777301582
  0
LINE
  5
2A4
100
AcDbEntity
  8
00_COMPONENTS_1
100
AcDbLine
 62
7
  6
CONTINUOUS
 10
43.4525312203
 20
85.9605913431
 11
43.4525312203
 21
96.1668715572
  0
LINE
  5
2A5
100
AcDbEntity
  8
00_COMPONENTS_1
100
AcDbLine
 62
7
  6
CONTINUOUS
 10
43.5939566981
 20
50.3610985523
 11
43.5939566981
 21
55.3960799677
  0
LINE
  5
2A6
100
AcDbEntity
  8
00_COMPONENTS_1
100
AcDbLine
 62
7
  6
CONTINUOUS
 10
43.5939566981
 20
85.3890522472
 11
43.5939566981
 21
95.5953324613
  0
LINE
  5
2A7
100
AcDbEntity
  8
00_COMPONENTS_1
100
AcDbLine
 62
7
  6
CONTINUOUS
 10
43.7352856138
 20
115.2319410453
 11
43.7352856138
 21
109.1898231589
  0
LINE
  5
2A8
100
AcDbEntity
  8
00_COMPONENTS_1
100
AcDbLine
 62
7
  6
CONTINUOUS
 10
43.8059965863
 20
48.1970936451
 11
43.8059965863
 21
47.3805912279
  0
LINE
  5
2A9
100
AcDbEntity
  8
00_COMPONENTS_1
100
AcDbLine
 62
7
  6
CONTINUOUS
 10
43.8059965863
 20
123.6419169878
 11
43.8059965863
 21
124.458419405
  0
LINE
  5
2AA
100
AcDbEntity
  8
00_COMPONENTS_1
100
AcDbLine
 62
7
  6
CONTINUOUS
 10
43.9121560744
 20
52.5397970808
 11
43.9121560744
 21
53.2800993955
  0
LINE
  5
2AB
100
AcDbEntity
  8
00_COMPONENTS_1
100
AcDbLine
 62
7
  6
CONTINUOUS
 10
43.9121560744
 20
92.3089149366
 11
43.9121560744
 21
93.049217246
  0
LINE
  5
2AC
100
AcDbEntity
  8
00_COMPONENTS_1
100
AcDbLine
 62
7
  6
CONTINUOUS
 10
44.3717773957
 20
89.1041497445
 11
44.3717773957
 21
85.0216376589
  0
LINE
  5
2AD
100
AcDbEntity
  8
00_COMPONENTS_1
100
AcDbLine
 62
7
  6
CONTINUOUS
 10
45.2202101486
 20
47.338966912
 11
45.2202101486
 21
47.3806155353
  0
LINE
  5
2AE
100
AcDbEntity
  8
00_COMPONENTS_1
100
AcDbLine
 62
7
  6
CONTINUOUS
 10
46.7051464594
 20
110.9044628825
 11
43.7352856138
 21
109.1898231589
  0
LINE
  5
2AF
100
AcDbEntity
  8
00_COMPONENTS_1
100
AcDbLine
 62
7
  6
CONTINUOUS
 10
22.6635106001
 20
96.8197818999
 11
18.0673356582
 21
94.1661948997
  0
LINE
  5
2B0
100
AcDbEntity
  8
00_COMPONENTS_1
100
AcDbLine
 62
7
  6
CONTINUOUS
 10
53.1398449582
 20
113.3541253715
 11
56.2466689294
 21
115.1478403206
  0
LINE
  5
2B1
100
AcDbEntity
  8
00_COMPONENTS_1
100
AcDbLine
 62
7
  6
CONTINUOUS
 10
31.6969588039
 20
100.8266704952
 11
29.3671255128
 21
99.4815486468
  0
LINE
  5
2B2
100
AcDbEntity
  8
00_COMPONENTS_1
100
AcDbLine
 62
7
  6
CONTINUOUS
 10
33.7148357739
 20
100.6338838467
 11
32.2448456095
 21
99.7851896955
  0
LINE
  5
2B3
100
AcDbEntity
  8
00_COMPONENTS_1
100
AcDbLine
 62
7
  6
CONTINUOUS
 10
32.2448456095
 20
99.0448873862
 11
34.2263418218
 21
100.188897929
  0
LINE
  5
2B4
100
AcDbEntity
  8
00_COMPONENTS_1
100
AcDbLine
 62
7
  6
CONTINUOUS
 10
56.675393584
 20
113.129415769
 11
53.7587059174
 21
111.4454754113
  0
LINE
  5
2B5
100
AcDbEntity
  8
00_COMPONENTS_1
100
AcDbLine
 62
7
  6
CONTINUOUS
 10
58.4600772351
 20
114.112651812
 11
57.099659419
 21
113.3272189081
  0
LINE
  5
2B6
100
AcDbEntity
  8
00_COMPONENTS_1
100
AcDbLine
 62
7
  6
CONTINUOUS
 10
50.2406950851
 20
108.8632591099
 11
47.2708342395
 21
107.1486193863
  0
LINE
  5
2B7
100
AcDbEntity
  8
00_COMPONENTS_1
100
AcDbLine
 62
7
  6
CONTINUOUS
 10
35.9571681337
 20
100.4942235551
 11
35.5329058314
 21
100.2492770628
  0
LINE
  5
2B8
100
AcDbEntity
  8
00_COMPONENTS_1
100
AcDbLine
 62
7
  6
CONTINUOUS
 10
36.5228559139
 20
100.1676309515
 11
36.0985936115
 21
99.9226844592
  0
LINE
  5
2B9
100
AcDbEntity
  8
00_COMPONENTS_1
100
AcDbLine
 62
7
  6
CONTINUOUS
 10
35.0203745101
 20
98.9079389478
 11
32.690541221
 21
97.5628171005
  0
LINE
  5
2BA
100
AcDbEntity
  8
00_COMPONENTS_1
100
AcDbLine
 62
7
  6
CONTINUOUS
 10
63.0747251151
 20
114.9260044156
 11
87.2576763478
 21
128.887954478
  0
LINE
  5
2BB
100
AcDbEntity
  8
00_COMPONENTS_1
100
AcDbLine
 62
7
  6
CONTINUOUS
 10
57.099659419
 20
111.0679771462
 11
60.2064833902
 21
112.8616920953
  0
LINE
  5
2BC
100
AcDbEntity
  8
00_COMPONENTS_1
100
AcDbLine
 62
7
  6
CONTINUOUS
 10
31.4455951354
 20
98.2815707978
 11
31.4563119158
 21
98.2877326206
  0
LINE
  5
2BD
100
AcDbEntity
  8
00_COMPONENTS_1
100
AcDbLine
 62
7
  6
CONTINUOUS
 10
57.7385593847
 20
114.5292109133
 11
57.6177188841
 21
114.4712010857
  0
LINE
  5
2BE
100
AcDbEntity
  8
00_COMPONENTS_1
100
AcDbLine
 62
7
  6
CONTINUOUS
 10
18.0673356582
 20
94.1661948997
 11
43.8768406261
 21
79.2654073597
  0
LINE
  5
2BF
100
AcDbEntity
  8
00_COMPONENTS_1
100
AcDbLine
 62
7
  6
CONTINUOUS
 10
46.4929911677
 20
125.1932447725
 11
46.4929911677
 21
126.0097471897
  0
LINE
  5
2C0
100
AcDbEntity
  8
00_COMPONENTS_1
100
AcDbLine
 62
7
  6
CONTINUOUS
 10
46.7051464594
 20
107.4752119899
 11
46.7051464594
 21
113.5173298763
  0
LINE
  5
2C1
100
AcDbEntity
  8
00_COMPONENTS_1
100
AcDbLine
 62
7
  6
CONTINUOUS
 10
46.7052795267
 20
74.3664346731
 11
46.7052795267
 21
56.865807201
  0
LINE
  5
2C2
100
AcDbEntity
  8
00_COMPONENTS_1
100
AcDbLine
 62
7
  6
CONTINUOUS
 10
46.7758574319
 20
119.2875355975
 11
46.7758574319
 21
117.0282921622
  0
LINE
  5
2C3
100
AcDbEntity
  8
00_COMPONENTS_1
100
AcDbLine
 62
7
  6
CONTINUOUS
 10
46.88201692
 20
91.3346060848
 11
46.88201692
 21
90.5943037701
  0
LINE
  5
2C4
100
AcDbEntity
  8
00_COMPONENTS_1
100
AcDbLine
 62
7
  6
CONTINUOUS
 10
46.88201692
 20
51.5654882289
 11
46.88201692
 21
50.8251859352
  0
LINE
  5
2C5
100
AcDbEntity
  8
00_COMPONENTS_1
100
AcDbLine
 62
7
  6
CONTINUOUS
 10
46.9173724063
 20
54.4844848928
 11
46.9173724063
 21
55.6354163213
  0
LINE
  5
2C6
100
AcDbEntity
  8
00_COMPONENTS_1
100
AcDbLine
 62
7
  6
CONTINUOUS
 10
46.9173724063
 20
83.5519709426
 11
46.9173724063
 21
87.6344830283
  0
LINE
  5
2C7
100
AcDbEntity
  8
00_COMPONENTS_1
100
AcDbLine
 62
7
  6
CONTINUOUS
 10
47.200123267
 20
116.7833477095
 11
47.200123267
 21
119.0425894713
  0
LINE
  5
2C8
100
AcDbEntity
  8
00_COMPONENTS_1
100
AcDbLine
 62
7
  6
CONTINUOUS
 10
47.2002162963
 20
87.4711867265
 11
47.2002162963
 21
83.3886746408
  0
LINE
  5
2C9
100
AcDbEntity
  8
00_COMPONENTS_1
100
AcDbLine
 62
7
  6
CONTINUOUS
 10
47.2002162963
 20
55.7987153426
 11
47.2002162963
 21
54.321188591
  0
LINE
  5
2CA
100
AcDbEntity
  8
00_COMPONENTS_1
100
AcDbLine
 62
7
  6
CONTINUOUS
 10
47.2355717826
 20
50.6210655346
 11
47.2355717826
 21
51.3613678493
  0
LINE
  5
2CB
100
AcDbEntity
  8
00_COMPONENTS_1
100
AcDbLine
 62
7
  6
CONTINUOUS
 10
47.2355717826
 20
90.3901833904
 11
47.2355717826
 21
91.1304856997
  0
LINE
  5
2CC
100
AcDbEntity
  8
00_COMPONENTS_1
100
AcDbLine
 62
7
  6
CONTINUOUS
 10
47.2708342395
 20
113.1907372727
 11
47.2708342395
 21
107.1486193863
  0
LINE
  5
2CD
100
AcDbEntity
  8
00_COMPONENTS_1
100
AcDbLine
 62
7
  6
CONTINUOUS
 10
49.7458113069
 20
52.8515218747
 11
49.7458113069
 21
56.9340339604
  0
LINE
  5
2CE
100
AcDbEntity
  8
00_COMPONENTS_1
100
AcDbLine
 62
7
  6
CONTINUOUS
 10
49.7458113069
 20
81.9190079245
 11
49.7458113069
 21
86.0015200102
  0
LINE
  5
2CF
100
AcDbEntity
  8
00_COMPONENTS_1
100
AcDbLine
 62
7
  6
CONTINUOUS
 10
50.1699841126
 20
44.5229268544
 11
50.1699841126
 21
43.7064244372
  0
LINE
  5
2D0
100
AcDbEntity
  8
00_COMPONENTS_1
100
AcDbLine
 62
7
  6
CONTINUOUS
 10
50.1699841126
 20
119.9677501971
 11
50.1699841126
 21
120.7842526143
  0
LINE
  5
2D1
100
AcDbEntity
  8
00_COMPONENTS_1
100
AcDbLine
 62
7
  6
CONTINUOUS
 10
50.2054326282
 20
89.4158745385
 11
50.2054326282
 21
88.6755722238
  0
LINE
  5
2D2
100
AcDbEntity
  8
00_COMPONENTS_1
100
AcDbLine
 62
7
  6
CONTINUOUS
 10
50.2054326282
 20
49.6467566826
 11
50.2054326282
 21
48.906454389
  0
LINE
  5
2D3
100
AcDbEntity
  8
00_COMPONENTS_1
100
AcDbLine
 62
7
  6
CONTINUOUS
 10
50.2406950851
 20
105.4340082173
 11
50.2406950851
 21
111.4761261037
  0
LINE
  5
2D4
100
AcDbEntity
  8
00_COMPONENTS_1
100
AcDbLine
 62
7
  6
CONTINUOUS
 10
50.7356718927
 20
117.0013873722
 11
50.7356718927
 21
114.7421439369
  0
LINE
  5
2D5
100
AcDbEntity
  8
00_COMPONENTS_1
100
AcDbLine
 62
7
  6
CONTINUOUS
 10
51.3014544686
 20
77.0200216733
 11
51.3014544686
 21
59.5193942011
  0
LINE
  5
2D6
100
AcDbEntity
  8
00_COMPONENTS_1
100
AcDbLine
 62
7
  6
CONTINUOUS
 10
51.4074261316
 20
45.8500919241
 11
51.4074261316
 21
42.9920031168
  0
LINE
  5
2D7
100
AcDbEntity
  8
00_COMPONENTS_1
100
AcDbLine
 62
7
  6
CONTINUOUS
 10
51.4074261316
 20
104.7195858518
 11
51.4074261316
 21
120.0698312939
  0
LINE
  5
2D8
100
AcDbEntity
  8
00_COMPONENTS_1
100
AcDbLine
 62
7
  6
CONTINUOUS
 10
51.5135867973
 20
80.4901583314
 11
51.5135867973
 21
55.9950858175
  0
LINE
  5
2D9
100
AcDbEntity
  8
00_COMPONENTS_1
100
AcDbLine
 62
7
  6
CONTINUOUS
 10
51.6550075648
 20
45.7071539508
 11
51.6550075648
 21
55.9134341649
  0
LINE
  5
2DA
100
AcDbEntity
  8
00_COMPONENTS_1
100
AcDbLine
 62
7
  6
CONTINUOUS
 10
51.6550075648
 20
80.7351076456
 11
51.6550075648
 21
90.9413878597
  0
LINE
  5
2DB
100
AcDbEntity
  8
00_COMPONENTS_1
100
AcDbLine
 62
7
  6
CONTINUOUS
 10
62.8272481927
 20
113.4767431084
 11
64.2061006753
 21
114.2728192084
  0
LINE
  5
2DC
100
AcDbEntity
  8
00_COMPONENTS_1
100
AcDbLine
 62
7
  6
CONTINUOUS
 10
31.9266462332
 20
95.1460328464
 11
29.3810512226
 21
93.6763416547
  0
LINE
  5
2DD
100
AcDbEntity
  8
00_COMPONENTS_1
100
AcDbLine
 62
7
  6
CONTINUOUS
 10
64.2061006753
 20
113.7154928496
 11
87.2576763478
 21
127.0242468268
  0
LINE
  5
2DE
100
AcDbEntity
  8
00_COMPONENTS_1
100
AcDbLine
 62
7
  6
CONTINUOUS
 10
37.886783159
 20
98.2252633989
 11
36.4167929878
 21
97.3765692439
  0
LINE
  5
2DF
100
AcDbEntity
  8
00_COMPONENTS_1
100
AcDbLine
 62
7
  6
CONTINUOUS
 10
106.2240578973
 20
137.2996057543
 11
107.5185856154
 21
138.0469972195
  0
LINE
  5
2E0
100
AcDbEntity
  8
00_COMPONENTS_1
100
AcDbLine
 62
7
  6
CONTINUOUS
 10
109.5964155048
 20
139.2466257047
 11
111.1737847578
 21
140.1573148314
  0
LINE
  5
2E1
100
AcDbEntity
  8
00_COMPONENTS_1
100
AcDbLine
 62
7
  6
CONTINUOUS
 10
107.5097367285
 20
137.9694655881
 11
112.459463589
 21
140.8271746652
  0
LINE
  5
2E2
100
AcDbEntity
  8
00_COMPONENTS_1
100
AcDbLine
 62
7
  6
CONTINUOUS
 10
60.6352080448
 20
110.8432675437
 11
57.7185203782
 21
109.159327186
  0
LINE
  5
2E3
100
AcDbEntity
  8
00_COMPONENTS_1
100
AcDbLine
 62
7
  6
CONTINUOUS
 10
64.2061006753
 20
112.8030795842
 11
86.6212775951
 21
125.7444107635
  0
LINE
  5
2E4
100
AcDbEntity
  8
00_COMPONENTS_1
100
AcDbLine
 62
7
  6
CONTINUOUS
 10
36.4167929878
 20
96.6362669346
 11
38.3982892047
 21
97.7802774799
  0
LINE
  5
2E5
100
AcDbEntity
  8
00_COMPONENTS_1
100
AcDbLine
 62
7
  6
CONTINUOUS
 10
108.2189533223
 20
138.0034034546
 11
113.1686801828
 21
140.8611125317
  0
LINE
  5
2E6
100
AcDbEntity
  8
00_COMPONENTS_1
100
AcDbLine
 62
7
  6
CONTINUOUS
 10
51.8316884339
 20
104.9645323442
 11
51.4074261316
 21
104.7195858518
  0
LINE
  5
2E7
100
AcDbEntity
  8
00_COMPONENTS_1
100
AcDbLine
 62
7
  6
CONTINUOUS
 10
39.1923218905
 20
96.4993184973
 11
36.8624885994
 21
95.1541966488
  0
LINE
  5
2E8
100
AcDbEntity
  8
00_COMPONENTS_1
100
AcDbLine
 62
7
  6
CONTINUOUS
 10
88.389051908
 20
124.7238088772
 11
64.2061006753
 21
110.7618588148
  0
LINE
  5
2E9
100
AcDbEntity
  8
00_COMPONENTS_1
100
AcDbLine
 62
7
  6
CONTINUOUS
 10
34.7550851337
 20
93.5130698283
 11
32.2094901232
 21
92.0433786366
  0
LINE
  5
2EA
100
AcDbEntity
  8
00_COMPONENTS_1
100
AcDbLine
 62
7
  6
CONTINUOUS
 10
41.2101988605
 20
96.3065318488
 11
39.740208696
 21
95.4578376976
  0
LINE
  5
2EB
100
AcDbEntity
  8
00_COMPONENTS_1
100
AcDbLine
 62
7
  6
CONTINUOUS
 10
56.6046826114
 20
105.1890923193
 11
53.6348217658
 21
103.4744525956
  0
LINE
  5
2EC
100
AcDbEntity
  8
00_COMPONENTS_1
100
AcDbLine
 62
7
  6
CONTINUOUS
 10
34.7690108435
 20
96.3628392516
 11
34.779727624
 21
96.3690010744
  0
LINE
  5
2ED
100
AcDbEntity
  8
00_COMPONENTS_1
100
AcDbLine
 62
7
  6
CONTINUOUS
 10
56.0565326248
 20
110.1188545554
 11
56.1573530978
 21
110.1689078839
  0
LINE
  5
2EE
100
AcDbEntity
  8
00_COMPONENTS_1
100
AcDbLine
 62
7
  6
CONTINUOUS
 10
60.0163470856
 20
107.8327063301
 11
60.1171675587
 21
107.8827596586
  0
LINE
  5
2EF
100
AcDbEntity
  8
00_COMPONENTS_1
100
AcDbLine
 62
7
  6
CONTINUOUS
 10
22.6635106001
 20
96.8197818999
 11
48.473015568
 21
81.9189943599
  0
LINE
  5
2F0
100
AcDbEntity
  8
00_COMPONENTS_1
100
AcDbLine
 62
7
  6
CONTINUOUS
 10
51.5135867973
 20
80.4901583314
 11
19.8350711107
 21
98.779344134
  0
LINE
  5
2F1
100
AcDbEntity
  8
00_COMPONENTS_1
100
AcDbLine
 62
7
  6
CONTINUOUS
 10
51.6550075648
 20
80.7351076456
 11
19.9764918782
 21
99.0242934481
  0
LINE
  5
2F2
100
AcDbEntity
  8
00_COMPONENTS_1
100
AcDbLine
 62
7
  6
CONTINUOUS
 10
49.7458113069
 20
81.9190079245
 11
47.2002162963
 21
83.3886746408
  0
LINE
  5
2F3
100
AcDbEntity
  8
00_COMPONENTS_1
100
AcDbLine
 62
7
  6
CONTINUOUS
 10
46.9173724063
 20
83.5519709426
 11
44.3717773957
 21
85.0216376589
  0
LINE
  5
2F4
100
AcDbEntity
  8
00_COMPONENTS_1
100
AcDbLine
 62
7
  6
CONTINUOUS
 10
42.2504482203
 20
86.2463599225
 11
39.7048532098
 21
87.7160266387
  0
LINE
  5
2F5
100
AcDbEntity
  8
00_COMPONENTS_1
100
AcDbLine
 62
7
  6
CONTINUOUS
 10
39.4220093197
 20
87.8793229405
 11
36.8764143092
 21
89.3489896568
  0
LINE
  5
2F6
100
AcDbEntity
  8
00_COMPONENTS_1
100
AcDbLine
 62
7
  6
CONTINUOUS
 10
34.7550851337
 20
90.5737119204
 11
32.2094901232
 21
92.0433786366
  0
LINE
  5
2F7
100
AcDbEntity
  8
00_COMPONENTS_1
100
AcDbLine
 62
7
  6
CONTINUOUS
 10
31.9266462332
 20
92.2066749384
 11
29.3810512226
 21
93.6763416547
  0
LINE
  5
2F8
100
AcDbEntity
  8
00_COMPONENTS_1
100
AcDbLine
 62
7
  6
CONTINUOUS
 10
43.5939566981
 20
85.8789411526
 11
43.4525312203
 21
85.9605913431
  0
LINE
  5
2F9
100
AcDbEntity
  8
00_COMPONENTS_1
100
AcDbLine
 62
7
  6
CONTINUOUS
 10
36.0985936115
 20
90.2062931505
 11
35.9571681337
 21
90.287943341
  0
LINE
  5
2FA
100
AcDbEntity
  8
00_COMPONENTS_1
100
AcDbLine
 62
7
  6
CONTINUOUS
 10
51.8316884339
 20
43.2369496092
 11
51.8316884339
 21
45.8091600893
  0
LINE
  5
2FB
100
AcDbEntity
  8
00_COMPONENTS_1
100
AcDbLine
 62
7
  6
CONTINUOUS
 10
51.8316884339
 20
104.9645323442
 11
51.8316884339
 21
120.3147777862
  0
LINE
  5
2FC
100
AcDbEntity
  8
00_COMPONENTS_1
100
AcDbLine
 62
7
  6
CONTINUOUS
 10
52.4680907193
 20
46.1765849268
 11
52.4680907193
 21
42.3796419851
  0
LINE
  5
2FD
100
AcDbEntity
  8
00_COMPONENTS_1
100
AcDbLine
 62
7
  6
CONTINUOUS
 10
52.4680907193
 20
104.10722472
 11
52.4680907193
 21
119.4574701621
  0
LINE
  5
2FE
100
AcDbEntity
  8
00_COMPONENTS_1
100
AcDbLine
 62
7
  6
CONTINUOUS
 10
53.1398449582
 20
45.121485786
 11
53.1398449582
 21
46.5644201024
  0
LINE
  5
2FF
100
AcDbEntity
  8
00_COMPONENTS_1
100
AcDbLine
 62
7
  6
CONTINUOUS
 10
53.1398449582
 20
113.3541253715
 11
53.1398449582
 21
115.6133671334
  0
LINE
  5
300
100
AcDbEntity
  8
00_COMPONENTS_1
100
AcDbLine
 62
7
  6
CONTINUOUS
 10
53.6348217658
 20
109.516570482
 11
53.6348217658
 21
103.4744525956
  0
LINE
  5
301
100
AcDbEntity
  8
00_COMPONENTS_1
100
AcDbLine
 62
7
  6
CONTINUOUS
 10
56.6046826114
 20
101.7598414266
 11
56.6046826114
 21
107.801959313
  0
LINE
  5
302
100
AcDbEntity
  8
00_COMPONENTS_1
100
AcDbLine
 62
7
  6
CONTINUOUS
 10
56.675393584
 20
113.5721650342
 11
56.675393584
 21
111.3129215989
  0
LINE
  5
303
100
AcDbEntity
  8
00_COMPONENTS_1
100
AcDbLine
 62
7
  6
CONTINUOUS
 10
56.675393584
 20
45.3395254487
 11
56.675393584
 21
43.0802820703
  0
LINE
  5
304
100
AcDbEntity
  8
00_COMPONENTS_1
100
AcDbLine
 62
7
  6
CONTINUOUS
 10
39.740208696
 20
94.7175353883
 11
41.7217049084
 21
95.8615459311
  0
LINE
  5
305
100
AcDbEntity
  8
00_COMPONENTS_1
100
AcDbLine
 62
7
  6
CONTINUOUS
 10
43.4525312203
 20
96.1668715572
 11
43.028268918
 21
95.9219250649
  0
LINE
  5
306
100
AcDbEntity
  8
00_COMPONENTS_1
100
AcDbLine
 62
7
  6
CONTINUOUS
 10
44.0182190004
 20
95.8402789536
 11
43.5939566981
 21
95.5953324613
  0
LINE
  5
307
100
AcDbEntity
  8
00_COMPONENTS_1
100
AcDbLine
 62
7
  6
CONTINUOUS
 10
42.5157375966
 20
94.5805869499
 11
40.1859043076
 21
93.2354651026
  0
LINE
  5
308
100
AcDbEntity
  8
00_COMPONENTS_1
100
AcDbLine
 62
7
  6
CONTINUOUS
 10
35.9571681337
 20
90.287943341
 11
35.5329058314
 21
90.0429968487
  0
LINE
  5
309
100
AcDbEntity
  8
00_COMPONENTS_1
100
AcDbLine
 62
7
  6
CONTINUOUS
 10
118.1581234547
 20
137.0610708199
 11
113.2083965942
 21
134.2033617428
  0
LINE
  5
30A
100
AcDbEntity
  8
00_COMPONENTS_1
100
AcDbLine
 62
7
  6
CONTINUOUS
 10
108.4102444509
 20
131.3720995011
 11
90.4499083858
 21
121.0027565359
  0
LINE
  5
30B
100
AcDbEntity
  8
00_COMPONENTS_1
100
AcDbLine
 62
7
  6
CONTINUOUS
 10
60.1402312372
 20
103.1478885467
 11
57.1703703916
 21
101.433248823
  0
LINE
  5
30C
100
AcDbEntity
  8
00_COMPONENTS_1
100
AcDbLine
 62
7
  6
CONTINUOUS
 10
39.4220093197
 20
90.8186808485
 11
36.8764143092
 21
89.3489896568
  0
LINE
  5
30D
100
AcDbEntity
  8
00_COMPONENTS_1
100
AcDbLine
 62
7
  6
CONTINUOUS
 10
88.389051908
 20
118.8449914738
 11
91.2881776406
 21
120.5187925047
  0
LINE
  5
30E
100
AcDbEntity
  8
00_COMPONENTS_1
100
AcDbLine
 62
7
  6
CONTINUOUS
 10
45.3821462455
 20
93.8979114009
 11
43.9121560744
 21
93.049217246
  0
LINE
  5
30F
100
AcDbEntity
  8
00_COMPONENTS_1
100
AcDbLine
 62
7
  6
CONTINUOUS
 10
43.9121560744
 20
92.3089149366
 11
45.8936522912
 21
93.452925482
  0
LINE
  5
310
100
AcDbEntity
  8
00_COMPONENTS_1
100
AcDbLine
 62
7
  6
CONTINUOUS
 10
38.9409582219
 20
93.9542187999
 11
38.9516750024
 21
93.9603806227
  0
LINE
  5
311
100
AcDbEntity
  8
00_COMPONENTS_1
100
AcDbLine
 62
7
  6
CONTINUOUS
 10
42.2643739301
 20
92.0354872537
 11
42.2750907105
 21
92.0416490765
  0
LINE
  5
312
100
AcDbEntity
  8
00_COMPONENTS_1
100
AcDbLine
 62
7
  6
CONTINUOUS
 10
49.7458113069
 20
86.0015200102
 11
47.2002162963
 21
87.4711867265
  0
LINE
  5
313
100
AcDbEntity
  8
00_COMPONENTS_1
100
AcDbLine
 62
7
  6
CONTINUOUS
 10
46.9173724063
 20
87.6344830283
 11
44.3717773957
 21
89.1041497445
  0
LINE
  5
314
100
AcDbEntity
  8
00_COMPONENTS_1
100
AcDbLine
 62
7
  6
CONTINUOUS
 10
42.2504482203
 20
90.3288720081
 11
39.7048532098
 21
91.7985387244
  0
LINE
  5
315
100
AcDbEntity
  8
00_COMPONENTS_1
100
AcDbLine
 62
7
  6
CONTINUOUS
 10
39.4220093197
 20
91.9618350262
 11
36.8764143092
 21
93.4315017425
  0
LINE
  5
316
100
AcDbEntity
  8
00_COMPONENTS_1
100
AcDbLine
 62
7
  6
CONTINUOUS
 10
34.7550851337
 20
94.656224006
 11
32.2094901232
 21
96.1258907223
  0
LINE
  5
317
100
AcDbEntity
  8
00_COMPONENTS_1
100
AcDbLine
 62
7
  6
CONTINUOUS
 10
31.9266462332
 20
96.2891870241
 11
29.3810512226
 21
97.7588537404
  0
LINE
  5
318
100
AcDbEntity
  8
00_COMPONENTS_1
100
AcDbLine
 62
7
  6
CONTINUOUS
 10
49.7597370167
 20
87.7081352557
 11
47.6812673941
 21
88.9081131047
  0
LINE
  5
319
100
AcDbEntity
  8
00_COMPONENTS_1
100
AcDbLine
 62
7
  6
CONTINUOUS
 10
46.4363213085
 20
89.626866802
 11
44.3578516859
 21
90.8268446509
  0
LINE
  5
31A
100
AcDbEntity
  8
00_COMPONENTS_1
100
AcDbLine
 62
7
  6
CONTINUOUS
 10
42.2643739301
 20
92.0354872537
 11
40.1859043076
 21
93.2354651026
  0
LINE
  5
31B
100
AcDbEntity
  8
00_COMPONENTS_1
100
AcDbLine
 62
7
  6
CONTINUOUS
 10
38.9409582219
 20
93.9542187999
 11
36.8624885994
 21
95.1541966488
  0
LINE
  5
31C
100
AcDbEntity
  8
00_COMPONENTS_1
100
AcDbLine
 62
7
  6
CONTINUOUS
 10
34.7690108435
 20
96.3628392516
 11
32.690541221
 21
97.5628171005
  0
LINE
  5
31D
100
AcDbEntity
  8
00_COMPONENTS_1
100
AcDbLine
 62
7
  6
CONTINUOUS
 10
31.4455951354
 20
98.2815707978
 11
29.3671255128
 21
99.4815486468
  0
LINE
  5
31E
100
AcDbEntity
  8
00_COMPONENTS_1
100
AcDbLine
 62
7
  6
CONTINUOUS
 10
57.099659419
 20
42.8353375607
 11
57.099659419
 21
45.094580996
  0
LINE
  5
31F
100
AcDbEntity
  8
00_COMPONENTS_1
100
AcDbLine
 62
7
  6
CONTINUOUS
 10
57.099659419
 20
111.0679771462
 11
57.099659419
 21
113.3272189081
  0
LINE
  5
320
100
AcDbEntity
  8
00_COMPONENTS_1
100
AcDbLine
 62
7
  6
CONTINUOUS
 10
57.1703703916
 20
107.4753667094
 11
57.1703703916
 21
101.433248823
  0
LINE
  5
321
100
AcDbEntity
  8
00_COMPONENTS_1
100
AcDbLine
 62
7
  6
CONTINUOUS
 10
57.1703703916
 20
48.8914311559
 11
57.1703703916
 21
48.6055424351
  0
LINE
  5
322
100
AcDbEntity
  8
00_COMPONENTS_1
100
AcDbLine
 62
7
  6
CONTINUOUS
 10
60.1402312372
 20
46.8909312661
 11
60.1402312372
 21
50.6060708796
  0
LINE
  5
323
100
AcDbEntity
  8
00_COMPONENTS_1
100
AcDbLine
 62
7
  6
CONTINUOUS
 10
60.1402312372
 20
99.718637654
 11
60.1402312372
 21
105.7607555404
  0
LINE
  5
324
100
AcDbEntity
  8
00_COMPONENTS_1
100
AcDbLine
 62
7
  6
CONTINUOUS
 10
60.6352080448
 20
111.2860168089
 11
60.6352080448
 21
109.0267733736
  0
LINE
  5
325
100
AcDbEntity
  8
00_COMPONENTS_1
100
AcDbLine
 62
7
  6
CONTINUOUS
 10
60.6352080448
 20
43.0533772234
 11
60.6352080448
 21
40.794133845
  0
LINE
  5
326
100
AcDbEntity
  8
00_COMPONENTS_1
100
AcDbLine
 62
7
  6
CONTINUOUS
 10
51.5135867973
 20
80.4901583314
 11
51.6550075648
 21
80.7351076456
  0
LINE
  5
327
100
AcDbEntity
  8
00_COMPONENTS_1
100
AcDbLine
 62
7
  6
CONTINUOUS
 10
107.2849822811
 20
137.7610083415
 11
107.5097431344
 21
137.9694544974
  0
LINE
  5
328
100
AcDbEntity
  8
00_COMPONENTS_1
100
AcDbLine
 62
7
  6
CONTINUOUS
 10
106.8347015666
 20
137.1761827901
 11
106.9471193719
 21
137.2803413351
  0
LINE
  5
329
100
AcDbEntity
  8
00_COMPONENTS_1
100
AcDbLine
 62
7
  6
CONTINUOUS
 10
46.687684977
 20
92.1719664994
 11
44.3578516859
 21
90.8268446509
  0
LINE
  5
32A
100
AcDbEntity
  8
00_COMPONENTS_1
100
AcDbLine
 62
7
  6
CONTINUOUS
 10
42.2504482203
 20
89.1857178304
 11
39.7048532098
 21
87.7160266387
  0
LINE
  5
32B
100
AcDbEntity
  8
00_COMPONENTS_1
100
AcDbLine
 62
7
  6
CONTINUOUS
 10
48.7055619471
 20
91.9791798509
 11
47.2355717826
 21
91.1304856997
  0
LINE
  5
32C
100
AcDbEntity
  8
00_COMPONENTS_1
100
AcDbLine
 62
7
  6
CONTINUOUS
 10
113.2083965942
 20
128.6019477388
 11
91.2881776406
 21
115.9463789688
  0
LINE
  5
32D
100
AcDbEntity
  8
00_COMPONENTS_1
100
AcDbLine
 62
7
  6
CONTINUOUS
 10
47.2355717826
 20
90.3901833904
 11
49.2170679949
 21
91.5341939332
  0
LINE
  5
32E
100
AcDbEntity
  8
00_COMPONENTS_1
100
AcDbLine
 62
7
  6
CONTINUOUS
 10
50.0111006832
 20
90.253234952
 11
47.6812673941
 21
88.9081131047
  0
LINE
  5
32F
100
AcDbEntity
  8
00_COMPONENTS_1
100
AcDbLine
 62
7
  6
CONTINUOUS
 10
51.6550075648
 20
90.9413878597
 11
62.8272481927
 21
97.3916454909
  0
LINE
  5
330
100
AcDbEntity
  8
00_COMPONENTS_1
100
AcDbLine
 62
7
  6
CONTINUOUS
 10
43.4525312203
 20
85.9605913431
 11
43.028268918
 21
85.7156448508
  0
LINE
  5
331
100
AcDbEntity
  8
00_COMPONENTS_1
100
AcDbLine
 62
7
  6
CONTINUOUS
 10
46.4363213085
 20
89.626866802
 11
46.4470380889
 21
89.6330286248
  0
LINE
  5
332
100
AcDbEntity
  8
00_COMPONENTS_1
100
AcDbLine
 62
7
  6
CONTINUOUS
 10
114.3933262503
 20
89.2576360805
 11
114.6933146524
 21
89.2873415392
  0
LINE
  5
333
100
AcDbEntity
  8
00_COMPONENTS_1
100
AcDbLine
 62
7
  6
CONTINUOUS
 10
51.6550075648
 20
90.9413878597
 11
43.5939566981
 21
95.5953324613
  0
LINE
  5
334
100
AcDbEntity
  8
00_COMPONENTS_1
100
AcDbLine
 62
7
  6
CONTINUOUS
 10
43.028268918
 20
95.9219250649
 11
36.0985936115
 21
99.9226844592
  0
LINE
  5
335
100
AcDbEntity
  8
00_COMPONENTS_1
100
AcDbLine
 62
7
  6
CONTINUOUS
 10
35.5329058314
 20
100.2492770628
 11
19.9764918782
 21
109.2305736622
  0
LINE
  5
336
100
AcDbEntity
  8
00_COMPONENTS_1
100
AcDbLine
 62
7
  6
CONTINUOUS
 10
44.0182190004
 20
95.8402789536
 11
43.4525312203
 21
96.1668715572
  0
LINE
  5
337
100
AcDbEntity
  8
00_COMPONENTS_1
100
AcDbLine
 62
7
  6
CONTINUOUS
 10
36.5228559139
 20
100.1676309515
 11
35.9571681337
 21
100.4942235551
  0
LINE
  5
338
100
AcDbEntity
  8
00_COMPONENTS_1
100
AcDbLine
 62
7
  6
CONTINUOUS
 10
62.6151034993
 20
35.9498004482
 11
62.6151034993
 21
34.5617463391
  0
LINE
  5
339
100
AcDbEntity
  8
00_COMPONENTS_1
100
AcDbLine
 62
7
  6
CONTINUOUS
 10
62.8272481927
 20
36.3989149313
 11
62.8272481927
 21
52.1574115819
  0
LINE
  5
33A
100
AcDbEntity
  8
00_COMPONENTS_1
100
AcDbLine
 62
7
  6
CONTINUOUS
 10
62.8272481927
 20
97.3916454909
 11
62.8272481927
 21
113.4767431084
  0
LINE
  5
33B
100
AcDbEntity
  8
00_COMPONENTS_1
100
AcDbLine
 62
7
  6
CONTINUOUS
 10
63.251502252
 20
36.6438566645
 11
63.251502252
 21
35.5823837692
  0
LINE
  5
33C
100
AcDbEntity
  8
00_COMPONENTS_1
100
AcDbLine
 62
7
  6
CONTINUOUS
 10
64.2061006753
 20
110.7618588148
 11
64.2061006753
 21
114.2728192084
  0
LINE
  5
33D
100
AcDbEntity
  8
00_COMPONENTS_1
100
AcDbLine
 62
7
  6
CONTINUOUS
 10
64.2414558672
 20
37.2154032391
 11
64.2414558672
 21
33.6227926037
  0
LINE
  5
33E
100
AcDbEntity
  8
00_COMPONENTS_1
100
AcDbLine
 62
7
  6
CONTINUOUS
 10
46.9173724063
 20
86.4913288506
 11
44.3717773957
 21
85.0216376589
  0
LINE
  5
33F
100
AcDbEntity
  8
00_COMPONENTS_1
100
AcDbLine
 62
7
  6
CONTINUOUS
 10
49.7458113069
 20
84.8583658325
 11
47.2002162963
 21
83.3886746408
  0
LINE
  5
340
100
AcDbEntity
  8
00_COMPONENTS_1
100
AcDbLine
 62
7
  6
CONTINUOUS
 10
118.1581234547
 20
122.8047311943
 11
113.774079664
 21
120.2736174403
  0
LINE
  5
341
100
AcDbEntity
  8
00_COMPONENTS_1
100
AcDbLine
 62
7
  6
CONTINUOUS
 10
114.7993593258
 20
120.5797334614
 11
113.774079664
 21
119.9877915061
  0
LINE
  5
342
100
AcDbEntity
  8
00_COMPONENTS_1
100
AcDbLine
 62
7
  6
CONTINUOUS
 10
43.8768406261
 20
79.2654073597
 11
48.473015568
 21
81.9189943599
  0
LINE
  5
343
100
AcDbEntity
  8
00_COMPONENTS_1
100
AcDbLine
 62
7
  6
CONTINUOUS
 10
49.7597370167
 20
87.7081352557
 11
49.7704537971
 21
87.7142970785
  0
LINE
  5
344
100
AcDbEntity
  8
00_COMPONENTS_1
100
AcDbLine
 62
7
  6
CONTINUOUS
 10
113.2083965942
 20
76.2641428008
 11
110.2073334584
 21
77.389246994
  0
LINE
  5
345
100
AcDbEntity
  8
00_COMPONENTS_1
100
AcDbLine
 62
7
  6
CONTINUOUS
 10
113.774079664
 20
117.8241101889
 11
114.154827884
 21
118.0439339641
  0
LINE
  5
346
100
AcDbEntity
  8
00_COMPONENTS_1
100
AcDbLine
 62
7
  6
CONTINUOUS
 10
62.8272481927
 20
97.3916454909
 11
31.1487325061
 21
115.6808312934
  0
LINE
  5
347
100
AcDbEntity
  8
00_COMPONENTS_1
100
AcDbLine
 62
7
  6
CONTINUOUS
 10
52.4680907193
 20
104.10722472
 11
51.4074261316
 21
104.7195858518
  0
LINE
  5
348
100
AcDbEntity
  8
00_COMPONENTS_1
100
AcDbLine
 62
7
  6
CONTINUOUS
 10
42.5685545673
 20
109.8225952833
 11
41.5078899796
 21
110.4349564151
  0
LINE
  5
349
100
AcDbEntity
  8
00_COMPONENTS_1
100
AcDbLine
 62
7
  6
CONTINUOUS
 10
60.1402312372
 20
99.718637654
 11
57.1703703916
 21
101.433248823
  0
LINE
  5
34A
100
AcDbEntity
  8
00_COMPONENTS_1
100
AcDbLine
 62
7
  6
CONTINUOUS
 10
56.6046826114
 20
101.7598414266
 11
53.6348217658
 21
103.4744525956
  0
LINE
  5
34B
100
AcDbEntity
  8
00_COMPONENTS_1
100
AcDbLine
 62
7
  6
CONTINUOUS
 10
50.2406950851
 20
105.4340082173
 11
47.2708342395
 21
107.1486193863
  0
LINE
  5
34C
100
AcDbEntity
  8
00_COMPONENTS_1
100
AcDbLine
 62
7
  6
CONTINUOUS
 10
46.7051464594
 20
107.4752119899
 11
43.7352856138
 21
109.1898231589
  0
LINE
  5
34D
100
AcDbEntity
  8
00_COMPONENTS_1
100
AcDbLine
 62
7
  6
CONTINUOUS
 10
40.3411589331
 20
111.1493787806
 11
37.3712980874
 21
112.8639899496
  0
LINE
  5
34E
100
AcDbEntity
  8
00_COMPONENTS_1
100
AcDbLine
 62
7
  6
CONTINUOUS
 10
36.8056103073
 20
113.1905825532
 11
33.8357494617
 21
114.9051937222
  0
LINE
  5
34F
100
AcDbEntity
  8
00_COMPONENTS_1
100
AcDbLine
 62
7
  6
CONTINUOUS
 10
52.4680907193
 20
104.5971136255
 11
51.8316884339
 21
104.9645323442
  0
LINE
  5
350
100
AcDbEntity
  8
00_COMPONENTS_1
100
AcDbLine
 62
7
  6
CONTINUOUS
 10
42.5685545673
 20
110.3124841888
 11
41.9321522819
 21
110.6799029074
  0
LINE
  5
351
100
AcDbEntity
  8
00_COMPONENTS_1
100
AcDbLine
 62
7
  6
CONTINUOUS
 10
106.9471193719
 20
137.2803413351
 11
107.2849822811
 21
137.7610083415
  0
LINE
  5
352
100
AcDbEntity
  8
00_COMPONENTS_1
100
AcDbLine
 62
7
  6
CONTINUOUS
 10
108.6186846454
 20
136.3882402272
 11
108.2234988306
 21
135.8599268597
  0
LINE
  5
353
100
AcDbEntity
  8
00_COMPONENTS_1
100
AcDbLine
 62
7
  6
CONTINUOUS
 10
51.3014544686
 20
77.0200216733
 11
46.7052795267
 21
74.3664346731
  0
LINE
  5
354
100
AcDbEntity
  8
00_COMPONENTS_1
100
AcDbLine
 62
7
  6
CONTINUOUS
 10
29.9821128199
 20
62.5471853045
 11
28.9214299013
 21
61.9348033914
  0
LINE
  5
355
100
AcDbEntity
  8
00_COMPONENTS_1
100
AcDbLine
 62
7
  6
CONTINUOUS
 10
28.9214299013
 20
61.1945010766
 11
30.6232425964
 21
62.1770372293
  0
LINE
  5
356
100
AcDbEntity
  8
00_COMPONENTS_1
100
AcDbLine
 62
7
  6
CONTINUOUS
 10
29.3671255128
 20
62.9022403594
 11
29.3564087324
 21
62.8960785365
  0
LINE
  5
357
100
AcDbEntity
  8
00_COMPONENTS_1
100
AcDbLine
 62
7
  6
CONTINUOUS
 10
32.690541221
 20
60.9835088131
 11
32.6798244406
 21
60.9773469903
  0
LINE
  5
358
100
AcDbEntity
  8
00_COMPONENTS_1
100
AcDbLine
 62
7
  6
CONTINUOUS
 10
115.6832600245
 20
91.8184891557
 11
118.1581234547
 21
91.2463196782
  0
LINE
  5
359
100
AcDbEntity
  8
00_COMPONENTS_1
100
AcDbLine
 62
7
  6
CONTINUOUS
 10
60.1402312372
 20
105.7607555404
 11
57.1703703916
 21
107.4753667094
  0
LINE
  5
35A
100
AcDbEntity
  8
00_COMPONENTS_1
100
AcDbLine
 62
7
  6
CONTINUOUS
 10
56.6046826114
 20
107.801959313
 11
53.6348217658
 21
109.516570482
  0
LINE
  5
35B
100
AcDbEntity
  8
00_COMPONENTS_1
100
AcDbLine
 62
7
  6
CONTINUOUS
 10
50.2406950851
 20
111.4761261037
 11
47.2708342395
 21
113.1907372727
  0
LINE
  5
35C
100
AcDbEntity
  8
00_COMPONENTS_1
100
AcDbLine
 62
7
  6
CONTINUOUS
 10
46.7051464594
 20
113.5173298763
 11
43.7352856138
 21
115.2319410453
  0
LINE
  5
35D
100
AcDbEntity
  8
00_COMPONENTS_1
100
AcDbLine
 62
7
  6
CONTINUOUS
 10
40.3411589331
 20
117.191496667
 11
37.3712980874
 21
118.906107836
  0
LINE
  5
35E
100
AcDbEntity
  8
00_COMPONENTS_1
100
AcDbLine
 62
7
  6
CONTINUOUS
 10
36.8056103073
 20
119.2327004396
 11
33.8357494617
 21
120.9473116086
  0
LINE
  5
35F
100
AcDbEntity
  8
00_COMPONENTS_1
100
AcDbLine
 62
7
  6
CONTINUOUS
 10
60.0163470856
 20
107.8327063301
 11
57.7185203782
 21
109.159327186
  0
LINE
  5
360
100
AcDbEntity
  8
00_COMPONENTS_1
100
AcDbLine
 62
7
  6
CONTINUOUS
 10
56.0565326248
 20
110.1188545554
 11
53.7587059174
 21
111.4454754113
  0
LINE
  5
361
100
AcDbEntity
  8
00_COMPONENTS_1
100
AcDbLine
 62
7
  6
CONTINUOUS
 10
50.1168109336
 20
113.5480768934
 11
47.8189842261
 21
114.8746977493
  0
LINE
  5
362
100
AcDbEntity
  8
00_COMPONENTS_1
100
AcDbLine
 62
7
  6
CONTINUOUS
 10
46.1569964728
 20
115.8342251187
 11
43.8591697653
 21
117.1608459746
  0
LINE
  5
363
100
AcDbEntity
  8
00_COMPONENTS_1
100
AcDbLine
 62
7
  6
CONTINUOUS
 10
40.2172747815
 20
119.2634474567
 11
37.9194480741
 21
120.5900683126
  0
LINE
  5
364
100
AcDbEntity
  8
00_COMPONENTS_1
100
AcDbLine
 62
7
  6
CONTINUOUS
 10
36.2574603207
 20
121.549595682
 11
33.9596336132
 21
122.8762165379
  0
LINE
  5
365
100
AcDbEntity
  8
00_COMPONENTS_1
100
AcDbLine
 62
7
  6
CONTINUOUS
 10
81.5298809077
 20
149.7488920013
 11
81.5298809077
 21
146.8911335413
  0
LINE
  5
366
100
AcDbEntity
  8
00_COMPONENTS_1
100
AcDbLine
 62
7
  6
CONTINUOUS
 10
49.7458113069
 20
56.6531135148
 11
47.2002162963
 21
54.321188591
  0
LINE
  5
367
100
AcDbEntity
  8
00_COMPONENTS_1
100
AcDbLine
 62
7
  6
CONTINUOUS
 10
33.305528528
 20
60.6284537583
 11
32.2448456095
 21
60.0160718451
  0
LINE
  5
368
100
AcDbEntity
  8
00_COMPONENTS_1
100
AcDbLine
 62
7
  6
CONTINUOUS
 10
32.2448456095
 20
59.2757695304
 11
33.9466583046
 21
60.2583056831
  0
LINE
  5
369
100
AcDbEntity
  8
03_AXES_1
100
AcDbLine
 62
7
420
3604575
  6
CONTINUOUS
 10
38.5656552263
 20
62.6041261686
 11
38.219959881
 21
62.4045400593
  0
LINE
  5
36A
100
AcDbEntity
  8
00_COMPONENTS_1
100
AcDbLine
 62
7
  6
CONTINUOUS
 10
37.4774759064
 20
58.2198333066
 11
36.4167929878
 21
57.6074513935
  0
LINE
  5
36B
100
AcDbEntity
  8
00_COMPONENTS_1
100
AcDbLine
 62
7
  6
CONTINUOUS
 10
36.4167929878
 20
56.8671490787
 11
38.1186056829
 21
57.8496852314
  0
LINE
  5
36C
100
AcDbEntity
  8
00_COMPONENTS_1
100
AcDbLine
 62
7
  6
CONTINUOUS
 10
36.8624885994
 20
58.5748883614
 11
36.8517718189
 21
58.5687265386
  0
LINE
  5
36D
100
AcDbEntity
  8
00_COMPONENTS_1
100
AcDbLine
 62
7
  6
CONTINUOUS
 10
33.9796726198
 20
128.2461002652
 11
36.2374213142
 21
126.9426179374
  0
LINE
  5
36E
100
AcDbEntity
  8
00_COMPONENTS_1
100
AcDbLine
 62
7
  6
CONTINUOUS
 10
37.9394870806
 20
125.9599520399
 11
40.197235775
 21
124.6564697121
  0
LINE
  5
36F
100
AcDbEntity
  8
00_COMPONENTS_1
100
AcDbLine
 62
7
  6
CONTINUOUS
 10
43.8792087718
 20
122.5307297019
 11
46.1369574662
 21
121.2272473741
  0
LINE
  5
370
100
AcDbEntity
  8
00_COMPONENTS_1
100
AcDbLine
 62
7
  6
CONTINUOUS
 10
47.8390232326
 20
120.2445814766
 11
50.0967719271
 21
118.9410991488
  0
LINE
  5
371
100
AcDbEntity
  8
00_COMPONENTS_1
100
AcDbLine
 62
7
  6
CONTINUOUS
 10
53.7787449239
 20
116.8153591386
 11
56.0364936183
 21
115.5118768108
  0
LINE
  5
372
100
AcDbEntity
  8
00_COMPONENTS_1
100
AcDbLine
 62
7
  6
CONTINUOUS
 10
57.7385593847
 20
114.5292109133
 11
59.9963080791
 21
113.2257285855
  0
LINE
  5
373
100
AcDbEntity
  8
00_COMPONENTS_1
100
AcDbLine
 62
7
  6
CONTINUOUS
 10
50.1699841126
 20
119.9677501971
 11
43.8059965863
 21
123.6419169878
  0
LINE
  5
374
100
AcDbEntity
  8
00_COMPONENTS_1
100
AcDbLine
 62
7
  6
CONTINUOUS
 10
31.1487325061
 20
131.7659289109
 11
41.5078899796
 21
125.7852018571
  0
LINE
  5
375
100
AcDbEntity
  8
00_COMPONENTS_1
100
AcDbLine
 62
7
  6
CONTINUOUS
 10
42.5685545673
 20
125.1728407254
 11
43.8059965863
 21
124.458419405
  0
LINE
  5
376
100
AcDbEntity
  8
00_COMPONENTS_1
100
AcDbLine
 62
7
  6
CONTINUOUS
 10
50.1699841126
 20
120.7842526143
 11
51.4074261316
 21
120.0698312939
  0
LINE
  5
377
100
AcDbEntity
  8
00_COMPONENTS_1
100
AcDbLine
 62
7
  6
CONTINUOUS
 10
52.4680907193
 20
119.4574701621
 11
62.8272481927
 21
113.4767431084
  0
LINE
  5
378
100
AcDbEntity
  8
00_COMPONENTS_1
100
AcDbLine
 62
7
  6
CONTINUOUS
 10
52.8923530217
 20
119.7024166544
 11
51.8316884339
 21
120.3147777862
  0
LINE
  5
379
100
AcDbEntity
  8
00_COMPONENTS_1
100
AcDbLine
 62
7
  6
CONTINUOUS
 10
42.9928168696
 20
125.4177872177
 11
41.9321522819
 21
126.0301483495
  0
LINE
  5
37A
100
AcDbEntity
  8
00_COMPONENTS_1
100
AcDbLine
 62
7
  6
CONTINUOUS
 10
86.6212775951
 20
126.6568240289
 11
86.6212775951
 21
125.7444107635
  0
LINE
  5
37B
100
AcDbEntity
  8
00_COMPONENTS_1
100
AcDbLine
 62
7
  6
CONTINUOUS
 10
87.2576763478
 20
127.0242468268
 11
87.2576763478
 21
128.887954478
  0
LINE
  5
37C
100
AcDbEntity
  8
00_COMPONENTS_1
100
AcDbLine
 62
7
  6
CONTINUOUS
 10
35.1048878901
 20
55.262153837
 11
33.9796729796
 21
54.6125145834
  0
LINE
  5
37D
100
AcDbEntity
  8
00_COMPONENTS_1
100
AcDbLine
 62
7
  6
CONTINUOUS
 10
35.9571681337
 20
55.2599896461
 11
35.5329058314
 21
55.0150431538
  0
LINE
  5
37E
100
AcDbEntity
  8
00_COMPONENTS_1
100
AcDbLine
 62
7
  6
CONTINUOUS
 10
34.0479153712
 20
53.0142945928
 11
33.5528937958
 21
52.728495459
  0
LINE
  5
37F
100
AcDbEntity
  8
00_COMPONENTS_1
100
AcDbLine
 62
7
  6
CONTINUOUS
 10
40.8008916146
 20
56.3011017603
 11
39.740208696
 21
55.6887198472
  0
LINE
  5
380
100
AcDbEntity
  8
00_COMPONENTS_1
100
AcDbLine
 62
7
  6
CONTINUOUS
 10
34.6843141238
 20
52.6468779138
 11
34.1892925484
 21
52.3610787799
  0
LINE
  5
381
100
AcDbEntity
  8
00_COMPONENTS_1
100
AcDbLine
 62
7
  6
CONTINUOUS
 10
39.740208696
 20
54.9484175325
 11
41.4420213911
 21
55.9309536852
  0
LINE
  5
382
100
AcDbEntity
  8
00_COMPONENTS_1
100
AcDbLine
 62
7
  6
CONTINUOUS
 10
34.1892925484
 20
50.9730246708
 11
35.8864214293
 21
51.9528566382
  0
LINE
  5
383
100
AcDbEntity
  8
00_COMPONENTS_1
100
AcDbLine
 62
7
  6
CONTINUOUS
 10
39.064702351
 20
52.9760056117
 11
37.9394874404
 21
52.3263663581
  0
LINE
  5
384
100
AcDbEntity
  8
00_COMPONENTS_1
100
AcDbLine
 62
7
  6
CONTINUOUS
 10
46.7052795267
 20
56.865807201
 11
51.3014544686
 21
59.5193942011
  0
LINE
  5
385
100
AcDbEntity
  8
00_COMPONENTS_1
100
AcDbLine
 62
7
  6
CONTINUOUS
 10
40.1859043076
 20
56.6561568152
 11
40.1751875271
 21
56.6499949924
  0
LINE
  5
386
100
AcDbEntity
  8
00_COMPONENTS_1
100
AcDbLine
 62
7
  6
CONTINUOUS
 10
32.5275849887
 20
132.5620050109
 11
33.658960549
 21
131.9088198037
  0
LINE
  5
387
100
AcDbEntity
  8
00_COMPONENTS_1
100
AcDbLine
 62
7
  6
CONTINUOUS
 10
63.0747251151
 20
114.9260044156
 11
64.2061006753
 21
114.2728192084
  0
LINE
  5
388
100
AcDbEntity
  8
00_COMPONENTS_1
100
AcDbLine
 62
7
  6
CONTINUOUS
 10
46.4929911677
 20
125.1932447725
 11
52.1498567496
 21
121.927325791
  0
LINE
  5
389
100
AcDbEntity
  8
00_COMPONENTS_1
100
AcDbLine
 62
7
  6
CONTINUOUS
 10
46.4929911677
 20
126.0097471897
 11
52.856978694
 21
122.335580399
  0
LINE
  5
38A
100
AcDbEntity
  8
00_COMPONENTS_1
100
AcDbLine
 62
7
  6
CONTINUOUS
 10
114.269046918
 20
89.5322870884
 11
114.6933146524
 21
89.2873415392
  0
LINE
  5
38B
100
AcDbEntity
  8
00_COMPONENTS_1
100
AcDbLine
 62
7
  6
CONTINUOUS
 10
114.7640250361
 20
89.3281659545
 11
114.2690523501
 21
89.6139321032
  0
LINE
  5
38C
100
AcDbEntity
  8
00_COMPONENTS_1
100
AcDbLine
 62
7
  6
CONTINUOUS
 10
114.2690523501
 20
90.5937224589
 11
115.1882873384
 21
90.0630138971
  0
LINE
  5
38D
100
AcDbEntity
  8
00_COMPONENTS_1
100
AcDbLine
 62
7
  6
CONTINUOUS
 10
88.389051908
 20
60.2201179239
 11
88.389051908
 21
47.5643304584
  0
LINE
  5
38E
100
AcDbEntity
  8
00_COMPONENTS_1
100
AcDbLine
 62
7
  6
CONTINUOUS
 10
88.389051908
 20
118.8449914738
 11
88.389051908
 21
124.7238088772
  0
LINE
  5
38F
100
AcDbEntity
  8
00_COMPONENTS_1
100
AcDbLine
 62
7
  6
CONTINUOUS
 10
91.2881776406
 20
120.5187925047
 11
91.2881776406
 21
115.9463789688
  0
LINE
  5
390
100
AcDbEntity
  8
00_COMPONENTS_1
100
AcDbLine
 62
7
  6
CONTINUOUS
 10
91.2881776406
 20
66.4663324907
 11
91.2881776406
 21
61.8939189548
  0
LINE
  5
391
100
AcDbEntity
  8
00_COMPONENTS_1
100
AcDbLine
 62
7
  6
CONTINUOUS
 10
57.691600064
 20
49.1923614513
 11
57.1703703916
 21
48.6055424351
  0
LINE
  5
392
100
AcDbEntity
  8
00_COMPONENTS_1
100
AcDbLine
 62
7
  6
CONTINUOUS
 10
45.8768316723
 20
55.0346634345
 11
50.4730066142
 21
57.6882504346
  0
LINE
  5
393
100
AcDbEntity
  8
00_COMPONENTS_1
100
AcDbLine
 62
7
  6
CONTINUOUS
 10
44.972838993
 20
53.8924813087
 11
43.9121560744
 21
53.2800993955
  0
LINE
  5
394
100
AcDbEntity
  8
00_COMPONENTS_1
100
AcDbLine
 62
7
  6
CONTINUOUS
 10
43.9121560744
 20
52.5397970808
 11
45.6139687695
 21
53.5223332335
  0
LINE
  5
395
100
AcDbEntity
  8
00_COMPONENTS_1
100
AcDbLine
 62
7
  6
CONTINUOUS
 10
43.4525312203
 20
50.9326376482
 11
43.028268918
 21
50.6876911559
  0
LINE
  5
396
100
AcDbEntity
  8
00_COMPONENTS_1
100
AcDbLine
 62
7
  6
CONTINUOUS
 10
115.4711288733
 20
91.6960159095
 11
115.6832600245
 21
91.8184891557
  0
LINE
  5
397
100
AcDbEntity
  8
00_COMPONENTS_1
100
AcDbLine
 62
7
  6
CONTINUOUS
 10
41.9321522819
 20
48.9523201724
 11
41.5078899796
 21
48.7073736801
  0
LINE
  5
398
100
AcDbEntity
  8
00_COMPONENTS_1
100
AcDbLine
 62
7
  6
CONTINUOUS
 10
48.2962547012
 20
51.9737497624
 11
47.2355717826
 21
51.3613678493
  0
LINE
  5
399
100
AcDbEntity
  8
00_COMPONENTS_1
100
AcDbLine
 62
7
  6
CONTINUOUS
 10
45.0044240422
 20
49.5467832738
 11
43.8792091317
 21
48.8971440201
  0
LINE
  5
39A
100
AcDbEntity
  8
00_COMPONENTS_1
100
AcDbLine
 62
7
  6
CONTINUOUS
 10
44.3578516859
 20
54.2475363635
 11
44.3471349055
 21
54.2413745407
  0
LINE
  5
39B
100
AcDbEntity
  8
00_COMPONENTS_1
100
AcDbLine
 62
7
  6
CONTINUOUS
 10
47.6812673941
 20
52.3288048173
 11
47.6705506137
 21
52.3226429945
  0
LINE
  5
39C
100
AcDbEntity
  8
00_COMPONENTS_1
100
AcDbLine
 62
7
  6
CONTINUOUS
 10
36.2374209543
 20
53.3090326711
 11
36.3582618145
 21
53.3670426363
  0
LINE
  5
39D
100
AcDbEntity
  8
00_COMPONENTS_1
100
AcDbLine
 62
7
  6
CONTINUOUS
 10
40.1972354151
 20
51.0228844458
 11
40.3180762753
 21
51.080894411
  0
LINE
  5
39E
100
AcDbEntity
  8
00_COMPONENTS_1
100
AcDbLine
 62
7
  6
CONTINUOUS
 10
115.1882873384
 20
91.2061172811
 11
114.2690523501
 21
91.7368258429
  0
LINE
  5
39F
100
AcDbEntity
  8
00_COMPONENTS_1
100
AcDbLine
 62
7
  6
CONTINUOUS
 10
115.4711288733
 20
91.6960159095
 11
114.2690523501
 21
92.3900194134
  0
LINE
  5
3A0
100
AcDbEntity
  8
00_COMPONENTS_1
100
AcDbLine
 62
7
  6
CONTINUOUS
 10
115.6832600245
 20
91.8184891557
 11
114.2690523501
 21
92.6349638661
  0
LINE
  5
3A1
100
AcDbEntity
  8
00_COMPONENTS_1
100
AcDbLine
 62
7
  6
CONTINUOUS
 10
118.1581234547
 20
91.2463196782
 11
114.2690523501
 21
93.4916251318
  0
LINE
  5
3A2
100
AcDbEntity
  8
00_COMPONENTS_1
100
AcDbLine
 62
7
  6
CONTINUOUS
 10
115.046889046
 20
121.0084698932
 11
114.7993593258
 21
120.5797334614
  0
LINE
  5
3A3
100
AcDbEntity
  8
00_COMPONENTS_1
100
AcDbLine
 62
7
  6
CONTINUOUS
 10
47.2355717826
 20
50.6210655346
 11
48.9373844777
 21
51.6036016872
  0
LINE
  5
3A4
100
AcDbEntity
  8
00_COMPONENTS_1
100
AcDbLine
 62
7
  6
CONTINUOUS
 10
114.6933146524
 20
89.2873415392
 11
114.7640250361
 21
89.3281659545
  0
LINE
  5
3A5
100
AcDbEntity
  8
00_COMPONENTS_1
100
AcDbLine
 62
7
  6
CONTINUOUS
 10
44.5131185307
 20
47.7888458359
 11
43.8059965863
 21
47.3805912279
  0
LINE
  5
3A6
100
AcDbEntity
  8
00_COMPONENTS_1
100
AcDbLine
 62
7
  6
CONTINUOUS
 10
48.964238503
 20
47.2606350484
 11
47.8390235925
 21
46.6109957948
  0
LINE
  5
3A7
100
AcDbEntity
  8
00_COMPONENTS_1
100
AcDbLine
 62
7
  6
CONTINUOUS
 10
46.1369571064
 20
47.5936621078
 11
46.2577979665
 21
47.651672073
  0
LINE
  5
3A8
100
AcDbEntity
  8
00_COMPONENTS_1
100
AcDbLine
 62
7
  6
CONTINUOUS
 10
109.5964155049
 20
139.2466257047
 11
109.626797641
 21
139.5052379518
  0
LINE
  5
3A9
100
AcDbEntity
  8
00_COMPONENTS_1
100
AcDbLine
 62
7
  6
CONTINUOUS
 10
62.8272481927
 20
52.1574115819
 11
51.6550075648
 21
45.7071539508
  0
LINE
  5
3AA
100
AcDbEntity
  8
00_COMPONENTS_1
100
AcDbLine
 62
7
  6
CONTINUOUS
 10
53.1398449582
 20
45.121485786
 11
56.2482483949
 21
46.9161126345
  0
LINE
  5
3AB
100
AcDbEntity
  8
00_COMPONENTS_1
100
AcDbLine
 62
7
  6
CONTINUOUS
 10
113.2083965942
 20
79.1219012607
 11
91.2881776406
 21
66.4663324907
  0
LINE
  5
3AC
100
AcDbEntity
  8
00_COMPONENTS_1
100
AcDbLine
 62
7
  6
CONTINUOUS
 10
51.8316884339
 20
43.2369496092
 11
51.4074261316
 21
42.9920031168
  0
LINE
  5
3AD
100
AcDbEntity
  8
00_COMPONENTS_1
100
AcDbLine
 62
7
  6
CONTINUOUS
 10
56.675393584
 20
44.85414415
 11
53.7787452837
 21
43.1817734568
  0
LINE
  5
3AE
100
AcDbEntity
  8
00_COMPONENTS_1
100
AcDbLine
 62
7
  6
CONTINUOUS
 10
58.4431911134
 20
45.8702647512
 11
57.099659419
 21
45.094580996
  0
LINE
  5
3AF
100
AcDbEntity
  8
00_COMPONENTS_1
100
AcDbLine
 62
7
  6
CONTINUOUS
 10
50.0967715672
 20
45.3075138825
 11
50.2176124274
 21
45.3655238477
  0
LINE
  5
3B0
100
AcDbEntity
  8
00_COMPONENTS_1
100
AcDbLine
 62
7
  6
CONTINUOUS
 10
91.2881776406
 20
120.5187925047
 11
88.389051908
 21
122.192565661
  0
LINE
  5
3B1
100
AcDbEntity
  8
00_COMPONENTS_1
100
AcDbLine
 62
7
  6
CONTINUOUS
 10
113.2083965942
 20
76.2641428008
 11
118.1581234547
 21
79.1218518779
  0
LINE
  5
3B2
100
AcDbEntity
  8
00_COMPONENTS_1
100
AcDbLine
 62
7
  6
CONTINUOUS
 10
57.099659419
 20
42.8353375607
 11
60.2080628558
 21
44.6299644092
  0
LINE
  5
3B3
100
AcDbEntity
  8
00_COMPONENTS_1
100
AcDbLine
 62
7
  6
CONTINUOUS
 10
91.2881776406
 20
61.8939189548
 11
88.389051908
 21
60.2201179239
  0
LINE
  5
3B4
100
AcDbEntity
  8
00_COMPONENTS_1
100
AcDbLine
 62
7
  6
CONTINUOUS
 10
60.6352080448
 20
42.5679959247
 11
57.7385597446
 21
40.8956252315
  0
LINE
  5
3B5
100
AcDbEntity
  8
00_COMPONENTS_1
100
AcDbLine
 62
7
  6
CONTINUOUS
 10
57.7185164192
 20
46.2886464159
 11
57.6176999006
 21
46.2385947191
  0
LINE
  5
3B6
100
AcDbEntity
  8
00_COMPONENTS_1
100
AcDbLine
 62
7
  6
CONTINUOUS
 10
56.0364932584
 20
41.8782915446
 11
56.1573341186
 21
41.9363015097
  0
LINE
  5
3B7
100
AcDbEntity
  8
00_COMPONENTS_1
100
AcDbLine
 62
7
  6
CONTINUOUS
 10
86.6212775951
 20
125.7444107635
 11
88.389051908
 21
124.7238088772
  0
LINE
  5
3B8
100
AcDbEntity
  8
00_COMPONENTS_1
100
AcDbLine
 62
7
  6
CONTINUOUS
 10
57.8419117817
 20
145.8707698661
 11
87.2576763478
 21
128.887954478
  0
LINE
  5
3B9
100
AcDbEntity
  8
00_COMPONENTS_1
100
AcDbLine
 62
7
  6
CONTINUOUS
 10
114.2690523501
 20
89.5322964971
 11
114.3933262503
 21
89.2576360805
  0
LINE
  5
3BA
100
AcDbEntity
  8
00_COMPONENTS_1
100
AcDbLine
 62
7
  6
CONTINUOUS
 10
113.2083965942
 20
76.2641428008
 11
113.2083965942
 21
79.1219012607
  0
LINE
  5
3BB
100
AcDbEntity
  8
00_COMPONENTS_1
100
AcDbLine
 62
7
  6
CONTINUOUS
 10
113.2083965942
 20
128.6019477388
 11
113.2083965942
 21
134.2033617428
  0
LINE
  5
3BC
100
AcDbEntity
  8
00_COMPONENTS_1
100
AcDbLine
 62
7
  6
CONTINUOUS
 10
113.774079664
 20
120.2736174403
 11
113.774079664
 21
117.8241101889
  0
LINE
  5
3BD
100
AcDbEntity
  8
00_COMPONENTS_1
100
AcDbLine
 62
7
  6
CONTINUOUS
 10
114.2690523501
 20
117.3750289212
 11
114.2690523501
 21
89.5322964971
  0
LINE
  5
3BE
100
AcDbEntity
  8
00_COMPONENTS_1
100
AcDbLine
 62
7
  6
CONTINUOUS
 10
115.1882873384
 20
91.2061172811
 11
115.4711288733
 21
91.6960159095
  0
LINE
  5
3BF
100
AcDbEntity
  8
00_COMPONENTS_1
100
AcDbLine
 62
7
  6
CONTINUOUS
 10
64.2414558672
 20
37.2154032391
 11
62.8272481927
 21
36.3989149313
  0
LINE
  5
3C0
100
AcDbEntity
  8
00_COMPONENTS_1
100
AcDbLine
 62
7
  6
CONTINUOUS
 10
63.251502252
 20
36.3172232461
 11
62.6151034993
 21
35.9498004482
  0
LINE
  5
3C1
100
AcDbEntity
  8
00_COMPONENTS_1
100
AcDbLine
 62
7
  6
CONTINUOUS
 10
59.9963077193
 20
39.5921433192
 11
60.1171485794
 21
39.6501532844
  0
LINE
  5
3C2
100
AcDbEntity
  8
00_COMPONENTS_1
100
AcDbLine
 62
7
  6
CONTINUOUS
 10
114.154827884
 20
118.0439339641
 11
113.774079664
 21
118.2637540784
  0
LINE
  5
3C3
100
AcDbEntity
  8
00_COMPONENTS_1
100
AcDbLine
 62
7
  6
CONTINUOUS
 10
115.1882873384
 20
90.0630138971
 11
115.1882873384
 21
91.2061172811
  0
LINE
  5
3C4
100
AcDbEntity
  8
00_COMPONENTS_1
100
AcDbLine
 62
7
  6
CONTINUOUS
 10
118.1581234547
 20
137.0610708199
 11
118.1581234547
 21
122.8047311943
  0
LINE
  5
3C5
100
AcDbEntity
  8
00_COMPONENTS_1
100
AcDbLine
 62
7
  6
CONTINUOUS
 10
118.1581234547
 20
91.2463196782
 11
118.1581234547
 21
79.1218518779
  0
LINE
  5
3C6
100
AcDbEntity
  8
00_COMPONENTS_1
100
AcDbLine
 62
7
  6
CONTINUOUS
 10
64.2414558672
 20
33.6227926037
 11
88.389051908
 21
47.5643304584
  0
LINE
  5
3C7
100
AcDbEntity
  8
00_COMPONENTS_1
100
AcDbLine
 62
7
  6
CONTINUOUS
 10
114.154827884
 20
118.0439339641
 11
114.2690523501
 21
117.3750289212
  0
LINE
  5
3C8
100
AcDbEntity
  8
00_COMPONENTS_1
100
AcDbLine
 62
7
  6
CONTINUOUS
 10
81.5298809077
 20
146.8911335413
 11
86.328033051
 21
144.120981779
  0
LINE
  5
3C9
100
AcDbEntity
  8
00_COMPONENTS_1
100
AcDbLine
 62
7
  6
CONTINUOUS
 10
108.4102444509
 20
131.3720995011
 11
113.2083965942
 21
128.6019477388
  0
LWPOLYLINE
  5
3CA
100
AcDbEntity
  8
00_COMPONENTS_1
100
AcDbPolyline
 62
7
  6
CONTINUOUS
 90
4
 70
0
 10
107.3550681696
 20
132.2352217669
 10
99.6194201212
 20
138.562894392
 10
95.1188573807
 20
141.1612367194
 10
86.328033051
 20
144.120981779
  0
ARC
  5
3CB
100
AcDbEntity
  8
00_COMPONENTS_1
100
AcDbCircle
 62
7
  6
CONTINUOUS
 10
62.4959303155
 20
84.9484156214
 40
65.2938179883
100
AcDbArc
 50
45.3160610059
 51
46.5563572308
  0
ARC
  5
3CC
100
AcDbEntity
  8
00_COMPONENTS_1
100
AcDbCircle
 62
7
  6
CONTINUOUS
 10
107.4897015553
 20
139.9021723269
 40
1.8553999483
100
AcDbArc
 50
270.891991829
 51
275.9957953183
  0
ARC
  5
3CD
100
AcDbEntity
  8
00_COMPONENTS_1
100
AcDbCircle
 62
7
  6
CONTINUOUS
 10
111.8281876809
 20
141.0159088375
 40
1.079549375
100
AcDbArc
 50
232.6860860215
 51
237.3743816133
  0
SPLINE
  5
3CE
100
AcDbEntity
  8
00_COMPONENTS_1
100
AcDbSpline
 62
7
  6
CONTINUOUS
 70
0
 71
3
 72
12
 73
8
 74
0
 42
0.0000001
 43
0.0000001
 44
0.0000000001
 40
0.0
 40
0.0
 40
0.0
 40
0.0
 40
0.2895802184
 40
0.5486333627
 40
0.7816359182
 40
0.8918377609
 40
1.0
 40
1.0
 40
1.0
 40
1.0
 10
22.6635106001
 20
96.8197818999
 30
0.0
 10
22.4879336915
 20
96.9211489821
 30
0.0
 10
22.1387378945
 20
97.0872837399
 30
0.0
 10
21.6024016671
 20
97.2169492082
 30
0.0
 10
21.1741203156
 20
97.2055971966
 30
0.0
 10
20.8683689406
 20
97.1209047327
 30
0.0
 10
20.729103116
 20
97.055735584
 30
0.0
 10
20.6635229683
 20
97.017873102
 30
0.0
  0
SPLINE
  5
3CF
100
AcDbEntity
  8
00_COMPONENTS_1
100
AcDbSpline
 62
7
  6
CONTINUOUS
 70
0
 71
3
 72
11
 73
7
 74
0
 42
0.0000001
 43
0.0000001
 44
0.0000000001
 40
0.0
 40
0.0
 40
0.0
 40
0.0
 40
0.2177498894
 40
0.4508926565
 40
0.710464077
 40
1.0
 40
1.0
 40
1.0
 40
1.0
 10
38.5699420531
 20
61.7983495353
 30
0.0
 10
38.5930289257
 20
61.8116786706
 30
0.0
 10
38.6362679187
 20
61.8479470552
 30
0.0
 10
38.6822597779
 20
61.9231872386
 30
0.0
 10
38.7095264853
 20
62.0158753099
 30
0.0
 10
38.7149366766
 20
62.0833246229
 30
0.0
 10
38.7149366886
 20
62.1187715311
 30
0.0
  0
SPLINE
  5
3D0
100
AcDbEntity
  8
00_COMPONENTS_1
100
AcDbSpline
 62
7
  6
CONTINUOUS
 70
0
 71
3
 72
15
 73
11
 74
0
 42
0.0000001
 43
0.0000001
 44
0.0000000001
 40
0.0
 40
0.0
 40
0.0
 40
0.0
 40
0.1141555516
 40
0.2373276756
 40
0.3669773296
 40
0.5000011
 40
0.6330247168
 40
0.7626739247
 40
0.885845342
 40
1.0
 40
1.0
 40
1.0
 40
1.0
 10
51.3014544686
 20
77.0200216733
 30
0.0
 10
51.3014544686
 20
77.243605973
 30
0.0
 10
51.2605018231
 20
77.7088685361
 30
0.0
 10
51.0972449241
 20
78.4107676331
 30
0.0
 10
50.8357167908
 20
79.1217351283
 30
0.0
 10
50.4856912511
 20
79.8150363678
 30
0.0
 10
50.0602849129
 20
80.4648152418
 30
0.0
 10
49.5753316165
 20
81.0467844817
 30
0.0
 10
49.0490973926
 20
81.5391125859
 30
0.0
 10
48.6666448306
 20
81.807204982
 30
0.0
 10
48.473015568
 20
81.9189943599
 30
0.0
  0
SPLINE
  5
3D1
100
AcDbEntity
  8
00_COMPONENTS_1
100
AcDbSpline
 62
7
  6
CONTINUOUS
 70
0
 71
3
 72
12
 73
8
 74
0
 42
0.0000001
 43
0.0000001
 44
0.0000000001
 40
0.0
 40
0.0
 40
0.0
 40
0.0
 40
0.1081617394
 40
0.2183631591
 40
0.4513653165
 40
0.7104188067
 40
1.0
 40
1.0
 40
1.0
 40
1.0
 10
50.4730031998
 20
57.6882563486
 30
0.0
 10
50.5385847997
 20
57.7261196689
 30
0.0
 10
50.6646589988
 20
57.8141444492
 30
0.0
 10
50.8908858728
 20
58.0365920866
 30
0.0
 10
51.1148617233
 20
58.4018294442
 30
0.0
 10
51.2707362622
 20
58.9311591145
 30
0.0
 10
51.3014544686
 20
59.3166504885
 30
0.0
 10
51.3014544686
 20
59.5193942011
 30
0.0
  0
SPLINE
  5
3D2
100
AcDbEntity
  8
00_COMPONENTS_1
100
AcDbSpline
 62
7
  6
CONTINUOUS
 70
0
 71
3
 72
12
 73
8
 74
0
 42
0.0000001
 43
0.0000001
 44
0.0000000001
 40
0.0
 40
0.0
 40
0.0
 40
0.0
 40
0.108162245
 40
0.2183640921
 40
0.4513666551
 40
0.7104197903
 40
1.0
 40
1.0
 40
1.0
 40
1.0
 10
45.8768282579
 20
55.0346693484
 30
0.0
 10
45.81124811
 20
54.9968068583
 30
0.0
 10
45.6719822737
 20
54.9316377155
 30
0.0
 10
45.3662308886
 20
54.8469452433
 30
0.0
 10
44.9379495328
 20
54.8355932487
 30
0.0
 10
44.4016133132
 20
54.9652587124
 30
0.0
 10
44.0524175296
 20
55.1313934712
 30
0.0
 10
43.8768406261
 20
55.2327605505
 30
0.0
  0
SPLINE
  5
3D3
100
AcDbEntity
  8
00_COMPONENTS_1
100
AcDbSpline
 62
7
  6
CONTINUOUS
 70
0
 71
3
 72
15
 73
11
 74
0
 42
0.0000001
 43
0.0000001
 44
0.0000000001
 40
0.0
 40
0.0
 40
0.0
 40
0.0
 40
0.1141546703
 40
0.2373261017
 40
0.3669753162
 40
0.4999989361
 40
0.6330227034
 40
0.7626723508
 40
0.8858444607
 40
1.0
 40
1.0
 40
1.0
 40
1.0
 10
18.0673356582
 20
70.1335480905
 30
0.0
 10
17.8737063747
 20
70.2453374805
 30
0.0
 10
17.4912537751
 20
70.5134299138
 30
0.0
 10
16.9650195101
 20
71.0057580691
 30
0.0
 10
16.4800662032
 20
71.5877273613
 30
0.0
 10
16.0546598746
 20
72.2375062567
 30
0.0
 10
15.7046343583
 20
72.9308074939
 30
0.0
 10
15.443106265
 20
73.6417749538
 30
0.0
 10
15.2798493897
 20
74.3436739896
 30
0.0
 10
15.2388967576
 20
74.8089365015
 30
0.0
 10
15.2388967576
 20
75.0325207771
 30
0.0
  0
SPLINE
  5
3D4
100
AcDbEntity
  8
00_COMPONENTS_1
100
AcDbSpline
 62
7
  6
CONTINUOUS
 70
0
 71
3
 72
12
 73
8
 74
0
 42
0.0000001
 43
0.0000001
 44
0.0000000001
 40
0.0
 40
0.0
 40
0.0
 40
0.0
 40
0.289581202
 40
0.5486347013
 40
0.7816368512
 40
0.8918382666
 40
1.0
 40
1.0
 40
1.0
 40
1.0
 10
15.2388967576
 20
92.5331482493
 30
0.0
 10
15.2388967576
 20
92.7358919678
 30
0.0
 10
15.2696149716
 20
93.1213833529
 30
0.0
 10
15.4254895104
 20
93.6507130323
 30
0.0
 10
15.6494653735
 20
94.0159503776
 30
0.0
 10
15.8756922354
 20
94.2383980104
 30
0.0
 10
16.0017664337
 20
94.3264227776
 30
0.0
 10
16.0673480264
 20
94.3642861018
 30
0.0
  0
SPLINE
  5
3D5
100
AcDbEntity
  8
00_COMPONENTS_1
100
AcDbSpline
 62
7
  6
CONTINUOUS
 70
0
 71
3
 72
11
 73
7
 74
0
 42
0.0000001
 43
0.0000001
 44
0.0000000001
 40
0.0
 40
0.0
 40
0.0
 40
0.0
 40
0.2372480932
 40
0.5000010914
 40
0.7627534954
 40
1.0
 40
1.0
 40
1.0
 40
1.0
 10
38.7149366886
 20
62.1187715311
 30
0.0
 10
38.714936716
 20
62.1999177981
 30
0.0
 10
38.6845149016
 20
62.3710494151
 30
0.0
 10
38.5783920327
 20
62.6114865235
 30
0.0
 10
38.4232281927
 20
62.8236090544
 30
0.0
 10
38.2902345365
 20
62.9355195778
 30
0.0
 10
38.219959881
 20
62.9760917513
 30
0.0
  0
SPLINE
  5
3D6
100
AcDbEntity
  8
00_COMPONENTS_1
100
AcDbSpline
 62
7
  6
CONTINUOUS
 70
0
 71
3
 72
11
 73
7
 74
0
 42
0.0000001
 43
0.0000001
 44
0.0000000001
 40
0.0
 40
0.0
 40
0.0
 40
0.0
 40
0.2895349057
 40
0.5491059955
 40
0.7822491654
 40
1.0
 40
1.0
 40
1.0
 40
1.0
 10
38.219959881
 20
62.9760917513
 30
0.0
 10
38.1892627128
 20
62.9938143686
 30
0.0
 10
38.1281463057
 20
63.0228522263
 30
0.0
 10
38.034245177
 20
63.0455811841
 30
0.0
 10
37.9460916177
 20
63.0433707557
 30
0.0
 10
37.8930640634
 20
63.0240594195
 30
0.0
 10
37.8699777077
 20
63.0107305827
 30
0.0
  0
SPLINE
  5
3D7
100
AcDbEntity
  8
00_COMPONENTS_1
100
AcDbSpline
 62
7
  6
CONTINUOUS
 70
0
 71
3
 72
15
 73
11
 74
0
 42
0.0000001
 43
0.0000001
 44
0.0000000001
 40
0.0
 40
0.0
 40
0.0
 40
0.0
 40
0.1141546703
 40
0.2373261017
 40
0.3669753162
 40
0.4999989361
 40
0.6330227034
 40
0.7626723508
 40
0.8858444607
 40
1.0
 40
1.0
 40
1.0
 40
1.0
 10
43.8768406261
 20
79.2654073597
 30
0.0
 10
44.0704699096
 20
79.1536179698
 30
0.0
 10
44.4529225092
 20
78.8855255364
 30
0.0
 10
44.9791567742
 20
78.3931973811
 30
0.0
 10
45.4641100812
 20
77.811228089
 30
0.0
 10
45.8895164097
 20
77.1614491936
 30
0.0
 10
46.239541926
 20
76.4681479564
 30
0.0
 10
46.5010700194
 20
75.7571804965
 30
0.0
 10
46.6643268946
 20
75.0552814607
 30
0.0
 10
46.7052795267
 20
74.5900189487
 30
0.0
 10
46.7052795267
 20
74.3664346731
 30
0.0
  0
SPLINE
  5
3D8
100
AcDbEntity
  8
00_COMPONENTS_1
100
AcDbSpline
 62
7
  6
CONTINUOUS
 70
0
 71
3
 72
12
 73
8
 74
0
 42
0.0000001
 43
0.0000001
 44
0.0000000001
 40
0.0
 40
0.0
 40
0.0
 40
0.0
 40
0.289581202
 40
0.5486347013
 40
0.7816368512
 40
0.8918382666
 40
1.0
 40
1.0
 40
1.0
 40
1.0
 10
46.7052795267
 20
56.865807201
 30
0.0
 10
46.7052795267
 20
56.6630634824
 30
0.0
 10
46.6745613127
 20
56.2775720973
 30
0.0
 10
46.5186867739
 20
55.748242418
 30
0.0
 10
46.2947109108
 20
55.3830050727
 30
0.0
 10
46.0684840489
 20
55.1605574398
 30
0.0
 10
45.9424098507
 20
55.0725326726
 30
0.0
 10
45.8768282579
 20
55.0346693484
 30
0.0
  0
SPLINE
  5
3D9
100
AcDbEntity
  8
00_COMPONENTS_1
100
AcDbSpline
 62
7
  6
CONTINUOUS
 70
0
 71
3
 72
12
 73
8
 74
0
 42
0.0000001
 43
0.0000001
 44
0.0000000001
 40
0.0
 40
0.0
 40
0.0
 40
0.0
 40
0.108162245
 40
0.2183640921
 40
0.4513666551
 40
0.7104197903
 40
1.0
 40
1.0
 40
1.0
 40
1.0
 10
16.0673480264
 20
94.3642861018
 30
0.0
 10
16.1329281743
 20
94.4021485919
 30
0.0
 10
16.2721940107
 20
94.4673177348
 30
0.0
 10
16.5779453957
 20
94.552010207
 30
0.0
 10
17.0062267515
 20
94.5633622015
 30
0.0
 10
17.5425629711
 20
94.4336967379
 30
0.0
 10
17.8917587547
 20
94.267561979
 30
0.0
 10
18.0673356582
 20
94.1661948997
 30
0.0
  0
SPLINE
  5
3DA
100
AcDbEntity
  8
00_COMPONENTS_1
100
AcDbSpline
 62
7
  6
CONTINUOUS
 70
0
 71
3
 72
15
 73
11
 74
0
 42
0.0000001
 43
0.0000001
 44
0.0000000001
 40
0.0
 40
0.0
 40
0.0
 40
0.0
 40
0.1141474742
 40
0.2373368197
 40
0.3669776589
 40
0.5000010823
 40
0.633024354
 40
0.7626647562
 40
0.8858534048
 40
1.0
 40
1.0
 40
1.0
 40
1.0
 10
39.0684944951
 20
61.5064086997
 30
0.0
 10
39.0684945595
 20
61.6014251272
 30
0.0
 10
39.051078333
 20
61.7991673891
 30
0.0
 10
38.9817117325
 20
62.0974787023
 30
0.0
 10
38.8705378236
 20
62.3996375007
 30
0.0
 10
38.7217948642
 20
62.6942897426
 30
0.0
 10
38.5409889031
 20
62.9704298843
 30
0.0
 10
38.3348980484
 20
63.217786815
 30
0.0
 10
38.1112360624
 20
63.4270131693
 30
0.0
 10
37.9486944341
 20
63.5409650496
 30
0.0
 10
37.8664079623
 20
63.5884720915
 30
0.0
  0
SPLINE
  5
3DB
100
AcDbEntity
  8
00_COMPONENTS_1
100
AcDbSpline
 62
7
  6
CONTINUOUS
 70
0
 71
3
 72
15
 73
11
 74
0
 42
0.0000001
 43
0.0000001
 44
0.0000000001
 40
0.0
 40
0.0
 40
0.0
 40
0.0
 40
0.1448871796
 40
0.2745334154
 40
0.3911109734
 40
0.4999980165
 40
0.608885419
 40
0.725463935
 40
0.8551114622
 40
1.0
 40
1.0
 40
1.0
 40
1.0
 10
37.8664079623
 20
63.5884720915
 30
0.0
 10
37.7917938845
 20
63.6315495748
 30
0.0
 10
37.6434043335
 20
63.7021648222
 30
0.0
 10
37.4153524546
 20
63.7572218234
 30
0.0
 10
37.2012211079
 20
63.7517408908
 30
0.0
 10
37.0106363618
 20
63.6826489603
 30
0.0
 10
36.8555115256
 20
63.5521394331
 30
0.0
 10
36.7437022296
 20
63.3694331666
 30
0.0
 10
36.6773599083
 20
63.1444029274
 30
0.0
 10
36.664321488
 20
62.9805845012
 30
0.0
 10
36.6643214296
 20
62.894427265
 30
0.0
  0
SPLINE
  5
3DC
100
AcDbEntity
  8
00_COMPONENTS_1
100
AcDbSpline
 62
7
  6
CONTINUOUS
 70
0
 71
3
 72
15
 73
11
 74
0
 42
0.0000001
 43
0.0000001
 44
0.0000000001
 40
0.0
 40
0.0
 40
0.0
 40
0.0
 40
0.1141474742
 40
0.2373368197
 40
0.3669776589
 40
0.5000010823
 40
0.633024354
 40
0.7626647562
 40
0.8858534048
 40
1.0
 40
1.0
 40
1.0
 40
1.0
 10
36.6643214296
 20
62.894427265
 30
0.0
 10
36.6643213652
 20
62.7994108375
 30
0.0
 10
36.6817375917
 20
62.6016685756
 30
0.0
 10
36.7511041922
 20
62.3033572623
 30
0.0
 10
36.8622781011
 20
62.001198464
 30
0.0
 10
37.0110210605
 20
61.706546222
 30
0.0
 10
37.1918270216
 20
61.4304060804
 30
0.0
 10
37.3979178763
 20
61.1830491496
 30
0.0
 10
37.6215798623
 20
60.9738227954
 30
0.0
 10
37.7841214906
 20
60.8598709151
 30
0.0
 10
37.8664079623
 20
60.8123638732
 30
0.0
  0
SPLINE
  5
3DD
100
AcDbEntity
  8
00_COMPONENTS_1
100
AcDbSpline
 62
7
  6
CONTINUOUS
 70
0
 71
3
 72
15
 73
11
 74
0
 42
0.0000001
 43
0.0000001
 44
0.0000000001
 40
0.0
 40
0.0
 40
0.0
 40
0.0
 40
0.1448871796
 40
0.2745334154
 40
0.3911109734
 40
0.4999980165
 40
0.608885419
 40
0.725463935
 40
0.8551114622
 40
1.0
 40
1.0
 40
1.0
 40
1.0
 10
37.8664079623
 20
60.8123638732
 30
0.0
 10
37.9410220402
 20
60.7692863899
 30
0.0
 10
38.0894115912
 20
60.6986711425
 30
0.0
 10
38.3174634701
 20
60.6436141413
 30
0.0
 10
38.5315948168
 20
60.6490950739
 30
0.0
 10
38.7221795629
 20
60.7181870043
 30
0.0
 10
38.8773043991
 20
60.8486965316
 30
0.0
 10
38.9891136951
 20
61.0314027981
 30
0.0
 10
39.0554560164
 20
61.2564330373
 30
0.0
 10
39.0684944367
 20
61.4202514635
 30
0.0
 10
39.0684944951
 20
61.5064086997
 30
0.0
  0
SPLINE
  5
3DE
100
AcDbEntity
  8
00_COMPONENTS_1
100
AcDbSpline
 62
7
  6
CONTINUOUS
 70
0
 71
3
 72
11
 73
7
 74
0
 42
0.0000001
 43
0.0000001
 44
0.0000000001
 40
0.0
 40
0.0
 40
0.0
 40
0.0
 40
0.2177499013
 40
0.4508926685
 40
0.7104641182
 40
1.0
 40
1.0
 40
1.0
 40
1.0
 10
37.8699777077
 20
63.0107305827
 30
0.0
 10
37.8468908452
 20
62.9974014531
 30
0.0
 10
37.8036518693
 20
62.9611330894
 30
0.0
 10
37.7576600232
 20
62.8858929448
 30
0.0
 10
37.730393288
 20
62.7932049351
 30
0.0
 10
37.724983076
 20
62.725755655
 30
0.0
 10
37.7249830734
 20
62.6903087693
 30
0.0
  0
SPLINE
  5
3DF
100
AcDbEntity
  8
00_COMPONENTS_1
100
AcDbSpline
 62
7
  6
CONTINUOUS
 70
0
 71
3
 72
11
 73
7
 74
0
 42
0.0000001
 43
0.0000001
 44
0.0000000001
 40
0.0
 40
0.0
 40
0.0
 40
0.0
 40
0.2372480763
 40
0.5000010726
 40
0.7627534865
 40
1.0
 40
1.0
 40
1.0
 40
1.0
 10
37.7249830734
 20
62.6903087693
 30
0.0
 10
37.7249830673
 20
62.6091624937
 30
0.0
 10
37.7554047806
 20
62.4380308433
 30
0.0
 10
37.861527683
 20
62.1975936882
 30
0.0
 10
38.016691526
 20
61.9854711012
 30
0.0
 10
38.1496852104
 20
61.8735605494
 30
0.0
 10
38.219959881
 20
61.8329883673
 30
0.0
  0
SPLINE
  5
3E0
100
AcDbEntity
  8
00_COMPONENTS_1
100
AcDbSpline
 62
7
  6
CONTINUOUS
 70
0
 71
3
 72
11
 73
7
 74
0
 42
0.0000001
 43
0.0000001
 44
0.0000000001
 40
0.0
 40
0.0
 40
0.0
 40
0.0
 40
0.2895349066
 40
0.5491059977
 40
0.7822491685
 40
1.0
 40
1.0
 40
1.0
 40
1.0
 10
38.219959881
 20
61.8329883673
 30
0.0
 10
38.2506570491
 20
61.8152657499
 30
0.0
 10
38.3117734562
 20
61.7862278921
 30
0.0
 10
38.405674585
 20
61.7634989345
 30
0.0
 10
38.4938281439
 20
61.7657093629
 30
0.0
 10
38.5468556979
 20
61.7850206986
 30
0.0
 10
38.5699420531
 20
61.7983495353
 30
0.0
  0
SPLINE
  5
3E1
100
AcDbEntity
  8
00_COMPONENTS_1
100
AcDbSpline
 62
7
  6
CONTINUOUS
 70
0
 71
3
 72
11
 73
7
 74
0
 42
0.0000001
 43
0.0000001
 44
0.0000000001
 40
0.0
 40
0.0
 40
0.0
 40
0.0
 40
0.2177660095
 40
0.4508968553
 40
0.7103699668
 40
1.0
 40
1.0
 40
1.0
 40
1.0
 10
34.7797492021
 20
56.5998459302
 30
0.0
 10
34.8489994104
 20
56.6398640049
 30
0.0
 10
34.9786740699
 20
56.7487156451
 30
0.0
 10
35.116635107
 20
56.9743904851
 30
0.0
 10
35.1985366062
 20
57.2524252477
 30
0.0
 10
35.2147064551
 20
57.4547825331
 30
0.0
 10
35.2147064551
 20
57.5611583614
 30
0.0
  0
SPLINE
  5
3E2
100
AcDbEntity
  8
00_COMPONENTS_1
100
AcDbSpline
 62
7
  6
CONTINUOUS
 70
0
 71
3
 72
9
 73
5
 74
0
 42
0.0000001
 43
0.0000001
 44
0.0000000001
 40
0.0
 40
0.0
 40
0.0
 40
0.0
 40
0.474436452
 40
1.0
 40
1.0
 40
1.0
 40
1.0
 10
31.8912907469
 20
60.2201922247
 30
0.0
 10
31.8912907469
 20
60.4669659302
 30
0.0
 10
31.7976495734
 20
60.9872575237
 30
0.0
 10
31.5836716908
 20
61.4663295213
 30
0.0
 10
31.4455951354
 20
61.7022625104
 30
0.0
  0
SPLINE
  5
3E3
100
AcDbEntity
  8
00_COMPONENTS_1
100
AcDbSpline
 62
7
  6
CONTINUOUS
 70
0
 71
3
 72
9
 73
5
 74
0
 42
0.0000001
 43
0.0000001
 44
0.0000000001
 40
0.0
 40
0.0
 40
0.0
 40
0.0
 40
0.474436452
 40
1.0
 40
1.0
 40
1.0
 40
1.0
 10
35.2147064551
 20
58.3014606785
 30
0.0
 10
35.2147064551
 20
58.5482343839
 30
0.0
 10
35.1210652815
 20
59.0685259775
 30
0.0
 10
34.907087399
 20
59.547597975
 30
0.0
 10
34.7690108435
 20
59.7835309642
 30
0.0
  0
SPLINE
  5
3E4
100
AcDbEntity
  8
00_COMPONENTS_1
100
AcDbSpline
 62
7
  6
CONTINUOUS
 70
0
 71
3
 72
11
 73
7
 74
0
 42
0.0000001
 43
0.0000001
 44
0.0000000001
 40
0.0
 40
0.0
 40
0.0
 40
0.0
 40
0.2177660095
 40
0.4508968553
 40
0.7103699668
 40
1.0
 40
1.0
 40
1.0
 40
1.0
 10
31.4563334939
 20
58.5185774764
 30
0.0
 10
31.5255837022
 20
58.5585955512
 30
0.0
 10
31.6552583617
 20
58.6674471913
 30
0.0
 10
31.7932193988
 20
58.8931220313
 30
0.0
 10
31.875120898
 20
59.1711567939
 30
0.0
 10
31.8912907469
 20
59.3735140793
 30
0.0
 10
31.8912907469
 20
59.4798899077
 30
0.0
  0
SPLINE
  5
3E5
100
AcDbEntity
  8
00_COMPONENTS_1
100
AcDbSpline
 62
7
  6
CONTINUOUS
 70
0
 71
3
 72
11
 73
7
 74
0
 42
0.0000001
 43
0.0000001
 44
0.0000000001
 40
0.0
 40
0.0
 40
0.0
 40
0.0
 40
0.217889065
 40
0.4510254035
 40
0.7104218248
 40
1.0
 40
1.0
 40
1.0
 40
1.0
 10
36.3585082646
 20
121.5992552582
 30
0.0
 10
36.4409763921
 20
121.6469555189
 30
0.0
 10
36.5954036372
 20
121.7765501268
 30
0.0
 10
36.7596642751
 20
122.0452411776
 30
0.0
 10
36.8570364496
 20
122.3762114026
 30
0.0
 10
36.8763212798
 20
122.6170477782
 30
0.0
 10
36.8763212798
 20
122.7436627255
 30
0.0
  0
SPLINE
  5
3E6
100
AcDbEntity
  8
00_COMPONENTS_1
100
AcDbSpline
 62
7
  6
CONTINUOUS
 70
0
 71
3
 72
11
 73
7
 74
0
 42
0.0000001
 43
0.0000001
 44
0.0000000001
 40
0.0
 40
0.0
 40
0.0
 40
0.0
 40
0.217889065
 40
0.4510254035
 40
0.7104218248
 40
1.0
 40
1.0
 40
1.0
 40
1.0
 10
60.1173950296
 20
107.8823659063
 30
0.0
 10
60.1998631571
 20
107.930066167
 30
0.0
 10
60.3542904022
 20
108.0596607749
 30
0.0
 10
60.51855104
 20
108.3283518257
 30
0.0
 10
60.6159232145
 20
108.6593220507
 30
0.0
 10
60.6352080448
 20
108.9001584263
 30
0.0
 10
60.6352080448
 20
109.0267733736
 30
0.0
  0
SPLINE
  5
3E7
100
AcDbEntity
  8
00_COMPONENTS_1
100
AcDbSpline
 62
7
  6
CONTINUOUS
 70
0
 71
3
 72
11
 73
7
 74
0
 42
0.0000001
 43
0.0000001
 44
0.0000000001
 40
0.0
 40
0.0
 40
0.0
 40
0.0
 40
0.217889065
 40
0.4510254035
 40
0.7104218248
 40
1.0
 40
1.0
 40
1.0
 40
1.0
 10
56.1575805688
 20
110.1685141316
 30
0.0
 10
56.2400486963
 20
110.2162143923
 30
0.0
 10
56.3944759413
 20
110.3458090002
 30
0.0
 10
56.5587365792
 20
110.614500051
 30
0.0
 10
56.6561087537
 20
110.945470276
 30
0.0
 10
56.675393584
 20
111.1863066517
 30
0.0
 10
56.675393584
 20
111.3129215989
 30
0.0
  0
SPLINE
  5
3E8
100
AcDbEntity
  8
00_COMPONENTS_1
100
AcDbSpline
 62
7
  6
CONTINUOUS
 70
0
 71
3
 72
11
 73
7
 74
0
 42
0.0000001
 43
0.0000001
 44
0.0000000001
 40
0.0
 40
0.0
 40
0.0
 40
0.0
 40
0.217889065
 40
0.4510254035
 40
0.7104218248
 40
1.0
 40
1.0
 40
1.0
 40
1.0
 10
50.2178588775
 20
113.5977364696
 30
0.0
 10
50.300327005
 20
113.6454367303
 30
0.0
 10
50.4547542501
 20
113.7750313382
 30
0.0
 10
50.6190148879
 20
114.043722389
 30
0.0
 10
50.7163870625
 20
114.374692614
 30
0.0
 10
50.7356718927
 20
114.6155289896
 30
0.0
 10
50.7356718927
 20
114.7421439369
 30
0.0
  0
SPLINE
  5
3E9
100
AcDbEntity
  8
00_COMPONENTS_1
100
AcDbSpline
 62
7
  6
CONTINUOUS
 70
0
 71
3
 72
11
 73
7
 74
0
 42
0.0000001
 43
0.0000001
 44
0.0000000001
 40
0.0
 40
0.0
 40
0.0
 40
0.0
 40
0.217889065
 40
0.4510254035
 40
0.7104218248
 40
1.0
 40
1.0
 40
1.0
 40
1.0
 10
46.2580444167
 20
115.8838846949
 30
0.0
 10
46.3405125442
 20
115.9315849556
 30
0.0
 10
46.4949397893
 20
116.0611795635
 30
0.0
 10
46.6592004271
 20
116.3298706143
 30
0.0
 10
46.7565726017
 20
116.6608408393
 30
0.0
 10
46.7758574319
 20
116.9016772149
 30
0.0
 10
46.7758574319
 20
117.0282921622
 30
0.0
  0
SPLINE
  5
3EA
100
AcDbEntity
  8
00_COMPONENTS_1
100
AcDbSpline
 62
7
  6
CONTINUOUS
 70
0
 71
3
 72
11
 73
7
 74
0
 42
0.0000001
 43
0.0000001
 44
0.0000000001
 40
0.0
 40
0.0
 40
0.0
 40
0.0
 40
0.217889065
 40
0.4510254035
 40
0.7104218248
 40
1.0
 40
1.0
 40
1.0
 40
1.0
 10
40.3183227255
 20
119.3131070329
 30
0.0
 10
40.400790853
 20
119.3608072936
 30
0.0
 10
40.555218098
 20
119.4904019015
 30
0.0
 10
40.7194787359
 20
119.7590929523
 30
0.0
 10
40.8168509104
 20
120.0900631773
 30
0.0
 10
40.8361357407
 20
120.3308995529
 30
0.0
 10
40.8361357407
 20
120.4575145002
 30
0.0
  0
SPLINE
  5
3EB
100
AcDbEntity
  8
00_COMPONENTS_1
100
AcDbSpline
 62
7
  6
CONTINUOUS
 70
0
 71
3
 72
10
 73
6
 74
0
 42
0.0000001
 43
0.0000001
 44
0.0000000001
 40
0.0
 40
0.0
 40
0.0
 40
0.0
 40
0.227981942
 40
0.4755353099
 40
1.0
 40
1.0
 40
1.0
 40
1.0
 10
40.8361357407
 20
122.7167579355
 30
0.0
 10
40.8361357407
 20
122.8736922854
 30
0.0
 10
40.803694332
 20
123.2014432631
 30
0.0
 10
40.6315356753
 20
123.8695128005
 30
0.0
 10
40.3942526588
 20
124.3539448001
 30
0.0
 10
40.197235775
 20
124.6564697121
 30
0.0
  0
SPLINE
  5
3EC
100
AcDbEntity
  8
00_COMPONENTS_1
100
AcDbSpline
 62
7
  6
CONTINUOUS
 70
0
 71
3
 72
10
 73
6
 74
0
 42
0.0000001
 43
0.0000001
 44
0.0000000001
 40
0.0
 40
0.0
 40
0.0
 40
0.0
 40
0.227981942
 40
0.4755353099
 40
1.0
 40
1.0
 40
1.0
 40
1.0
 10
46.7758574319
 20
119.2875355975
 30
0.0
 10
46.7758574319
 20
119.4444699474
 30
0.0
 10
46.7434160232
 20
119.7722209251
 30
0.0
 10
46.5712573666
 20
120.4402904626
 30
0.0
 10
46.33397435
 20
120.9247224621
 30
0.0
 10
46.1369574662
 20
121.2272473741
 30
0.0
  0
SPLINE
  5
3ED
100
AcDbEntity
  8
00_COMPONENTS_1
100
AcDbSpline
 62
7
  6
CONTINUOUS
 70
0
 71
3
 72
10
 73
6
 74
0
 42
0.0000001
 43
0.0000001
 44
0.0000000001
 40
0.0
 40
0.0
 40
0.0
 40
0.0
 40
0.227981942
 40
0.4755353099
 40
1.0
 40
1.0
 40
1.0
 40
1.0
 10
50.7356718927
 20
117.0013873722
 30
0.0
 10
50.7356718927
 20
117.1583217221
 30
0.0
 10
50.703230484
 20
117.4860726998
 30
0.0
 10
50.5310718274
 20
118.1541422372
 30
0.0
 10
50.2937888108
 20
118.6385742368
 30
0.0
 10
50.0967719271
 20
118.9410991488
 30
0.0
  0
SPLINE
  5
3EE
100
AcDbEntity
  8
00_COMPONENTS_1
100
AcDbSpline
 62
7
  6
CONTINUOUS
 70
0
 71
3
 72
10
 73
6
 74
0
 42
0.0000001
 43
0.0000001
 44
0.0000000001
 40
0.0
 40
0.0
 40
0.0
 40
0.0
 40
0.227981942
 40
0.4755353099
 40
1.0
 40
1.0
 40
1.0
 40
1.0
 10
56.675393584
 20
113.5721650342
 30
0.0
 10
56.675393584
 20
113.7290993841
 30
0.0
 10
56.6429521753
 20
114.0568503618
 30
0.0
 10
56.4707935186
 20
114.7249198993
 30
0.0
 10
56.2335105021
 20
115.2093518989
 30
0.0
 10
56.0364936183
 20
115.5118768108
 30
0.0
  0
SPLINE
  5
3EF
100
AcDbEntity
  8
00_COMPONENTS_1
100
AcDbSpline
 62
7
  6
CONTINUOUS
 70
0
 71
3
 72
10
 73
6
 74
0
 42
0.0000001
 43
0.0000001
 44
0.0000000001
 40
0.0
 40
0.0
 40
0.0
 40
0.0
 40
0.227981942
 40
0.4755353099
 40
1.0
 40
1.0
 40
1.0
 40
1.0
 10
60.6352080448
 20
111.2860168089
 30
0.0
 10
60.6352080448
 20
111.4429511588
 30
0.0
 10
60.6027666361
 20
111.7707021365
 30
0.0
 10
60.4306079794
 20
112.438771674
 30
0.0
 10
60.1933249629
 20
112.9232036735
 30
0.0
 10
59.9963080791
 20
113.2257285855
 30
0.0
  0
SPLINE
  5
3F0
100
AcDbEntity
  8
00_COMPONENTS_1
100
AcDbSpline
 62
7
  6
CONTINUOUS
 70
0
 71
3
 72
10
 73
6
 74
0
 42
0.0000001
 43
0.0000001
 44
0.0000000001
 40
0.0
 40
0.0
 40
0.0
 40
0.0
 40
0.227981942
 40
0.4755353099
 40
1.0
 40
1.0
 40
1.0
 40
1.0
 10
36.8763212798
 20
125.0029061608
 30
0.0
 10
36.8763212798
 20
125.1598405107
 30
0.0
 10
36.8438798711
 20
125.4875914884
 30
0.0
 10
36.6717212145
 20
126.1556610258
 30
0.0
 10
36.4344381979
 20
126.6400930254
 30
0.0
 10
36.2374213142
 20
126.9426179374
 30
0.0
  0
SPLINE
  5
3F1
100
AcDbEntity
  8
00_COMPONENTS_1
100
AcDbSpline
 62
7
  6
CONTINUOUS
 70
0
 71
3
 72
11
 73
7
 74
0
 42
0.0000001
 43
0.0000001
 44
0.0000000001
 40
0.0
 40
0.0
 40
0.0
 40
0.0
 40
0.2177473182
 40
0.4509586866
 40
0.7103138267
 40
1.0
 40
1.0
 40
1.0
 40
1.0
 10
34.7797705149
 20
96.3689267965
 30
0.0
 10
34.8490226016
 20
96.4089283072
 30
0.0
 10
34.9786148104
 20
96.5179121508
 30
0.0
 10
35.1166752703
 20
96.7434794307
 30
0.0
 10
35.1985420356
 20
97.021550125
 30
0.0
 10
35.2147064551
 20
97.2238794991
 30
0.0
 10
35.2147064551
 20
97.3302762196
 30
0.0
  0
SPLINE
  5
3F2
100
AcDbEntity
  8
00_COMPONENTS_1
100
AcDbSpline
 62
7
  6
CONTINUOUS
 70
0
 71
3
 72
11
 73
7
 74
0
 42
0.0000001
 43
0.0000001
 44
0.0000000001
 40
0.0
 40
0.0
 40
0.0
 40
0.0
 40
0.2177473182
 40
0.4509586866
 40
0.7103138267
 40
1.0
 40
1.0
 40
1.0
 40
1.0
 10
31.4563548067
 20
98.2876583428
 30
0.0
 10
31.5256068934
 20
98.3276598535
 30
0.0
 10
31.6551991022
 20
98.4366436971
 30
0.0
 10
31.7932595621
 20
98.6622109769
 30
0.0
 10
31.8751263274
 20
98.9402816713
 30
0.0
 10
31.8912907469
 20
99.1426110454
 30
0.0
 10
31.8912907469
 20
99.2490077659
 30
0.0
  0
SPLINE
  5
3F3
100
AcDbEntity
  8
00_COMPONENTS_1
100
AcDbSpline
 62
7
  6
CONTINUOUS
 70
0
 71
3
 72
11
 73
7
 74
0
 42
0.0000001
 43
0.0000001
 44
0.0000000001
 40
0.0
 40
0.0
 40
0.0
 40
0.0
 40
0.2177473182
 40
0.4509586866
 40
0.7103138267
 40
1.0
 40
1.0
 40
1.0
 40
1.0
 10
42.2751336014
 20
92.0415747986
 30
0.0
 10
42.3443856882
 20
92.0815763093
 30
0.0
 10
42.473977897
 20
92.1905601529
 30
0.0
 10
42.6120383568
 20
92.4161274327
 30
0.0
 10
42.6939051222
 20
92.6941981271
 30
0.0
 10
42.7100695416
 20
92.8965275012
 30
0.0
 10
42.7100695416
 20
93.0029242217
 30
0.0
  0
SPLINE
  5
3F4
100
AcDbEntity
  8
00_COMPONENTS_1
100
AcDbSpline
 62
7
  6
CONTINUOUS
 70
0
 71
3
 72
11
 73
7
 74
0
 42
0.0000001
 43
0.0000001
 44
0.0000000001
 40
0.0
 40
0.0
 40
0.0
 40
0.0
 40
0.2177473182
 40
0.4509586866
 40
0.7103138267
 40
1.0
 40
1.0
 40
1.0
 40
1.0
 10
38.9517178932
 20
93.9603063449
 30
0.0
 10
39.02096998
 20
94.0003078556
 30
0.0
 10
39.1505621888
 20
94.1092916992
 30
0.0
 10
39.2886226486
 20
94.334858979
 30
0.0
 10
39.370489414
 20
94.6129296734
 30
0.0
 10
39.3866538335
 20
94.8152590475
 30
0.0
 10
39.3866538335
 20
94.921655768
 30
0.0
  0
SPLINE
  5
3F5
100
AcDbEntity
  8
00_COMPONENTS_1
100
AcDbSpline
 62
7
  6
CONTINUOUS
 70
0
 71
3
 72
11
 73
7
 74
0
 42
0.0000001
 43
0.0000001
 44
0.0000000001
 40
0.0
 40
0.0
 40
0.0
 40
0.0
 40
0.2177473182
 40
0.4509586866
 40
0.7103138267
 40
1.0
 40
1.0
 40
1.0
 40
1.0
 10
49.770496688
 20
87.7142228007
 30
0.0
 10
49.8397487748
 20
87.7542243114
 30
0.0
 10
49.9693409835
 20
87.863208155
 30
0.0
 10
50.1074014434
 20
88.0887754348
 30
0.0
 10
50.1892682087
 20
88.3668461292
 30
0.0
 10
50.2054326282
 20
88.5691755033
 30
0.0
 10
50.2054326282
 20
88.6755722238
 30
0.0
  0
SPLINE
  5
3F6
100
AcDbEntity
  8
00_COMPONENTS_1
100
AcDbSpline
 62
7
  6
CONTINUOUS
 70
0
 71
3
 72
11
 73
7
 74
0
 42
0.0000001
 43
0.0000001
 44
0.0000000001
 40
0.0
 40
0.0
 40
0.0
 40
0.0
 40
0.2177473182
 40
0.4509586866
 40
0.7103138267
 40
1.0
 40
1.0
 40
1.0
 40
1.0
 10
46.4470809798
 20
89.6329543469
 30
0.0
 10
46.5163330666
 20
89.6729558576
 30
0.0
 10
46.6459252753
 20
89.7819397013
 30
0.0
 10
46.7839857352
 20
90.0075069811
 30
0.0
 10
46.8658525006
 20
90.2855776755
 30
0.0
 10
46.88201692
 20
90.4879070496
 30
0.0
 10
46.88201692
 20
90.5943037701
 30
0.0
  0
SPLINE
  5
3F7
100
AcDbEntity
  8
00_COMPONENTS_1
100
AcDbSpline
 62
7
  6
CONTINUOUS
 70
0
 71
3
 72
18
 73
14
 74
0
 42
0.0000001
 43
0.0000001
 44
0.0000000001
 40
0.0
 40
0.0
 40
0.0
 40
0.0
 40
0.0372299943
 40
0.07613006
 40
0.1188714449
 40
0.1668482386
 40
0.2205834349
 40
0.2800373623
 40
0.4140619925
 40
0.5624758979
 40
0.7161154396
 40
0.8649723385
 40
1.0
 40
1.0
 40
1.0
 40
1.0
 10
89.7781127081
 20
148.0782742253
 30
0.0
 10
89.7782685353
 20
148.0186965891
 30
0.0
 10
89.7973626633
 20
147.8961560133
 30
0.0
 10
89.8814314867
 20
147.7228982262
 30
0.0
 10
90.017444092
 20
147.5638682695
 30
0.0
 10
90.2008414833
 20
147.4212179522
 30
0.0
 10
90.427261634
 20
147.2959944711
 30
0.0
 10
90.7956106339
 20
147.1494089018
 30
0.0
 10
91.3334690177
 20
147.0314865043
 30
0.0
 10
92.0323331897
 20
146.990048347
 30
0.0
 10
92.7539724108
 20
147.0521909665
 30
0.0
 10
93.4374564666
 20
147.2149343625
 30
0.0
 10
93.8585725817
 20
147.3947774952
 30
0.0
 10
94.0457036126
 20
147.5028170013
 30
0.0
  0
SPLINE
  5
3F8
100
AcDbEntity
  8
00_COMPONENTS_1
100
AcDbSpline
 62
7
  6
CONTINUOUS
 70
0
 71
3
 72
11
 73
7
 74
0
 42
0.0000001
 43
0.0000001
 44
0.0000000001
 40
0.0
 40
0.0
 40
0.0
 40
0.0
 40
0.2177660095
 40
0.4508968553
 40
0.7103699668
 40
1.0
 40
1.0
 40
1.0
 40
1.0
 10
110.8685301944
 20
132.4913694939
 30
0.0
 10
110.9427268461
 20
132.5342460025
 30
0.0
 10
111.0816639813
 20
132.6508727599
 30
0.0
 10
111.2294793782
 20
132.8926672313
 30
0.0
 10
111.3172309845
 20
133.1905616198
 30
0.0
 10
111.3345558226
 20
133.407372997
 30
0.0
 10
111.3345558226
 20
133.5213470988
 30
0.0
  0
SPLINE
  5
3F9
100
AcDbEntity
  8
00_COMPONENTS_1
100
AcDbSpline
 62
7
  6
CONTINUOUS
 70
0
 71
3
 72
9
 73
5
 74
0
 42
0.0000001
 43
0.0000001
 44
0.0000000001
 40
0.0
 40
0.0
 40
0.0
 40
0.0
 40
0.238225172
 40
1.0
 40
1.0
 40
1.0
 40
1.0
 10
111.3345558226
 20
133.5213470988
 30
0.0
 10
111.3345558226
 20
133.5680735613
 30
0.0
 10
111.3280685902
 20
133.7642041375
 30
0.0
 10
111.2973626302
 20
133.9591947838
 30
0.0
 10
111.2636190514
 20
134.1047523392
 30
0.0
  0
SPLINE
  5
3FA
100
AcDbEntity
  8
00_COMPONENTS_1
100
AcDbSpline
 62
7
  6
CONTINUOUS
 70
0
 71
3
 72
16
 73
12
 74
0
 42
0.0000001
 43
0.0000001
 44
0.0000000001
 40
0.0
 40
0.0
 40
0.0
 40
0.0
 40
0.1418985505
 40
0.289496005
 40
0.436338793
 40
0.5761880661
 40
0.7037424377
 40
0.8157988182
 40
0.912623896
 40
0.9570016541
 40
1.0
 40
1.0
 40
1.0
 40
1.0
 10
111.2636190514
 20
134.1047523392
 30
0.0
 10
111.2220083695
 20
134.2842457233
 30
0.0
 10
111.1044789431
 20
134.6433539315
 30
0.0
 10
110.8485851343
 20
135.1509726574
 30
0.0
 10
110.5230029417
 20
135.6139912293
 30
0.0
 10
110.1484008774
 20
136.0032707532
 30
0.0
 10
109.747134885
 20
136.2946240684
 30
0.0
 10
109.342588725
 20
136.4704160633
 30
0.0
 10
109.0083131227
 20
136.5082028359
 30
0.0
 10
108.7719663796
 20
136.4620850967
 30
0.0
 10
108.6669185609
 20
136.4163622133
 30
0.0
 10
108.6185674796
 20
136.3884431566
 30
0.0
  0
SPLINE
  5
3FB
100
AcDbEntity
  8
00_COMPONENTS_1
100
AcDbSpline
 62
7
  6
CONTINUOUS
 70
0
 71
3
 72
11
 73
7
 74
0
 42
0.0000001
 43
0.0000001
 44
0.0000000001
 40
0.0
 40
0.0
 40
0.0
 40
0.0
 40
0.3007634547
 40
0.5648499723
 40
0.7943974102
 40
1.0
 40
1.0
 40
1.0
 40
1.0
 10
94.0457036126
 20
147.5028170013
 30
0.0
 10
94.1548073178
 20
147.5658076789
 30
0.0
 10
94.3518327749
 20
147.6991050052
 30
0.0
 10
94.5891266357
 20
147.935994853
 30
0.0
 10
94.7407723397
 20
148.1911205594
 30
0.0
 10
94.7780202507
 20
148.3744377761
 30
0.0
 10
94.7780437103
 20
148.4605593028
 30
0.0
  0
SPLINE
  5
3FC
100
AcDbEntity
  8
00_COMPONENTS_1
100
AcDbSpline
 62
7
  6
CONTINUOUS
 70
0
 71
3
 72
9
 73
5
 74
0
 42
0.0000001
 43
0.0000001
 44
0.0000000001
 40
0.0
 40
0.0
 40
0.0
 40
0.0
 40
0.2458301404
 40
1.0
 40
1.0
 40
1.0
 40
1.0
 10
109.564531912
 20
139.1429709376
 30
0.0
 10
109.5676720963
 20
139.1512876028
 30
0.0
 10
109.5799132034
 20
139.1853179115
 30
0.0
 10
109.5899955663
 20
139.2201196828
 30
0.0
 10
109.5964155048
 20
139.2466257047
 30
0.0
  0
SPLINE
  5
3FD
100
AcDbEntity
  8
00_COMPONENTS_1
100
AcDbSpline
 62
7
  6
CONTINUOUS
 70
0
 71
3
 72
11
 73
7
 74
0
 42
0.0000001
 43
0.0000001
 44
0.0000000001
 40
0.0
 40
0.0
 40
0.0
 40
0.0
 40
0.2756766405
 40
0.5368903986
 40
0.7792300618
 40
1.0
 40
1.0
 40
1.0
 40
1.0
 10
118.1581234547
 20
137.0610708199
 30
0.0
 10
117.7926640506
 20
137.5157044618
 30
0.0
 10
117.0325121671
 20
138.3637492242
 30
0.0
 10
115.7907303631
 20
139.4550161312
 30
0.0
 10
114.5097363658
 20
140.3054032037
 30
0.0
 10
113.6116549401
 20
140.7128338269
 30
0.0
 10
113.1686801828
 20
140.8611125317
 30
0.0
  0
SPLINE
  5
3FE
100
AcDbEntity
  8
00_COMPONENTS_1
100
AcDbSpline
 62
7
  6
CONTINUOUS
 70
0
 71
3
 72
11
 73
7
 74
0
 42
0.0000001
 43
0.0000001
 44
0.0000000001
 40
0.0
 40
0.0
 40
0.0
 40
0.0
 40
0.2764402947
 40
0.5319388883
 40
0.7705278885
 40
1.0
 40
1.0
 40
1.0
 40
1.0
 10
113.1686801828
 20
140.8611125317
 30
0.0
 10
113.1048293588
 20
140.8824855724
 30
0.0
 10
112.9785291896
 20
140.9144115344
 30
0.0
 10
112.7900164215
 20
140.9266457104
 30
0.0
 10
112.6143249063
 20
140.8996934404
 30
0.0
 10
112.5078587093
 20
140.8551376288
 30
0.0
 10
112.4594744672
 20
140.8271558325
 30
0.0
  0
SPLINE
  5
3FF
100
AcDbEntity
  8
00_COMPONENTS_1
100
AcDbSpline
 62
7
  6
CONTINUOUS
 70
0
 71
3
 72
11
 73
7
 74
0
 42
0.0000001
 43
0.0000001
 44
0.0000000001
 40
0.0
 40
0.0
 40
0.0
 40
0.0
 40
0.2713449319
 40
0.528843227
 40
0.7717614225
 40
1.0
 40
1.0
 40
1.0
 40
1.0
 10
111.1737847578
 20
140.1573148314
 30
0.0
 10
109.1695526437
 20
141.6812192111
 30
0.0
 10
105.1413880507
 20
144.4959663551
 30
0.0
 10
98.9143392127
 20
148.0540658064
 30
0.0
 10
92.723618089
 20
150.8021866067
 30
0.0
 10
88.5386762279
 20
152.1112951544
 30
0.0
 10
86.4796077681
 20
152.6066010784
 30
0.0
  0
SPLINE
  5
400
100
AcDbEntity
  8
00_COMPONENTS_1
100
AcDbSpline
 62
7
  6
CONTINUOUS
 70
0
 71
3
 72
11
 73
7
 74
0
 42
0.0000001
 43
0.0000001
 44
0.0000000001
 40
0.0
 40
0.0
 40
0.0
 40
0.0
 40
0.2254248453
 40
0.4619326893
 40
0.7183184376
 40
1.0
 40
1.0
 40
1.0
 40
1.0
 10
36.3584982122
 20
53.3666334249
 30
0.0
 10
36.4266209882
 20
53.4060342376
 30
0.0
 10
36.5552996266
 20
53.507298069
 30
0.0
 10
36.7048125864
 20
53.7118506981
 30
0.0
 10
36.8100699531
 20
53.9631436952
 30
0.0
 10
36.8478567463
 20
54.1482907135
 30
0.0
 10
36.8601779727
 20
54.2458516229
 30
0.0
  0
SPLINE
  5
401
100
AcDbEntity
  8
00_COMPONENTS_1
100
AcDbSpline
 62
7
  6
CONTINUOUS
 70
0
 71
3
 72
11
 73
7
 74
0
 42
0.0000001
 43
0.0000001
 44
0.0000000001
 40
0.0
 40
0.0
 40
0.0
 40
0.0
 40
0.2179074721
 40
0.4510321083
 40
0.7104429288
 40
1.0
 40
1.0
 40
1.0
 40
1.0
 10
60.1173849771
 20
39.649744073
 30
0.0
 10
60.1998609707
 20
39.6974464916
 30
0.0
 10
60.3543162724
 20
39.8270139918
 30
0.0
 10
60.5185580389
 20
40.0957340706
 30
0.0
 10
60.6159121026
 20
40.4266960216
 30
0.0
 10
60.6352080448
 20
40.6675282793
 30
0.0
 10
60.6352080448
 20
40.7941337881
 30
0.0
  0
SPLINE
  5
402
100
AcDbEntity
  8
00_COMPONENTS_1
100
AcDbSpline
 62
7
  6
CONTINUOUS
 70
0
 71
3
 72
11
 73
7
 74
0
 42
0.0000001
 43
0.0000001
 44
0.0000000001
 40
0.0
 40
0.0
 40
0.0
 40
0.0
 40
0.2179074721
 40
0.4510321083
 40
0.7104429288
 40
1.0
 40
1.0
 40
1.0
 40
1.0
 10
56.1575705163
 20
41.9358922983
 30
0.0
 10
56.2400465099
 20
41.9835947169
 30
0.0
 10
56.3945018116
 20
42.1131622172
 30
0.0
 10
56.5587435781
 20
42.3818822959
 30
0.0
 10
56.6560976418
 20
42.712844247
 30
0.0
 10
56.675393584
 20
42.9536765046
 30
0.0
 10
56.675393584
 20
43.0802820134
 30
0.0
  0
SPLINE
  5
403
100
AcDbEntity
  8
00_COMPONENTS_1
100
AcDbSpline
 62
7
  6
CONTINUOUS
 70
0
 71
3
 72
11
 73
7
 74
0
 42
0.0000001
 43
0.0000001
 44
0.0000000001
 40
0.0
 40
0.0
 40
0.0
 40
0.0
 40
0.2254248453
 40
0.4619326893
 40
0.7183184376
 40
1.0
 40
1.0
 40
1.0
 40
1.0
 10
50.2178488251
 20
45.3651146363
 30
0.0
 10
50.2859716011
 20
45.404515449
 30
0.0
 10
50.4146502394
 20
45.5057792804
 30
0.0
 10
50.5641631992
 20
45.7103319095
 30
0.0
 10
50.669420566
 20
45.9616249066
 30
0.0
 10
50.7072073591
 20
46.1467719249
 30
0.0
 10
50.7195285856
 20
46.2443328343
 30
0.0
  0
SPLINE
  5
404
100
AcDbEntity
  8
00_COMPONENTS_1
100
AcDbSpline
 62
7
  6
CONTINUOUS
 70
0
 71
3
 72
11
 73
7
 74
0
 42
0.0000001
 43
0.0000001
 44
0.0000000001
 40
0.0
 40
0.0
 40
0.0
 40
0.0
 40
0.2254248453
 40
0.4619326893
 40
0.7183184376
 40
1.0
 40
1.0
 40
1.0
 40
1.0
 10
46.2580343642
 20
47.6512628616
 30
0.0
 10
46.3261571402
 20
47.6906636743
 30
0.0
 10
46.4548357786
 20
47.7919275057
 30
0.0
 10
46.6043487384
 20
47.9964801348
 30
0.0
 10
46.7096061051
 20
48.2477731319
 30
0.0
 10
46.7473928983
 20
48.4329201502
 30
0.0
 10
46.7597141248
 20
48.5304810596
 30
0.0
  0
SPLINE
  5
405
100
AcDbEntity
  8
00_COMPONENTS_1
100
AcDbSpline
 62
7
  6
CONTINUOUS
 70
0
 71
3
 72
11
 73
7
 74
0
 42
0.0000001
 43
0.0000001
 44
0.0000000001
 40
0.0
 40
0.0
 40
0.0
 40
0.0
 40
0.2254248453
 40
0.4619326893
 40
0.7183184376
 40
1.0
 40
1.0
 40
1.0
 40
1.0
 10
40.318312673
 20
51.0804851996
 30
0.0
 10
40.386435449
 20
51.1198860123
 30
0.0
 10
40.5151140874
 20
51.2211498437
 30
0.0
 10
40.6646270472
 20
51.4257024728
 30
0.0
 10
40.7698844139
 20
51.6769954699
 30
0.0
 10
40.8076712071
 20
51.8621424882
 30
0.0
 10
40.8199924335
 20
51.9597033976
 30
0.0
  0
SPLINE
  5
406
100
AcDbEntity
  8
00_COMPONENTS_1
100
AcDbSpline
 62
7
  6
CONTINUOUS
 70
0
 71
3
 72
11
 73
7
 74
0
 42
0.0000001
 43
0.0000001
 44
0.0000000001
 40
0.0
 40
0.0
 40
0.0
 40
0.0
 40
0.2177660095
 40
0.4508968553
 40
0.7103699668
 40
1.0
 40
1.0
 40
1.0
 40
1.0
 10
42.2751122886
 20
52.2724939322
 30
0.0
 10
42.3443624969
 20
52.312512007
 30
0.0
 10
42.4740371565
 20
52.4213636472
 30
0.0
 10
42.6119981935
 20
52.6470384872
 30
0.0
 10
42.6938996927
 20
52.9250732498
 30
0.0
 10
42.7100695416
 20
53.1274305352
 30
0.0
 10
42.7100695416
 20
53.2338063635
 30
0.0
  0
SPLINE
  5
407
100
AcDbEntity
  8
00_COMPONENTS_1
100
AcDbSpline
 62
7
  6
CONTINUOUS
 70
0
 71
3
 72
11
 73
7
 74
0
 42
0.0000001
 43
0.0000001
 44
0.0000000001
 40
0.0
 40
0.0
 40
0.0
 40
0.0
 40
0.2177660095
 40
0.4508968553
 40
0.7103699668
 40
1.0
 40
1.0
 40
1.0
 40
1.0
 10
38.9516965804
 20
54.1912254785
 30
0.0
 10
39.0209467888
 20
54.2312435532
 30
0.0
 10
39.1506214483
 20
54.3400951934
 30
0.0
 10
39.2885824853
 20
54.5657700334
 30
0.0
 10
39.3704839845
 20
54.843804796
 30
0.0
 10
39.3866538335
 20
55.0461620814
 30
0.0
 10
39.3866538335
 20
55.1525379097
 30
0.0
  0
SPLINE
  5
408
100
AcDbEntity
  8
00_COMPONENTS_1
100
AcDbSpline
 62
7
  6
CONTINUOUS
 70
0
 71
3
 72
11
 73
7
 74
0
 42
0.0000001
 43
0.0000001
 44
0.0000000001
 40
0.0
 40
0.0
 40
0.0
 40
0.0
 40
0.2177660095
 40
0.4508968553
 40
0.7103699668
 40
1.0
 40
1.0
 40
1.0
 40
1.0
 10
49.7704753752
 20
47.9451419343
 30
0.0
 10
49.8397255835
 20
47.9851600091
 30
0.0
 10
49.969400243
 20
48.0940116493
 30
0.0
 10
50.1073612801
 20
48.3196864892
 30
0.0
 10
50.1892627793
 20
48.5977212519
 30
0.0
 10
50.2054326282
 20
48.8000785373
 30
0.0
 10
50.2054326282
 20
48.9064543656
 30
0.0
  0
SPLINE
  5
409
100
AcDbEntity
  8
00_COMPONENTS_1
100
AcDbSpline
 62
7
  6
CONTINUOUS
 70
0
 71
3
 72
11
 73
7
 74
0
 42
0.0000001
 43
0.0000001
 44
0.0000000001
 40
0.0
 40
0.0
 40
0.0
 40
0.0
 40
0.2177660095
 40
0.4508968553
 40
0.7103699668
 40
1.0
 40
1.0
 40
1.0
 40
1.0
 10
46.447059667
 20
49.8638734806
 30
0.0
 10
46.5163098753
 20
49.9038915553
 30
0.0
 10
46.6459845348
 20
50.0127431955
 30
0.0
 10
46.7839455719
 20
50.2384180355
 30
0.0
 10
46.8658470711
 20
50.5164527981
 30
0.0
 10
46.88201692
 20
50.7188100835
 30
0.0
 10
46.88201692
 20
50.8251859118
 30
0.0
  0
SPLINE
  5
40A
100
AcDbEntity
  8
00_COMPONENTS_1
100
AcDbSpline
 62
7
  6
CONTINUOUS
 70
0
 71
3
 72
14
 73
10
 74
0
 42
0.0000001
 43
0.0000001
 44
0.0000000001
 40
0.0
 40
0.0
 40
0.0
 40
0.0
 40
0.0947170659
 40
0.1972072319
 40
0.3105414694
 40
0.4351952116
 40
0.5696864117
 40
0.7111660569
 40
1.0
 40
1.0
 40
1.0
 40
1.0
 10
104.6272766312
 20
139.8874929637
 30
0.0
 10
104.6272425945
 20
139.7695327309
 30
0.0
 10
104.6710658788
 20
139.5225993635
 30
0.0
 10
104.8521396339
 20
139.1757020799
 30
0.0
 10
105.135936646
 20
138.856003375
 30
0.0
 10
105.5081112534
 20
138.5750212596
 30
0.0
 10
105.9523920904
 20
138.3432946229
 30
0.0
 10
106.6182816666
 20
138.1120034188
 30
0.0
 10
107.1589108643
 20
138.041780245
 30
0.0
 10
107.5185856154
 20
138.0469972195
 30
0.0
  0
SPLINE
  5
40B
100
AcDbEntity
  8
00_COMPONENTS_1
100
AcDbSpline
 62
7
  6
CONTINUOUS
 70
0
 71
3
 72
10
 73
6
 74
0
 42
0.0000001
 43
0.0000001
 44
0.0000000001
 40
0.0
 40
0.0
 40
0.0
 40
0.0
 40
0.2280289861
 40
0.4754122859
 40
1.0
 40
1.0
 40
1.0
 40
1.0
 10
56.675393584
 20
45.3395254487
 30
0.0
 10
56.675393584
 20
45.4936963179
 30
0.0
 10
56.6440914041
 20
45.8155194008
 30
0.0
 10
56.4774809993
 20
46.4722942131
 30
0.0
 10
56.2475262175
 20
46.9493093791
 30
0.0
 10
56.0565365838
 20
47.2481692139
 30
0.0
  0
SPLINE
  5
40C
100
AcDbEntity
  8
00_COMPONENTS_1
100
AcDbSpline
 62
7
  6
CONTINUOUS
 70
0
 71
3
 72
10
 73
6
 74
0
 42
0.0000001
 43
0.0000001
 44
0.0000000001
 40
0.0
 40
0.0
 40
0.0
 40
0.0
 40
0.2280289861
 40
0.4754122859
 40
1.0
 40
1.0
 40
1.0
 40
1.0
 10
60.6352080448
 20
43.0533772234
 30
0.0
 10
60.6352080448
 20
43.2075480925
 30
0.0
 10
60.603905865
 20
43.5293711755
 30
0.0
 10
60.4372954601
 20
44.1861459878
 30
0.0
 10
60.2073406783
 20
44.6631611538
 30
0.0
 10
60.0163510446
 20
44.9620209886
 30
0.0
  0
SPLINE
  5
40D
100
AcDbEntity
  8
00_COMPONENTS_1
100
AcDbSpline
 62
7
  6
CONTINUOUS
 70
0
 71
3
 72
9
 73
5
 74
0
 42
0.0000001
 43
0.0000001
 44
0.0000000001
 40
0.0
 40
0.0
 40
0.0
 40
0.0
 40
0.474436452
 40
1.0
 40
1.0
 40
1.0
 40
1.0
 10
39.3866538335
 20
55.8928402268
 30
0.0
 10
39.3866538335
 20
56.1396139323
 30
0.0
 10
39.2930126599
 20
56.6599055258
 30
0.0
 10
39.0790347774
 20
57.1389775234
 30
0.0
 10
38.9409582219
 20
57.3749105125
 30
0.0
  0
SPLINE
  5
40E
100
AcDbEntity
  8
00_COMPONENTS_1
100
AcDbSpline
 62
7
  6
CONTINUOUS
 70
0
 71
3
 72
9
 73
5
 74
0
 42
0.0000001
 43
0.0000001
 44
0.0000000001
 40
0.0
 40
0.0
 40
0.0
 40
0.0
 40
0.474436452
 40
1.0
 40
1.0
 40
1.0
 40
1.0
 10
42.7100695416
 20
53.9741086805
 30
0.0
 10
42.7100695416
 20
54.220882386
 30
0.0
 10
42.6164283681
 20
54.7411739796
 30
0.0
 10
42.4024504856
 20
55.2202459771
 30
0.0
 10
42.2643739301
 20
55.4561789663
 30
0.0
  0
SPLINE
  5
40F
100
AcDbEntity
  8
00_COMPONENTS_1
100
AcDbSpline
 62
7
  6
CONTINUOUS
 70
0
 71
3
 72
9
 73
5
 74
0
 42
0.0000001
 43
0.0000001
 44
0.0000000001
 40
0.0
 40
0.0
 40
0.0
 40
0.0
 40
0.474436452
 40
1.0
 40
1.0
 40
1.0
 40
1.0
 10
46.88201692
 20
51.5654882289
 30
0.0
 10
46.88201692
 20
51.8122619344
 30
0.0
 10
46.7883757465
 20
52.3325535279
 30
0.0
 10
46.5743978639
 20
52.8116255254
 30
0.0
 10
46.4363213085
 20
53.0475585146
 30
0.0
  0
SPLINE
  5
410
100
AcDbEntity
  8
00_COMPONENTS_1
100
AcDbSpline
 62
7
  6
CONTINUOUS
 70
0
 71
3
 72
9
 73
5
 74
0
 42
0.0000001
 43
0.0000001
 44
0.0000000001
 40
0.0
 40
0.0
 40
0.0
 40
0.0
 40
0.474436452
 40
1.0
 40
1.0
 40
1.0
 40
1.0
 10
50.2054326282
 20
49.6467566826
 30
0.0
 10
50.2054326282
 20
49.8935303881
 30
0.0
 10
50.1117914547
 20
50.4138219817
 30
0.0
 10
49.8978135721
 20
50.8928939792
 30
0.0
 10
49.7597370167
 20
51.1288269683
 30
0.0
  0
SPLINE
  5
411
100
AcDbEntity
  8
00_COMPONENTS_1
100
AcDbSpline
 62
7
  6
CONTINUOUS
 70
0
 71
3
 72
17
 73
13
 74
0
 42
0.0000001
 43
0.0000001
 44
0.0000000001
 40
0.0
 40
0.0
 40
0.0
 40
0.0
 40
0.1286888642
 40
0.2702797707
 40
0.4174318351
 40
0.5617733579
 40
0.6954455151
 40
0.8127096012
 40
0.8646749147
 40
0.9125085808
 40
0.9571389861
 40
1.0
 40
1.0
 40
1.0
 40
1.0
 10
35.2147064551
 20
98.0705785344
 30
0.0
 10
35.2147064551
 20
98.2500758461
 30
0.0
 10
35.1644891511
 20
98.6274962127
 30
0.0
 10
34.9770705456
 20
99.1816543132
 30
0.0
 10
34.6882587079
 20
99.7154796402
 30
0.0
 10
34.3212830364
 20
100.1852045743
 30
0.0
 10
33.9061240936
 20
100.5528882873
 30
0.0
 10
33.5303475707
 20
100.7583630431
 30
0.0
 10
33.2363966548
 20
100.8365517354
 30
0.0
 10
33.0340859463
 20
100.8514487778
 30
0.0
 10
32.845701215
 20
100.8238394431
 30
0.0
 10
32.7315648629
 20
100.7764141755
 30
0.0
 10
32.6798028625
 20
100.7465021268
 30
0.0
  0
SPLINE
  5
412
100
AcDbEntity
  8
00_COMPONENTS_1
100
AcDbSpline
 62
7
  6
CONTINUOUS
 70
0
 71
3
 72
17
 73
13
 74
0
 42
0.0000001
 43
0.0000001
 44
0.0000000001
 40
0.0
 40
0.0
 40
0.0
 40
0.0
 40
0.128688864
 40
0.2702797703
 40
0.4174318348
 40
0.5617733576
 40
0.6954455149
 40
0.8127096012
 40
0.8646749146
 40
0.9125085807
 40
0.9571389861
 40
1.0
 40
1.0
 40
1.0
 40
1.0
 10
31.8912907469
 20
99.9893100806
 30
0.0
 10
31.8912907469
 20
100.1688073924
 30
0.0
 10
31.8410734452
 20
100.5462277594
 30
0.0
 10
31.6536548401
 20
101.1003858609
 30
0.0
 10
31.364843003
 20
101.6342111894
 30
0.0
 10
30.9978673313
 20
102.1039361251
 30
0.0
 10
30.582708388
 20
102.4716198396
 30
0.0
 10
30.2069318644
 20
102.6770945964
 30
0.0
 10
29.9129809478
 20
102.7552832893
 30
0.0
 10
29.7106702389
 20
102.7701803319
 30
0.0
 10
29.5222855071
 20
102.7425709973
 30
0.0
 10
29.4081491548
 20
102.6951457296
 30
0.0
 10
29.3563871543
 20
102.6652336809
 30
0.0
  0
SPLINE
  5
413
100
AcDbEntity
  8
00_COMPONENTS_1
100
AcDbSpline
 62
7
  6
CONTINUOUS
 70
0
 71
3
 72
17
 73
13
 74
0
 42
0.0000001
 43
0.0000001
 44
0.0000000001
 40
0.0
 40
0.0
 40
0.0
 40
0.0
 40
0.1286888642
 40
0.2702797707
 40
0.4174318351
 40
0.5617733579
 40
0.6954455151
 40
0.8127096012
 40
0.8646749147
 40
0.9125085808
 40
0.9571389861
 40
1.0
 40
1.0
 40
1.0
 40
1.0
 10
50.2054326282
 20
89.4158745385
 30
0.0
 10
50.2054326282
 20
89.5953718503
 30
0.0
 10
50.1552153243
 20
89.9727922169
 30
0.0
 10
49.9677967187
 20
90.5269503174
 30
0.0
 10
49.678984881
 20
91.0607756444
 30
0.0
 10
49.3120092095
 20
91.5305005785
 30
0.0
 10
48.8968502667
 20
91.8981842915
 30
0.0
 10
48.5210737438
 20
92.1036590473
 30
0.0
 10
48.2271228279
 20
92.1818477396
 30
0.0
 10
48.0248121194
 20
92.1967447819
 30
0.0
 10
47.8364273881
 20
92.1691354473
 30
0.0
 10
47.722291036
 20
92.1217101797
 30
0.0
 10
47.6705290356
 20
92.091798131
 30
0.0
  0
SPLINE
  5
414
100
AcDbEntity
  8
00_COMPONENTS_1
100
AcDbSpline
 62
7
  6
CONTINUOUS
 70
0
 71
3
 72
17
 73
13
 74
0
 42
0.0000001
 43
0.0000001
 44
0.0000000001
 40
0.0
 40
0.0
 40
0.0
 40
0.0
 40
0.128688864
 40
0.2702797703
 40
0.4174318348
 40
0.5617733576
 40
0.6954455149
 40
0.8127096012
 40
0.8646749146
 40
0.9125085807
 40
0.9571389861
 40
1.0
 40
1.0
 40
1.0
 40
1.0
 10
46.88201692
 20
91.3346060848
 30
0.0
 10
46.88201692
 20
91.5141033966
 30
0.0
 10
46.8317996183
 20
91.8915237636
 30
0.0
 10
46.6443810132
 20
92.4456818651
 30
0.0
 10
46.3555691762
 20
92.9795071936
 30
0.0
 10
45.9885935044
 20
93.4492321293
 30
0.0
 10
45.5734345611
 20
93.8169158438
 30
0.0
 10
45.1976580375
 20
94.0223906006
 30
0.0
 10
44.9037071209
 20
94.1005792934
 30
0.0
 10
44.701396412
 20
94.115476336
 30
0.0
 10
44.5130116803
 20
94.0878670015
 30
0.0
 10
44.3988753279
 20
94.0404417338
 30
0.0
 10
44.3471133274
 20
94.010529685
 30
0.0
  0
SPLINE
  5
415
100
AcDbEntity
  8
00_COMPONENTS_1
100
AcDbSpline
 62
7
  6
CONTINUOUS
 70
0
 71
3
 72
17
 73
13
 74
0
 42
0.0000001
 43
0.0000001
 44
0.0000000001
 40
0.0
 40
0.0
 40
0.0
 40
0.0
 40
0.1286888642
 40
0.2702797707
 40
0.4174318351
 40
0.5617733579
 40
0.6954455151
 40
0.8127096012
 40
0.8646749147
 40
0.9125085808
 40
0.9571389861
 40
1.0
 40
1.0
 40
1.0
 40
1.0
 10
42.7100695416
 20
93.7432265365
 30
0.0
 10
42.7100695416
 20
93.9227238482
 30
0.0
 10
42.6598522377
 20
94.3001442148
 30
0.0
 10
42.4724336321
 20
94.8543023153
 30
0.0
 10
42.1836217945
 20
95.3881276423
 30
0.0
 10
41.8166461229
 20
95.8578525764
 30
0.0
 10
41.4014871802
 20
96.2255362894
 30
0.0
 10
41.0257106572
 20
96.4310110452
 30
0.0
 10
40.7317597413
 20
96.5091997375
 30
0.0
 10
40.5294490329
 20
96.5240967798
 30
0.0
 10
40.3410643015
 20
96.4964874452
 30
0.0
 10
40.2269279495
 20
96.4490621776
 30
0.0
 10
40.175165949
 20
96.4191501289
 30
0.0
  0
SPLINE
  5
416
100
AcDbEntity
  8
00_COMPONENTS_1
100
AcDbSpline
 62
7
  6
CONTINUOUS
 70
0
 71
3
 72
17
 73
13
 74
0
 42
0.0000001
 43
0.0000001
 44
0.0000000001
 40
0.0
 40
0.0
 40
0.0
 40
0.0
 40
0.128688864
 40
0.2702797703
 40
0.4174318348
 40
0.5617733576
 40
0.6954455149
 40
0.8127096012
 40
0.8646749146
 40
0.9125085807
 40
0.9571389861
 40
1.0
 40
1.0
 40
1.0
 40
1.0
 10
39.3866538335
 20
95.6619580827
 30
0.0
 10
39.3866538335
 20
95.8414553945
 30
0.0
 10
39.3364365317
 20
96.2188757615
 30
0.0
 10
39.1490179267
 20
96.773033863
 30
0.0
 10
38.8602060896
 20
97.3068591915
 30
0.0
 10
38.4932304179
 20
97.7765841272
 30
0.0
 10
38.0780714746
 20
98.1442678417
 30
0.0
 10
37.7022949509
 20
98.3497425985
 30
0.0
 10
37.4083440344
 20
98.4279312913
 30
0.0
 10
37.2060333255
 20
98.442828334
 30
0.0
 10
37.0176485937
 20
98.4152189994
 30
0.0
 10
36.9035122414
 20
98.3677937317
 30
0.0
 10
36.8517502409
 20
98.3378816829
 30
0.0
  0
SPLINE
  5
417
100
AcDbEntity
  8
00_COMPONENTS_1
100
AcDbSpline
 62
7
  6
CONTINUOUS
 70
0
 71
3
 72
10
 73
6
 74
0
 42
0.0000001
 43
0.0000001
 44
0.0000000001
 40
0.0
 40
0.0
 40
0.0
 40
0.0
 40
0.2280289756
 40
0.4754123085
 40
1.0
 40
1.0
 40
1.0
 40
1.0
 10
43.2403088062
 20
119.0694959348
 30
0.0
 10
43.2403088062
 20
118.9153245167
 30
0.0
 10
43.2716112103
 20
118.5935002565
 30
0.0
 10
43.4382227105
 20
117.936723195
 30
0.0
 10
43.6681789405
 20
117.4597065482
 30
0.0
 10
43.8591697653
 20
117.1608459746
 30
0.0
  0
SPLINE
  5
418
100
AcDbEntity
  8
00_COMPONENTS_1
100
AcDbSpline
 62
7
  6
CONTINUOUS
 70
0
 71
3
 72
11
 73
7
 74
0
 42
0.0000001
 43
0.0000001
 44
0.0000000001
 40
0.0
 40
0.0
 40
0.0
 40
0.0
 40
0.2177660095
 40
0.4508968553
 40
0.7103699668
 40
1.0
 40
1.0
 40
1.0
 40
1.0
 10
47.6705290356
 20
92.091798131
 30
0.0
 10
47.6012788273
 20
92.0517800562
 30
0.0
 10
47.4716041678
 20
91.942928416
 30
0.0
 10
47.3336431307
 20
91.7172535761
 30
0.0
 10
47.2517416315
 20
91.4392188134
 30
0.0
 10
47.2355717826
 20
91.236861528
 30
0.0
 10
47.2355717826
 20
91.1304856997
 30
0.0
  0
SPLINE
  5
419
100
AcDbEntity
  8
00_COMPONENTS_1
100
AcDbSpline
 62
7
  6
CONTINUOUS
 70
0
 71
3
 72
11
 73
7
 74
0
 42
0.0000001
 43
0.0000001
 44
0.0000000001
 40
0.0
 40
0.0
 40
0.0
 40
0.0
 40
0.2179074706
 40
0.4510321055
 40
0.7104429118
 40
1.0
 40
1.0
 40
1.0
 40
1.0
 10
47.7179463335
 20
120.1869808619
 30
0.0
 10
47.6354703391
 20
120.1392784453
 30
0.0
 10
47.4810150295
 20
120.0097109465
 30
0.0
 10
47.3167733217
 20
119.7409908449
 30
0.0
 10
47.2194191412
 20
119.4100289394
 30
0.0
 10
47.2001231771
 20
119.1691966615
 30
0.0
 10
47.200123267
 20
119.0425911448
 30
0.0
  0
SPLINE
  5
41A
100
AcDbEntity
  8
00_COMPONENTS_1
100
AcDbSpline
 62
7
  6
CONTINUOUS
 70
0
 71
3
 72
11
 73
7
 74
0
 42
0.0000001
 43
0.0000001
 44
0.0000000001
 40
0.0
 40
0.0
 40
0.0
 40
0.0
 40
0.2177473182
 40
0.4509586866
 40
0.7103138266
 40
1.0
 40
1.0
 40
1.0
 40
1.0
 10
29.3563658415
 20
62.8961528144
 30
0.0
 10
29.2871137547
 20
62.8561513037
 30
0.0
 10
29.157521546
 20
62.7471674601
 30
0.0
 10
29.0194610862
 20
62.5216001803
 30
0.0
 10
28.9375943207
 20
62.243529486
 30
0.0
 10
28.9214299012
 20
62.0412001119
 30
0.0
 10
28.9214299013
 20
61.9348033914
 30
0.0
  0
SPLINE
  5
41B
100
AcDbEntity
  8
00_COMPONENTS_1
100
AcDbSpline
 62
7
  6
CONTINUOUS
 70
0
 71
3
 72
10
 73
6
 74
0
 42
0.0000001
 43
0.0000001
 44
0.0000000001
 40
0.0
 40
0.0
 40
0.0
 40
0.0
 40
0.2280289756
 40
0.4754123085
 40
1.0
 40
1.0
 40
1.0
 40
1.0
 10
47.200123267
 20
116.7833477095
 30
0.0
 10
47.200123267
 20
116.6291762914
 30
0.0
 10
47.2314256711
 20
116.3073520312
 30
0.0
 10
47.3980371713
 20
115.6505749697
 30
0.0
 10
47.6279934013
 20
115.1735583229
 30
0.0
 10
47.8189842261
 20
114.8746977493
 30
0.0
  0
SPLINE
  5
41C
100
AcDbEntity
  8
00_COMPONENTS_1
100
AcDbSpline
 62
7
  6
CONTINUOUS
 70
0
 71
3
 72
17
 73
13
 74
0
 42
0.0000001
 43
0.0000001
 44
0.0000000001
 40
0.0
 40
0.0
 40
0.0
 40
0.0
 40
0.128688864
 40
0.2702797703
 40
0.4174318348
 40
0.5617733576
 40
0.6954455149
 40
0.8127096012
 40
0.8646749146
 40
0.9125085807
 40
0.9571389861
 40
1.0
 40
1.0
 40
1.0
 40
1.0
 10
32.2448456095
 20
59.2757695304
 30
0.0
 10
32.2448456095
 20
59.0962722186
 30
0.0
 10
32.2950629112
 20
58.7188518516
 30
0.0
 10
32.4824815162
 20
58.1646937501
 30
0.0
 10
32.7712933533
 20
57.6308684216
 30
0.0
 10
33.138269025
 20
57.1611434859
 30
0.0
 10
33.5534279684
 20
56.7934597714
 30
0.0
 10
33.929204492
 20
56.5879850146
 30
0.0
 10
34.2231554086
 20
56.5097963218
 30
0.0
 10
34.4254661175
 20
56.4948992791
 30
0.0
 10
34.6138508492
 20
56.5225086137
 30
0.0
 10
34.7279872016
 20
56.5699338814
 30
0.0
 10
34.7797492021
 20
56.5998459302
 30
0.0
  0
SPLINE
  5
41D
100
AcDbEntity
  8
00_COMPONENTS_1
100
AcDbSpline
 62
7
  6
CONTINUOUS
 70
0
 71
3
 72
11
 73
7
 74
0
 42
0.0000001
 43
0.0000001
 44
0.0000000001
 40
0.0
 40
0.0
 40
0.0
 40
0.0
 40
0.2177660093
 40
0.450896855
 40
0.7103699666
 40
1.0
 40
1.0
 40
1.0
 40
1.0
 10
44.3471133274
 20
94.010529685
 30
0.0
 10
44.2778631187
 20
93.97051161
 30
0.0
 10
44.1481884584
 20
93.861659969
 30
0.0
 10
44.0102274211
 20
93.6359851271
 30
0.0
 10
43.9283259222
 20
93.3579503621
 30
0.0
 10
43.912156074
 20
93.1555930751
 30
0.0
 10
43.9121560744
 20
93.049217246
 30
0.0
  0
SPLINE
  5
41E
100
AcDbEntity
  8
00_COMPONENTS_1
100
AcDbSpline
 62
7
  6
CONTINUOUS
 70
0
 71
3
 72
17
 73
13
 74
0
 42
0.0000001
 43
0.0000001
 44
0.0000000001
 40
0.0
 40
0.0
 40
0.0
 40
0.0
 40
0.0390592015
 40
0.0795361036
 40
0.1233581129
 40
0.1718125476
 40
0.2844643847
 40
0.4171904467
 40
0.5641271383
 40
0.7168360852
 40
0.8653727529
 40
1.0
 40
1.0
 40
1.0
 40
1.0
 10
94.7780437103
 20
148.4605593028
 30
0.0
 10
94.7780608451
 20
148.5234619022
 30
0.0
 10
94.7589948208
 20
148.6523317838
 30
0.0
 10
94.6740216635
 20
148.8344793133
 30
0.0
 10
94.537328977
 20
149.0012880708
 30
0.0
 10
94.2788877998
 20
149.2094760362
 30
0.0
 10
93.8405237433
 20
149.4054438646
 30
0.0
 10
93.2184123143
 20
149.5320784098
 30
0.0
 10
92.5195404094
 20
149.5550887383
 30
0.0
 10
91.7999188996
 20
149.4733008914
 30
0.0
 10
91.118555172
 20
149.29564051
 30
0.0
 10
90.6979177609
 20
149.1116460898
 30
0.0
 10
90.5101549868
 20
149.0032418487
 30
0.0
  0
SPLINE
  5
41F
100
AcDbEntity
  8
00_COMPONENTS_1
100
AcDbSpline
 62
7
  6
CONTINUOUS
 70
0
 71
3
 72
11
 73
7
 74
0
 42
0.0000001
 43
0.0000001
 44
0.0000000001
 40
0.0
 40
0.0
 40
0.0
 40
0.0
 40
0.2179074706
 40
0.4510321055
 40
0.7104429118
 40
1.0
 40
1.0
 40
1.0
 40
1.0
 10
43.7581318727
 20
122.4731290872
 30
0.0
 10
43.6756558783
 20
122.4254266706
 30
0.0
 10
43.5212005687
 20
122.2958591718
 30
0.0
 10
43.3569588609
 20
122.0271390703
 30
0.0
 10
43.2596046803
 20
121.6961771647
 30
0.0
 10
43.2403087163
 20
121.4553448869
 30
0.0
 10
43.2403088062
 20
121.3287393701
 30
0.0
  0
SPLINE
  5
420
100
AcDbEntity
  8
00_COMPONENTS_1
100
AcDbSpline
 62
7
  6
CONTINUOUS
 70
0
 71
3
 72
10
 73
6
 74
0
 42
0.0000001
 43
0.0000001
 44
0.0000000001
 40
0.0
 40
0.0
 40
0.0
 40
0.0
 40
0.2280289756
 40
0.4754123085
 40
1.0
 40
1.0
 40
1.0
 40
1.0
 10
53.1398449582
 20
113.3541253715
 30
0.0
 10
53.1398449582
 20
113.1999539534
 30
0.0
 10
53.1711473623
 20
112.8781296932
 30
0.0
 10
53.3377588626
 20
112.2213526317
 30
0.0
 10
53.5677150926
 20
111.7443359849
 30
0.0
 10
53.7587059174
 20
111.4454754113
 30
0.0
  0
SPLINE
  5
421
100
AcDbEntity
  8
00_COMPONENTS_1
100
AcDbSpline
 62
7
  6
CONTINUOUS
 70
0
 71
3
 72
11
 73
7
 74
0
 42
0.0000001
 43
0.0000001
 44
0.0000000001
 40
0.0
 40
0.0
 40
0.0
 40
0.0
 40
0.2294721115
 40
0.4680611117
 40
0.7235597053
 40
1.0
 40
1.0
 40
1.0
 40
1.0
 10
107.5097476067
 20
137.9694467554
 30
0.0
 10
107.5581318488
 20
137.9974285517
 30
0.0
 10
107.6645980458
 20
138.0419843633
 30
0.0
 10
107.840289561
 20
138.0689366333
 30
0.0
 10
108.0288023291
 20
138.0567024573
 30
0.0
 10
108.1551024983
 20
138.0247764953
 30
0.0
 10
108.2189533223
 20
138.0034034546
 30
0.0
  0
SPLINE
  5
422
100
AcDbEntity
  8
00_COMPONENTS_1
100
AcDbSpline
 62
7
  6
CONTINUOUS
 70
0
 71
3
 72
11
 73
7
 74
0
 42
0.0000001
 43
0.0000001
 44
0.0000000001
 40
0.0
 40
0.0
 40
0.0
 40
0.0
 40
0.2282385775
 40
0.471156773
 40
0.7286550681
 40
1.0
 40
1.0
 40
1.0
 40
1.0
 10
81.5298809077
 20
149.7488920013
 30
0.0
 10
83.5889493674
 20
149.2535860773
 30
0.0
 10
87.7738912285
 20
147.9444775296
 30
0.0
 10
93.9646123522
 20
145.1963567293
 30
0.0
 10
100.1916611902
 20
141.638257278
 30
0.0
 10
104.2198257832
 20
138.823510134
 30
0.0
 10
106.2240578973
 20
137.2996057543
 30
0.0
  0
SPLINE
  5
423
100
AcDbEntity
  8
00_COMPONENTS_1
100
AcDbSpline
 62
7
  6
CONTINUOUS
 70
0
 71
3
 72
11
 73
7
 74
0
 42
0.0000001
 43
0.0000001
 44
0.0000000001
 40
0.0
 40
0.0
 40
0.0
 40
0.0
 40
0.2977289052
 40
0.5606042422
 40
0.7905090677
 40
1.0
 40
1.0
 40
1.0
 40
1.0
 10
106.2240578973
 20
137.2996057543
 30
0.0
 10
106.2759629318
 20
137.2601401112
 30
0.0
 10
106.3801980462
 20
137.1936298064
 30
0.0
 10
106.5443357451
 20
137.1333906171
 30
0.0
 10
106.7004516235
 20
137.122868907
 30
0.0
 10
106.795016895
 20
137.1531585964
 30
0.0
 10
106.8347322089
 20
137.176129748
 30
0.0
  0
SPLINE
  5
424
100
AcDbEntity
  8
00_COMPONENTS_1
100
AcDbSpline
 62
7
  6
CONTINUOUS
 70
0
 71
3
 72
11
 73
7
 74
0
 42
0.0000001
 43
0.0000001
 44
0.0000000001
 40
0.0
 40
0.0
 40
0.0
 40
0.0
 40
0.2179074706
 40
0.4510321055
 40
0.7104429118
 40
1.0
 40
1.0
 40
1.0
 40
1.0
 10
33.8585957206
 20
128.1884996505
 30
0.0
 10
33.7761197262
 20
128.1407972339
 30
0.0
 10
33.6216644167
 20
128.0112297351
 30
0.0
 10
33.4574227089
 20
127.7425096335
 30
0.0
 10
33.3600685283
 20
127.4115477279
 30
0.0
 10
33.3407725642
 20
127.1707154501
 30
0.0
 10
33.3407726541
 20
127.0441099334
 30
0.0
  0
SPLINE
  5
425
100
AcDbEntity
  8
00_COMPONENTS_1
100
AcDbSpline
 62
7
  6
CONTINUOUS
 70
0
 71
3
 72
9
 73
5
 74
0
 42
0.0000001
 43
0.0000001
 44
0.0000000001
 40
0.0
 40
0.0
 40
0.0
 40
0.0
 40
0.4828302153
 40
1.0
 40
1.0
 40
1.0
 40
1.0
 10
37.3167304221
 20
53.9822669065
 30
0.0
 10
37.3481279855
 20
53.6974033705
 30
0.0
 10
37.4996076701
 20
53.1162408684
 30
0.0
 10
37.7719671626
 20
52.5835983238
 30
0.0
 10
37.9394874404
 20
52.3263663581
 30
0.0
  0
SPLINE
  5
426
100
AcDbEntity
  8
00_COMPONENTS_1
100
AcDbSpline
 62
7
  6
CONTINUOUS
 70
0
 71
3
 72
10
 73
6
 74
0
 42
0.0000001
 43
0.0000001
 44
0.0000000001
 40
0.0
 40
0.0
 40
0.0
 40
0.0
 40
0.2280289756
 40
0.4754123085
 40
1.0
 40
1.0
 40
1.0
 40
1.0
 10
57.099659419
 20
111.0679771462
 30
0.0
 10
57.099659419
 20
110.9138057281
 30
0.0
 10
57.1309618232
 20
110.5919814679
 30
0.0
 10
57.2975733234
 20
109.9352044064
 30
0.0
 10
57.5275295534
 20
109.4581877596
 30
0.0
 10
57.7185203782
 20
109.159327186
 30
0.0
  0
SPLINE
  5
427
100
AcDbEntity
  8
00_COMPONENTS_1
100
AcDbSpline
 62
7
  6
CONTINUOUS
 70
0
 71
3
 72
11
 73
7
 74
0
 42
0.0000001
 43
0.0000001
 44
0.0000000001
 40
0.0
 40
0.0
 40
0.0
 40
0.0
 40
0.2207699382
 40
0.4631096014
 40
0.7243233595
 40
1.0
 40
1.0
 40
1.0
 40
1.0
 10
108.2189533223
 20
138.0034034546
 30
0.0
 10
108.6619280796
 20
137.8551247498
 30
0.0
 10
109.5600095053
 20
137.4476941266
 30
0.0
 10
110.8410035026
 20
136.5973070541
 30
0.0
 10
112.0827853066
 20
135.5060401471
 30
0.0
 10
112.8429371901
 20
134.6579953847
 30
0.0
 10
113.2083965942
 20
134.2033617428
 30
0.0
  0
SPLINE
  5
428
100
AcDbEntity
  8
00_COMPONENTS_1
100
AcDbSpline
 62
7
  6
CONTINUOUS
 70
0
 71
3
 72
9
 73
5
 74
0
 42
0.0000001
 43
0.0000001
 44
0.0000000001
 40
0.0
 40
0.0
 40
0.0
 40
0.0
 40
0.234726097
 40
1.0
 40
1.0
 40
1.0
 40
1.0
 10
108.2234988306
 20
135.8599268597
 30
0.0
 10
108.2115117081
 20
135.8220599861
 30
0.0
 10
108.1679031229
 20
135.6583802635
 30
0.0
 10
108.1525620594
 20
135.4879254245
 30
0.0
 10
108.1525620594
 20
135.3584304941
 30
0.0
  0
SPLINE
  5
429
100
AcDbEntity
  8
00_COMPONENTS_1
100
AcDbSpline
 62
7
  6
CONTINUOUS
 70
0
 71
3
 72
17
 73
13
 74
0
 42
0.0000001
 43
0.0000001
 44
0.0000000001
 40
0.0
 40
0.0
 40
0.0
 40
0.0
 40
0.128688864
 40
0.2702797703
 40
0.4174318348
 40
0.5617733576
 40
0.6954455149
 40
0.8127096012
 40
0.8646749146
 40
0.9125085807
 40
0.9571389861
 40
1.0
 40
1.0
 40
1.0
 40
1.0
 10
108.1525620594
 20
135.3584304941
 30
0.0
 10
108.1525620594
 20
135.1661119458
 30
0.0
 10
108.2063663113
 20
134.7617329812
 30
0.0
 10
108.4071719595
 20
134.1679921581
 30
0.0
 10
108.7166132136
 20
133.596036449
 30
0.0
 10
109.1098014333
 20
133.0927597322
 30
0.0
 10
109.5546145868
 20
132.6988128952
 30
0.0
 10
109.9572322907
 20
132.47866137
 30
0.0
 10
110.2721797013
 20
132.3948877706
 30
0.0
 10
110.4889411751
 20
132.3789266535
 30
0.0
 10
110.6907819592
 20
132.4085080834
 30
0.0
 10
110.8130709081
 20
132.4593208702
 30
0.0
 10
110.8685301944
 20
132.4913694939
 30
0.0
  0
SPLINE
  5
42A
100
AcDbEntity
  8
00_COMPONENTS_1
100
AcDbSpline
 62
7
  6
CONTINUOUS
 70
0
 71
3
 72
11
 73
7
 74
0
 42
0.0000001
 43
0.0000001
 44
0.0000000001
 40
0.0
 40
0.0
 40
0.0
 40
0.0
 40
0.2177473182
 40
0.4509586866
 40
0.7103138266
 40
1.0
 40
1.0
 40
1.0
 40
1.0
 10
32.6797815497
 20
60.9774212682
 30
0.0
 10
32.6105294629
 20
60.9374197575
 30
0.0
 10
32.4809372542
 20
60.8284359139
 30
0.0
 10
32.3428767944
 20
60.602868634
 30
0.0
 10
32.2610100289
 20
60.3247979397
 30
0.0
 10
32.2448456093
 20
60.1224685656
 30
0.0
 10
32.2448456095
 20
60.0160718451
 30
0.0
  0
SPLINE
  5
42B
100
AcDbEntity
  8
00_COMPONENTS_1
100
AcDbSpline
 62
7
  6
CONTINUOUS
 70
0
 71
3
 72
9
 73
5
 74
0
 42
0.0000001
 43
0.0000001
 44
0.0000000001
 40
0.0
 40
0.0
 40
0.0
 40
0.0
 40
0.2385721207
 40
1.0
 40
1.0
 40
1.0
 40
1.0
 10
43.2404261423
 20
50.8134416421
 30
0.0
 10
43.2409140133
 20
50.7645987535
 30
0.0
 10
43.2492990815
 20
50.5599479574
 30
0.0
 10
43.2810557228
 20
50.3565348455
 30
0.0
 10
43.3154970505
 20
50.2044919737
 30
0.0
  0
SPLINE
  5
42C
100
AcDbEntity
  8
00_COMPONENTS_1
100
AcDbSpline
 62
7
  6
CONTINUOUS
 70
0
 71
3
 72
9
 73
5
 74
0
 42
0.0000001
 43
0.0000001
 44
0.0000000001
 40
0.0
 40
0.0
 40
0.0
 40
0.0
 40
0.490250011
 40
1.0
 40
1.0
 40
1.0
 40
1.0
 10
43.3154970505
 20
50.2044919737
 30
0.0
 10
43.367093148
 20
49.9767185579
 30
0.0
 10
43.5198548839
 20
49.5222871663
 30
0.0
 10
43.7466900553
 20
49.1006306842
 30
0.0
 10
43.8792091317
 20
48.8971440201
 30
0.0
  0
SPLINE
  5
42D
100
AcDbEntity
  8
00_COMPONENTS_1
100
AcDbSpline
 62
7
  6
CONTINUOUS
 70
0
 71
3
 72
9
 73
5
 74
0
 42
0.0000001
 43
0.0000001
 44
0.0000000001
 40
0.0
 40
0.0
 40
0.0
 40
0.0
 40
0.4828302153
 40
1.0
 40
1.0
 40
1.0
 40
1.0
 10
47.2162665741
 20
48.2668963432
 30
0.0
 10
47.2476641376
 20
47.9820328072
 30
0.0
 10
47.3991438222
 20
47.4008703051
 30
0.0
 10
47.6715033146
 20
46.8682277605
 30
0.0
 10
47.8390235925
 20
46.6109957948
 30
0.0
  0
SPLINE
  5
42E
100
AcDbEntity
  8
00_COMPONENTS_1
100
AcDbSpline
 62
7
  6
CONTINUOUS
 70
0
 71
3
 72
10
 73
6
 74
0
 42
0.0000001
 43
0.0000001
 44
0.0000000001
 40
0.0
 40
0.0
 40
0.0
 40
0.0
 40
0.2279819412
 40
0.4755353123
 40
1.0
 40
1.0
 40
1.0
 40
1.0
 10
53.1398449582
 20
45.121485786
 30
0.0
 10
53.1398449582
 20
44.9645513868
 30
0.0
 10
53.1722863874
 20
44.6368003032
 30
0.0
 10
53.3444451437
 20
43.9687305646
 30
0.0
 10
53.5817282918
 20
43.4842984333
 30
0.0
 10
53.7787452837
 20
43.1817734568
 30
0.0
  0
SPLINE
  5
42F
100
AcDbEntity
  8
00_COMPONENTS_1
100
AcDbSpline
 62
7
  6
CONTINUOUS
 70
0
 71
3
 72
10
 73
6
 74
0
 42
0.0000001
 43
0.0000001
 44
0.0000000001
 40
0.0
 40
0.0
 40
0.0
 40
0.0
 40
0.2279819412
 40
0.4755353123
 40
1.0
 40
1.0
 40
1.0
 40
1.0
 10
57.099659419
 20
42.8353375607
 30
0.0
 10
57.099659419
 20
42.6784031615
 30
0.0
 10
57.1321008483
 20
42.3506520779
 30
0.0
 10
57.3042596046
 20
41.6825823393
 30
0.0
 10
57.5415427526
 20
41.198150208
 30
0.0
 10
57.7385597446
 20
40.8956252315
 30
0.0
  0
SPLINE
  5
430
100
AcDbEntity
  8
00_COMPONENTS_1
100
AcDbSpline
 62
7
  6
CONTINUOUS
 70
0
 71
3
 72
11
 73
7
 74
0
 42
0.0000001
 43
0.0000001
 44
0.0000000001
 40
0.0
 40
0.0
 40
0.0
 40
0.0
 40
0.3066064336
 40
0.5728902499
 40
0.8001975898
 40
1.0
 40
1.0
 40
1.0
 40
1.0
 10
90.5101549868
 20
149.0032418487
 30
0.0
 10
90.4014085215
 20
148.9404574224
 30
0.0
 10
90.2055611247
 20
148.8092067408
 30
0.0
 10
89.9683954142
 20
148.5799232542
 30
0.0
 10
89.8151535513
 20
148.3362226348
 30
0.0
 10
89.7778986843
 20
148.1601022078
 30
0.0
 10
89.7781127081
 20
148.0782742253
 30
0.0
  0
SPLINE
  5
431
100
AcDbEntity
  8
00_COMPONENTS_1
100
AcDbSpline
 62
7
  6
CONTINUOUS
 70
0
 71
3
 72
9
 73
5
 74
0
 42
0.0000001
 43
0.0000001
 44
0.0000000001
 40
0.0
 40
0.0
 40
0.0
 40
0.0
 40
0.4828302153
 40
1.0
 40
1.0
 40
1.0
 40
1.0
 10
33.3569159612
 20
56.2684151318
 30
0.0
 10
33.3883135247
 20
55.9835515958
 30
0.0
 10
33.5397932093
 20
55.4023890937
 30
0.0
 10
33.8121527018
 20
54.8697465491
 30
0.0
 10
33.9796729796
 20
54.6125145834
 30
0.0
  0
SPLINE
  5
432
100
AcDbEntity
  8
00_COMPONENTS_1
100
AcDbSpline
 62
7
  6
CONTINUOUS
 70
0
 71
3
 72
10
 73
6
 74
0
 42
0.0000001
 43
0.0000001
 44
0.0000000001
 40
0.0
 40
0.0
 40
0.0
 40
0.0
 40
0.2280289756
 40
0.4754123085
 40
1.0
 40
1.0
 40
1.0
 40
1.0
 10
33.3407726541
 20
124.7848664981
 30
0.0
 10
33.3407726541
 20
124.63069508
 30
0.0
 10
33.3720750582
 20
124.3088708198
 30
0.0
 10
33.5386865585
 20
123.6520937583
 30
0.0
 10
33.7686427884
 20
123.1750771115
 30
0.0
 10
33.9596336132
 20
122.8762165379
 30
0.0
  0
SPLINE
  5
433
100
AcDbEntity
  8
00_COMPONENTS_1
100
AcDbSpline
 62
7
  6
CONTINUOUS
 70
0
 71
3
 72
17
 73
13
 74
0
 42
0.0000001
 43
0.0000001
 44
0.0000000001
 40
0.0
 40
0.0
 40
0.0
 40
0.0
 40
0.128688864
 40
0.2702797703
 40
0.4174318348
 40
0.5617733576
 40
0.6954455149
 40
0.8127096012
 40
0.8646749146
 40
0.9125085807
 40
0.9571389861
 40
1.0
 40
1.0
 40
1.0
 40
1.0
 10
36.4167929878
 20
56.8671490787
 30
0.0
 10
36.4167929878
 20
56.6876517669
 30
0.0
 10
36.4670102896
 20
56.3102313999
 30
0.0
 10
36.6544288946
 20
55.7560732984
 30
0.0
 10
36.9432407317
 20
55.22224797
 30
0.0
 10
37.3102164034
 20
54.7525230342
 30
0.0
 10
37.7253753467
 20
54.3848393197
 30
0.0
 10
38.1011518704
 20
54.1793645629
 30
0.0
 10
38.3951027869
 20
54.1011758701
 30
0.0
 10
38.5974134958
 20
54.0862788275
 30
0.0
 10
38.7857982276
 20
54.113888162
 30
0.0
 10
38.8999345799
 20
54.1613134297
 30
0.0
 10
38.9516965804
 20
54.1912254785
 30
0.0
  0
SPLINE
  5
434
100
AcDbEntity
  8
00_COMPONENTS_1
100
AcDbSpline
 62
7
  6
CONTINUOUS
 70
0
 71
3
 72
11
 73
7
 74
0
 42
0.0000001
 43
0.0000001
 44
0.0000000001
 40
0.0
 40
0.0
 40
0.0
 40
0.0
 40
0.2179074706
 40
0.4510321055
 40
0.7104429118
 40
1.0
 40
1.0
 40
1.0
 40
1.0
 10
37.8184101814
 20
125.9023514252
 30
0.0
 10
37.735934187
 20
125.8546490086
 30
0.0
 10
37.5814788775
 20
125.7250815097
 30
0.0
 10
37.4172371697
 20
125.4563614082
 30
0.0
 10
37.3198829891
 20
125.1253995026
 30
0.0
 10
37.300587025
 20
124.8845672248
 30
0.0
 10
37.3005871149
 20
124.7579617081
 30
0.0
  0
SPLINE
  5
435
100
AcDbEntity
  8
00_COMPONENTS_1
100
AcDbSpline
 62
7
  6
CONTINUOUS
 70
0
 71
3
 72
17
 73
13
 74
0
 42
0.0000001
 43
0.0000001
 44
0.0000000001
 40
0.0
 40
0.0
 40
0.0
 40
0.0
 40
0.128688864
 40
0.2702797703
 40
0.4174318348
 40
0.5617733576
 40
0.6954455149
 40
0.8127096012
 40
0.8646749146
 40
0.9125085807
 40
0.9571389861
 40
1.0
 40
1.0
 40
1.0
 40
1.0
 10
39.740208696
 20
54.9484175325
 30
0.0
 10
39.740208696
 20
54.7689202207
 30
0.0
 10
39.7904259978
 20
54.3914998537
 30
0.0
 10
39.9778446028
 20
53.8373417522
 30
0.0
 10
40.2666564399
 20
53.3035164237
 30
0.0
 10
40.6336321116
 20
52.833791488
 30
0.0
 10
41.0487910549
 20
52.4661077735
 30
0.0
 10
41.4245675786
 20
52.2606330167
 30
0.0
 10
41.7185184951
 20
52.1824443238
 30
0.0
 10
41.920829204
 20
52.1675472812
 30
0.0
 10
42.1092139358
 20
52.1951566158
 30
0.0
 10
42.2233502881
 20
52.2425818835
 30
0.0
 10
42.2751122886
 20
52.2724939322
 30
0.0
  0
SPLINE
  5
436
100
AcDbEntity
  8
00_COMPONENTS_1
100
AcDbSpline
 62
7
  6
CONTINUOUS
 70
0
 71
3
 72
11
 73
7
 74
0
 42
0.0000001
 43
0.0000001
 44
0.0000000001
 40
0.0
 40
0.0
 40
0.0
 40
0.0
 40
0.2177660095
 40
0.4508968553
 40
0.7103699668
 40
1.0
 40
1.0
 40
1.0
 40
1.0
 10
32.6798028625
 20
100.7465021268
 30
0.0
 10
32.6105526542
 20
100.706484052
 30
0.0
 10
32.4808779946
 20
100.5976324119
 30
0.0
 10
32.3429169576
 20
100.3719575719
 30
0.0
 10
32.2610154584
 20
100.0939228093
 30
0.0
 10
32.2448456095
 20
99.8915655239
 30
0.0
 10
32.2448456095
 20
99.7851896955
 30
0.0
  0
SPLINE
  5
437
100
AcDbEntity
  8
00_COMPONENTS_1
100
AcDbSpline
 62
7
  6
CONTINUOUS
 70
0
 71
3
 72
17
 73
13
 74
0
 42
0.0000001
 43
0.0000001
 44
0.0000000001
 40
0.0
 40
0.0
 40
0.0
 40
0.0
 40
0.128688864
 40
0.2702797703
 40
0.4174318348
 40
0.5617733576
 40
0.6954455149
 40
0.8127096012
 40
0.8646749146
 40
0.9125085807
 40
0.9571389861
 40
1.0
 40
1.0
 40
1.0
 40
1.0
 10
43.9121560744
 20
52.5397970808
 30
0.0
 10
43.9121560744
 20
52.360299769
 30
0.0
 10
43.9623733761
 20
51.982879402
 30
0.0
 10
44.1497919812
 20
51.4287213005
 30
0.0
 10
44.4386038182
 20
50.894895972
 30
0.0
 10
44.80557949
 20
50.4251710363
 30
0.0
 10
45.2207384333
 20
50.0574873218
 30
0.0
 10
45.5965149569
 20
49.852012565
 30
0.0
 10
45.8904658735
 20
49.7738238722
 30
0.0
 10
46.0927765824
 20
49.7589268296
 30
0.0
 10
46.2811613141
 20
49.7865361641
 30
0.0
 10
46.3952976665
 20
49.8339614318
 30
0.0
 10
46.447059667
 20
49.8638734806
 30
0.0
  0
SPLINE
  5
438
100
AcDbEntity
  8
00_COMPONENTS_1
100
AcDbSpline
 62
7
  6
CONTINUOUS
 70
0
 71
3
 72
11
 73
7
 74
0
 42
0.0000001
 43
0.0000001
 44
0.0000000001
 40
0.0
 40
0.0
 40
0.0
 40
0.0
 40
0.2178890609
 40
0.4510254019
 40
0.7104218206
 40
1.0
 40
1.0
 40
1.0
 40
1.0
 10
57.6174724323
 20
46.2389884668
 30
0.0
 10
57.5350043063
 20
46.191288207
 30
0.0
 10
57.3805770671
 20
46.0616935933
 30
0.0
 10
57.2163164253
 20
45.7930025486
 30
0.0
 10
57.1189442471
 20
45.4620323217
 30
0.0
 10
57.099659419
 20
45.2211959452
 30
0.0
 10
57.099659419
 20
45.094580996
 30
0.0
  0
SPLINE
  5
439
100
AcDbEntity
  8
00_COMPONENTS_1
100
AcDbSpline
 62
7
  6
CONTINUOUS
 70
0
 71
3
 72
17
 73
13
 74
0
 42
0.0000001
 43
0.0000001
 44
0.0000000001
 40
0.0
 40
0.0
 40
0.0
 40
0.0
 40
0.128688864
 40
0.2702797703
 40
0.4174318348
 40
0.5617733576
 40
0.6954455149
 40
0.8127096012
 40
0.8646749146
 40
0.9125085807
 40
0.9571389861
 40
1.0
 40
1.0
 40
1.0
 40
1.0
 10
47.2355717826
 20
50.6210655346
 30
0.0
 10
47.2355717826
 20
50.4415682228
 30
0.0
 10
47.2857890843
 20
50.0641478558
 30
0.0
 10
47.4732076894
 20
49.5099897543
 30
0.0
 10
47.7620195264
 20
48.9761644258
 30
0.0
 10
48.1289951982
 20
48.5064394901
 30
0.0
 10
48.5441541415
 20
48.1387557756
 30
0.0
 10
48.9199306651
 20
47.9332810188
 30
0.0
 10
49.2138815817
 20
47.8550923259
 30
0.0
 10
49.4161922906
 20
47.8401952833
 30
0.0
 10
49.6045770223
 20
47.8678046178
 30
0.0
 10
49.7187133747
 20
47.9152298856
 30
0.0
 10
49.7704753752
 20
47.9451419343
 30
0.0
  0
SPLINE
  5
43A
100
AcDbEntity
  8
00_COMPONENTS_1
100
AcDbSpline
 62
7
  6
CONTINUOUS
 70
0
 71
3
 72
11
 73
7
 74
0
 42
0.0000001
 43
0.0000001
 44
0.0000000001
 40
0.0
 40
0.0
 40
0.0
 40
0.0
 40
0.2179074706
 40
0.4510321055
 40
0.7104429118
 40
1.0
 40
1.0
 40
1.0
 40
1.0
 10
57.6174824855
 20
114.4716102986
 30
0.0
 10
57.5350064911
 20
114.423907882
 30
0.0
 10
57.3805511816
 20
114.2943403832
 30
0.0
 10
57.2163094738
 20
114.0256202817
 30
0.0
 10
57.1189552932
 20
113.6946583761
 30
0.0
 10
57.0996593292
 20
113.4538260983
 30
0.0
 10
57.099659419
 20
113.3272205815
 30
0.0
  0
SPLINE
  5
43B
100
AcDbEntity
  8
00_COMPONENTS_1
100
AcDbSpline
 62
7
  6
CONTINUOUS
 70
0
 71
3
 72
11
 73
7
 74
0
 42
0.0000001
 43
0.0000001
 44
0.0000000001
 40
0.0
 40
0.0
 40
0.0
 40
0.0
 40
0.2177473182
 40
0.4509586866
 40
0.7103138266
 40
1.0
 40
1.0
 40
1.0
 40
1.0
 10
40.1751446362
 20
56.6500692702
 30
0.0
 10
40.1058925495
 20
56.6100677595
 30
0.0
 10
39.9763003407
 20
56.501083916
 30
0.0
 10
39.8382398809
 20
56.2755166361
 30
0.0
 10
39.7563731154
 20
55.9974459418
 30
0.0
 10
39.7402086959
 20
55.7951165677
 30
0.0
 10
39.740208696
 20
55.6887198472
 30
0.0
  0
SPLINE
  5
43C
100
AcDbEntity
  8
00_COMPONENTS_1
100
AcDbSpline
 62
7
  6
CONTINUOUS
 70
0
 71
3
 72
11
 73
7
 74
0
 42
0.0000001
 43
0.0000001
 44
0.0000000001
 40
0.0
 40
0.0
 40
0.0
 40
0.0
 40
0.2177473182
 40
0.4509586866
 40
0.7103138266
 40
1.0
 40
1.0
 40
1.0
 40
1.0
 10
36.8517289281
 20
58.5688008165
 30
0.0
 10
36.7824768413
 20
58.5287993058
 30
0.0
 10
36.6528846325
 20
58.4198154622
 30
0.0
 10
36.5148241727
 20
58.1942481824
 30
0.0
 10
36.4329574073
 20
57.9161774881
 30
0.0
 10
36.4167929877
 20
57.713848114
 30
0.0
 10
36.4167929878
 20
57.6074513935
 30
0.0
  0
SPLINE
  5
43D
100
AcDbEntity
  8
00_COMPONENTS_1
100
AcDbSpline
 62
7
  6
CONTINUOUS
 70
0
 71
3
 72
9
 73
5
 74
0
 42
0.0000001
 43
0.0000001
 44
0.0000000001
 40
0.0
 40
0.0
 40
0.0
 40
0.0
 40
0.474436452
 40
1.0
 40
1.0
 40
1.0
 40
1.0
 10
32.2448456095
 20
99.0448873862
 30
0.0
 10
32.2448456095
 20
98.7981136807
 30
0.0
 10
32.338486783
 20
98.2778220872
 30
0.0
 10
32.5524646656
 20
97.7987500897
 30
0.0
 10
32.690541221
 20
97.5628171005
 30
0.0
  0
SPLINE
  5
43E
100
AcDbEntity
  8
00_COMPONENTS_1
100
AcDbSpline
 62
7
  6
CONTINUOUS
 70
0
 71
3
 72
9
 73
5
 74
0
 42
0.0000001
 43
0.0000001
 44
0.0000000001
 40
0.0
 40
0.0
 40
0.0
 40
0.0
 40
0.474436452
 40
1.0
 40
1.0
 40
1.0
 40
1.0
 10
28.9214299013
 20
100.9636189325
 30
0.0
 10
28.9214299013
 20
100.716845227
 30
0.0
 10
29.0150710748
 20
100.1965536334
 30
0.0
 10
29.2290489574
 20
99.7174816359
 30
0.0
 10
29.3671255128
 20
99.4815486468
 30
0.0
  0
SPLINE
  5
43F
100
AcDbEntity
  8
00_COMPONENTS_1
100
AcDbSpline
 62
7
  6
CONTINUOUS
 70
0
 71
3
 72
11
 73
7
 74
0
 42
0.0000001
 43
0.0000001
 44
0.0000000001
 40
0.0
 40
0.0
 40
0.0
 40
0.0
 40
0.2177473182
 40
0.4509586866
 40
0.7103138266
 40
1.0
 40
1.0
 40
1.0
 40
1.0
 10
47.6705077228
 20
52.3227172723
 30
0.0
 10
47.601255636
 20
52.2827157616
 30
0.0
 10
47.4716634273
 20
52.173731918
 30
0.0
 10
47.3336029675
 20
51.9481646382
 30
0.0
 10
47.251736202
 20
51.6700939439
 30
0.0
 10
47.2355717825
 20
51.4677645698
 30
0.0
 10
47.2355717826
 20
51.3613678493
 30
0.0
  0
SPLINE
  5
440
100
AcDbEntity
  8
00_COMPONENTS_1
100
AcDbSpline
 62
7
  6
CONTINUOUS
 70
0
 71
3
 72
11
 73
7
 74
0
 42
0.0000001
 43
0.0000001
 44
0.0000000001
 40
0.0
 40
0.0
 40
0.0
 40
0.0
 40
0.2177473182
 40
0.4509586866
 40
0.7103138266
 40
1.0
 40
1.0
 40
1.0
 40
1.0
 10
44.3470920146
 20
54.2414488186
 30
0.0
 10
44.2778399278
 20
54.2014473079
 30
0.0
 10
44.1482477191
 20
54.0924634643
 30
0.0
 10
44.0101872593
 20
53.8668961844
 30
0.0
 10
43.9283204938
 20
53.5888254901
 30
0.0
 10
43.9121560743
 20
53.386496116
 30
0.0
 10
43.9121560744
 20
53.2800993955
 30
0.0
  0
SPLINE
  5
441
100
AcDbEntity
  8
00_COMPONENTS_1
100
AcDbSpline
 62
7
  6
CONTINUOUS
 70
0
 71
3
 72
11
 73
7
 74
0
 42
0.0000001
 43
0.0000001
 44
0.0000000001
 40
0.0
 40
0.0
 40
0.0
 40
0.0
 40
0.2372423294
 40
0.4999983821
 40
0.7627553152
 40
1.0
 40
1.0
 40
1.0
 40
1.0
 10
114.7640250361
 20
89.3281659545
 30
0.0
 10
114.8242589606
 20
89.3629418195
 30
0.0
 10
114.9382382256
 20
89.4588790845
 30
0.0
 10
115.0712705126
 20
89.6406745182
 30
0.0
 10
115.1621930366
 20
89.8467826851
 30
0.0
 10
115.1882873384
 20
89.9934611654
 30
0.0
 10
115.1882873384
 20
90.0630138971
 30
0.0
  0
SPLINE
  5
442
100
AcDbEntity
  8
00_COMPONENTS_1
100
AcDbSpline
 62
7
  6
CONTINUOUS
 70
0
 71
3
 72
9
 73
5
 74
0
 42
0.0000001
 43
0.0000001
 44
0.0000000001
 40
0.0
 40
0.0
 40
0.0
 40
0.0
 40
0.474436452
 40
1.0
 40
1.0
 40
1.0
 40
1.0
 10
47.2355717826
 20
90.3901833904
 30
0.0
 10
47.2355717826
 20
90.1434096849
 30
0.0
 10
47.3292129561
 20
89.6231180914
 30
0.0
 10
47.5431908387
 20
89.1440460938
 30
0.0
 10
47.6812673941
 20
88.9081131047
 30
0.0
  0
SPLINE
  5
443
100
AcDbEntity
  8
00_COMPONENTS_1
100
AcDbSpline
 62
7
  6
CONTINUOUS
 70
0
 71
3
 72
9
 73
5
 74
0
 42
0.0000001
 43
0.0000001
 44
0.0000000001
 40
0.0
 40
0.0
 40
0.0
 40
0.0
 40
0.474436452
 40
1.0
 40
1.0
 40
1.0
 40
1.0
 10
43.9121560744
 20
92.3089149366
 30
0.0
 10
43.9121560744
 20
92.0621412312
 30
0.0
 10
44.0057972479
 20
91.5418496376
 30
0.0
 10
44.2197751305
 20
91.0627776401
 30
0.0
 10
44.3578516859
 20
90.8268446509
 30
0.0
  0
SPLINE
  5
444
100
AcDbEntity
  8
00_COMPONENTS_1
100
AcDbSpline
 62
7
  6
CONTINUOUS
 70
0
 71
3
 72
20
 73
16
 74
0
 42
0.0000001
 43
0.0000001
 44
0.0000000001
 40
0.0
 40
0.0
 40
0.0
 40
0.0
 40
0.0505725456
 40
0.1041146773
 40
0.1619821413
 40
0.2246706144
 40
0.3627509735
 40
0.5112788664
 40
0.6579286453
 40
0.7267263374
 40
0.790733891
 40
0.849341542
 40
0.9027628385
 40
0.9522355592
 40
1.0
 40
1.0
 40
1.0
 40
1.0
 10
109.6271412554
 20
139.5052096274
 30
0.0
 10
109.627148764
 20
139.6157432784
 30
0.0
 10
109.592553127
 20
139.8443887901
 30
0.0
 10
109.4454950859
 20
140.1703689419
 30
0.0
 10
109.2112582567
 20
140.4740491255
 30
0.0
 10
108.7823315505
 20
140.8467634371
 30
0.0
 10
108.0850344325
 20
141.1887786392
 30
0.0
 10
107.1465631094
 20
141.3696857572
 30
0.0
 10
106.3420900887
 20
141.3247872574
 30
0.0
 10
105.7509987491
 20
141.163297606
 30
0.0
 10
105.367893686
 20
140.9901341521
 30
0.0
 10
105.0503517242
 20
140.7682743828
 30
0.0
 10
104.8107683158
 20
140.5041276295
 30
0.0
 10
104.6607623659
 20
140.2059122343
 30
0.0
 10
104.627306754
 20
139.9918890891
 30
0.0
 10
104.6272766312
 20
139.8874929637
 30
0.0
  0
SPLINE
  5
445
100
AcDbEntity
  8
00_COMPONENTS_1
100
AcDbSpline
 62
7
  6
CONTINUOUS
 70
0
 71
3
 72
10
 73
6
 74
0
 42
0.0000001
 43
0.0000001
 44
0.0000000001
 40
0.0
 40
0.0
 40
0.0
 40
0.0
 40
0.2280289756
 40
0.4754123085
 40
1.0
 40
1.0
 40
1.0
 40
1.0
 10
37.3005871149
 20
122.4987182728
 30
0.0
 10
37.3005871149
 20
122.3445468547
 30
0.0
 10
37.331889519
 20
122.0227225945
 30
0.0
 10
37.4985010193
 20
121.365945533
 30
0.0
 10
37.7284572493
 20
120.8889288862
 30
0.0
 10
37.9194480741
 20
120.5900683126
 30
0.0
  0
SPLINE
  5
446
100
AcDbEntity
  8
00_COMPONENTS_1
100
AcDbSpline
 62
7
  6
CONTINUOUS
 70
0
 71
3
 72
9
 73
5
 74
0
 42
0.0000001
 43
0.0000001
 44
0.0000000001
 40
0.0
 40
0.0
 40
0.0
 40
0.0
 40
0.474436452
 40
1.0
 40
1.0
 40
1.0
 40
1.0
 10
39.740208696
 20
94.7175353883
 30
0.0
 10
39.740208696
 20
94.4707616828
 30
0.0
 10
39.8338498696
 20
93.9504700893
 30
0.0
 10
40.0478277521
 20
93.4713980917
 30
0.0
 10
40.1859043076
 20
93.2354651026
 30
0.0
  0
SPLINE
  5
447
100
AcDbEntity
  8
00_COMPONENTS_1
100
AcDbSpline
 62
7
  6
CONTINUOUS
 70
0
 71
3
 72
9
 73
5
 74
0
 42
0.0000001
 43
0.0000001
 44
0.0000000001
 40
0.0
 40
0.0
 40
0.0
 40
0.0
 40
0.474436452
 40
1.0
 40
1.0
 40
1.0
 40
1.0
 10
36.4167929878
 20
96.6362669346
 30
0.0
 10
36.4167929878
 20
96.3894932291
 30
0.0
 10
36.5104341614
 20
95.8692016355
 30
0.0
 10
36.7244120439
 20
95.390129638
 30
0.0
 10
36.8624885994
 20
95.1541966488
 30
0.0
  0
SPLINE
  5
448
100
AcDbEntity
  8
00_COMPONENTS_1
100
AcDbSpline
 62
7
  6
CONTINUOUS
 70
0
 71
3
 72
11
 73
7
 74
0
 42
0.0000001
 43
0.0000001
 44
0.0000000001
 40
0.0
 40
0.0
 40
0.0
 40
0.0
 40
0.2177660093
 40
0.450896855
 40
0.7103699666
 40
1.0
 40
1.0
 40
1.0
 40
1.0
 10
29.3563871543
 20
102.6652336809
 30
0.0
 10
29.2871369456
 20
102.6252156059
 30
0.0
 10
29.1574622853
 20
102.5163639648
 30
0.0
 10
29.0195012479
 20
102.290689123
 30
0.0
 10
28.9375997491
 20
102.012654358
 30
0.0
 10
28.9214299009
 20
101.810297071
 30
0.0
 10
28.9214299013
 20
101.7039212418
 30
0.0
  0
SPLINE
  5
449
100
AcDbEntity
  8
00_COMPONENTS_1
100
AcDbSpline
 62
7
  6
CONTINUOUS
 70
0
 71
3
 72
11
 73
7
 74
0
 42
0.0000001
 43
0.0000001
 44
0.0000000001
 40
0.0
 40
0.0
 40
0.0
 40
0.0
 40
0.2179074706
 40
0.4510321055
 40
0.7104429118
 40
1.0
 40
1.0
 40
1.0
 40
1.0
 10
53.6576680247
 20
116.7577585239
 30
0.0
 10
53.5751920303
 20
116.7100561073
 30
0.0
 10
53.4207367208
 20
116.5804886085
 30
0.0
 10
53.256495013
 20
116.311768507
 30
0.0
 10
53.1591408324
 20
115.9808066014
 30
0.0
 10
53.1398448683
 20
115.7399743236
 30
0.0
 10
53.1398449582
 20
115.6133688068
 30
0.0
  0
SPLINE
  5
44A
100
AcDbEntity
  8
00_COMPONENTS_1
100
AcDbSpline
 62
7
  6
CONTINUOUS
 70
0
 71
3
 72
11
 73
7
 74
0
 42
0.0000001
 43
0.0000001
 44
0.0000000001
 40
0.0
 40
0.0
 40
0.0
 40
0.0
 40
0.2177660095
 40
0.4508968553
 40
0.7103699668
 40
1.0
 40
1.0
 40
1.0
 40
1.0
 10
40.175165949
 20
96.4191501289
 30
0.0
 10
40.1059157407
 20
96.3791320541
 30
0.0
 10
39.9762410812
 20
96.2702804139
 30
0.0
 10
39.8382800441
 20
96.044605574
 30
0.0
 10
39.7563785449
 20
95.7665708113
 30
0.0
 10
39.740208696
 20
95.5642135259
 30
0.0
 10
39.740208696
 20
95.4578376976
 30
0.0
  0
SPLINE
  5
44B
100
AcDbEntity
  8
00_COMPONENTS_1
100
AcDbSpline
 62
7
  6
CONTINUOUS
 70
0
 71
3
 72
17
 73
13
 74
0
 42
0.0000001
 43
0.0000001
 44
0.0000000001
 40
0.0
 40
0.0
 40
0.0
 40
0.0
 40
0.128688864
 40
0.2702797703
 40
0.4174318348
 40
0.5617733576
 40
0.6954455149
 40
0.8127096012
 40
0.8646749146
 40
0.9125085807
 40
0.9571389861
 40
1.0
 40
1.0
 40
1.0
 40
1.0
 10
28.9214299013
 20
61.1945010766
 30
0.0
 10
28.9214299013
 20
61.0150037649
 30
0.0
 10
28.971647203
 20
60.6375833979
 30
0.0
 10
29.159065808
 20
60.0834252963
 30
0.0
 10
29.4478776451
 20
59.5495999679
 30
0.0
 10
29.8148533169
 20
59.0798750321
 30
0.0
 10
30.2300122602
 20
58.7121913177
 30
0.0
 10
30.6057887838
 20
58.5067165608
 30
0.0
 10
30.8997397004
 20
58.428527868
 30
0.0
 10
31.1020504093
 20
58.4136308254
 30
0.0
 10
31.290435141
 20
58.4412401599
 30
0.0
 10
31.4045714934
 20
58.4886654277
 30
0.0
 10
31.4563334939
 20
58.5185774764
 30
0.0
  0
SPLINE
  5
44C
100
AcDbEntity
  8
00_COMPONENTS_1
100
AcDbSpline
 62
7
  6
CONTINUOUS
 70
0
 71
3
 72
11
 73
7
 74
0
 42
0.0000001
 43
0.0000001
 44
0.0000000001
 40
0.0
 40
0.0
 40
0.0
 40
0.0
 40
0.2177660093
 40
0.450896855
 40
0.7103699666
 40
1.0
 40
1.0
 40
1.0
 40
1.0
 10
36.8517502409
 20
98.3378816829
 30
0.0
 10
36.7825000321
 20
98.2978636079
 30
0.0
 10
36.6528253719
 20
98.1890119669
 30
0.0
 10
36.5148643345
 20
97.963337125
 30
0.0
 10
36.4329628357
 20
97.6853023601
 30
0.0
 10
36.4167929874
 20
97.482945073
 30
0.0
 10
36.4167929878
 20
97.3765692439
 30
0.0
  0
ENDSEC
  0
SECTION
  2
OBJECTS
  0
DICTIONARY
  5
C
100
AcDbDictionary
280
0
281
1
  3
ACAD_GROUP
350
D
  3
ACAD_MLINESTYLE
350
17
  3
ACAD_LAYOUT
350
1A
  3
ACAD_PLOTSETTINGS
350
19
  3
ACAD_PLOTSTYLENAME
350
E
  0
DICTIONARY
  5
D
102
{ACAD_REACTORS
330
C
102
}
100
AcDbDictionary
280
0
281
1
  0
ACDBDICTIONARYWDFLT
  5
E
102
{ACAD_REACTORS
330
C
102
}
100
AcDbDictionary
281
1
  3
Normal
350
F
100
AcDbDictionaryWithDefault
340
F
  0
DICTIONARY
  5
17
102
{ACAD_REACTORS
330
C
102
}
100
AcDbDictionary
280
0
281
1
  3
Standard
350
18
  0
DICTIONARY
  5
19
102
{ACAD_REACTORS
330
C
102
}
100
AcDbDictionary
281
1
  0
DICTIONARY
  5
1A
102
{ACAD_REACTORS
330
C
102
}
100
AcDbDictionary
281
1
  3
Model
350
44D
  3
Layout1
350
44E
  0
ACDBPLACEHOLDER
  5
F
102
{ACAD_REACTORS
330
E
102
}
  0
MLINESTYLE
  5
18
102
{ACAD_REACTORS
330
17
102
}
100
AcDbMlineStyle
  2
STANDARD
 70
0
  3

 62
256
 51
90.0
 52
90.0
 71
2
 49
0.5
 62
256
  6
BYLAYER
 49
-0.5
 62
256
  6
BYLAYER
  0
LAYOUT
  5
44D
102
{ACAD_REACTORS
330
1A
102
}
100
AcDbPlotSettings
  1

  2
none_device
  4

  6

 40
0.0
 41
0.0
 42
0.0
 43
0.0
 44
210.0
 45
297.0
 46
0.0
 47
0.0
 48
0.0
 49
0.0
140
0.0
141
0.0
142
1.0
143
1.0
 70
1024
 72
1
 73
0
 74
0
  7

 75
0
147
1.0
148
0.0
149
0.0
100
AcDbLayout
  1
Model
 70
0
 71
0
 10
0.0
 20
0.0
 11
210.0
 21
297.0
 12
0.0
 22
0.0
 32
0.0
 14
0.0
 24
0.0
 34
0.0
 15
0.0
 25
0.0
 35
0.0
146
0.0
 13
0.0
 23
0.0
 33
0.0
 16
1.0
 26
0.0
 36
0.0
 17
0.0
 27
1.0
 37
0.0
 76
0
330
215
345
0
346
0
  0
LAYOUT
  5
44E
102
{ACAD_REACTORS
330
1A
102
}
100
AcDbPlotSettings
  1

  2
none_device
  4

  6

 40
0.0
 41
0.0
 42
0.0
 43
0.0
 44
210.0
 45
297.0
 46
0.0
 47
0.0
 48
0.0
 49
0.0
140
0.0
141
0.0
142
1.0
143
1.0
 70
0
 72
1
 73
0
 74
0
  7

 75
0
147
1.0
148
0.0
149
0.0
100
AcDbLayout
  1
Layout1
 70
0
 71
1
 10
0.0
 20
0.0
 11
210.0
 21
297.0
 12
0.0
 22
0.0
 32
0.0
 14
0.0
 24
0.0
 34
0.0
 15
0.0
 25
0.0
 35
0.0
146
0.0
 13
0.0
 23
0.0
 33
0.0
 16
1.0
 26
0.0
 36
0.0
 17
0.0
 27
1.0
 37
0.0
 76
0
330
216
345
0
346
0
  0
ENDSEC
  0
EOF
