999
DXF file: C:\Users\sesa63760\Dev\_Creo\CAD\MCADID0004927_3D-CAD\drw0001_6.dxf
999
Pro/ENGINEER 2019471 by Parametric Technology Corporation
  0
SECTION
  2
HEADER
  9
$ACADVER
  1
AC1024
  9
$DWGCODEPAGE
  3
ANSI_1252
  9
$EXTMAX
 10
116.1785836782
 20
164.309711202
 30
0.0
  9
$EXTMIN
 10
0.0
 20
0.0
 30
0.0
  9
$LIMMIN
 10
0.0
 20
0.0
  9
$LIMMAX
 10
116.1785836782
 20
164.309711202
  9
$VIEWCTR
 10
58.0892918391
 20
82.154855601
  9
$VIEWSIZE
 40
164.309711202
  9
$CLAYER
  8
0
  9
$LTSCALE
 40
10.7105589524
  9
$CELTYPE
  6
BYLAYER
  9
$DIMSCALE
 40
1.0
  9
$DIMASZ
 40
1.3830783771
  9
$DIMEXO
 40
1.0
  9
$DIMDLI
 40
7.4000225489
  9
$DIMEXE
 40
1.0
  9
$DIMCEN
 40
1.7526369195
  9
$DIMLFAC
 40
1.0
  9
$DIMBLK
  1
_FILLED
  9
$DIMALT
 70
0
  9
$DIMALTF
 40
0.0393700787
  9
$DIMTXT
 40
1.936309728
  9
$DIMTOL
 70
1
  9
$DIMLIM
 70
0
  9
$DIMTFAC
 40
1.0
  9
$DIMTP
 40
0.01
  9
$DIMTM
 40
0.01
  9
$DIMGAP
 40
0.625
  9
$DIMDSEP
 70
46
  9
$AUNITS
 70
0
  9
$PDMODE
 70
3
  9
$PDSIZE
 40
0.3125
  9
$HANDSEED
  5
36E
  9
$TILEMODE
 70
1
  9
$MEASUREMENT
 70
1
  9
$INSUNITS
 70
4
  0
ENDSEC
  0
SECTION
  2
CLASSES
  0
CLASS
  1
ACDBDICTIONARYWDFLT
  2
AcDbDictionaryWithDefault
  3
AutoCAD 2000
 90
0
 91
1
280
0
281
0
  0
CLASS
  1
ACDBPLACEHOLDER
  2
AcDbPlaceHolder
  3
AutoCAD 2000
 90
0
 91
1
280
0
281
0
  0
CLASS
  1
LAYOUT
  2
AcDbLayout
  3
AutoCAD 2000
 90
0
 91
0
280
0
281
0
  0
ENDSEC
  0
SECTION
  2
TABLES
  0
TABLE
  2
VPORT
  5
8
100
AcDbSymbolTable
 70
2
  0
VPORT
  5
1F4
100
AcDbSymbolTableRecord
100
AcDbViewportTableRecord
  2
*ACTIVE
 70
0
 10
0.0
 20
0.0
 11
1.0
 21
1.0
 12
58.0892918391
 22
82.154855601
 13
0.0
 23
0.0
 14
1.0
 24
1.0
 15
0.0
 25
0.0
 16
0.0
 26
0.0
 36
1.0
 17
0.0
 27
0.0
 37
0.0
 40
164.309711202
 41
0.7070707071
 42
50.0
 43
0.0
 44
0.0
 50
0.0
 51
0.0
 71
0
 72
100
 73
1
 74
1
 75
0
 76
0
 77
0
 78
0
  0
ENDTAB
  0
TABLE
  2
LTYPE
  5
5
100
AcDbSymbolTable
 70
6
  0
LTYPE
  5
14
100
AcDbSymbolTableRecord
100
AcDbLinetypeTableRecord
  2
BYBLOCK
 70
0
  3

 72
65
 73
0
 40
0.0
  0
LTYPE
  5
15
100
AcDbSymbolTableRecord
100
AcDbLinetypeTableRecord
  2
BYLAYER
 70
0
  3

 72
65
 73
0
 40
0.0
  0
LTYPE
  5
16
100
AcDbSymbolTableRecord
100
AcDbLinetypeTableRecord
  2
CONTINUOUS
 70
64
  3
Solid line
 72
65
 73
0
 40
0.0
  0
LTYPE
  5
1F5
100
AcDbSymbolTableRecord
100
AcDbLinetypeTableRecord
  2
CENTER
 70
64
  3
____ _ ____ _ ____ _ ____ _ ____ _ ____ _ ____
 72
65
 73
4
 40
0.6
 49
0.375
 74
0
 49
-0.075
 74
0
 49
0.075
 74
0
 49
-0.075
 74
0
  0
LTYPE
  5
1F6
100
AcDbSymbolTableRecord
100
AcDbLinetypeTableRecord
  2
HIDDEN
 70
64
  3
- - - - - - - - - - - - - - - - - - - -
 72
65
 73
2
 40
0.2
 49
0.1
 74
0
 49
-0.1
 74
0
  0
LTYPE
  5
1F7
100
AcDbSymbolTableRecord
100
AcDbLinetypeTableRecord
  2
PHANTOM
 70
64
  3
_____ _ _ _____ _ _ _____ _ _ _____
 72
65
 73
6
 40
0.8
 49
0.45
 74
0
 49
-0.05
 74
0
 49
0.1
 74
0
 49
-0.05
 74
0
 49
0.1
 74
0
 49
-0.05
 74
0
  0
LTYPE
  5
1F8
100
AcDbSymbolTableRecord
100
AcDbLinetypeTableRecord
  2
DOT
 70
64
  3
. . . . . . . . . . . . . . . . . . . .
 72
65
 73
2
 40
0.2
 49
0.1
 74
0
 49
-0.1
 74
0
  0
LTYPE
  5
1F9
100
AcDbSymbolTableRecord
100
AcDbLinetypeTableRecord
  2
DASHED
 70
64
  3
- - - - - - - - - - - - - - - - - - - -
 72
65
 73
2
 40
0.2
 49
0.1
 74
0
 49
-0.1
 74
0
  0
ENDTAB
  0
TABLE
  2
LAYER
  5
2
100
AcDbSymbolTable
 70
36
  0
LAYER
  5
10
100
AcDbSymbolTableRecord
100
AcDbLayerTableRecord
  2
0
 70
0
 62
7
  6
CONTINUOUS
370
-3
390
F
  0
LAYER
  5
1FA
100
AcDbSymbolTableRecord
100
AcDbLayerTableRecord
  2
DEFAULT_1
 70
0
 62
7
  6
CENTER
370
-3
390
F
  0
LAYER
  5
1FB
100
AcDbSymbolTableRecord
100
AcDbLayerTableRecord
  2
DEFAULT_2
 70
0
 62
7
  6
HIDDEN
370
-3
390
F
  0
LAYER
  5
1FC
100
AcDbSymbolTableRecord
100
AcDbLayerTableRecord
  2
DEFAULT_3
 70
0
 62
7
  6
PHANTOM
370
-3
390
F
  0
LAYER
  5
1FD
100
AcDbSymbolTableRecord
100
AcDbLayerTableRecord
  2
00_COMPONENTS
 70
0
 62
7
  6
CONTINUOUS
370
-3
390
F
  0
LAYER
  5
1FE
100
AcDbSymbolTableRecord
100
AcDbLayerTableRecord
  2
01_1_DEFAULT_DATUMS
 70
0
 62
7
  6
CONTINUOUS
370
-3
390
F
  0
LAYER
  5
1FF
100
AcDbSymbolTableRecord
100
AcDbLayerTableRecord
  2
01_PLANES
 70
0
 62
7
  6
CONTINUOUS
370
-3
390
F
  0
LAYER
  5
200
100
AcDbSymbolTableRecord
100
AcDbLayerTableRecord
  2
02_COORD_SYS
 70
0
 62
7
  6
CONTINUOUS
370
-3
390
F
  0
LAYER
  5
201
100
AcDbSymbolTableRecord
100
AcDbLayerTableRecord
  2
03_AXES
 70
0
 62
7
  6
CONTINUOUS
370
-3
390
F
  0
LAYER
  5
202
100
AcDbSymbolTableRecord
100
AcDbLayerTableRecord
  2
04_POINTS
 70
0
 62
7
  6
CONTINUOUS
370
-3
390
F
  0
LAYER
  5
203
100
AcDbSymbolTableRecord
100
AcDbLayerTableRecord
  2
05_CURVES
 70
0
 62
7
  6
CONTINUOUS
370
-3
390
F
  0
LAYER
  5
204
100
AcDbSymbolTableRecord
100
AcDbLayerTableRecord
  2
06_SURFS
 70
0
 62
7
  6
CONTINUOUS
370
-3
390
F
  0
LAYER
  5
205
100
AcDbSymbolTableRecord
100
AcDbLayerTableRecord
  2
07_COSMETICS
 70
0
 62
7
  6
CONTINUOUS
370
-3
390
F
  0
LAYER
  5
206
100
AcDbSymbolTableRecord
100
AcDbLayerTableRecord
  2
10_NOTES
 70
0
 62
7
  6
CONTINUOUS
370
-3
390
F
  0
LAYER
  5
207
100
AcDbSymbolTableRecord
100
AcDbLayerTableRecord
  2
11_NOTES_PUB
 70
0
 62
7
  6
CONTINUOUS
370
-3
390
F
  0
LAYER
  5
208
100
AcDbSymbolTableRecord
100
AcDbLayerTableRecord
  2
13_REF_GTOL
 70
0
 62
7
  6
CONTINUOUS
370
-3
390
F
  0
LAYER
  5
209
100
AcDbSymbolTableRecord
100
AcDbLayerTableRecord
  2
16_MISC
 70
0
 62
7
  6
CONTINUOUS
370
-3
390
F
  0
LAYER
  5
20A
100
AcDbSymbolTableRecord
100
AcDbLayerTableRecord
  2
17_NO_PRINT
 70
0
 62
7
  6
CONTINUOUS
370
-3
390
F
  0
LAYER
  5
20B
100
AcDbSymbolTableRecord
100
AcDbLayerTableRecord
  2
18_DATUM_CAMS_JOINTS
 70
0
 62
7
  6
CONTINUOUS
370
-3
390
F
  0
LAYER
  5
20C
100
AcDbSymbolTableRecord
100
AcDbLayerTableRecord
  2
19_DATUM_FUNCTIONAL
 70
0
 62
7
  6
CONTINUOUS
370
-3
390
F
  0
LAYER
  5
20D
100
AcDbSymbolTableRecord
100
AcDbLayerTableRecord
  2
20_DATUM_KINEMATIC_SCHEME
 70
0
 62
7
  6
CONTINUOUS
370
-3
390
F
  0
LAYER
  5
20E
100
AcDbSymbolTableRecord
100
AcDbLayerTableRecord
  2
INTFCLR_4
 70
0
 62
7
  6
CONTINUOUS
370
-3
390
F
  0
ENDTAB
  0
TABLE
  2
STYLE
  5
3
100
AcDbSymbolTable
 70
1
  0
STYLE
  5
11
100
AcDbSymbolTableRecord
100
AcDbTextStyleTableRecord
  2
STANDARD
 70
0
 40
0.0
 41
1.0
 50
0.0
 71
0
 42
0.2
  3
ARIAL.TTF
  4

  0
STYLE
  5
20F
100
AcDbSymbolTableRecord
100
AcDbTextStyleTableRecord
  2
TEXTSTYLE_1
 70
0
 40
0.0
 41
0.8
 50
0.0
 71
0
 42
0.2
  3
gdt
  4

  0
ENDTAB
  0
TABLE
  2
VIEW
  5
6
100
AcDbSymbolTable
 70
0
  0
ENDTAB
  0
TABLE
  2
UCS
  5
7
100
AcDbSymbolTable
 70
0
  0
ENDTAB
  0
TABLE
  2
APPID
  5
9
100
AcDbSymbolTable
 70
1
  0
APPID
  5
210
100
AcDbSymbolTableRecord
100
AcDbRegAppTableRecord
  2
ACAD
 70
0
  0
ENDTAB
  0
TABLE
  2
BLOCK_RECORD
  5
1
100
AcDbSymbolTable
 70
0
  0
BLOCK_RECORD
  5
211
100
AcDbSymbolTableRecord
100
AcDbBlockTableRecord
  2
*Model_Space
  0
BLOCK_RECORD
  5
212
100
AcDbSymbolTableRecord
100
AcDbBlockTableRecord
  2
*Paper_Space
  0
BLOCK_RECORD
  5
213
100
AcDbSymbolTableRecord
100
AcDbBlockTableRecord
  2
_FILLED
  0
ENDTAB
  0
TABLE
  2
DIMSTYLE
  5
A
100
AcDbSymbolTable
 70
1
100
AcDbDimStyleTable
 71
0
  0
DIMSTYLE
105
214
100
AcDbSymbolTableRecord
100
AcDbDimStyleTableRecord
  2
STANDARD
 70
0
  3

  4

 40
1.0
 41
1.3830783771
 42
1.0
 43
0.38
 44
1.0
 45
0.0
 46
0.0
 47
0.01
 48
0.01
140
1.936309728
141
0.09
142
0.0
143
25.4
144
1.0
145
0.0
146
1.0
147
0.625
 71
1
 72
0
 73
0
 74
0
 75
0
 76
0
 77
1
 78
8
 79
2
170
0
171
1
172
0
173
0
174
0
175
0
176
0
177
0
178
0
270
2
179
2
271
2
272
2
273
2
274
2
275
0
280
0
281
0
282
0
283
1
284
8
285
0
286
0
287
3
288
0
340
11
278
46
341
213
342
213
343
213
344
213
  0
ENDTAB
  0
ENDSEC
  0
SECTION
  2
BLOCKS
  0
BLOCK
  5
20
100
AcDbEntity
  8
0
100
AcDbBlockBegin
  2
*Model_Space
 70
0
 10
0.0
 20
0.0
 30
0.0
  3
*Model_Space
  1

  0
ENDBLK
  5
21
100
AcDbEntity
  8
0
100
AcDbBlockEnd
  0
BLOCK
  5
1C
100
AcDbEntity
  8
0
100
AcDbBlockBegin
  2
*Paper_Space
 70
0
 10
0.0
 20
0.0
 30
0.0
  3
*Paper_Space
  1

  0
ENDBLK
  5
1D
100
AcDbEntity
  8
0
100
AcDbBlockEnd
  0
BLOCK
  5
215
100
AcDbEntity
  8
0
100
AcDbBlockBegin
  2
_FILLED
 70
64
 10
0.0
 20
0.0
  3
_FILLED
  1

  0
SOLID
  5
216
100
AcDbEntity
  8
0
  6
BYBLOCK
 62
0
100
AcDbTrace
 10
0.0
 20
0.0
 11
-1.0
 21
0.25
 12
-1.0
 22
-0.25
 13
-1.0
 23
-0.25
  0
ENDBLK
  5
217
100
AcDbEntity
  8
0
  6
BYBLOCK
 62
0
100
AcDbBlockEnd
  0
ENDSEC
  0
SECTION
  2
ENTITIES
  0
LINE
  5
218
100
AcDbEntity
  8
0
100
AcDbLine
 62
7
  6
BYLAYER
 10
44.8273988423
 20
13.5751597382
 11
30.3273988423
 21
13.954855601
  0
LINE
  5
219
100
AcDbEntity
  8
0
100
AcDbLine
 62
7
  6
BYLAYER
 10
47.4273988423
 20
13.884855601
 11
44.8273988423
 21
13.884855601
  0
LINE
  5
21A
100
AcDbEntity
  8
0
100
AcDbLine
 62
7
  6
BYLAYER
 10
47.5496569081
 20
15.141064793
 11
47.4273988423
 21
15.141064793
  0
LINE
  5
21B
100
AcDbEntity
  8
0
100
AcDbLine
 62
7
  6
BYLAYER
 10
30.2273988423
 20
15.354855601
 11
30.1273988423
 21
15.354855601
  0
LINE
  5
21C
100
AcDbEntity
  8
0
100
AcDbLine
 62
7
  6
BYLAYER
 10
47.5496569081
 20
149.1686464089
 11
48.5009752539
 21
149.7178903119
  0
LINE
  5
21D
100
AcDbEntity
  8
0
100
AcDbLine
 62
7
  6
BYLAYER
 10
30.3273988423
 20
18.454855601
 11
44.8273988423
 21
18.4548556014
  0
LINE
  5
21E
100
AcDbEntity
  8
0
100
AcDbLine
 62
7
  6
BYLAYER
 10
44.8273988423
 20
18.684855601
 11
48.8009752539
 21
18.684855601
  0
LINE
  5
21F
100
AcDbEntity
  8
0
100
AcDbLine
 62
7
  6
BYLAYER
 10
30.1273988423
 20
18.954855601
 11
30.2273988423
 21
18.954855601
  0
LINE
  5
220
100
AcDbEntity
  8
0
100
AcDbLine
 62
7
  6
BYLAYER
 10
48.5009752539
 20
14.59182089
 11
47.5496569081
 21
15.141064793
  0
LINE
  5
221
100
AcDbEntity
  8
0
100
AcDbLine
 62
7
  6
BYLAYER
 10
67.0273964238
 20
26.1548555165
 11
88.0273967976
 21
26.8881916889
  0
LINE
  5
222
100
AcDbEntity
  8
0
100
AcDbLine
 62
7
  6
BYLAYER
 10
55.5273988423
 20
26.154855601
 11
66.5273988423
 21
26.154855601
  0
LINE
  5
223
100
AcDbEntity
  8
0
100
AcDbLine
 62
7
  6
BYLAYER
 10
67.0273988423
 20
26.6723159857
 11
66.5273988423
 21
26.6723159857
  0
LINE
  5
224
100
AcDbEntity
  8
0
100
AcDbLine
 62
7
  6
BYLAYER
 10
63.9273988423
 20
27.654855601
 11
63.3273988423
 21
27.654855601
  0
LINE
  5
225
100
AcDbEntity
  8
0
100
AcDbLine
 62
7
  6
BYLAYER
 10
88.0274129832
 20
30.8916276447
 11
67.0274123196
 21
30.1582916594
  0
LINE
  5
226
100
AcDbEntity
  8
0
100
AcDbLine
 62
7
  6
BYLAYER
 10
61.868782319
 20
28.804855601
 11
61.8771020212
 21
28.804855601
  0
LINE
  5
227
100
AcDbEntity
  8
0
100
AcDbLine
 62
7
  6
BYLAYER
 10
61.8273988424
 20
29.854855601
 11
63.3273921498
 21
29.854855601
  0
LINE
  5
228
100
AcDbEntity
  8
0
100
AcDbLine
 62
7
  6
BYLAYER
 10
62.8273988423
 20
30.1548556011
 11
55.5273988423
 21
30.1548556025
  0
LINE
  5
229
100
AcDbEntity
  8
0
100
AcDbLine
 62
7
  6
BYLAYER
 10
63.3273962729
 20
30.454855601
 11
61.8273988423
 21
30.454855601
  0
LINE
  5
22A
100
AcDbEntity
  8
0
100
AcDbLine
 62
7
  6
BYLAYER
 10
61.8771020212
 20
31.504855601
 11
61.868782319
 21
31.504855601
  0
LINE
  5
22B
100
AcDbEntity
  8
0
100
AcDbLine
 62
7
  6
BYLAYER
 10
63.9273988423
 20
32.654855601
 11
63.3273988423
 21
32.654855601
  0
LINE
  5
22C
100
AcDbEntity
  8
0
100
AcDbLine
 62
7
  6
BYLAYER
 10
66.5273988423
 20
30.1701125471
 11
67.0273988423
 21
30.1699495205
  0
LINE
  5
22D
100
AcDbEntity
  8
0
100
AcDbLine
 62
7
  6
BYLAYER
 10
63.9273988423
 20
30.1525333482
 11
66.5273988423
 21
30.1509911252
  0
LINE
  5
22E
100
AcDbEntity
  8
0
100
AcDbLine
 62
7
  6
BYLAYER
 10
55.5273988423
 20
34.1582856874
 11
63.9273988423
 21
34.1582856874
  0
LINE
  5
22F
100
AcDbEntity
  8
0
100
AcDbLine
 62
7
  6
BYLAYER
 10
48.8009752539
 20
149.5446852312
 11
48.7450905933
 21
149.4060101832
  0
LINE
  5
230
100
AcDbEntity
  8
0
100
AcDbLine
 62
7
  6
BYLAYER
 10
48.7450905933
 20
14.9037010188
 11
48.8009752539
 21
14.7650259708
  0
LINE
  5
231
100
AcDbEntity
  8
0
100
AcDbLine
 62
7
  6
BYLAYER
 10
30.1273988423
 20
15.354855601
 11
30.1273988423
 21
148.954855601
  0
LINE
  5
232
100
AcDbEntity
  8
0
100
AcDbLine
 62
7
  6
BYLAYER
 10
30.2273988423
 20
15.354855601
 11
30.2273988423
 21
148.954855601
  0
LINE
  5
233
100
AcDbEntity
  8
0
100
AcDbLine
 62
7
  6
BYLAYER
 10
30.3273988423
 20
150.354855601
 11
30.3273988423
 21
13.954855601
  0
LINE
  5
234
100
AcDbEntity
  8
0
100
AcDbLine
 62
7
  6
BYLAYER
 10
44.8273988423
 20
13.5751597382
 11
44.8273988423
 21
150.7345514637
  0
LINE
  5
235
100
AcDbEntity
  8
0
100
AcDbLine
 62
7
  6
BYLAYER
 10
52.2773988423
 20
67.654855601
 11
50.7773988423
 21
67.654855601
  0
LINE
  5
236
100
AcDbEntity
  8
0
100
AcDbLine
 62
7
  6
BYLAYER
 10
88.027399863
 20
65.6199452476
 11
88.0623196118
 21
65.6187049159
  0
LINE
  5
237
100
AcDbEntity
  8
0
100
AcDbLine
 62
7
  6
BYLAYER
 10
47.4273988423
 20
13.884855601
 11
47.4273988423
 21
150.424855601
  0
LINE
  5
238
100
AcDbEntity
  8
0
100
AcDbLine
 62
7
  6
BYLAYER
 10
47.5496569081
 20
15.141064793
 11
47.5496569081
 21
149.1686464089
  0
LINE
  5
239
100
AcDbEntity
  8
0
100
AcDbLine
 62
7
  6
BYLAYER
 10
48.5009752539
 20
14.59182089
 11
48.5009752539
 21
149.7178903119
  0
LINE
  5
23A
100
AcDbEntity
  8
0
100
AcDbLine
 62
7
  6
BYLAYER
 10
48.8009752539
 20
149.5446852312
 11
48.8009752539
 21
14.7650259708
  0
LINE
  5
23B
100
AcDbEntity
  8
0
100
AcDbLine
 62
7
  6
BYLAYER
 10
49.2273988423
 20
83.5299123802
 11
49.2273988423
 21
78.1346514981
  0
LINE
  5
23C
100
AcDbEntity
  8
0
100
AcDbLine
 62
7
  6
BYLAYER
 10
49.2273988423
 20
76.1750597039
 11
49.2273988423
 21
70.7797988218
  0
LINE
  5
23D
100
AcDbEntity
  8
0
100
AcDbLine
 62
7
  6
BYLAYER
 10
49.7773988423
 20
94.7959344711
 11
49.7773988423
 21
89.0763430885
  0
LINE
  5
23E
100
AcDbEntity
  8
0
100
AcDbLine
 62
7
  6
BYLAYER
 10
49.7773988423
 20
89.0163833499
 11
49.7773988423
 21
88.2606551067
  0
LINE
  5
23F
100
AcDbEntity
  8
0
100
AcDbLine
 62
7
  6
BYLAYER
 10
49.7773988423
 20
88.0640329692
 11
49.7773988423
 21
87.3984983039
  0
LINE
  5
240
100
AcDbEntity
  8
0
100
AcDbLine
 62
7
  6
BYLAYER
 10
49.7773988423
 20
87.0667101807
 11
49.7773988423
 21
86.4964342139
  0
LINE
  5
241
100
AcDbEntity
  8
0
100
AcDbLine
 62
7
  6
BYLAYER
 10
49.7773988423
 20
86.032005213
 11
49.7773988423
 21
85.5613280891
  0
LINE
  5
242
100
AcDbEntity
  8
0
100
AcDbLine
 62
7
  6
BYLAYER
 10
49.7773988423
 20
84.9677927957
 11
49.7773988423
 21
84.6002966519
  0
LINE
  5
243
100
AcDbEntity
  8
0
100
AcDbLine
 62
7
  6
BYLAYER
 10
49.7773988423
 20
83.8821722278
 11
49.7773988423
 21
83.6206539316
  0
LINE
  5
244
100
AcDbEntity
  8
0
100
AcDbLine
 62
7
  6
BYLAYER
 10
49.7773988423
 20
77.8132769881
 11
49.7773988423
 21
77.2430010212
  0
LINE
  5
245
100
AcDbEntity
  8
0
100
AcDbLine
 62
7
  6
BYLAYER
 10
49.7773988423
 20
76.9112128981
 11
49.7773988423
 21
76.2456782327
  0
LINE
  5
246
100
AcDbEntity
  8
0
100
AcDbLine
 62
7
  6
BYLAYER
 10
49.7773988423
 20
70.7797988218
 11
49.7773988423
 21
69.5204808746
  0
LINE
  5
247
100
AcDbEntity
  8
0
100
AcDbLine
 62
7
  6
BYLAYER
 10
52.2773988423
 20
68.9298834407
 11
55.5273988423
 21
68.9298834407
  0
LINE
  5
248
100
AcDbEntity
  8
0
100
AcDbLine
 62
7
  6
BYLAYER
 10
67.0273988423
 20
69.0171285388
 11
68.1077605517
 21
69.0171285388
  0
LINE
  5
249
100
AcDbEntity
  8
0
100
AcDbLine
 62
7
  6
BYLAYER
 10
55.5273988423
 20
69.0770020376
 11
52.2773988423
 21
69.0770020376
  0
LINE
  5
24A
100
AcDbEntity
  8
0
100
AcDbLine
 62
7
  6
BYLAYER
 10
55.5273988423
 20
69.4560794454
 11
66.5273988423
 21
69.4560794454
  0
LINE
  5
24B
100
AcDbEntity
  8
0
100
AcDbLine
 62
7
  6
BYLAYER
 10
50.7773988423
 20
69.504855601
 11
50.2160434226
 21
69.504855601
  0
LINE
  5
24C
100
AcDbEntity
  8
0
100
AcDbLine
 62
7
  6
BYLAYER
 10
54.0273988423
 20
69.916734416
 11
54.0520713365
 21
69.916734416
  0
LINE
  5
24D
100
AcDbEntity
  8
0
100
AcDbLine
 62
7
  6
BYLAYER
 10
54.0273988423
 20
70.1923866529
 11
52.2773988423
 21
70.1923866529
  0
LINE
  5
24E
100
AcDbEntity
  8
0
100
AcDbLine
 62
7
  6
BYLAYER
 10
52.0273988423
 20
70.7797988218
 11
49.2273988423
 21
70.7797988218
  0
LINE
  5
24F
100
AcDbEntity
  8
0
100
AcDbLine
 62
7
  6
BYLAYER
 10
48.8009752539
 20
70.854855601
 11
49.2273988423
 21
70.854855601
  0
LINE
  5
250
100
AcDbEntity
  8
0
100
AcDbLine
 62
7
  6
BYLAYER
 10
67.9715426346
 20
71.4852357152
 11
70.1421247919
 21
71.4130734647
  0
LINE
  5
251
100
AcDbEntity
  8
0
100
AcDbLine
 62
7
  6
BYLAYER
 10
54.0520713365
 20
69.944974632
 11
82.1181800037
 21
68.9737409042
  0
LINE
  5
252
100
AcDbEntity
  8
0
100
AcDbLine
 62
7
  6
BYLAYER
 10
87.9366176468
 20
68.772392618
 11
88.0169289933
 21
68.7696134266
  0
LINE
  5
253
100
AcDbEntity
  8
0
100
AcDbLine
 62
7
  6
BYLAYER
 10
86.1191123106
 20
68.8357432383
 11
83.9356887972
 21
68.911293497
  0
LINE
  5
254
100
AcDbEntity
  8
0
100
AcDbLine
 62
7
  6
BYLAYER
 10
61.9715426346
 20
71.6928678809
 11
66.0832550501
 21
71.5505805886
  0
LINE
  5
255
100
AcDbEntity
  8
0
100
AcDbLine
 62
7
  6
BYLAYER
 10
70.1421247919
 20
71.4130734647
 11
77.01816518
 21
71.1751256052
  0
LINE
  5
256
100
AcDbEntity
  8
0
100
AcDbLine
 62
7
  6
BYLAYER
 10
79.1581889503
 20
71.1010693102
 11
82.0832550802
 21
70.9998463379
  0
LINE
  5
257
100
AcDbEntity
  8
0
100
AcDbLine
 62
7
  6
BYLAYER
 10
61.817932531
 20
71.6778492121
 11
54.2614033993
 21
71.9394496807
  0
LINE
  5
258
100
AcDbEntity
  8
0
100
AcDbLine
 62
7
  6
BYLAYER
 10
87.8842561043
 20
71.7768389458
 11
86.1705143299
 21
71.8362037105
  0
LINE
  5
259
100
AcDbEntity
  8
0
100
AcDbLine
 62
7
  6
BYLAYER
 10
83.8842563132
 20
71.915134369
 11
82.1705174609
 21
71.9746930173
  0
LINE
  5
25A
100
AcDbEntity
  8
0
100
AcDbLine
 62
7
  6
BYLAYER
 10
67.0273988423
 20
69.054855601
 11
66.5273988423
 21
69.0723159857
  0
LINE
  5
25B
100
AcDbEntity
  8
0
100
AcDbLine
 62
7
  6
BYLAYER
 10
68.1077605517
 20
69.0171285388
 11
88.0273988423
 21
68.3215194417
  0
LINE
  5
25C
100
AcDbEntity
  8
0
100
AcDbLine
 62
7
  6
BYLAYER
 10
83.9356865764
 20
70.8071866884
 11
86.1191110768
 21
70.7309484296
  0
LINE
  5
25D
100
AcDbEntity
  8
0
100
AcDbLine
 62
7
  6
BYLAYER
 10
56.0029543037
 20
69.8480343476
 11
54.0520713365
 21
69.916734416
  0
LINE
  5
25E
100
AcDbEntity
  8
0
100
AcDbLine
 62
7
  6
BYLAYER
 10
50.2160434226
 20
69.5049078428
 11
50.2160434226
 21
69.504855601
  0
LINE
  5
25F
100
AcDbEntity
  8
0
100
AcDbLine
 62
7
  6
BYLAYER
 10
50.2160434226
 20
69.6907759212
 11
50.2160434226
 21
69.703402026
  0
LINE
  5
260
100
AcDbEntity
  8
0
100
AcDbLine
 62
7
  6
BYLAYER
 10
50.2160434226
 20
69.5498761296
 11
50.2160434226
 21
69.5562132968
  0
LINE
  5
261
100
AcDbEntity
  8
0
100
AcDbLine
 62
7
  6
BYLAYER
 10
50.2160434226
 20
69.9265348852
 11
50.2160434226
 21
69.9453538352
  0
LINE
  5
262
100
AcDbEntity
  8
0
100
AcDbLine
 62
7
  6
BYLAYER
 10
50.2160434226
 20
70.2553587535
 11
50.2160434226
 21
70.2802273252
  0
LINE
  5
263
100
AcDbEntity
  8
0
100
AcDbLine
 62
7
  6
BYLAYER
 10
50.2160434226
 20
70.6747449779
 11
50.2160434226
 21
70.7054739065
  0
LINE
  5
264
100
AcDbEntity
  8
0
100
AcDbLine
 62
7
  6
BYLAYER
 10
50.2160434226
 20
76.7758074683
 11
50.2160434226
 21
76.8417058684
  0
LINE
  5
265
100
AcDbEntity
  8
0
100
AcDbLine
 62
7
  6
BYLAYER
 10
50.2160434226
 20
84.3156928775
 11
50.2160434226
 21
84.387299076
  0
LINE
  5
266
100
AcDbEntity
  8
0
100
AcDbLine
 62
7
  6
BYLAYER
 10
50.2160434226
 20
85.3937863614
 11
50.2160434226
 21
85.4640196392
  0
LINE
  5
267
100
AcDbEntity
  8
0
100
AcDbLine
 62
7
  6
BYLAYER
 10
50.2160434226
 20
86.4472296266
 11
50.2160434226
 21
86.515555466
  0
LINE
  5
268
100
AcDbEntity
  8
0
100
AcDbLine
 62
7
  6
BYLAYER
 10
50.2160434226
 20
87.4680053336
 11
50.2160434226
 21
87.5339037337
  0
LINE
  5
269
100
AcDbEntity
  8
0
100
AcDbLine
 62
7
  6
BYLAYER
 10
50.2160434226
 20
88.448344763
 11
50.2160434226
 21
88.5113141971
  0
LINE
  5
26A
100
AcDbEntity
  8
0
100
AcDbLine
 62
7
  6
BYLAYER
 10
50.2160434226
 20
89.3807869397
 11
50.2160434226
 21
89.4403481725
  0
LINE
  5
26B
100
AcDbEntity
  8
0
100
AcDbLine
 62
7
  6
BYLAYER
 10
50.2160434226
 20
90.2582354158
 11
50.2160434226
 21
90.3139351504
  0
LINE
  5
26C
100
AcDbEntity
  8
0
100
AcDbLine
 62
7
  6
BYLAYER
 10
50.2160434226
 20
91.0740122786
 11
50.2160434226
 21
91.1254266063
  0
LINE
  5
26D
100
AcDbEntity
  8
0
100
AcDbLine
 62
7
  6
BYLAYER
 10
50.2160434226
 20
91.8219089735
 11
50.2160434226
 21
91.8686466002
  0
LINE
  5
26E
100
AcDbEntity
  8
0
100
AcDbLine
 62
7
  6
BYLAYER
 10
50.2160434226
 20
92.4962335551
 11
50.2160434226
 21
92.5379387793
  0
LINE
  5
26F
100
AcDbEntity
  8
0
100
AcDbLine
 62
7
  6
BYLAYER
 10
50.2160434226
 20
93.0918540062
 11
50.2160434226
 21
93.128209426
  0
LINE
  5
270
100
AcDbEntity
  8
0
100
AcDbLine
 62
7
  6
BYLAYER
 10
50.2160434226
 20
93.6042372955
 11
50.2160434226
 21
93.6349662241
  0
LINE
  5
271
100
AcDbEntity
  8
0
100
AcDbLine
 62
7
  6
BYLAYER
 10
50.2160434226
 20
94.0294838767
 11
50.2160434226
 21
94.0543524485
  0
LINE
  5
272
100
AcDbEntity
  8
0
100
AcDbLine
 62
7
  6
BYLAYER
 10
50.2160434226
 20
94.3643573667
 11
50.2160434226
 21
94.3831763168
  0
LINE
  5
273
100
AcDbEntity
  8
0
100
AcDbLine
 62
7
  6
BYLAYER
 10
50.2160434226
 20
94.606309176
 11
50.2160434226
 21
94.6189352808
  0
LINE
  5
274
100
AcDbEntity
  8
0
100
AcDbLine
 62
7
  6
BYLAYER
 10
50.2160434226
 20
94.7534979052
 11
50.2160434226
 21
94.7598350724
  0
LINE
  5
275
100
AcDbEntity
  8
0
100
AcDbLine
 62
7
  6
BYLAYER
 10
50.2160434226
 20
94.8048033591
 11
50.2160434226
 21
94.804855601
  0
LINE
  5
276
100
AcDbEntity
  8
0
100
AcDbLine
 62
7
  6
BYLAYER
 10
50.7773988423
 20
96.6547349698
 11
50.7773988423
 21
83.5299123802
  0
LINE
  5
277
100
AcDbEntity
  8
0
100
AcDbLine
 62
7
  6
BYLAYER
 10
50.7773988423
 20
70.7797988218
 11
50.7773988423
 21
67.6549762321
  0
LINE
  5
278
100
AcDbEntity
  8
0
100
AcDbLine
 62
7
  6
BYLAYER
 10
52.0273988423
 20
83.5299123802
 11
52.0273988423
 21
70.7797988218
  0
LINE
  5
279
100
AcDbEntity
  8
0
100
AcDbLine
 62
7
  6
BYLAYER
 10
52.2773988423
 20
67.6549500416
 11
52.2773988423
 21
69.0770020377
  0
LINE
  5
27A
100
AcDbEntity
  8
0
100
AcDbLine
 62
7
  6
BYLAYER
 10
52.2773988423
 20
70.1923866528
 11
52.2773988423
 21
72.4286730036
  0
LINE
  5
27B
100
AcDbEntity
  8
0
100
AcDbLine
 62
7
  6
BYLAYER
 10
52.2773988423
 20
83.2702402156
 11
52.2773988423
 21
94.1173245498
  0
LINE
  5
27C
100
AcDbEntity
  8
0
100
AcDbLine
 62
7
  6
BYLAYER
 10
52.2773988423
 20
95.2327091643
 11
52.2773988423
 21
96.6547611604
  0
LINE
  5
27D
100
AcDbEntity
  8
0
100
AcDbLine
 62
7
  6
BYLAYER
 10
54.0273988423
 20
69.916734416
 11
54.0273988423
 21
72.4286730036
  0
LINE
  5
27E
100
AcDbEntity
  8
0
100
AcDbLine
 62
7
  6
BYLAYER
 10
54.0273988423
 20
81.8810381984
 11
54.0273988423
 21
84.392976786
  0
LINE
  5
27F
100
AcDbEntity
  8
0
100
AcDbLine
 62
7
  6
BYLAYER
 10
54.0520713365
 20
69.916734416
 11
54.0520713365
 21
69.944974632
  0
LINE
  5
280
100
AcDbEntity
  8
0
100
AcDbLine
 62
7
  6
BYLAYER
 10
54.0520713365
 20
84.36473657
 11
54.0520713365
 21
84.392976786
  0
LINE
  5
281
100
AcDbEntity
  8
0
100
AcDbLine
 62
7
  6
BYLAYER
 10
54.2614033993
 20
71.9394496807
 11
54.2614027871
 21
82.370227694
  0
LINE
  5
282
100
AcDbEntity
  8
0
100
AcDbLine
 62
7
  6
BYLAYER
 10
74.6475266523
 20
74.2334741725
 11
74.6228428162
 21
74.2332172223
  0
LINE
  5
283
100
AcDbEntity
  8
0
100
AcDbLine
 62
7
  6
BYLAYER
 10
73.9307986649
 20
75.5167712358
 11
74.0172700604
 21
75.5167712358
  0
LINE
  5
284
100
AcDbEntity
  8
0
100
AcDbLine
 62
7
  6
BYLAYER
 10
73.7482491541
 20
75.0158249667
 11
73.8346946545
 21
75.0093653129
  0
LINE
  5
285
100
AcDbEntity
  8
0
100
AcDbLine
 62
7
  6
BYLAYER
 10
55.5273988423
 20
26.154855601
 11
55.5273988423
 21
69.8647809661
  0
LINE
  5
286
100
AcDbEntity
  8
0
100
AcDbLine
 62
7
  6
BYLAYER
 10
55.5273988423
 20
84.4449302359
 11
55.5273988423
 21
128.154855601
  0
LINE
  5
287
100
AcDbEntity
  8
0
100
AcDbLine
 62
7
  6
BYLAYER
 10
55.9770933843
 20
69.4560794454
 11
55.9770933843
 21
69.8480343476
  0
LINE
  5
288
100
AcDbEntity
  8
0
100
AcDbLine
 62
7
  6
BYLAYER
 10
55.9770933843
 20
84.4616768543
 11
55.9770933843
 21
84.8536317566
  0
LINE
  5
289
100
AcDbEntity
  8
0
100
AcDbLine
 62
7
  6
BYLAYER
 10
56.0029543037
 20
69.4560794454
 11
56.0029543037
 21
69.8480343476
  0
LINE
  5
28A
100
AcDbEntity
  8
0
100
AcDbLine
 62
7
  6
BYLAYER
 10
56.0029543037
 20
84.4616768543
 11
56.0029543037
 21
84.8536317566
  0
LINE
  5
28B
100
AcDbEntity
  8
0
100
AcDbLine
 62
7
  6
BYLAYER
 10
59.3273988423
 20
134.084855601
 11
59.3273988423
 21
132.084855601
  0
LINE
  5
28C
100
AcDbEntity
  8
0
100
AcDbLine
 62
7
  6
BYLAYER
 10
86.1191111121
 20
83.5787674151
 11
83.9356865726
 21
83.5025226704
  0
LINE
  5
28D
100
AcDbEntity
  8
0
100
AcDbLine
 62
7
  6
BYLAYER
 10
82.1705165935
 20
82.3350177083
 11
83.8842556654
 21
82.3945774701
  0
LINE
  5
28E
100
AcDbEntity
  8
0
100
AcDbLine
 62
7
  6
BYLAYER
 10
86.1705152362
 20
82.4735057419
 11
87.8842567565
 21
82.5328700177
  0
LINE
  5
28F
100
AcDbEntity
  8
0
100
AcDbLine
 62
7
  6
BYLAYER
 10
82.0832550802
 20
83.3098648641
 11
75.2103020585
 21
83.0720238409
  0
LINE
  5
290
100
AcDbEntity
  8
0
100
AcDbLine
 62
7
  6
BYLAYER
 10
73.0984350751
 20
82.9989419216
 11
70.1421247917
 21
82.8966377372
  0
LINE
  5
291
100
AcDbEntity
  8
0
100
AcDbLine
 62
7
  6
BYLAYER
 10
70.055933261
 20
82.8966377372
 11
67.9715426346
 21
82.8245066472
  0
LINE
  5
292
100
AcDbEntity
  8
0
100
AcDbLine
 62
7
  6
BYLAYER
 10
66.0832550501
 20
82.7591617738
 11
61.9715426346
 21
82.6168744815
  0
LINE
  5
293
100
AcDbEntity
  8
0
100
AcDbLine
 62
7
  6
BYLAYER
 10
54.2614027871
 20
82.370227694
 11
61.8179330565
 21
82.6319151852
  0
LINE
  5
294
100
AcDbEntity
  8
0
100
AcDbLine
 62
7
  6
BYLAYER
 10
77.0181651836
 20
78.7890378109
 11
76.930779756
 21
78.7890378109
  0
LINE
  5
295
100
AcDbEntity
  8
0
100
AcDbLine
 62
7
  6
BYLAYER
 10
76.8328050533
 20
79.2938829537
 11
76.7454760839
 21
79.2938829537
  0
LINE
  5
296
100
AcDbEntity
  8
0
100
AcDbLine
 62
7
  6
BYLAYER
 10
77.6231619025
 20
80.0783737221
 11
77.6733966735
 21
80.0767683136
  0
LINE
  5
297
100
AcDbEntity
  8
0
100
AcDbLine
 62
7
  6
BYLAYER
 10
77.6733966735
 20
80.0767683136
 11
77.780500213
 21
80.0629135469
  0
LINE
  5
298
100
AcDbEntity
  8
0
100
AcDbLine
 62
7
  6
BYLAYER
 10
60.1243546008
 20
134.084855601
 11
60.1243546008
 21
132.084855601
  0
LINE
  5
299
100
AcDbEntity
  8
0
100
AcDbLine
 62
7
  6
BYLAYER
 10
61.8179380613
 20
71.677993325
 11
61.8179380615
 21
82.6317287584
  0
LINE
  5
29A
100
AcDbEntity
  8
0
100
AcDbLine
 62
7
  6
BYLAYER
 10
61.8273988423
 20
125.1087833046
 11
61.8273988423
 21
124.4548555836
  0
LINE
  5
29B
100
AcDbEntity
  8
0
100
AcDbLine
 62
7
  6
BYLAYER
 10
61.8273988423
 20
123.8548557955
 11
61.8273988423
 21
123.2009273446
  0
LINE
  5
29C
100
AcDbEntity
  8
0
100
AcDbLine
 62
7
  6
BYLAYER
 10
61.8273988423
 20
31.1087833188
 11
61.8273988423
 21
30.4548555836
  0
LINE
  5
29D
100
AcDbEntity
  8
0
100
AcDbLine
 62
7
  6
BYLAYER
 10
61.8273988423
 20
29.8548557955
 11
61.8273988423
 21
29.2009273466
  0
LINE
  5
29E
100
AcDbEntity
  8
0
100
AcDbLine
 62
7
  6
BYLAYER
 10
61.9715426346
 20
84.6387915778
 11
61.9715426346
 21
69.6709196242
  0
LINE
  5
29F
100
AcDbEntity
  8
0
100
AcDbLine
 62
7
  6
BYLAYER
 10
62.8273988423
 20
124.4548556104
 11
62.8273988423
 21
123.8548555874
  0
LINE
  5
2A0
100
AcDbEntity
  8
0
100
AcDbLine
 62
7
  6
BYLAYER
 10
62.8273988423
 20
30.4548556104
 11
62.8273988423
 21
29.854855589
  0
LINE
  5
2A1
100
AcDbEntity
  8
0
100
AcDbLine
 62
7
  6
BYLAYER
 10
63.3273988423
 20
132.084855601
 11
63.3273988423
 21
128.154855601
  0
LINE
  5
2A2
100
AcDbEntity
  8
0
100
AcDbLine
 62
7
  6
BYLAYER
 10
63.3273988423
 20
126.654855601
 11
63.3273988423
 21
124.4548556192
  0
LINE
  5
2A3
100
AcDbEntity
  8
0
100
AcDbLine
 62
7
  6
BYLAYER
 10
63.3273988423
 20
123.8548555697
 11
63.3273988423
 21
121.654855601
  0
LINE
  5
2A4
100
AcDbEntity
  8
0
100
AcDbLine
 62
7
  6
BYLAYER
 10
63.3273988423
 20
32.654855601
 11
63.3273988423
 21
30.4548556192
  0
LINE
  5
2A5
100
AcDbEntity
  8
0
100
AcDbLine
 62
7
  6
BYLAYER
 10
63.3273988423
 20
29.8548555751
 11
63.3273988423
 21
27.654855601
  0
LINE
  5
2A6
100
AcDbEntity
  8
0
100
AcDbLine
 62
7
  6
BYLAYER
 10
63.9273988423
 20
128.1548598845
 11
63.9273988423
 21
120.1514255146
  0
LINE
  5
2A7
100
AcDbEntity
  8
0
100
AcDbLine
 62
7
  6
BYLAYER
 10
63.9273988423
 20
26.1548518665
 11
63.9273988423
 21
34.1582856874
  0
LINE
  5
2A8
100
AcDbEntity
  8
0
100
AcDbLine
 62
7
  6
BYLAYER
 10
88.0623196118
 20
88.691006286
 11
88.027399815
 21
88.6897659526
  0
LINE
  5
2A9
100
AcDbEntity
  8
0
100
AcDbLine
 62
7
  6
BYLAYER
 10
54.0520713365
 20
84.392976786
 11
56.0029543037
 21
84.4616768543
  0
LINE
  5
2AA
100
AcDbEntity
  8
0
100
AcDbLine
 62
7
  6
BYLAYER
 10
88.0273988423
 20
85.9881917603
 11
67.5535050771
 21
85.2732276355
  0
LINE
  5
2AB
100
AcDbEntity
  8
0
100
AcDbLine
 62
7
  6
BYLAYER
 10
67.0273988423
 20
85.254855601
 11
66.5273988423
 21
85.2373952162
  0
LINE
  5
2AC
100
AcDbEntity
  8
0
100
AcDbLine
 62
7
  6
BYLAYER
 10
83.935688389
 20
85.3984177348
 11
86.1191127774
 21
85.4739680171
  0
LINE
  5
2AD
100
AcDbEntity
  8
0
100
AcDbLine
 62
7
  6
BYLAYER
 10
88.0169289933
 20
85.5400977754
 11
87.9366179727
 21
85.5373185953
  0
LINE
  5
2AE
100
AcDbEntity
  8
0
100
AcDbLine
 62
7
  6
BYLAYER
 10
54.0520713365
 20
84.36473657
 11
82.1181796336
 21
85.3359702849
  0
LINE
  5
2AF
100
AcDbEntity
  8
0
100
AcDbLine
 62
7
  6
BYLAYER
 10
70.1421247917
 20
82.8966377372
 11
70.055933261
 21
82.8966377372
  0
LINE
  5
2B0
100
AcDbEntity
  8
0
100
AcDbLine
 62
7
  6
BYLAYER
 10
54.0273988423
 20
83.2702402162
 11
52.2773988423
 21
83.2702402162
  0
LINE
  5
2B1
100
AcDbEntity
  8
0
100
AcDbLine
 62
7
  6
BYLAYER
 10
52.0273988423
 20
83.5299123802
 11
49.2273988423
 21
83.5299123802
  0
LINE
  5
2B2
100
AcDbEntity
  8
0
100
AcDbLine
 62
7
  6
BYLAYER
 10
54.0273988423
 20
84.392976786
 11
54.0520713365
 21
84.392976786
  0
LINE
  5
2B3
100
AcDbEntity
  8
0
100
AcDbLine
 62
7
  6
BYLAYER
 10
54.8531239525
 20
84.654855601
 11
55.5273988423
 21
84.654855601
  0
LINE
  5
2B4
100
AcDbEntity
  8
0
100
AcDbLine
 62
7
  6
BYLAYER
 10
55.5273988423
 20
84.8536317566
 11
66.5273988423
 21
84.8536317566
  0
LINE
  5
2B5
100
AcDbEntity
  8
0
100
AcDbLine
 62
7
  6
BYLAYER
 10
67.0273988423
 20
85.2732276355
 11
67.5535050772
 21
85.2732276355
  0
LINE
  5
2B6
100
AcDbEntity
  8
0
100
AcDbLine
 62
7
  6
BYLAYER
 10
65.3273988423
 20
132.084855601
 11
65.3273988423
 21
128.154855601
  0
LINE
  5
2B7
100
AcDbEntity
  8
0
100
AcDbLine
 62
7
  6
BYLAYER
 10
66.0832550501
 20
71.5505805886
 11
66.0832550501
 21
82.7591617738
  0
LINE
  5
2B8
100
AcDbEntity
  8
0
100
AcDbLine
 62
7
  6
BYLAYER
 10
66.5273988423
 20
69.4560794454
 11
66.5273988423
 21
30.1509911252
  0
LINE
  5
2B9
100
AcDbEntity
  8
0
100
AcDbLine
 62
7
  6
BYLAYER
 10
66.5273988423
 20
26.1548518897
 11
66.5273988423
 21
30.1506539003
  0
LINE
  5
2BA
100
AcDbEntity
  8
0
100
AcDbLine
 62
7
  6
BYLAYER
 10
66.5273988423
 20
84.8536317566
 11
66.5273988423
 21
128.1548599195
  0
LINE
  5
2BB
100
AcDbEntity
  8
0
100
AcDbLine
 62
7
  6
BYLAYER
 10
67.0273988423
 20
26.1548555151
 11
67.0273988423
 21
69.054855601
  0
LINE
  5
2BC
100
AcDbEntity
  8
0
100
AcDbLine
 62
7
  6
BYLAYER
 10
67.0273988423
 20
85.2732276355
 11
67.0273988423
 21
128.1548556767
  0
LINE
  5
2BD
100
AcDbEntity
  8
0
100
AcDbLine
 62
7
  6
BYLAYER
 10
67.9715426346
 20
82.8245066472
 11
67.9715426346
 21
71.4852357152
  0
LINE
  5
2BE
100
AcDbEntity
  8
0
100
AcDbLine
 62
7
  6
BYLAYER
 10
68.5304430839
 20
132.084855601
 11
68.5304430839
 21
134.084855601
  0
LINE
  5
2BF
100
AcDbEntity
  8
0
100
AcDbLine
 62
7
  6
BYLAYER
 10
69.3273988423
 20
134.084855601
 11
69.3273988423
 21
132.084855601
  0
LINE
  5
2C0
100
AcDbEntity
  8
0
100
AcDbLine
 62
7
  6
BYLAYER
 10
55.5273988423
 20
92.1298277613
 11
54.8531239525
 21
92.1298277613
  0
LINE
  5
2C1
100
AcDbEntity
  8
0
100
AcDbLine
 62
7
  6
BYLAYER
 10
70.0862685839
 20
82.8966377372
 11
70.0862647597
 21
71.4140022064
  0
LINE
  5
2C2
100
AcDbEntity
  8
0
100
AcDbLine
 62
7
  6
BYLAYER
 10
54.7855542021
 20
68.9298834407
 11
52.2773988423
 21
68.0169895468
  0
LINE
  5
2C3
100
AcDbEntity
  8
0
100
AcDbLine
 62
7
  6
BYLAYER
 10
48.8009752539
 20
93.454855601
 11
49.7773988423
 21
93.454855601
  0
LINE
  5
2C4
100
AcDbEntity
  8
0
100
AcDbLine
 62
7
  6
BYLAYER
 10
55.5273988423
 20
94.1173245491
 11
52.2773988423
 21
94.1173245491
  0
LINE
  5
2C5
100
AcDbEntity
  8
0
100
AcDbLine
 62
7
  6
BYLAYER
 10
50.7773988423
 20
94.804855601
 11
50.2160434226
 21
94.804855601
  0
LINE
  5
2C6
100
AcDbEntity
  8
0
100
AcDbLine
 62
7
  6
BYLAYER
 10
55.5273988423
 20
95.2327091644
 11
52.2773988423
 21
95.2327091644
  0
LINE
  5
2C7
100
AcDbEntity
  8
0
100
AcDbLine
 62
7
  6
BYLAYER
 10
52.2773988423
 20
95.3798277613
 11
55.5273988423
 21
95.3798277613
  0
LINE
  5
2C8
100
AcDbEntity
  8
0
100
AcDbLine
 62
7
  6
BYLAYER
 10
52.2773988423
 20
96.654855601
 11
50.7773988423
 21
96.654855601
  0
LINE
  5
2C9
100
AcDbEntity
  8
0
100
AcDbLine
 62
7
  6
BYLAYER
 10
54.7855542021
 20
95.3798277613
 11
52.2773988423
 21
96.2927216552
  0
LINE
  5
2CA
100
AcDbEntity
  8
0
100
AcDbLine
 62
7
  6
BYLAYER
 10
73.0135232886
 20
82.9885176531
 11
73.9307986649
 21
75.5167712358
  0
LINE
  5
2CB
100
AcDbEntity
  8
0
100
AcDbLine
 62
7
  6
BYLAYER
 10
73.0984350751
 20
82.9989419216
 11
74.0172700604
 21
75.5167712358
  0
LINE
  5
2CC
100
AcDbEntity
  8
0
100
AcDbLine
 62
7
  6
BYLAYER
 10
75.2103020585
 20
83.0720238409
 11
75.2103017632
 21
76.1608445626
  0
LINE
  5
2CD
100
AcDbEntity
  8
0
100
AcDbLine
 62
7
  6
BYLAYER
 10
76.9307797524
 20
71.1751256052
 11
76.930779756
 21
78.7890378109
  0
LINE
  5
2CE
100
AcDbEntity
  8
0
100
AcDbLine
 62
7
  6
BYLAYER
 10
77.0181651836
 20
78.7890378109
 11
77.01816518
 21
71.1751256052
  0
LINE
  5
2CF
100
AcDbEntity
  8
0
100
AcDbLine
 62
7
  6
BYLAYER
 10
79.1581889503
 20
71.1010693102
 11
78.2153048573
 21
78.7743948323
  0
LINE
  5
2D0
100
AcDbEntity
  8
0
100
AcDbLine
 62
7
  6
BYLAYER
 10
81.9943268646
 20
70.999846342
 11
81.9943268646
 21
83.3098648599
  0
LINE
  5
2D1
100
AcDbEntity
  8
0
100
AcDbLine
 62
7
  6
BYLAYER
 10
82.0832550501
 20
85.3347617122
 11
82.0832550802
 21
83.3098648641
  0
LINE
  5
2D2
100
AcDbEntity
  8
0
100
AcDbLine
 62
7
  6
BYLAYER
 10
82.0832550802
 20
70.9998463379
 11
82.0832550501
 21
68.9749494898
  0
LINE
  5
2D3
100
AcDbEntity
  8
0
100
AcDbLine
 62
7
  6
BYLAYER
 10
82.170530369
 20
82.3346109395
 11
82.1705303692
 21
71.9750973461
  0
LINE
  5
2D4
100
AcDbEntity
  8
0
100
AcDbLine
 62
7
  6
BYLAYER
 10
83.8842556654
 20
82.3945774701
 11
83.8842563132
 21
71.915134369
  0
LINE
  5
2D5
100
AcDbEntity
  8
0
100
AcDbLine
 62
7
  6
BYLAYER
 10
83.9356865821
 20
85.3984899433
 11
83.9356865822
 21
68.9112212405
  0
LINE
  5
2D6
100
AcDbEntity
  8
0
100
AcDbLine
 62
7
  6
BYLAYER
 10
86.1191123106
 20
68.8357432383
 11
86.1191127774
 21
85.4739680171
  0
LINE
  5
2D7
100
AcDbEntity
  8
0
100
AcDbLine
 62
7
  6
BYLAYER
 10
86.1705303682
 20
82.4726426924
 11
86.170530368
 21
71.8370669013
  0
LINE
  5
2D8
100
AcDbEntity
  8
0
100
AcDbLine
 62
7
  6
BYLAYER
 10
87.8842567565
 20
82.5328700177
 11
87.8842561043
 21
71.7768389458
  0
LINE
  5
2D9
100
AcDbEntity
  8
0
100
AcDbLine
 62
7
  6
BYLAYER
 10
88.0169289933
 20
85.9881917603
 11
88.0169289933
 21
85.5400977754
  0
LINE
  5
2DA
100
AcDbEntity
  8
0
100
AcDbLine
 62
7
  6
BYLAYER
 10
88.0169289933
 20
68.7696134266
 11
88.0169289933
 21
68.3215194417
  0
LINE
  5
2DB
100
AcDbEntity
  8
0
100
AcDbLine
 62
7
  6
BYLAYER
 10
88.0273988423
 20
127.4215195275
 11
88.0273988423
 21
85.9881917603
  0
LINE
  5
2DC
100
AcDbEntity
  8
0
100
AcDbLine
 62
7
  6
BYLAYER
 10
88.0273988423
 20
68.3215194417
 11
88.0273988423
 21
26.8881916847
  0
LINE
  5
2DD
100
AcDbEntity
  8
0
100
AcDbLine
 62
7
  6
BYLAYER
 10
88.0623196118
 20
88.691006286
 11
88.0623196118
 21
65.6187049159
  0
LINE
  5
2DE
100
AcDbEntity
  8
0
100
AcDbLine
 62
7
  6
BYLAYER
 10
55.5273988423
 20
120.1514255146
 11
63.9273988423
 21
120.1514255146
  0
LINE
  5
2DF
100
AcDbEntity
  8
0
100
AcDbLine
 62
7
  6
BYLAYER
 10
63.3273988423
 20
121.654855601
 11
63.9273988423
 21
121.654855601
  0
LINE
  5
2E0
100
AcDbEntity
  8
0
100
AcDbLine
 62
7
  6
BYLAYER
 10
61.8687823188
 20
122.804855601
 11
61.8771020212
 21
122.804855601
  0
LINE
  5
2E1
100
AcDbEntity
  8
0
100
AcDbLine
 62
7
  6
BYLAYER
 10
61.8273988423
 20
123.854855601
 11
63.3274003501
 21
123.854855601
  0
LINE
  5
2E2
100
AcDbEntity
  8
0
100
AcDbLine
 62
7
  6
BYLAYER
 10
66.5273988423
 20
124.1394228716
 11
67.0273988423
 21
124.1394228775
  0
LINE
  5
2E3
100
AcDbEntity
  8
0
100
AcDbLine
 62
7
  6
BYLAYER
 10
55.5273988423
 20
124.1548555995
 11
62.8273988423
 21
124.1548556008
  0
LINE
  5
2E4
100
AcDbEntity
  8
0
100
AcDbLine
 62
7
  6
BYLAYER
 10
63.3273942623
 20
124.454855601
 11
61.8273988424
 21
124.454855601
  0
LINE
  5
2E5
100
AcDbEntity
  8
0
100
AcDbLine
 62
7
  6
BYLAYER
 10
61.8771020212
 20
125.504855601
 11
61.8687823188
 21
125.504855601
  0
LINE
  5
2E6
100
AcDbEntity
  8
0
100
AcDbLine
 62
7
  6
BYLAYER
 10
63.3273988423
 20
126.654855601
 11
63.9273988423
 21
126.654855601
  0
LINE
  5
2E7
100
AcDbEntity
  8
0
100
AcDbLine
 62
7
  6
BYLAYER
 10
66.5273988423
 20
124.1574597892
 11
63.9273988423
 21
124.1585649109
  0
LINE
  5
2E8
100
AcDbEntity
  8
0
100
AcDbLine
 62
7
  6
BYLAYER
 10
67.0274129799
 20
124.1514192755
 11
88.0274123179
 21
123.418083141
  0
LINE
  5
2E9
100
AcDbEntity
  8
0
100
AcDbLine
 62
7
  6
BYLAYER
 10
67.0273988423
 20
127.6373952162
 11
66.5273988423
 21
127.6373952162
  0
LINE
  5
2EA
100
AcDbEntity
  8
0
100
AcDbLine
 62
7
  6
BYLAYER
 10
55.5273988423
 20
128.154855601
 11
67.0273988423
 21
128.154855601
  0
LINE
  5
2EB
100
AcDbEntity
  8
0
100
AcDbLine
 62
7
  6
BYLAYER
 10
30.2273988423
 20
130.954855601
 11
30.1273988423
 21
130.954855601
  0
LINE
  5
2EC
100
AcDbEntity
  8
0
100
AcDbLine
 62
7
  6
BYLAYER
 10
30.1273988423
 20
131.954855601
 11
30.2273988423
 21
131.954855601
  0
LINE
  5
2ED
100
AcDbEntity
  8
0
100
AcDbLine
 62
7
  6
BYLAYER
 10
59.3273988423
 20
132.084855601
 11
63.3273988423
 21
132.084855601
  0
LINE
  5
2EE
100
AcDbEntity
  8
0
100
AcDbLine
 62
7
  6
BYLAYER
 10
65.3273988423
 20
132.084855601
 11
69.3273988423
 21
132.084855601
  0
LINE
  5
2EF
100
AcDbEntity
  8
0
100
AcDbLine
 62
7
  6
BYLAYER
 10
88.0273964221
 20
127.4215195262
 11
67.027396795
 21
128.1548556725
  0
LINE
  5
2F0
100
AcDbEntity
  8
0
100
AcDbLine
 62
7
  6
BYLAYER
 10
59.3273988423
 20
134.084855601
 11
69.3273988423
 21
134.084855601
  0
LINE
  5
2F1
100
AcDbEntity
  8
0
100
AcDbLine
 62
7
  6
BYLAYER
 10
30.2273988423
 20
139.954855601
 11
30.1273988423
 21
139.954855601
  0
LINE
  5
2F2
100
AcDbEntity
  8
0
100
AcDbLine
 62
7
  6
BYLAYER
 10
30.1273988423
 20
140.954855601
 11
30.2273988423
 21
140.954855601
  0
LINE
  5
2F3
100
AcDbEntity
  8
0
100
AcDbLine
 62
7
  6
BYLAYER
 10
30.2273988423
 20
145.354855601
 11
30.1273988423
 21
145.354855601
  0
LINE
  5
2F4
100
AcDbEntity
  8
0
100
AcDbLine
 62
7
  6
BYLAYER
 10
48.8009752539
 20
145.624855601
 11
44.8273988423
 21
145.624855601
  0
LINE
  5
2F5
100
AcDbEntity
  8
0
100
AcDbLine
 62
7
  6
BYLAYER
 10
44.8273988423
 20
145.8548556005
 11
30.3273988423
 21
145.8548556009
  0
LINE
  5
2F6
100
AcDbEntity
  8
0
100
AcDbLine
 62
7
  6
BYLAYER
 10
30.3273988423
 20
150.354855601
 11
44.8273988423
 21
150.7345514637
  0
LINE
  5
2F7
100
AcDbEntity
  8
0
100
AcDbLine
 62
7
  6
BYLAYER
 10
30.1273988423
 20
148.954855601
 11
30.2273988423
 21
148.954855601
  0
LINE
  5
2F8
100
AcDbEntity
  8
0
100
AcDbLine
 62
7
  6
BYLAYER
 10
47.4273988423
 20
149.1686464089
 11
47.5496569081
 21
149.1686464089
  0
LINE
  5
2F9
100
AcDbEntity
  8
0
100
AcDbLine
 62
7
  6
BYLAYER
 10
44.8273988423
 20
150.424855601
 11
47.4273988423
 21
150.424855601
  0
ARC
  5
2FA
100
AcDbEntity
  8
0
100
AcDbCircle
 62
7
  6
BYLAYER
 10
49.4273988423
 20
77.154855601
 40
1.0
100
AcDbArc
 50
258.4630409672
 51
101.5369590328
  0
ARC
  5
2FB
100
AcDbEntity
  8
0
100
AcDbCircle
 62
7
  6
BYLAYER
 10
48.6009752539
 20
14.7650259708
 40
0.2
100
AcDbArc
 50
240.0
 51
360.0
  0
ARC
  5
2FC
100
AcDbEntity
  8
0
100
AcDbCircle
 62
7
  6
BYLAYER
 10
48.6009752539
 20
149.5446852312
 40
0.2
100
AcDbArc
 50
0.0
 51
120.0
  0
ARC
  5
2FD
100
AcDbEntity
  8
0
100
AcDbCircle
 62
7
  6
BYLAYER
 10
63.4498693714
 20
31.1090991686
 40
1.6224705606
100
AcDbArc
 50
175.2184813184
 51
180.0112916433
  0
ARC
  5
2FE
100
AcDbEntity
  8
0
100
AcDbCircle
 62
7
  6
BYLAYER
 10
63.4498057256
 20
29.2006094768
 40
1.6224069159
100
AcDbArc
 50
179.9884886664
 51
184.7816117973
  0
ARC
  5
2FF
100
AcDbEntity
  8
0
100
AcDbCircle
 62
7
  6
BYLAYER
 10
63.4198415439
 20
29.1984552826
 40
1.592367489
100
AcDbArc
 50
184.794243403
 51
186.0627158811
  0
ARC
  5
300
100
AcDbEntity
  8
0
100
AcDbCircle
 62
7
  6
BYLAYER
 10
63.4197332615
 20
31.1112667113
 40
1.5922586908
100
AcDbArc
 50
173.912234376
 51
175.2058135699
  0
ARC
  5
301
100
AcDbEntity
  8
0
100
AcDbCircle
 62
7
  6
BYLAYER
 10
63.4054258379
 20
29.1968323751
 40
1.5778610078
100
AcDbArc
 50
186.0594010485
 51
189.6078110801
  0
ARC
  5
302
100
AcDbEntity
  8
0
100
AcDbCircle
 62
7
  6
BYLAYER
 10
63.4053305287
 20
31.1128925127
 40
1.577764764
100
AcDbArc
 50
170.3920976715
 51
173.9154735555
  0
ARC
  5
303
100
AcDbEntity
  8
0
100
AcDbCircle
 62
7
  6
BYLAYER
 10
63.3855701087
 20
31.1162316998
 40
1.5577241967
100
AcDbArc
 50
165.5531395525
 51
170.3918858363
  0
ARC
  5
304
100
AcDbEntity
  8
0
100
AcDbCircle
 62
7
  6
BYLAYER
 10
63.3855656635
 20
29.193478401
 40
1.5577196174
100
AcDbArc
 50
189.608097871
 51
194.4468620154
  0
ARC
  5
305
100
AcDbEntity
  8
0
100
AcDbCircle
 62
7
  6
BYLAYER
 10
63.3273988423
 20
31.1548548694
 40
1.5
100
AcDbArc
 50
90.0
 51
166.5065724392
  0
ARC
  5
306
100
AcDbEntity
  8
0
100
AcDbCircle
 62
7
  6
BYLAYER
 10
63.3273988423
 20
29.1548563326
 40
1.5
100
AcDbArc
 50
193.4934275606
 51
270.0
  0
ARC
  5
307
100
AcDbEntity
  8
0
100
AcDbCircle
 62
7
  6
BYLAYER
 10
74.6197596528
 20
75.044829342
 40
0.8118301652
100
AcDbArc
 50
271.9600678835
 51
276.6143766123
  0
ARC
  5
308
100
AcDbEntity
  8
0
100
AcDbCircle
 62
7
  6
BYLAYER
 10
77.5348658017
 20
79.2971983839
 40
0.7893966802
100
AcDbArc
 50
180.2406403815
 51
220.0707351114
  0
ARC
  5
309
100
AcDbEntity
  8
0
100
AcDbCircle
 62
7
  6
BYLAYER
 10
74.6239990151
 20
75.0159528508
 40
0.7864282824
100
AcDbArc
 50
359.9993078892
 51
39.8575741096
  0
ARC
  5
30A
100
AcDbEntity
  8
0
100
AcDbCircle
 62
7
  6
BYLAYER
 10
77.6281465782
 20
79.2937506825
 40
0.7841141097
100
AcDbArc
 50
0.2609389074
 51
78.796037084
  0
ARC
  5
30B
100
AcDbEntity
  8
0
100
AcDbCircle
 62
7
  6
BYLAYER
 10
77.623264275
 20
79.3020598553
 40
0.7763567781
100
AcDbArc
 50
90.0075554071
 51
92.6624613155
  0
ARC
  5
30C
100
AcDbEntity
  8
0
100
AcDbCircle
 62
7
  6
BYLAYER
 10
63.4498711621
 20
125.1090994712
 40
1.6224723514
100
AcDbArc
 50
175.2179119819
 51
180.0113033431
  0
ARC
  5
30D
100
AcDbEntity
  8
0
100
AcDbCircle
 62
7
  6
BYLAYER
 10
63.449806764
 20
123.2006091479
 40
1.6224079544
100
AcDbArc
 50
179.9884845595
 51
184.782190985
  0
ARC
  5
30E
100
AcDbEntity
  8
0
100
AcDbCircle
 62
7
  6
BYLAYER
 10
63.4197125755
 20
125.1112688647
 40
1.5922379323
100
AcDbArc
 50
173.9107653496
 51
175.2052322055
  0
ARC
  5
30F
100
AcDbEntity
  8
0
100
AcDbCircle
 62
7
  6
BYLAYER
 10
63.4196836502
 20
123.1984406288
 40
1.5922089578
100
AcDbArc
 50
184.7947978852
 51
186.1123382271
  0
ARC
  5
310
100
AcDbEntity
  8
0
100
AcDbCircle
 62
7
  6
BYLAYER
 10
63.4053188897
 20
125.112893911
 40
1.5777530793
100
AcDbArc
 50
170.39227411
 51
173.9139986401
  0
ARC
  5
311
100
AcDbEntity
  8
0
100
AcDbCircle
 62
7
  6
BYLAYER
 10
63.405255161
 20
123.1968076206
 40
1.5776886166
100
AcDbArc
 50
186.1091639941
 51
189.6077694562
  0
ARC
  5
312
100
AcDbEntity
  8
0
100
AcDbCircle
 62
7
  6
BYLAYER
 10
63.3855753129
 20
125.1162302948
 40
1.5577295869
100
AcDbArc
 50
165.5531372658
 51
170.392066283
  0
ARC
  5
313
100
AcDbEntity
  8
0
100
AcDbCircle
 62
7
  6
BYLAYER
 10
63.3855707268
 20
123.1934797622
 40
1.5577248601
100
AcDbArc
 50
189.6079239544
 51
194.4468640387
  0
ARC
  5
314
100
AcDbEntity
  8
0
100
AcDbCircle
 62
7
  6
BYLAYER
 10
63.3273988423
 20
123.1548563326
 40
1.5
100
AcDbArc
 50
193.4934275609
 51
270.0
  0
ARC
  5
315
100
AcDbEntity
  8
0
100
AcDbCircle
 62
7
  6
BYLAYER
 10
63.3273988423
 20
125.1548548694
 40
1.5
100
AcDbArc
 50
90.0
 51
166.5065724393
  0
SPLINE
  5
316
100
AcDbEntity
  8
0
100
AcDbSpline
 62
7
  6
BYLAYER
 70
0
 71
3
 72
11
 73
7
 74
0
 42
0.0000001
 43
0.0000001
 44
0.0000000001
 40
0.0
 40
0.0
 40
0.0
 40
0.0
 40
0.2510752587
 40
0.5013000169
 40
0.7508592919
 40
1.0
 40
1.0
 40
1.0
 40
1.0
 10
54.8531239525
 20
84.654855601
 30
0.0
 10
54.6338668172
 20
84.654855601
 30
0.0
 10
54.1959650586
 20
84.6417775357
 30
0.0
 10
53.5427576445
 20
84.577820835
 30
0.0
 10
52.8985972099
 20
84.460572666
 30
0.0
 10
52.4796703689
 20
84.3352654042
 30
0.0
 10
52.2773988423
 20
84.2551283129
 30
0.0
  0
SPLINE
  5
317
100
AcDbEntity
  8
0
100
AcDbSpline
 62
7
  6
BYLAYER
 70
0
 71
3
 72
9
 73
5
 74
0
 42
0.0000001
 43
0.0000001
 44
0.0000000001
 40
0.0
 40
0.0
 40
0.0
 40
0.0
 40
0.2493448724
 40
1.0
 40
1.0
 40
1.0
 40
1.0
 10
52.2773988423
 20
93.2126126756
 30
0.0
 10
52.329889118
 20
93.1827782607
 30
0.0
 10
52.5418431706
 20
93.0656646058
 30
0.0
 10
52.7586067944
 20
92.9573878474
 30
0.0
 10
52.922992297
 20
92.8798277668
 30
0.0
  0
SPLINE
  5
318
100
AcDbEntity
  8
0
100
AcDbSpline
 62
7
  6
BYLAYER
 70
0
 71
3
 72
10
 73
6
 74
0
 42
0.0000001
 43
0.0000001
 44
0.0000000001
 40
0.0
 40
0.0
 40
0.0
 40
0.0
 40
0.2513600662
 40
0.5020551825
 40
1.0
 40
1.0
 40
1.0
 40
1.0
 10
52.922992297
 20
92.8798277668
 30
0.0
 10
53.0799959553
 20
92.8057505752
 30
0.0
 10
53.3968245047
 20
92.6645773091
 30
0.0
 10
54.0373928768
 20
92.4061459448
 30
0.0
 10
54.525676875
 20
92.2349438932
 30
0.0
 10
54.8531239525
 20
92.1298277613
 30
0.0
  0
LINE
  5
319
100
AcDbEntity
  8
0
100
AcDbLine
 62
7
  6
BYLAYER
 10
54.8531239525
 20
92.1298277613
 11
55.5274000925
 21
91.9132921814
  0
SPLINE
  5
31A
100
AcDbEntity
  8
0
100
AcDbSpline
 62
7
  6
BYLAYER
 70
0
 71
3
 72
10
 73
6
 74
0
 42
0.0000001
 43
0.0000001
 44
0.0000000001
 40
0.0
 40
0.0
 40
0.0
 40
0.0
 40
0.4994711305
 40
0.7501592487
 40
1.0
 40
1.0
 40
1.0
 40
1.0
 10
54.0265155404
 20
71.8928640958
 30
0.0
 10
53.7266847467
 20
71.7804570264
 30
0.0
 10
53.2807625346
 20
71.5991955233
 30
0.0
 10
52.7005403178
 20
71.3262418764
 30
0.0
 10
52.4166495694
 20
71.1762458334
 30
0.0
 10
52.2773988423
 20
71.0970985264
 30
0.0
  0
SPLINE
  5
31B
100
AcDbEntity
  8
0
100
AcDbSpline
 62
7
  6
BYLAYER
 70
0
 71
3
 72
9
 73
5
 74
0
 42
0.0000001
 43
0.0000001
 44
0.0000000001
 40
0.0
 40
0.0
 40
0.0
 40
0.0
 40
0.4999718564
 40
1.0
 40
1.0
 40
1.0
 40
1.0
 10
78.412245035
 20
79.2973216821
 30
0.0
 10
78.4126719758
 20
79.2026749609
 30
0.0
 10
78.3771761042
 20
79.0119629054
 30
0.0
 10
78.2779721378
 20
78.8453385651
 30
0.0
 10
78.2153048573
 20
78.7743948323
 30
0.0
  0
SPLINE
  5
31C
100
AcDbEntity
  8
0
100
AcDbSpline
 62
7
  6
BYLAYER
 70
0
 71
3
 72
25
 73
21
 74
0
 42
0.0000001
 43
0.0000001
 44
0.0000000001
 40
0.0
 40
0.0
 40
0.0
 40
0.0
 40
0.1250178635
 40
0.250035718
 40
0.3750535578
 40
0.5000713744
 40
0.5625803239
 40
0.6250892667
 40
0.6875982056
 40
0.750107138
 40
0.8126159439
 40
0.8438703986
 40
0.8751248722
 40
0.9063793495
 40
0.9220065995
 40
0.9376337559
 40
0.9532606644
 40
0.9688878337
 40
0.9845161946
 40
1.0
 40
1.0
 40
1.0
 40
1.0
 10
75.2103017632
 20
76.1608445626
 30
0.0
 10
75.2103017616
 20
76.1341127963
 30
0.0
 10
75.2104204254
 20
76.0806491997
 30
0.0
 10
75.2109420014
 20
76.0004553621
 30
0.0
 10
75.2118193036
 20
75.9202646177
 30
0.0
 10
75.2128603943
 20
75.8534430191
 30
0.0
 10
75.2139096937
 20
75.7999897196
 30
0.0
 10
75.2148257002
 20
75.7599024457
 30
0.0
 10
75.2158847983
 20
75.7198186943
 30
0.0
 10
75.2170719883
 20
75.679738619
 30
0.0
 10
75.2182321417
 20
75.6463436609
 30
0.0
 10
75.2193899964
 20
75.6196367766
 30
0.0
 10
75.2203592428
 20
75.5996115717
 30
0.0
 10
75.2211821703
 20
75.5829238426
 30
0.0
 10
75.221848952
 20
75.5695759379
 30
0.0
 10
75.2224616231
 20
75.5595657588
 30
0.0
 10
75.2232991431
 20
75.5495907857
 30
0.0
 10
75.2244418197
 20
75.5395717775
 30
0.0
 10
75.2257217199
 20
75.5298787463
 30
0.0
 10
75.2257572962
 20
75.5226462542
 30
0.0
 10
75.2276927562
 20
75.519960103
 30
0.0
  0
SPLINE
  5
31D
100
AcDbEntity
  8
0
100
AcDbSpline
 62
7
  6
BYLAYER
 70
0
 71
3
 72
11
 73
7
 74
0
 42
0.0000001
 43
0.0000001
 44
0.0000000001
 40
0.0
 40
0.0
 40
0.0
 40
0.0
 40
0.2500210448
 40
0.5000055749
 40
0.7499816363
 40
1.0
 40
1.0
 40
1.0
 40
1.0
 10
75.4104272975
 20
75.0159433511
 30
0.0
 10
75.4104355544
 20
74.9211759206
 30
0.0
 10
75.3752121682
 20
74.7298670081
 30
0.0
 10
75.223679749
 20
74.4820440727
 30
0.0
 10
74.9938315423
 20
74.3045498166
 30
0.0
 10
74.8074988033
 20
74.2484963241
 30
0.0
 10
74.7132714496
 20
74.238402804
 30
0.0
  0
SPLINE
  5
31E
100
AcDbEntity
  8
0
100
AcDbSpline
 62
7
  6
BYLAYER
 70
0
 71
3
 72
13
 73
9
 74
0
 42
0.0000001
 43
0.0000001
 44
0.0000000001
 40
0.0
 40
0.0
 40
0.0
 40
0.0
 40
0.1254041089
 40
0.250711728
 40
0.375982211
 40
0.5012978699
 40
0.7506331997
 40
1.0
 40
1.0
 40
1.0
 40
1.0
 10
77.5355926106
 20
80.0784187086
 30
0.0
 10
77.4841147404
 20
80.0784187342
 30
0.0
 10
77.3809215345
 20
80.0681083271
 30
0.0
 10
77.2323384259
 20
80.0232044793
 30
0.0
 10
77.0948420077
 20
79.9509942389
 30
0.0
 10
76.9343666741
 20
79.8211848022
 30
0.0
 10
76.7874330789
 20
79.6029541893
 30
0.0
 10
76.7454650848
 20
79.3962469975
 30
0.0
 10
76.7454760839
 20
79.2938829537
 30
0.0
  0
SPLINE
  5
31F
100
AcDbEntity
  8
0
100
AcDbSpline
 62
7
  6
BYLAYER
 70
0
 71
3
 72
9
 73
5
 74
0
 42
0.0000001
 43
0.0000001
 44
0.0000000001
 40
0.0
 40
0.0
 40
0.0
 40
0.0
 40
0.4999084784
 40
1.0
 40
1.0
 40
1.0
 40
1.0
 10
73.9307986649
 20
75.5167712358
 30
0.0
 10
73.8729199907
 20
75.4475957122
 30
0.0
 10
73.7808256607
 20
75.2877457929
 30
0.0
 10
73.7482418095
 20
75.1060533025
 30
0.0
 10
73.7482522357
 20
75.0158249675
 30
0.0
  0
SPLINE
  5
320
100
AcDbEntity
  8
0
100
AcDbSpline
 62
7
  6
BYLAYER
 70
0
 71
3
 72
15
 73
11
 74
0
 42
0.0000001
 43
0.0000001
 44
0.0000000001
 40
0.0
 40
0.0
 40
0.0
 40
0.0
 40
0.1250088098
 40
0.2500464491
 40
0.3749901545
 40
0.499971991
 40
0.6249704528
 40
0.74991682
 40
0.8749039815
 40
1.0
 40
1.0
 40
1.0
 40
1.0
 10
73.7482491541
 20
75.0158249667
 30
0.0
 10
73.748270745
 20
74.9645025921
 30
0.0
 10
73.7585202516
 20
74.8615615166
 30
0.0
 10
73.8039112262
 20
74.7134458319
 30
0.0
 10
73.8775265979
 20
74.5770934761
 30
0.0
 10
73.9763791851
 20
74.457815049
 30
0.0
 10
74.0965875848
 20
74.3600986448
 30
0.0
 10
74.2335246333
 20
74.2876516571
 30
0.0
 10
74.3818732963
 20
74.243074282
 30
0.0
 10
74.4848285116
 20
74.233089248
 30
0.0
 10
74.5361866942
 20
74.2330892607
 30
0.0
  0
SPLINE
  5
321
100
AcDbEntity
  8
0
100
AcDbSpline
 62
7
  6
BYLAYER
 70
0
 71
3
 72
26
 73
22
 74
0
 42
0.0000001
 43
0.0000001
 44
0.0000000001
 40
0.0
 40
0.0
 40
0.0
 40
0.0
 40
0.1949162956
 40
0.3824110858
 40
0.4710579616
 40
0.5551877393
 40
0.6339838802
 40
0.7066665976
 40
0.7725523633
 40
0.8309904953
 40
0.881435192
 40
0.923388029
 40
0.9410512669
 40
0.9564538255
 40
0.9695579396
 40
0.9803273877
 40
0.9887406973
 40
0.9947915091
 40
0.998488538
 40
0.9994818466
 40
1.0
 40
1.0
 40
1.0
 40
1.0
 10
54.2614106522
 20
82.3700495767
 30
0.0
 10
54.2614111734
 20
82.5001352416
 30
0.0
 10
54.260982311
 20
82.7553537113
 30
0.0
 10
54.2593571787
 20
83.069730821
 30
0.0
 10
54.2573871529
 20
83.3101653527
 30
0.0
 10
54.2556437245
 20
83.478054236
 30
0.0
 10
54.2536264486
 20
83.6352849013
 30
0.0
 10
54.2513529428
 20
83.7803348226
 30
0.0
 10
54.2488503829
 20
83.911792032
 30
0.0
 10
54.2461435216
 20
84.0284002886
 30
0.0
 10
54.2432642623
 20
84.1290263204
 30
0.0
 10
54.2406285101
 20
84.202433644
 30
0.0
 10
54.2383869511
 20
84.2524512381
 30
0.0
 10
54.2367810202
 20
84.2832217767
 30
0.0
 10
54.2351551704
 20
84.3093885944
 30
0.0
 10
54.2335295374
 20
84.3308645745
 30
0.0
 10
54.2318842885
 20
84.3476569136
 30
0.0
 10
54.230333247
 20
84.3596112225
 30
0.0
 10
54.2288369359
 20
84.3667609284
 30
0.0
 10
54.2276839413
 20
84.3699239554
 30
0.0
 10
54.2268561382
 20
84.3707804401
 30
0.0
 10
54.2265104049
 20
84.3707730758
 30
0.0
  0
SPLINE
  5
322
100
AcDbEntity
  8
0
100
AcDbSpline
 62
7
  6
BYLAYER
 70
0
 71
3
 72
26
 73
22
 74
0
 42
0.0000001
 43
0.0000001
 44
0.0000000001
 40
0.0
 40
0.0
 40
0.0
 40
0.0
 40
0.0005352747
 40
0.0015556735
 40
0.0053113195
 40
0.0114208789
 40
0.0198908107
 40
0.0307130868
 40
0.0438652576
 40
0.0593109315
 40
0.0770122417
 40
0.119025705
 40
0.1695095945
 40
0.2279647035
 40
0.2938453022
 40
0.3665027168
 40
0.4452559513
 40
0.5293285652
 40
0.617907441
 40
0.805246539
 40
1.0
 40
1.0
 40
1.0
 40
1.0
 10
61.852835205
 20
84.6346837348
 30
0.0
 10
61.8524779849
 20
84.6346666204
 30
0.0
 10
61.8516747968
 20
84.6337568117
 30
0.0
 10
61.8505009159
 20
84.630529922
 30
0.0
 10
61.8490237238
 20
84.6232637957
 30
0.0
 10
61.8474586946
 20
84.6111848015
 30
0.0
 10
61.8458180161
 20
84.5942588028
 30
0.0
 10
61.8441898924
 20
84.5726545227
 30
0.0
 10
61.8425646414
 20
84.5463622423
 30
0.0
 10
61.8409584952
 20
84.5154715252
 30
0.0
 10
61.838717865
 20
84.4653040894
 30
0.0
 10
61.8360827287
 20
84.3917240416
 30
0.0
 10
61.8332041491
 20
84.290909553
 30
0.0
 10
61.8304980256
 20
84.1741393426
 30
0.0
 10
61.8279961854
 20
84.0425470222
 30
0.0
 10
61.8257232865
 20
83.8973871264
 30
0.0
 10
61.823706396
 20
83.7400678933
 30
0.0
 10
61.8219631406
 20
83.5721072998
 30
0.0
 10
61.8199931041
 20
83.3315969151
 30
0.0
 10
61.8183672676
 20
83.0171335324
 30
0.0
 10
61.8179375402
 20
82.7618481885
 30
0.0
 10
61.8179380615
 20
82.6317287584
 30
0.0
  0
SPLINE
  5
323
100
AcDbEntity
  8
0
100
AcDbSpline
 62
7
  6
BYLAYER
 70
0
 71
3
 72
13
 73
9
 74
0
 42
0.0000001
 43
0.0000001
 44
0.0000000001
 40
0.0
 40
0.0
 40
0.0
 40
0.0
 40
0.1253222346
 40
0.2506539449
 40
0.5000344475
 40
0.7493966139
 40
0.8747504607
 40
1.0
 40
1.0
 40
1.0
 40
1.0
 10
74.6228428066
 20
74.2330903305
 30
0.0
 10
74.5717748153
 20
74.2330941903
 30
0.0
 10
74.4693281532
 20
74.2429896609
 30
0.0
 10
74.2730871168
 20
74.3014831694
 30
0.0
 10
74.0544838053
 20
74.4445099553
 30
0.0
 10
73.9073923059
 20
74.660572191
 30
0.0
 10
73.8461674738
 20
74.8559904418
 30
0.0
 10
73.8351436804
 20
74.9583289196
 30
0.0
 10
73.8346955961
 20
75.0093653212
 30
0.0
  0
SPLINE
  5
324
100
AcDbEntity
  8
0
100
AcDbSpline
 62
7
  6
BYLAYER
 70
0
 71
3
 72
27
 73
23
 74
0
 42
0.0000001
 43
0.0000001
 44
0.0000000001
 40
0.0
 40
0.0
 40
0.0
 40
0.0
 40
0.0008338721
 40
0.0022098149
 40
0.0041543269
 40
0.0066746849
 40
0.0134490891
 40
0.0225331711
 40
0.0339138763
 40
0.0475628883
 40
0.0634475022
 40
0.0815344156
 40
0.1241524213
 40
0.1750053262
 40
0.2336272399
 40
0.2994544663
 40
0.3718783252
 40
0.4502094244
 40
0.5337192044
 40
0.6216040595
 40
0.8071947789
 40
1.0
 40
1.0
 40
1.0
 40
1.0
 10
86.1191111041
 20
85.4740197318
 30
0.0
 10
86.1197010218
 20
85.4734291922
 30
0.0
 10
86.1206619186
 20
85.4713565355
 30
0.0
 10
86.1218569864
 20
85.4674056648
 30
0.0
 10
86.1230732291
 20
85.4616657187
 30
0.0
 10
86.1249039533
 20
85.4505722226
 30
0.0
 10
86.1270463004
 20
85.432286294
 30
0.0
 10
86.129474895
 20
85.4051306651
 30
0.0
 10
86.1318912084
 20
85.3710652021
 30
0.0
 10
86.1342947746
 20
85.3301803228
 30
0.0
 10
86.1366690914
 20
85.2825704445
 30
0.0
 10
86.1399684652
 20
85.2059746802
 30
0.0
 10
86.1438533437
 20
85.0943707075
 30
0.0
 10
86.1480999227
 20
84.9421837216
 30
0.0
 10
86.1520833763
 20
84.7667501966
 30
0.0
 10
86.1557673165
 20
84.5697135407
 30
0.0
 10
86.1591074842
 20
84.3529392707
 30
0.0
 10
86.1620732342
 20
84.1184577923
 30
0.0
 10
86.164631666
 20
83.868494164
 30
0.0
 10
86.1675217503
 20
83.5111617954
 30
0.0
 10
86.169905608
 20
83.0444177277
 30
0.0
 10
86.1705313449
 20
82.665641523
 30
0.0
 10
86.1705303682
 20
82.4726426924
 30
0.0
  0
SPLINE
  5
325
100
AcDbEntity
  8
0
100
AcDbSpline
 62
7
  6
BYLAYER
 70
0
 71
3
 72
26
 73
22
 74
0
 42
0.0000001
 43
0.0000001
 44
0.0000000001
 40
0.0
 40
0.0
 40
0.0
 40
0.0
 40
0.0005181839
 40
0.0015115288
 40
0.005208603
 40
0.0112594322
 40
0.0196727509
 40
0.0304422186
 40
0.0435463635
 40
0.0589489624
 40
0.0766122503
 40
0.1185652093
 40
0.169010013
 40
0.2274482587
 40
0.2933341381
 40
0.3660169541
 40
0.4448131707
 40
0.5289429752
 40
0.6175898122
 40
0.8050843059
 40
1.0
 40
1.0
 40
1.0
 40
1.0
 10
54.2265104243
 20
69.9389381122
 30
0.0
 10
54.2268561824
 20
69.9389307997
 30
0.0
 10
54.2276839338
 20
69.9397873766
 30
0.0
 10
54.2288369892
 20
69.9429504929
 30
0.0
 10
54.2303332621
 20
69.9501003542
 30
0.0
 10
54.2318843457
 20
69.9620548196
 30
0.0
 10
54.2335295913
 20
69.9788473593
 30
0.0
 10
54.2351552362
 20
70.0003235894
 30
0.0
 10
54.2367810918
 20
70.026490726
 30
0.0
 10
54.2383870308
 20
70.057261648
 30
0.0
 10
54.2406285999
 20
70.107279876
 30
0.0
 10
54.2432643622
 20
70.1806881077
 30
0.0
 10
54.2461436345
 20
70.2813153576
 30
0.0
 10
54.2488505033
 20
70.3979249836
 30
0.0
 10
54.251353068
 20
70.5293837028
 30
0.0
 10
54.2536265745
 20
70.6744352419
 30
0.0
 10
54.2556438457
 20
70.8316675866
 30
0.0
 10
54.2573872653
 20
70.9995581624
 30
0.0
 10
54.2593572744
 20
71.239994851
 30
0.0
 10
54.2609823712
 20
71.5543744248
 30
0.0
 10
54.2614111846
 20
71.809594803
 30
0.0
 10
54.2614106524
 20
71.9396813446
 30
0.0
  0
SPLINE
  5
326
100
AcDbEntity
  8
0
100
AcDbSpline
 62
7
  6
BYLAYER
 70
0
 71
3
 72
27
 73
23
 74
0
 42
0.0000001
 43
0.0000001
 44
0.0000000001
 40
0.0
 40
0.0
 40
0.0
 40
0.0
 40
0.0005361707
 40
0.0015576983
 40
0.0053158556
 40
0.0114289104
 40
0.0199042197
 40
0.0307316114
 40
0.0438836903
 40
0.0593282371
 40
0.077032284
 40
0.0969586534
 40
0.1190552634
 40
0.1695360167
 40
0.228001544
 40
0.2938764608
 40
0.3665386013
 40
0.4452816833
 40
0.5293586504
 40
0.6179438559
 40
0.805243922
 40
1.0
 40
1.0
 40
1.0
 40
1.0
 10
87.9366088966
 20
85.5373183436
 30
0.0
 10
87.9360721872
 20
85.5372909143
 30
0.0
 10
87.9348685078
 20
85.5359233319
 30
0.0
 10
87.9331054004
 20
85.5310780259
 30
0.0
 10
87.9308905438
 20
85.5201700501
 30
0.0
 10
87.928542042
 20
85.5020378515
 30
0.0
 10
87.92608232
 20
85.4766314315
 30
0.0
 10
87.9236413562
 20
85.4442104018
 30
0.0
 10
87.9212031687
 20
85.4047631421
 30
0.0
 10
87.9187941454
 20
85.35841974
 30
0.0
 10
87.9164196286
 20
85.3052740439
 30
0.0
 10
87.9140894742
 20
85.2454543246
 30
0.0
 10
87.9109064813
 20
85.1527911156
 30
0.0
 10
87.9071624647
 20
85.0214977562
 30
0.0
 10
87.9031040044
 20
84.8463189816
 30
0.0
 10
87.8993498589
 20
84.6488963314
 30
0.0
 10
87.8959427006
 20
84.4311403665
 30
0.0
 10
87.8929156265
 20
84.1951331069
 30
0.0
 10
87.8903025926
 20
83.9431601628
 30
0.0
 10
87.887347755
 20
83.5823778948
 30
0.0
 10
87.8849093928
 20
83.1106539975
 30
0.0
 10
87.8842663186
 20
82.7277146043
 30
0.0
 10
87.8842673065
 20
82.5325084343
 30
0.0
  0
SPLINE
  5
327
100
AcDbEntity
  8
0
100
AcDbSpline
 62
7
  6
BYLAYER
 70
0
 71
3
 72
27
 73
23
 74
0
 42
0.0000001
 43
0.0000001
 44
0.0000000001
 40
0.0
 40
0.0
 40
0.0
 40
0.0
 40
0.1949179482
 40
0.3823716627
 40
0.4710240217
 40
0.5551573552
 40
0.6339425203
 40
0.7066294186
 40
0.7725091539
 40
0.8309579065
 40
0.8813994564
 40
0.9034683767
 40
0.9233619207
 40
0.9410282316
 40
0.9564303222
 40
0.9695353697
 40
0.9803113144
 40
0.9887312173
 40
0.9947863879
 40
0.9984864305
 40
0.9994809752
 40
1.0
 40
1.0
 40
1.0
 40
1.0
 10
82.170530369
 20
82.3346109395
 30
0.0
 10
82.1705313219
 20
82.5297587854
 30
0.0
 10
82.1698893506
 20
82.9125817366
 30
0.0
 10
82.1674518283
 20
83.3841561858
 30
0.0
 10
82.1644970458
 20
83.7448086135
 30
0.0
 10
82.1618838066
 20
83.9966628588
 30
0.0
 10
82.1588561806
 20
84.2325269824
 30
0.0
 10
82.1554482135
 20
84.4501087848
 30
0.0
 10
82.1516930948
 20
84.6473212705
 30
0.0
 10
82.1476336643
 20
84.82225091
 30
0.0
 10
82.1438884947
 20
84.9533120988
 30
0.0
 10
82.1407043337
 20
85.0457706303
 30
0.0
 10
82.1383738919
 20
85.1054242742
 30
0.0
 10
82.1359990706
 20
85.1583965341
 30
0.0
 10
82.1335904597
 20
85.2045600811
 30
0.0
 10
82.1311514393
 20
85.2438208591
 30
0.0
 10
82.1287143409
 20
85.2760518943
 30
0.0
 10
82.1262478966
 20
85.3012605159
 30
0.0
 10
82.1239204253
 20
85.319207387
 30
0.0
 10
82.1216770316
 20
85.3299422852
 30
0.0
 10
82.1199453087
 20
85.3346918
 30
0.0
 10
82.1187048126
 20
85.3359799013
 30
0.0
 10
82.1181852608
 20
85.3359704953
 30
0.0
  0
SPLINE
  5
328
100
AcDbEntity
  8
0
100
AcDbSpline
 62
7
  6
BYLAYER
 70
0
 71
3
 72
26
 73
22
 74
0
 42
0.0000001
 43
0.0000001
 44
0.0000000001
 40
0.0
 40
0.0
 40
0.0
 40
0.0
 40
0.1947524767
 40
0.3820908545
 40
0.4706694457
 40
0.5547418313
 40
0.6334949103
 40
0.7061522538
 40
0.77203287
 40
0.8304880958
 40
0.8809721898
 40
0.9229859147
 40
0.9406873913
 40
0.9561332625
 40
0.9692856653
 40
0.9801082126
 40
0.988578444
 40
0.9946882964
 40
0.9984441904
 40
0.9994646803
 40
1.0
 40
1.0
 40
1.0
 40
1.0
 10
61.8179380613
 20
71.677993325
 30
0.0
 10
61.817937529
 20
71.5478738549
 30
0.0
 10
61.818367232
 20
71.2925882812
 30
0.0
 10
61.8199930382
 20
70.9781245414
 30
0.0
 10
61.8219630498
 20
70.737613691
 30
0.0
 10
61.8237062879
 20
70.5696526433
 30
0.0
 10
61.8257231615
 20
70.4123328704
 30
0.0
 10
61.827996044
 20
70.2671723356
 30
0.0
 10
61.8304978695
 20
70.135579267
 30
0.0
 10
61.8332039798
 20
70.0188082036
 30
0.0
 10
61.8360825463
 20
69.9179927841
 30
0.0
 10
61.838717675
 20
69.8444119183
 30
0.0
 10
61.8409582977
 20
69.7942437943
 30
0.0
 10
61.8425644421
 20
69.7633525129
 30
0.0
 10
61.8441896909
 20
69.7370596212
 30
0.0
 10
61.8458178191
 20
69.7154546896
 30
0.0
 10
61.8474584874
 20
69.6985280122
 30
0.0
 10
61.8490235406
 20
69.6864484048
 30
0.0
 10
61.8505006937
 20
69.6791817738
 30
0.0
 10
61.8516746069
 20
69.6759546322
 30
0.0
 10
61.8524777425
 20
69.6750446555
 30
0.0
 10
61.8528349919
 20
69.6750274857
 30
0.0
  0
SPLINE
  5
329
100
AcDbEntity
  8
0
100
AcDbSpline
 62
7
  6
BYLAYER
 70
0
 71
3
 72
27
 73
23
 74
0
 42
0.0000001
 43
0.0000001
 44
0.0000000001
 40
0.0
 40
0.0
 40
0.0
 40
0.0
 40
0.0005190293
 40
0.0015135911
 40
0.005213693
 40
0.01126894
 40
0.0196889185
 40
0.0304649113
 40
0.0435699766
 40
0.0589720725
 40
0.0766383943
 40
0.0965319485
 40
0.1186008673
 40
0.1690424192
 40
0.2274911633
 40
0.2933708774
 40
0.3660577564
 40
0.4448428975
 40
0.5289762044
 40
0.6176285247
 40
0.805082168
 40
1.0
 40
1.0
 40
1.0
 40
1.0
 10
82.1181853377
 20
68.9737406939
 30
0.0
 10
82.1187048936
 20
68.9737312909
 30
0.0
 10
82.1199453859
 20
68.9750194354
 30
0.0
 10
82.1216770974
 20
68.9797690182
 30
0.0
 10
82.1239204864
 20
68.9905040766
 30
0.0
 10
82.1262479486
 20
69.0084511366
 30
0.0
 10
82.1287143833
 20
69.0336599386
 30
0.0
 10
82.1311514759
 20
69.0658910833
 30
0.0
 10
82.1335904924
 20
69.1051518948
 30
0.0
 10
82.1359990994
 20
69.1513154307
 30
0.0
 10
82.1383739152
 20
69.2042876654
 30
0.0
 10
82.1407043522
 20
69.2639412706
 30
0.0
 10
82.1438885092
 20
69.3563997225
 30
0.0
 10
82.1476336705
 20
69.4874607752
 30
0.0
 10
82.1516930952
 20
69.6623902161
 30
0.0
 10
82.1554482095
 20
69.85960246
 30
0.0
 10
82.1588561727
 20
70.0771839852
 30
0.0
 10
82.1618837965
 20
70.3130478082
 30
0.0
 10
82.1644970341
 20
70.5649017178
 30
0.0
 10
82.1674518168
 20
70.9255536563
 30
0.0
 10
82.1698893383
 20
71.3971274181
 30
0.0
 10
82.1705313222
 20
71.7799498074
 30
0.0
 10
82.1705303692
 20
71.9750973461
 30
0.0
  0
SPLINE
  5
32A
100
AcDbEntity
  8
0
100
AcDbSpline
 62
7
  6
BYLAYER
 70
0
 71
3
 72
27
 73
23
 74
0
 42
0.0000001
 43
0.0000001
 44
0.0000000001
 40
0.0
 40
0.0
 40
0.0
 40
0.0
 40
0.1947561084
 40
0.3820561565
 40
0.4706413582
 40
0.5547183145
 40
0.6334613902
 40
0.7061235284
 40
0.771998454
 40
0.8304639911
 40
0.8809447581
 40
0.903041381
 40
0.9229677553
 40
0.9406718083
 40
0.95611637
 40
0.9692684595
 40
0.9800958444
 40
0.9885711312
 40
0.9946841635
 40
0.9984423049
 40
0.999463829
 40
1.0
 40
1.0
 40
1.0
 40
1.0
 10
87.8842673063
 20
71.7772025777
 30
0.0
 10
87.8842663207
 20
71.5819963897
 30
0.0
 10
87.8849093937
 20
71.1990570086
 30
0.0
 10
87.8873477569
 20
70.7273331328
 30
0.0
 10
87.8903025934
 20
70.3665509205
 30
0.0
 10
87.892915627
 20
70.1145780134
 30
0.0
 10
87.8959427003
 20
69.8785707883
 30
0.0
 10
87.8993498583
 20
69.6608148373
 30
0.0
 10
87.9031040031
 20
69.4633921833
 30
0.0
 10
87.9071624635
 20
69.2882133875
 30
0.0
 10
87.9109064822
 20
69.1569199999
 30
0.0
 10
87.9140894741
 20
69.0642567653
 30
0.0
 10
87.9164196296
 20
69.0044370259
 30
0.0
 10
87.9187941481
 20
68.9512913074
 30
0.0
 10
87.9212031721
 20
68.9049478764
 30
0.0
 10
87.9236413602
 20
68.8655006006
 30
0.0
 10
87.926082327
 20
68.8330795917
 30
0.0
 10
87.9285420539
 20
68.8076732269
 30
0.0
 10
87.9308905618
 20
68.7895410895
 30
0.0
 10
87.9331054176
 20
68.7786331614
 30
0.0
 10
87.934868532
 20
68.7737878731
 30
0.0
 10
87.9360722087
 20
68.7724202989
 30
0.0
 10
87.9366089182
 20
68.7723928665
 30
0.0
  0
SPLINE
  5
32B
100
AcDbEntity
  8
0
100
AcDbSpline
 62
7
  6
BYLAYER
 70
0
 71
3
 72
9
 73
5
 74
0
 42
0.0000001
 43
0.0000001
 44
0.0000000001
 40
0.0
 40
0.0
 40
0.0
 40
0.0
 40
0.4999655876
 40
1.0
 40
1.0
 40
1.0
 40
1.0
 10
73.8346955961
 20
75.0093653212
 30
0.0
 10
73.833899698
 20
75.100631475
 30
0.0
 10
73.8657505494
 20
75.284777824
 30
0.0
 10
73.9586834366
 20
75.4467709115
 30
0.0
 10
74.0172700604
 20
75.5167712358
 30
0.0
  0
SPLINE
  5
32C
100
AcDbEntity
  8
0
100
AcDbSpline
 62
7
  6
BYLAYER
 70
0
 71
3
 72
27
 73
23
 74
0
 42
0.0000001
 43
0.0000001
 44
0.0000000001
 40
0.0
 40
0.0
 40
0.0
 40
0.0
 40
0.1928052623
 40
0.3783960045
 40
0.4662808586
 40
0.5497906361
 40
0.6281217292
 40
0.7005455794
 40
0.7663727952
 40
0.8249946983
 40
0.8758475931
 40
0.9184655898
 40
0.9365524999
 40
0.9524371101
 40
0.966086119
 40
0.9774668235
 40
0.9865509068
 40
0.9933253128
 40
0.9958456716
 40
0.9977901844
 40
0.9991661276
 40
1.0
 40
1.0
 40
1.0
 40
1.0
 10
86.170530368
 20
71.8370669013
 30
0.0
 10
86.1705313424
 20
71.6440681369
 30
0.0
 10
86.1699056015
 20
71.2652920789
 30
0.0
 10
86.1675217405
 20
70.7985482078
 30
0.0
 10
86.164631654
 20
70.4412160189
 30
0.0
 10
86.1620732213
 20
70.1912525394
 30
0.0
 10
86.1591074708
 20
69.9567712089
 30
0.0
 10
86.155767303
 20
69.7399970849
 30
0.0
 10
86.1520833632
 20
69.5429605686
 30
0.0
 10
86.1480999103
 20
69.3675271726
 30
0.0
 10
86.1438533327
 20
69.2153403013
 30
0.0
 10
86.1399684553
 20
69.1037364131
 30
0.0
 10
86.136669083
 20
69.0271407075
 30
0.0
 10
86.1342947671
 20
68.9795308659
 30
0.0
 10
86.1318912019
 20
68.9386460169
 30
0.0
 10
86.1294748896
 20
68.9045805753
 30
0.0
 10
86.1270462965
 20
68.8774249592
 30
0.0
 10
86.1249039506
 20
68.8591390368
 30
0.0
 10
86.1230732273
 20
68.8480455436
 30
0.0
 10
86.1218569852
 20
68.8423055985
 30
0.0
 10
86.1206619179
 20
68.8383547285
 30
0.0
 10
86.1197010215
 20
68.8362820721
 30
0.0
 10
86.119111104
 20
68.8356915326
 30
0.0
  0
SPLINE
  5
32D
100
AcDbEntity
  8
0
100
AcDbSpline
 62
7
  6
BYLAYER
 70
0
 71
3
 72
11
 73
7
 74
0
 42
0.0000001
 43
0.0000001
 44
0.0000000001
 40
0.0
 40
0.0
 40
0.0
 40
0.0
 40
0.2499462928
 40
0.4999180982
 40
0.7498790003
 40
1.0
 40
1.0
 40
1.0
 40
1.0
 10
76.8328050533
 20
79.2938829537
 30
0.0
 10
76.832794366
 20
79.3933147095
 30
0.0
 10
76.8725145035
 20
79.5940410372
 30
0.0
 10
77.0384734802
 20
79.8505211468
 30
0.0
 10
77.2890492822
 20
80.0252448468
 30
0.0
 10
77.4878068699
 20
80.0729616352
 30
0.0
 10
77.5872009543
 20
80.0775785745
 30
0.0
  0
SPLINE
  5
32E
100
AcDbEntity
  8
0
100
AcDbSpline
 62
7
  6
BYLAYER
 70
0
 71
3
 72
26
 73
22
 74
0
 42
0.0000001
 43
0.0000001
 44
0.0000000001
 40
0.0
 40
0.0
 40
0.0
 40
0.0
 40
0.1926588955
 40
0.3781094182
 40
0.4659336755
 40
0.5493926456
 40
0.6276850835
 40
0.7000844191
 40
0.7659031437
 40
0.8245344454
 40
0.875415999
 40
0.9180813484
 40
0.9361987689
 40
0.9521190994
 40
0.9658098233
 40
0.9772390089
 40
0.9863784168
 40
0.9932123841
 40
0.997736089
 40
0.9991407734
 40
1.0
 40
1.0
 40
1.0
 40
1.0
 10
83.884267306
 20
82.3940399218
 30
0.0
 10
83.8842663634
 20
82.5870878283
 30
0.0
 10
83.8848954726
 20
82.9659609999
 30
0.0
 10
83.8872803591
 20
83.4328305121
 30
0.0
 10
83.8901705944
 20
83.7902731102
 30
0.0
 10
83.892728909
 20
84.0403398433
 30
0.0
 10
83.8956942138
 20
84.274944891
 30
0.0
 10
83.8990337331
 20
84.4918671838
 30
0.0
 10
83.9027169245
 20
84.6890800337
 30
0.0
 10
83.9066997285
 20
84.864721119
 30
0.0
 10
83.9109455823
 20
85.0171482324
 30
0.0
 10
83.9148299826
 20
85.1289720634
 30
0.0
 10
83.9181280621
 20
85.2057599626
 30
0.0
 10
83.9205034899
 20
85.2535255819
 30
0.0
 10
83.9229042455
 20
85.2945812063
 30
0.0
 10
83.9253301651
 20
85.3288195348
 30
0.0
 10
83.9277359825
 20
85.3561883687
 30
0.0
 10
83.9301640823
 20
85.376553394
 30
0.0
 10
83.9322333615
 20
85.3892436697
 30
0.0
 10
83.9341399405
 20
85.3957328963
 30
0.0
 10
83.9350987912
 20
85.3978608514
 30
0.0
 10
83.9356865821
 20
85.3984899433
 30
0.0
  0
SPLINE
  5
32F
100
AcDbEntity
  8
0
100
AcDbSpline
 62
7
  6
BYLAYER
 70
0
 71
3
 72
26
 73
22
 74
0
 42
0.0000001
 43
0.0000001
 44
0.0000000001
 40
0.0
 40
0.0
 40
0.0
 40
0.0
 40
0.0008592266
 40
0.0022639109
 40
0.0067876159
 40
0.0136215835
 40
0.0227609923
 40
0.0341901803
 40
0.0478809082
 40
0.0638012428
 40
0.0819186664
 40
0.1245840238
 40
0.175465586
 40
0.2340968962
 40
0.2999156287
 40
0.37231497
 40
0.4506074112
 40
0.5340663817
 40
0.6218906384
 40
0.807341139
 40
1.0
 40
1.0
 40
1.0
 40
1.0
 10
83.9356865822
 20
68.9112212405
 30
0.0
 10
83.9350987912
 20
68.9118503326
 30
0.0
 10
83.9341399402
 20
68.9139782883
 30
0.0
 10
83.9322333607
 20
68.9204675171
 30
0.0
 10
83.9301640809
 20
68.9331577974
 30
0.0
 10
83.9277359803
 20
68.9535228307
 30
0.0
 10
83.9253301618
 20
68.9808916772
 30
0.0
 10
83.9229042414
 20
69.0151300242
 30
0.0
 10
83.9205034853
 20
69.0561856725
 30
0.0
 10
83.9181280569
 20
69.1039513186
 30
0.0
 10
83.9148299764
 20
69.1807392582
 30
0.0
 10
83.9109455757
 20
69.2925631455
 30
0.0
 10
83.906699721
 20
69.444990334
 30
0.0
 10
83.9027169167
 20
69.6206315019
 30
0.0
 10
83.8990337252
 20
69.8178444386
 30
0.0
 10
83.895694206
 20
70.0347668194
 30
0.0
 10
83.8927289017
 20
70.2693719532
 30
0.0
 10
83.8901705878
 20
70.5194387712
 30
0.0
 10
83.8872803541
 20
70.8768814638
 30
0.0
 10
83.8848954695
 20
71.3437510715
 30
0.0
 10
83.8842663634
 20
71.7226243103
 30
0.0
 10
83.8842673062
 20
71.9156722454
 30
0.0
  0
ELLIPSE
  5
330
100
AcDbEntity
  8
0
100
AcDbEllipse
 62
7
  6
BYLAYER
 10
50.2523988423
 20
82.154855601
 30
0.0
 11
9.3265583107
 21
9.3265583106
 31
0.0
 40
0.916331174
 41
0.8319053449
 42
0.8665896313
  0
ELLIPSE
  5
331
100
AcDbEntity
  8
0
100
AcDbEllipse
 62
7
  6
BYLAYER
 10
50.2523988423
 20
82.154855601
 30
0.0
 11
-0.0
 21
12.65
 31
0.0
 40
1.0
 41
0.0259963885
 42
0.0375582366
  0
ELLIPSE
  5
332
100
AcDbEntity
  8
0
100
AcDbEllipse
 62
7
  6
BYLAYER
 10
50.2523988423
 20
82.154855601
 30
0.0
 11
12.65
 21
0.0
 31
0.0
 40
1.0
 41
1.573670277
 42
1.5967927153
  0
ELLIPSE
  5
333
100
AcDbEntity
  8
0
100
AcDbEllipse
 62
7
  6
BYLAYER
 10
50.2523988423
 20
82.154855601
 30
0.0
 11
-0.0
 21
12.65
 31
0.0
 40
1.0
 41
3.104034417
 42
3.1387187034
  0
ELLIPSE
  5
334
100
AcDbEntity
  8
0
100
AcDbEllipse
 62
7
  6
BYLAYER
 10
50.2523988423
 20
82.154855601
 30
0.0
 11
12.6018629309
 21
12.6018629309
 31
0.0
 40
0.0874886635
 41
1.4864038144
 42
1.5210881008
  0
ELLIPSE
  5
335
100
AcDbEntity
  8
0
100
AcDbEllipse
 62
7
  6
BYLAYER
 10
50.2523988423
 20
82.154855601
 30
0.0
 11
12.5417774964
 21
12.5417774964
 31
0.0
 40
0.1316524976
 41
1.4427705831
 42
1.4774548695
  0
ELLIPSE
  5
336
100
AcDbEntity
  8
0
100
AcDbEllipse
 62
7
  6
BYLAYER
 10
50.2523988423
 20
82.154855601
 30
0.0
 11
12.4578180756
 21
12.4578180756
 31
0.0
 40
0.1763269807
 41
1.3991373518
 42
1.4338216382
  0
ELLIPSE
  5
337
100
AcDbEntity
  8
0
100
AcDbEllipse
 62
7
  6
BYLAYER
 10
50.2523988423
 20
82.154855601
 30
0.0
 11
12.3501444901
 21
12.3501444901
 31
0.0
 40
0.2216946626
 41
1.3555041205
 42
1.3901884069
  0
ELLIPSE
  5
338
100
AcDbEntity
  8
0
100
AcDbEllipse
 62
7
  6
BYLAYER
 10
50.2523988423
 20
82.154855601
 30
0.0
 11
12.2189617026
 21
12.2189617026
 31
0.0
 40
0.2679491924
 41
1.3118708892
 42
1.3465551756
  0
ELLIPSE
  5
339
100
AcDbEntity
  8
0
100
AcDbEllipse
 62
7
  6
BYLAYER
 10
50.2523988423
 20
82.154855601
 30
0.0
 11
12.064519427
 21
12.064519427
 31
0.0
 40
0.3152987889
 41
1.2682376579
 42
1.3029219443
  0
ELLIPSE
  5
33A
100
AcDbEntity
  8
0
100
AcDbEllipse
 62
7
  6
BYLAYER
 10
50.2523988423
 20
82.154855601
 30
0.0
 11
11.8871116529
 21
11.8871116529
 31
0.0
 40
0.3639702343
 41
1.2246044266
 42
1.259288713
  0
ELLIPSE
  5
33B
100
AcDbEntity
  8
0
100
AcDbEllipse
 62
7
  6
BYLAYER
 10
50.2523988423
 20
82.154855601
 30
0.0
 11
11.6870760863
 21
11.6870760863
 31
0.0
 40
0.4142135624
 41
1.1809711953
 42
1.2156554817
  0
ELLIPSE
  5
33C
100
AcDbEntity
  8
0
100
AcDbEllipse
 62
7
  6
BYLAYER
 10
50.2523988423
 20
82.154855601
 30
0.0
 11
11.464793506
 21
11.464793506
 31
0.0
 40
0.4663076582
 41
1.137337964
 42
1.1720222504
  0
ELLIPSE
  5
33D
100
AcDbEntity
  8
0
100
AcDbEllipse
 62
7
  6
BYLAYER
 10
50.2523988423
 20
82.154855601
 30
0.0
 11
11.2206870397
 21
11.2206870397
 31
0.0
 40
0.5205670506
 41
1.0937047327
 42
1.1283890191
  0
ELLIPSE
  5
33E
100
AcDbEntity
  8
0
100
AcDbEllipse
 62
7
  6
BYLAYER
 10
50.2523988423
 20
82.154855601
 30
0.0
 11
10.9552213579
 21
10.9552213579
 31
0.0
 40
0.5773502692
 41
1.0500715014
 42
1.0847557878
  0
ELLIPSE
  5
33F
100
AcDbEntity
  8
0
100
AcDbEllipse
 62
7
  6
BYLAYER
 10
50.2523988423
 20
82.154855601
 30
0.0
 11
10.6689017895
 21
10.6689017895
 31
0.0
 40
0.6370702608
 41
1.0064382701
 42
1.0411225565
  0
ELLIPSE
  5
340
100
AcDbEntity
  8
0
100
AcDbEllipse
 62
7
  6
BYLAYER
 10
50.2523988423
 20
82.154855601
 30
0.0
 11
10.3622733603
 21
10.3622733603
 31
0.0
 40
0.7002075382
 41
0.9628050388
 42
0.9974893252
  0
ELLIPSE
  5
341
100
AcDbEntity
  8
0
100
AcDbEllipse
 62
7
  6
BYLAYER
 10
50.2523988423
 20
82.154855601
 30
0.0
 11
10.0359197547
 21
10.0359197547
 31
0.0
 40
0.767326988
 41
0.9191718075
 42
0.9538560939
  0
ELLIPSE
  5
342
100
AcDbEntity
  8
0
100
AcDbEllipse
 62
7
  6
BYLAYER
 10
50.2523988423
 20
82.154855601
 30
0.0
 11
9.6904622055
 21
9.6904622055
 31
0.0
 40
0.8390996312
 41
0.8755385762
 42
0.9102228626
  0
ELLIPSE
  5
343
100
AcDbEntity
  8
0
100
AcDbEllipse
 62
7
  6
BYLAYER
 10
50.2523988423
 20
82.154855601
 30
0.0
 11
9.3265583106
 21
-9.3265583107
 31
0.0
 40
0.916331174
 41
-0.8665896313
 42
-0.8319053449
  0
ELLIPSE
  5
344
100
AcDbEntity
  8
0
100
AcDbEllipse
 62
7
  6
BYLAYER
 10
50.2523988423
 20
82.154855601
 30
0.0
 11
9.6904622055
 21
-9.6904622055
 31
0.0
 40
0.8390996312
 41
-0.9102228626
 42
-0.8755385762
  0
ELLIPSE
  5
345
100
AcDbEntity
  8
0
100
AcDbEllipse
 62
7
  6
BYLAYER
 10
50.2523988423
 20
82.154855601
 30
0.0
 11
10.0359197547
 21
-10.0359197547
 31
0.0
 40
0.767326988
 41
-0.9538560939
 42
-0.9191718075
  0
ELLIPSE
  5
346
100
AcDbEntity
  8
0
100
AcDbEllipse
 62
7
  6
BYLAYER
 10
50.2523988423
 20
82.154855601
 30
0.0
 11
10.3622733603
 21
-10.3622733603
 31
0.0
 40
0.7002075382
 41
-0.9974893252
 42
-0.9628050388
  0
ELLIPSE
  5
347
100
AcDbEntity
  8
0
100
AcDbEllipse
 62
7
  6
BYLAYER
 10
50.2523988423
 20
82.154855601
 30
0.0
 11
10.6689017895
 21
-10.6689017895
 31
0.0
 40
0.6370702608
 41
-1.0200387274
 42
-1.0064382701
  0
ELLIPSE
  5
348
100
AcDbEntity
  8
0
100
AcDbEllipse
 62
7
  6
BYLAYER
 10
50.2523988423
 20
82.154855601
 30
0.0
 11
12.2189617026
 21
-12.2189617026
 31
0.0
 40
0.2679491924
 41
-1.3465551756
 42
-1.3461776138
  0
ELLIPSE
  5
349
100
AcDbEntity
  8
0
100
AcDbEllipse
 62
7
  6
BYLAYER
 10
50.2523988423
 20
82.154855601
 30
0.0
 11
11.128579567
 21
11.128579567
 31
0.0
 40
0.2216946626
 41
-1.8306456935
 42
-1.8145662919
  0
ELLIPSE
  5
34A
100
AcDbEntity
  8
0
100
AcDbEllipse
 62
7
  6
BYLAYER
 10
50.2523988423
 20
82.154855601
 30
0.0
 11
12.3501444901
 21
-12.3501444901
 31
0.0
 40
0.2216946626
 41
-1.3901884069
 42
-1.3555041205
  0
ELLIPSE
  5
34B
100
AcDbEntity
  8
0
100
AcDbEllipse
 62
7
  6
BYLAYER
 10
50.2523988423
 20
82.154855601
 30
0.0
 11
11.2256030524
 21
11.2256030524
 31
0.0
 40
0.1763269807
 41
-1.7870124622
 42
-1.7711962067
  0
ELLIPSE
  5
34C
100
AcDbEntity
  8
0
100
AcDbEllipse
 62
7
  6
BYLAYER
 10
50.2523988423
 20
82.154855601
 30
0.0
 11
10.8712059595
 21
-10.8712059595
 31
0.0
 40
0.3152987889
 41
8.1978804917
 42
8.2010974633
  0
ELLIPSE
  5
34D
100
AcDbEntity
  8
0
100
AcDbEllipse
 62
7
  6
BYLAYER
 10
50.2523988423
 20
82.154855601
 30
0.0
 11
11.0103721979
 21
-11.0103721979
 31
0.0
 40
0.2679491924
 41
1.8643033915
 42
1.8742789248
  0
ELLIPSE
  5
34E
100
AcDbEntity
  8
0
100
AcDbEllipse
 62
7
  6
BYLAYER
 10
50.2523988423
 20
82.154855601
 30
0.0
 11
11.128579567
 21
-11.128579567
 31
0.0
 40
0.2216946626
 41
1.8145662891
 42
1.8306456935
  0
ELLIPSE
  5
34F
100
AcDbEntity
  8
0
100
AcDbEllipse
 62
7
  6
BYLAYER
 10
50.2523988423
 20
82.154855601
 30
0.0
 11
11.2256030524
 21
-11.2256030524
 31
0.0
 40
0.1763269807
 41
1.7653108563
 42
1.7870124622
  0
ELLIPSE
  5
350
100
AcDbEntity
  8
0
100
AcDbEllipse
 62
7
  6
BYLAYER
 10
50.2523988423
 20
82.154855601
 30
0.0
 11
11.3012579644
 21
-11.3012579644
 31
0.0
 40
0.1316524976
 41
1.7164042952
 42
1.7433792309
  0
ELLIPSE
  5
351
100
AcDbEntity
  8
0
100
AcDbEllipse
 62
7
  6
BYLAYER
 10
50.2523988423
 20
82.154855601
 30
0.0
 11
11.3554002896
 21
-11.3554002896
 31
0.0
 40
0.0874886635
 41
1.6676411388
 42
1.6997459996
  0
ELLIPSE
  5
352
100
AcDbEntity
  8
0
100
AcDbEllipse
 62
7
  6
BYLAYER
 10
50.2523988423
 20
82.154855601
 30
0.0
 11
11.3879269648
 21
-11.3879269648
 31
0.0
 40
0.0436609429
 41
1.6480915897
 42
1.6561127683
  0
ELLIPSE
  5
353
100
AcDbEntity
  8
0
100
AcDbEllipse
 62
7
  6
BYLAYER
 10
50.2523988423
 20
82.154855601
 30
0.0
 11
10.6689017895
 21
-10.6689017895
 31
0.0
 40
0.6370702608
 41
2.1409022839
 42
2.1755865703
  0
ELLIPSE
  5
354
100
AcDbEntity
  8
0
100
AcDbEllipse
 62
7
  6
BYLAYER
 10
50.2523988423
 20
82.154855601
 30
0.0
 11
12.2189617026
 21
-12.2189617026
 31
0.0
 40
0.2679491924
 41
1.8354696648
 42
1.8701539512
  0
ELLIPSE
  5
355
100
AcDbEntity
  8
0
100
AcDbEllipse
 62
7
  6
BYLAYER
 10
50.2523988423
 20
82.154855601
 30
0.0
 11
12.3501444901
 21
-12.3501444901
 31
0.0
 40
0.2216946626
 41
1.7918364335
 42
1.8265207199
  0
ELLIPSE
  5
356
100
AcDbEntity
  8
0
100
AcDbEllipse
 62
7
  6
BYLAYER
 10
50.2523988423
 20
82.154855601
 30
0.0
 11
10.9552213579
 21
-10.9552213579
 31
0.0
 40
0.5773502692
 41
2.0972690526
 42
2.131953339
  0
ELLIPSE
  5
357
100
AcDbEntity
  8
0
100
AcDbEllipse
 62
7
  6
BYLAYER
 10
50.2523988423
 20
82.154855601
 30
0.0
 11
12.4578180756
 21
-12.4578180756
 31
0.0
 40
0.1763269807
 41
1.7482032022
 42
1.7828874886
  0
ELLIPSE
  5
358
100
AcDbEntity
  8
0
100
AcDbEllipse
 62
7
  6
BYLAYER
 10
50.2523988423
 20
82.154855601
 30
0.0
 11
12.4578180756
 21
12.4578180756
 31
0.0
 40
0.1763269807
 41
4.5002978186
 42
4.534982105
  0
ELLIPSE
  5
359
100
AcDbEntity
  8
0
100
AcDbEllipse
 62
7
  6
BYLAYER
 10
50.2523988423
 20
82.154855601
 30
0.0
 11
12.3501444901
 21
12.3501444901
 31
0.0
 40
0.2216946626
 41
-1.8265207199
 42
-1.7918364335
  0
ELLIPSE
  5
35A
100
AcDbEntity
  8
0
100
AcDbEllipse
 62
7
  6
BYLAYER
 10
50.2523988423
 20
82.154855601
 30
0.0
 11
11.2206870397
 21
-11.2206870397
 31
0.0
 40
0.5205670506
 41
2.0536358213
 42
2.0883201077
  0
ELLIPSE
  5
35B
100
AcDbEntity
  8
0
100
AcDbEllipse
 62
7
  6
BYLAYER
 10
50.2523988423
 20
82.154855601
 30
0.0
 11
12.5417774964
 21
-12.5417774964
 31
0.0
 40
0.1316524976
 41
1.7045699709
 42
1.7392542573
  0
ELLIPSE
  5
35C
100
AcDbEntity
  8
0
100
AcDbEllipse
 62
7
  6
BYLAYER
 10
50.2523988423
 20
82.154855601
 30
0.0
 11
12.6018629309
 21
-12.6018629309
 31
0.0
 40
0.0874886635
 41
1.6609367396
 42
1.695621026
  0
ELLIPSE
  5
35D
100
AcDbEntity
  8
0
100
AcDbEllipse
 62
7
  6
BYLAYER
 10
50.2523988423
 20
82.154855601
 30
0.0
 11
11.464793506
 21
-11.464793506
 31
0.0
 40
0.4663076582
 41
2.01000259
 42
2.0446868764
  0
ELLIPSE
  5
35E
100
AcDbEntity
  8
0
100
AcDbEllipse
 62
7
  6
BYLAYER
 10
50.2523988423
 20
82.154855601
 30
0.0
 11
12.637960003
 21
-12.637960003
 31
0.0
 40
0.0436609429
 41
1.636079988
 42
1.6519877947
  0
ELLIPSE
  5
35F
100
AcDbEntity
  8
0
100
AcDbEllipse
 62
7
  6
BYLAYER
 10
50.2523988423
 20
82.154855601
 30
0.0
 11
10.6689017895
 21
10.6689017895
 31
0.0
 40
0.6370702608
 41
-2.1755865703
 42
-2.1409022839
  0
ELLIPSE
  5
360
100
AcDbEntity
  8
0
100
AcDbEllipse
 62
7
  6
BYLAYER
 10
50.2523988423
 20
82.154855601
 30
0.0
 11
10.3622733603
 21
10.3622733603
 31
0.0
 40
0.7002075382
 41
-2.2192198016
 42
-2.1845355152
  0
ELLIPSE
  5
361
100
AcDbEntity
  8
0
100
AcDbEllipse
 62
7
  6
BYLAYER
 10
50.2523988423
 20
82.154855601
 30
0.0
 11
9.6904622055
 21
-9.6904622055
 31
0.0
 40
0.8390996312
 41
2.2718019778
 42
2.3064862642
  0
ELLIPSE
  5
362
100
AcDbEntity
  8
0
100
AcDbEllipse
 62
7
  6
BYLAYER
 10
50.2523988423
 20
82.154855601
 30
0.0
 11
10.0359197547
 21
10.0359197547
 31
0.0
 40
0.767326988
 41
-2.2628530329
 42
-2.2281687465
  0
ELLIPSE
  5
363
100
AcDbEntity
  8
0
100
AcDbEllipse
 62
7
  6
BYLAYER
 10
50.2523988423
 20
82.154855601
 30
0.0
 11
9.6904622055
 21
9.6904622055
 31
0.0
 40
0.8390996312
 41
-2.3064862642
 42
-2.2718019778
  0
ELLIPSE
  5
364
100
AcDbEntity
  8
0
100
AcDbEllipse
 62
7
  6
BYLAYER
 10
50.2523988423
 20
82.154855601
 30
0.0
 11
11.6870760863
 21
-11.6870760863
 31
0.0
 40
0.4142135624
 41
1.9663693587
 42
2.0010536451
  0
ELLIPSE
  5
365
100
AcDbEntity
  8
0
100
AcDbEllipse
 62
7
  6
BYLAYER
 10
50.2523988423
 20
82.154855601
 30
0.0
 11
9.3265583107
 21
9.3265583106
 31
0.0
 40
0.916331174
 41
-2.3501194955
 42
-2.3154352091
  0
ELLIPSE
  5
366
100
AcDbEntity
  8
0
100
AcDbEllipse
 62
7
  6
BYLAYER
 10
50.2523988423
 20
82.154855601
 30
0.0
 11
9.3265583106
 21
-9.3265583107
 31
0.0
 40
0.916331174
 41
2.3154352091
 42
2.3501194955
  0
ELLIPSE
  5
367
100
AcDbEntity
  8
0
100
AcDbEllipse
 62
7
  6
BYLAYER
 10
50.2523988423
 20
82.154855601
 30
0.0
 11
10.0359197547
 21
-10.0359197547
 31
0.0
 40
0.767326988
 41
2.2281687465
 42
2.2628530329
  0
ELLIPSE
  5
368
100
AcDbEntity
  8
0
100
AcDbEllipse
 62
7
  6
BYLAYER
 10
50.2523988423
 20
82.154855601
 30
0.0
 11
11.8871116529
 21
-11.8871116529
 31
0.0
 40
0.3639702343
 41
1.9227361274
 42
1.9574204138
  0
ELLIPSE
  5
369
100
AcDbEntity
  8
0
100
AcDbEllipse
 62
7
  6
BYLAYER
 10
50.2523988423
 20
82.154855601
 30
0.0
 11
10.3622733603
 21
-10.3622733603
 31
0.0
 40
0.7002075382
 41
2.1845355152
 42
2.2192198016
  0
ELLIPSE
  5
36A
100
AcDbEntity
  8
0
100
AcDbEllipse
 62
7
  6
BYLAYER
 10
50.2523988423
 20
82.154855601
 30
0.0
 11
12.064519427
 21
-12.064519427
 31
0.0
 40
0.3152987889
 41
1.8791028961
 42
1.9137871825
  0
ELLIPSE
  5
36B
100
AcDbEntity
  8
0
100
AcDbEllipse
 62
7
  6
BYLAYER
 10
77.6223018273
 20
79.2972273174
 30
0.0
 11
0.7895038596
 21
0.0
 31
0.0
 40
0.9998476952
 41
-3.1373559635
 42
-2.4421645698
  0
ENDSEC
  0
SECTION
  2
OBJECTS
  0
DICTIONARY
  5
C
100
AcDbDictionary
280
0
281
1
  3
ACAD_GROUP
350
D
  3
ACAD_MLINESTYLE
350
17
  3
ACAD_LAYOUT
350
1A
  3
ACAD_PLOTSETTINGS
350
19
  3
ACAD_PLOTSTYLENAME
350
E
  0
DICTIONARY
  5
D
102
{ACAD_REACTORS
330
C
102
}
100
AcDbDictionary
280
0
281
1
  0
ACDBDICTIONARYWDFLT
  5
E
102
{ACAD_REACTORS
330
C
102
}
100
AcDbDictionary
281
1
  3
Normal
350
F
100
AcDbDictionaryWithDefault
340
F
  0
DICTIONARY
  5
17
102
{ACAD_REACTORS
330
C
102
}
100
AcDbDictionary
280
0
281
1
  3
Standard
350
18
  0
DICTIONARY
  5
19
102
{ACAD_REACTORS
330
C
102
}
100
AcDbDictionary
281
1
  0
DICTIONARY
  5
1A
102
{ACAD_REACTORS
330
C
102
}
100
AcDbDictionary
281
1
  3
Model
350
36C
  3
Layout1
350
36D
  0
ACDBPLACEHOLDER
  5
F
102
{ACAD_REACTORS
330
E
102
}
  0
MLINESTYLE
  5
18
102
{ACAD_REACTORS
330
17
102
}
100
AcDbMlineStyle
  2
STANDARD
 70
0
  3

 62
256
 51
90.0
 52
90.0
 71
2
 49
0.5
 62
256
  6
BYLAYER
 49
-0.5
 62
256
  6
BYLAYER
  0
LAYOUT
  5
36C
102
{ACAD_REACTORS
330
1A
102
}
100
AcDbPlotSettings
  1

  2
none_device
  4

  6

 40
0.0
 41
0.0
 42
0.0
 43
0.0
 44
210.0
 45
297.0
 46
0.0
 47
0.0
 48
0.0
 49
0.0
140
0.0
141
0.0
142
1.0
143
1.0
 70
1024
 72
1
 73
0
 74
0
  7

 75
0
147
1.0
148
0.0
149
0.0
100
AcDbLayout
  1
Model
 70
0
 71
0
 10
0.0
 20
0.0
 11
210.0
 21
297.0
 12
0.0
 22
0.0
 32
0.0
 14
0.0
 24
0.0
 34
0.0
 15
0.0
 25
0.0
 35
0.0
146
0.0
 13
0.0
 23
0.0
 33
0.0
 16
1.0
 26
0.0
 36
0.0
 17
0.0
 27
1.0
 37
0.0
 76
0
330
211
345
0
346
0
  0
LAYOUT
  5
36D
102
{ACAD_REACTORS
330
1A
102
}
100
AcDbPlotSettings
  1

  2
none_device
  4

  6

 40
0.0
 41
0.0
 42
0.0
 43
0.0
 44
210.0
 45
297.0
 46
0.0
 47
0.0
 48
0.0
 49
0.0
140
0.0
141
0.0
142
1.0
143
1.0
 70
0
 72
1
 73
0
 74
0
  7

 75
0
147
1.0
148
0.0
149
0.0
100
AcDbLayout
  1
Layout1
 70
0
 71
1
 10
0.0
 20
0.0
 11
210.0
 21
297.0
 12
0.0
 22
0.0
 32
0.0
 14
0.0
 24
0.0
 34
0.0
 15
0.0
 25
0.0
 35
0.0
146
0.0
 13
0.0
 23
0.0
 33
0.0
 16
1.0
 26
0.0
 36
0.0
 17
0.0
 27
1.0
 37
0.0
 76
0
330
212
345
0
346
0
  0
ENDSEC
  0
EOF
