999
DXF file: C:\Users\sesa63760\Dev\_Creo\CAD\MCADPE0010452_3D-CAD\drw0001_1.dxf
999
Pro/ENGINEER 2019471 by Parametric Technology Corporation
  0
SECTION
  2
HEADER
  9
$ACADVER
  1
AC1024
  9
$DWGCODEPAGE
  3
ANSI_1252
  9
$EXTMAX
 10
39.6302201826
 20
56.0484542582
 30
0.0
  9
$EXTMIN
 10
0.0
 20
0.0
 30
0.0
  9
$LIMMIN
 10
0.0
 20
0.0
  9
$LIMMAX
 10
39.6302201826
 20
56.0484542582
  9
$VIEWCTR
 10
19.8151100913
 20
28.0242271291
  9
$VIEWSIZE
 40
56.0484542582
  9
$CLAYER
  8
0
  9
$LTSCALE
 40
3.6535288702
  9
$CELTYPE
  6
BYLAYER
  9
$DIMSCALE
 40
1.0
  9
$DIMASZ
 40
0.4717883355
  9
$DIMEXO
 40
1.0
  9
$DIMDLI
 40
2.5242563103
  9
$DIMEXE
 40
1.0
  9
$DIMCEN
 40
0.5978501788
  9
$DIMLFAC
 40
1.0
  9
$DIMBLK
  1
_FILLED
  9
$DIMALT
 70
0
  9
$DIMALTF
 40
0.0393700787
  9
$DIMTXT
 40
0.6605036697
  9
$DIMTOL
 70
1
  9
$DIMLIM
 70
0
  9
$DIMTFAC
 40
1.0
  9
$DIMTP
 40
0.01
  9
$DIMTM
 40
0.01
  9
$DIMGAP
 40
0.625
  9
$DIMDSEP
 70
46
  9
$AUNITS
 70
0
  9
$PDMODE
 70
3
  9
$PDSIZE
 40
0.3125
  9
$HANDSEED
  5
2A2
  9
$TILEMODE
 70
1
  9
$MEASUREMENT
 70
1
  9
$INSUNITS
 70
4
  0
ENDSEC
  0
SECTION
  2
CLASSES
  0
CLASS
  1
ACDBDICTIONARYWDFLT
  2
AcDbDictionaryWithDefault
  3
AutoCAD 2000
 90
0
 91
1
280
0
281
0
  0
CLASS
  1
ACDBPLACEHOLDER
  2
AcDbPlaceHolder
  3
AutoCAD 2000
 90
0
 91
1
280
0
281
0
  0
CLASS
  1
LAYOUT
  2
AcDbLayout
  3
AutoCAD 2000
 90
0
 91
0
280
0
281
0
  0
ENDSEC
  0
SECTION
  2
TABLES
  0
TABLE
  2
VPORT
  5
8
100
AcDbSymbolTable
 70
2
  0
VPORT
  5
1F4
100
AcDbSymbolTableRecord
100
AcDbViewportTableRecord
  2
*ACTIVE
 70
0
 10
0.0
 20
0.0
 11
1.0
 21
1.0
 12
19.8151100913
 22
28.0242271291
 13
0.0
 23
0.0
 14
1.0
 24
1.0
 15
0.0
 25
0.0
 16
0.0
 26
0.0
 36
1.0
 17
0.0
 27
0.0
 37
0.0
 40
56.0484542582
 41
0.7070707071
 42
50.0
 43
0.0
 44
0.0
 50
0.0
 51
0.0
 71
0
 72
100
 73
1
 74
1
 75
0
 76
0
 77
0
 78
0
  0
ENDTAB
  0
TABLE
  2
LTYPE
  5
5
100
AcDbSymbolTable
 70
6
  0
LTYPE
  5
14
100
AcDbSymbolTableRecord
100
AcDbLinetypeTableRecord
  2
BYBLOCK
 70
0
  3

 72
65
 73
0
 40
0.0
  0
LTYPE
  5
15
100
AcDbSymbolTableRecord
100
AcDbLinetypeTableRecord
  2
BYLAYER
 70
0
  3

 72
65
 73
0
 40
0.0
  0
LTYPE
  5
16
100
AcDbSymbolTableRecord
100
AcDbLinetypeTableRecord
  2
CONTINUOUS
 70
64
  3
Solid line
 72
65
 73
0
 40
0.0
  0
LTYPE
  5
1F5
100
AcDbSymbolTableRecord
100
AcDbLinetypeTableRecord
  2
CENTER
 70
64
  3
____ _ ____ _ ____ _ ____ _ ____ _ ____ _ ____
 72
65
 73
4
 40
0.6
 49
0.375
 74
0
 49
-0.075
 74
0
 49
0.075
 74
0
 49
-0.075
 74
0
  0
LTYPE
  5
1F6
100
AcDbSymbolTableRecord
100
AcDbLinetypeTableRecord
  2
HIDDEN
 70
64
  3
- - - - - - - - - - - - - - - - - - - -
 72
65
 73
2
 40
0.2
 49
0.1
 74
0
 49
-0.1
 74
0
  0
LTYPE
  5
1F7
100
AcDbSymbolTableRecord
100
AcDbLinetypeTableRecord
  2
PHANTOM
 70
64
  3
_____ _ _ _____ _ _ _____ _ _ _____
 72
65
 73
6
 40
0.8
 49
0.45
 74
0
 49
-0.05
 74
0
 49
0.1
 74
0
 49
-0.05
 74
0
 49
0.1
 74
0
 49
-0.05
 74
0
  0
LTYPE
  5
1F8
100
AcDbSymbolTableRecord
100
AcDbLinetypeTableRecord
  2
DOT
 70
64
  3
. . . . . . . . . . . . . . . . . . . .
 72
65
 73
2
 40
0.2
 49
0.1
 74
0
 49
-0.1
 74
0
  0
LTYPE
  5
1F9
100
AcDbSymbolTableRecord
100
AcDbLinetypeTableRecord
  2
DASHED
 70
64
  3
- - - - - - - - - - - - - - - - - - - -
 72
65
 73
2
 40
0.2
 49
0.1
 74
0
 49
-0.1
 74
0
  0
ENDTAB
  0
TABLE
  2
LAYER
  5
2
100
AcDbSymbolTable
 70
36
  0
LAYER
  5
10
100
AcDbSymbolTableRecord
100
AcDbLayerTableRecord
  2
0
 70
0
 62
7
  6
CONTINUOUS
370
-3
390
F
  0
LAYER
  5
1FA
100
AcDbSymbolTableRecord
100
AcDbLayerTableRecord
  2
DEFAULT_1
 70
0
 62
7
  6
CENTER
370
-3
390
F
  0
LAYER
  5
1FB
100
AcDbSymbolTableRecord
100
AcDbLayerTableRecord
  2
DEFAULT_2
 70
0
 62
7
  6
HIDDEN
370
-3
390
F
  0
LAYER
  5
1FC
100
AcDbSymbolTableRecord
100
AcDbLayerTableRecord
  2
DEFAULT_3
 70
0
 62
7
  6
PHANTOM
370
-3
390
F
  0
LAYER
  5
1FD
100
AcDbSymbolTableRecord
100
AcDbLayerTableRecord
  2
00_COMPONENTS
 70
0
 62
7
  6
CONTINUOUS
370
-3
390
F
  0
LAYER
  5
1FE
100
AcDbSymbolTableRecord
100
AcDbLayerTableRecord
  2
01_1_DEFAULT_DATUMS
 70
0
 62
7
  6
CONTINUOUS
370
-3
390
F
  0
LAYER
  5
1FF
100
AcDbSymbolTableRecord
100
AcDbLayerTableRecord
  2
01_PLANES
 70
0
 62
7
  6
CONTINUOUS
370
-3
390
F
  0
LAYER
  5
200
100
AcDbSymbolTableRecord
100
AcDbLayerTableRecord
  2
02_COORD_SYS
 70
0
 62
7
  6
CONTINUOUS
370
-3
390
F
  0
LAYER
  5
201
100
AcDbSymbolTableRecord
100
AcDbLayerTableRecord
  2
03_AXES
 70
0
 62
7
  6
CONTINUOUS
370
-3
390
F
  0
LAYER
  5
202
100
AcDbSymbolTableRecord
100
AcDbLayerTableRecord
  2
04_POINTS
 70
0
 62
7
  6
CONTINUOUS
370
-3
390
F
  0
LAYER
  5
203
100
AcDbSymbolTableRecord
100
AcDbLayerTableRecord
  2
05_CURVES
 70
0
 62
7
  6
CONTINUOUS
370
-3
390
F
  0
LAYER
  5
204
100
AcDbSymbolTableRecord
100
AcDbLayerTableRecord
  2
06_SURFS
 70
0
 62
7
  6
CONTINUOUS
370
-3
390
F
  0
LAYER
  5
205
100
AcDbSymbolTableRecord
100
AcDbLayerTableRecord
  2
07_COSMETICS
 70
0
 62
7
  6
CONTINUOUS
370
-3
390
F
  0
LAYER
  5
206
100
AcDbSymbolTableRecord
100
AcDbLayerTableRecord
  2
10_NOTES
 70
0
 62
7
  6
CONTINUOUS
370
-3
390
F
  0
LAYER
  5
207
100
AcDbSymbolTableRecord
100
AcDbLayerTableRecord
  2
11_NOTES_PUB
 70
0
 62
7
  6
CONTINUOUS
370
-3
390
F
  0
LAYER
  5
208
100
AcDbSymbolTableRecord
100
AcDbLayerTableRecord
  2
13_REF_GTOL
 70
0
 62
7
  6
CONTINUOUS
370
-3
390
F
  0
LAYER
  5
209
100
AcDbSymbolTableRecord
100
AcDbLayerTableRecord
  2
16_MISC
 70
0
 62
7
  6
CONTINUOUS
370
-3
390
F
  0
LAYER
  5
20A
100
AcDbSymbolTableRecord
100
AcDbLayerTableRecord
  2
17_NO_PRINT
 70
0
 62
7
  6
CONTINUOUS
370
-3
390
F
  0
LAYER
  5
20B
100
AcDbSymbolTableRecord
100
AcDbLayerTableRecord
  2
18_DATUM_CAMS_JOINTS
 70
0
 62
7
  6
CONTINUOUS
370
-3
390
F
  0
LAYER
  5
20C
100
AcDbSymbolTableRecord
100
AcDbLayerTableRecord
  2
19_DATUM_FUNCTIONAL
 70
0
 62
7
  6
CONTINUOUS
370
-3
390
F
  0
LAYER
  5
20D
100
AcDbSymbolTableRecord
100
AcDbLayerTableRecord
  2
20_DATUM_KINEMATIC_SCHEME
 70
0
 62
7
  6
CONTINUOUS
370
-3
390
F
  0
ENDTAB
  0
TABLE
  2
STYLE
  5
3
100
AcDbSymbolTable
 70
1
  0
STYLE
  5
11
100
AcDbSymbolTableRecord
100
AcDbTextStyleTableRecord
  2
STANDARD
 70
0
 40
0.0
 41
1.0
 50
0.0
 71
0
 42
0.2
  3
ARIAL.TTF
  4

  0
STYLE
  5
20E
100
AcDbSymbolTableRecord
100
AcDbTextStyleTableRecord
  2
TEXTSTYLE_1
 70
0
 40
0.0
 41
0.8
 50
0.0
 71
0
 42
0.2
  3
gdt
  4

  0
ENDTAB
  0
TABLE
  2
VIEW
  5
6
100
AcDbSymbolTable
 70
0
  0
ENDTAB
  0
TABLE
  2
UCS
  5
7
100
AcDbSymbolTable
 70
0
  0
ENDTAB
  0
TABLE
  2
APPID
  5
9
100
AcDbSymbolTable
 70
1
  0
APPID
  5
20F
100
AcDbSymbolTableRecord
100
AcDbRegAppTableRecord
  2
ACAD
 70
0
  0
ENDTAB
  0
TABLE
  2
BLOCK_RECORD
  5
1
100
AcDbSymbolTable
 70
0
  0
BLOCK_RECORD
  5
210
100
AcDbSymbolTableRecord
100
AcDbBlockTableRecord
  2
*Model_Space
  0
BLOCK_RECORD
  5
211
100
AcDbSymbolTableRecord
100
AcDbBlockTableRecord
  2
*Paper_Space
  0
BLOCK_RECORD
  5
212
100
AcDbSymbolTableRecord
100
AcDbBlockTableRecord
  2
_FILLED
  0
ENDTAB
  0
TABLE
  2
DIMSTYLE
  5
A
100
AcDbSymbolTable
 70
1
100
AcDbDimStyleTable
 71
0
  0
DIMSTYLE
105
213
100
AcDbSymbolTableRecord
100
AcDbDimStyleTableRecord
  2
STANDARD
 70
0
  3

  4

 40
1.0
 41
0.4717883355
 42
1.0
 43
0.38
 44
1.0
 45
0.0
 46
0.0
 47
0.01
 48
0.01
140
0.6605036697
141
0.09
142
0.0
143
25.4
144
1.0
145
0.0
146
1.0
147
0.625
 71
1
 72
0
 73
0
 74
0
 75
0
 76
0
 77
1
 78
8
 79
2
170
0
171
1
172
0
173
0
174
0
175
0
176
0
177
0
178
0
270
2
179
2
271
2
272
2
273
2
274
2
275
0
280
0
281
0
282
0
283
1
284
8
285
0
286
0
287
3
288
0
340
11
278
46
341
212
342
212
343
212
344
212
  0
ENDTAB
  0
ENDSEC
  0
SECTION
  2
BLOCKS
  0
BLOCK
  5
20
100
AcDbEntity
  8
0
100
AcDbBlockBegin
  2
*Model_Space
 70
0
 10
0.0
 20
0.0
 30
0.0
  3
*Model_Space
  1

  0
ENDBLK
  5
21
100
AcDbEntity
  8
0
100
AcDbBlockEnd
  0
BLOCK
  5
1C
100
AcDbEntity
  8
0
100
AcDbBlockBegin
  2
*Paper_Space
 70
0
 10
0.0
 20
0.0
 30
0.0
  3
*Paper_Space
  1

  0
ENDBLK
  5
1D
100
AcDbEntity
  8
0
100
AcDbBlockEnd
  0
BLOCK
  5
214
100
AcDbEntity
  8
0
100
AcDbBlockBegin
  2
_FILLED
 70
64
 10
0.0
 20
0.0
  3
_FILLED
  1

  0
SOLID
  5
215
100
AcDbEntity
  8
0
  6
BYBLOCK
 62
0
100
AcDbTrace
 10
0.0
 20
0.0
 11
-1.0
 21
0.25
 12
-1.0
 22
-0.25
 13
-1.0
 23
-0.25
  0
ENDBLK
  5
216
100
AcDbEntity
  8
0
  6
BYBLOCK
 62
0
100
AcDbBlockEnd
  0
ENDSEC
  0
SECTION
  2
ENTITIES
  0
LINE
  5
217
100
AcDbEntity
  8
0
100
AcDbLine
 62
7
  6
BYLAYER
 10
20.4062449237
 20
4.6186932967
 11
21.4990678211
 21
4.3258874092
  0
LINE
  5
218
100
AcDbEntity
  8
0
100
AcDbLine
 62
7
  6
BYLAYER
 10
17.2084990078
 20
6.2025748912
 11
18.1356638158
 21
5.9541547956
  0
LINE
  5
219
100
AcDbEntity
  8
0
100
AcDbLine
 62
7
  6
BYLAYER
 10
19.7235907217
 20
6.7544696907
 11
20.8164138604
 21
6.4616637385
  0
LINE
  5
21A
100
AcDbEntity
  8
0
100
AcDbLine
 62
7
  6
BYLAYER
 10
16.1407708322
 20
7.9325041852
 11
17.177652211
 21
7.6546871574
  0
LINE
  5
21B
100
AcDbEntity
  8
0
100
AcDbLine
 62
7
  6
BYLAYER
 10
17.1299036004
 20
7.9210723424
 11
16.0787113645
 21
8.2027237527
  0
LINE
  5
21C
100
AcDbEntity
  8
0
100
AcDbLine
 62
7
  6
BYLAYER
 10
12.0744467685
 20
45.9806379869
 11
22.2567420244
 21
51.8593538027
  0
LINE
  5
21D
100
AcDbEntity
  8
0
100
AcDbLine
 62
7
  6
BYLAYER
 10
16.5029736669
 20
8.447670245
 11
17.5541659027
 21
8.1660188347
  0
LINE
  5
21E
100
AcDbEntity
  8
0
100
AcDbLine
 62
7
  6
BYLAYER
 10
14.1576441824
 20
45.4224760547
 11
24.3399394383
 21
51.3011918704
  0
LINE
  5
21F
100
AcDbEntity
  8
0
100
AcDbLine
 62
7
  6
BYLAYER
 10
12.4928914878
 20
43.9358027755
 11
6.3074046812
 21
40.3646316196
  0
LINE
  5
220
100
AcDbEntity
  8
0
100
AcDbLine
 62
7
  6
BYLAYER
 10
19.7146468091
 20
47.6307903699
 11
19.1489637393
 21
47.3041950468
  0
LINE
  5
221
100
AcDbEntity
  8
0
100
AcDbLine
 62
7
  6
BYLAYER
 10
12.4556102397
 20
43.3196175749
 11
7.6473041466
 21
40.5435573285
  0
LINE
  5
222
100
AcDbEntity
  8
0
100
AcDbLine
 62
7
  6
BYLAYER
 10
26.2044963888
 20
7.9662953585
 11
27.2973192861
 21
7.673489471
  0
LINE
  5
223
100
AcDbEntity
  8
0
100
AcDbLine
 62
7
  6
BYLAYER
 10
24.9010665709
 20
9.8601385818
 11
23.9739017628
 21
10.1085586775
  0
LINE
  5
224
100
AcDbEntity
  8
0
100
AcDbLine
 62
7
  6
BYLAYER
 10
25.5218421868
 20
10.1020717525
 11
26.6146653255
 21
9.8092658003
  0
LINE
  5
225
100
AcDbEntity
  8
0
100
AcDbLine
 62
7
  6
BYLAYER
 10
13.488015463
 20
13.7287510128
 11
15.5370621429
 21
13.1797392646
  0
LINE
  5
226
100
AcDbEntity
  8
0
100
AcDbLine
 62
7
  6
BYLAYER
 10
11.895660889
 20
39.4052729814
 11
13.2589320363
 21
40.192353247
  0
LINE
  5
227
100
AcDbEntity
  8
0
100
AcDbLine
 62
7
  6
BYLAYER
 10
21.1275223571
 20
43.8592229677
 11
21.6932054269
 21
44.1858182908
  0
LINE
  5
228
100
AcDbEntity
  8
0
100
AcDbLine
 62
7
  6
BYLAYER
 10
19.3319449862
 20
13.7158966868
 11
18.2391213639
 21
14.0087027686
  0
LINE
  5
229
100
AcDbEntity
  8
0
100
AcDbLine
 62
7
  6
BYLAYER
 10
18.4102618996
 20
14.7426169694
 11
17.3174381019
 21
15.035423075
  0
LINE
  5
22A
100
AcDbEntity
  8
0
100
AcDbLine
 62
7
  6
BYLAYER
 10
16.2058470151
 20
15.7477911378
 11
18.2548936517
 21
15.1987794012
  0
LINE
  5
22B
100
AcDbEntity
  8
0
100
AcDbLine
 62
7
  6
BYLAYER
 10
16.1407708322
 20
7.9325041852
 11
17.2084990078
 21
6.2025748912
  0
LINE
  5
22C
100
AcDbEntity
  8
0
100
AcDbLine
 62
7
  6
BYLAYER
 10
17.177652211
 20
7.6546871574
 11
18.1356638158
 21
5.9541547956
  0
LINE
  5
22D
100
AcDbEntity
  8
0
100
AcDbLine
 62
7
  6
BYLAYER
 10
19.9515153952
 20
40.9675219221
 11
20.3934552935
 21
41.2226745183
  0
LINE
  5
22E
100
AcDbEntity
  8
0
100
AcDbLine
 62
7
  6
BYLAYER
 10
17.3174381019
 20
15.035423075
 11
18.2391213639
 21
14.0087027686
  0
LINE
  5
22F
100
AcDbEntity
  8
0
100
AcDbLine
 62
7
  6
BYLAYER
 10
6.3074046812
 20
40.3646316196
 11
7.6974011626
 21
33.5720647212
  0
LINE
  5
230
100
AcDbEntity
  8
0
100
AcDbLine
 62
7
  6
BYLAYER
 10
23.6965629726
 20
42.3898345543
 11
23.1308799029
 21
42.0632392312
  0
LINE
  5
231
100
AcDbEntity
  8
0
100
AcDbLine
 62
7
  6
BYLAYER
 10
23.4425017733
 20
40.5189734275
 11
24.0081848431
 21
40.8455687506
  0
LINE
  5
232
100
AcDbEntity
  8
0
100
AcDbLine
 62
7
  6
BYLAYER
 10
25.1301964512
 20
17.0634987486
 11
24.0373728289
 21
17.3563048304
  0
LINE
  5
233
100
AcDbEntity
  8
0
100
AcDbLine
 62
7
  6
BYLAYER
 10
19.3319449862
 20
13.7158966868
 11
18.4102618996
 21
14.7426169694
  0
LINE
  5
234
100
AcDbEntity
  8
0
100
AcDbLine
 62
7
  6
BYLAYER
 10
9.5914872535
 20
29.6791667944
 11
10.9640882869
 21
22.9716071211
  0
LINE
  5
235
100
AcDbEntity
  8
0
100
AcDbLine
 62
7
  6
BYLAYER
 10
11.6332961022
 20
22.7923027859
 11
13.488015463
 21
13.7287510128
  0
LINE
  5
236
100
AcDbEntity
  8
0
100
AcDbLine
 62
7
  6
BYLAYER
 10
32.1082221788
 20
43.1942295494
 11
31.4364735335
 21
42.8063976033
  0
LINE
  5
237
100
AcDbEntity
  8
0
100
AcDbLine
 62
7
  6
BYLAYER
 10
27.0701073386
 20
40.2854899531
 11
25.6205444723
 21
39.4485894376
  0
LINE
  5
238
100
AcDbEntity
  8
0
100
AcDbLine
 62
7
  6
BYLAYER
 10
21.2541782775
 20
36.9276817875
 11
20.5824296322
 21
36.5398498413
  0
LINE
  5
239
100
AcDbEntity
  8
0
100
AcDbLine
 62
7
  6
BYLAYER
 10
24.2085134019
 20
18.0902190212
 11
23.115689567
 21
18.3830251368
  0
LINE
  5
23A
100
AcDbEntity
  8
0
100
AcDbLine
 62
7
  6
BYLAYER
 10
10.9640882869
 20
22.9716071211
 11
16.3257602763
 21
21.5350264218
  0
LINE
  5
23B
100
AcDbEntity
  8
0
100
AcDbLine
 62
7
  6
BYLAYER
 10
7.6974011626
 20
33.5720647212
 11
9.5914872535
 21
29.6791667944
  0
LINE
  5
23C
100
AcDbEntity
  8
0
100
AcDbLine
 62
7
  6
BYLAYER
 10
16.0787113645
 20
8.2027237527
 11
16.1407708322
 21
7.9325041852
  0
LINE
  5
23D
100
AcDbEntity
  8
0
100
AcDbLine
 62
7
  6
BYLAYER
 10
15.4082665378
 20
13.2142481418
 11
16.5029736669
 21
8.447670245
  0
LINE
  5
23E
100
AcDbEntity
  8
0
100
AcDbLine
 62
7
  6
BYLAYER
 10
15.5370621429
 20
13.1797392646
 11
13.682342823
 21
22.2432910268
  0
LINE
  5
23F
100
AcDbEntity
  8
0
100
AcDbLine
 62
7
  6
BYLAYER
 10
24.8796499088
 20
20.7947412413
 11
25.3577617609
 21
20.6666382428
  0
LINE
  5
240
100
AcDbEntity
  8
0
100
AcDbLine
 62
7
  6
BYLAYER
 10
23.5154461634
 20
21.477066902
 11
22.4226221613
 21
21.7698729283
  0
LINE
  5
241
100
AcDbEntity
  8
0
100
AcDbLine
 62
7
  6
BYLAYER
 10
20.4062449572
 20
4.6186932878
 11
19.7235907956
 21
6.7544696709
  0
LINE
  5
242
100
AcDbEntity
  8
0
100
AcDbLine
 62
7
  6
BYLAYER
 10
20.8164138604
 20
6.4616637385
 11
21.499067821
 21
4.3258874092
  0
LINE
  5
243
100
AcDbEntity
  8
0
100
AcDbLine
 62
7
  6
BYLAYER
 10
14.9459214527
 20
21.9047338239
 11
16.2058470151
 21
15.7477911378
  0
LINE
  5
244
100
AcDbEntity
  8
0
100
AcDbLine
 62
7
  6
BYLAYER
 10
17.2276891751
 20
15.4740036462
 11
17.3174380938
 21
15.0354230625
  0
LINE
  5
245
100
AcDbEntity
  8
0
100
AcDbLine
 62
7
  6
BYLAYER
 10
17.177652211
 20
7.6546871574
 11
17.1299036004
 21
7.9210723424
  0
LINE
  5
246
100
AcDbEntity
  8
0
100
AcDbLine
 62
7
  6
BYLAYER
 10
17.5541659027
 20
8.1660188347
 11
16.5505870403
 21
13.764894644
  0
LINE
  5
247
100
AcDbEntity
  8
0
100
AcDbLine
 62
7
  6
BYLAYER
 10
17.9747659226
 20
14.3031847352
 11
18.8130500281
 21
6.3452415731
  0
LINE
  5
248
100
AcDbEntity
  8
0
100
AcDbLine
 62
7
  6
BYLAYER
 10
21.9338701167
 20
22.3344871094
 11
23.3559367193
 21
21.9534653986
  0
LINE
  5
249
100
AcDbEntity
  8
0
100
AcDbLine
 62
7
  6
BYLAYER
 10
24.879667837
 20
20.7948080952
 11
23.515446261
 21
21.4770668759
  0
LINE
  5
24A
100
AcDbEntity
  8
0
100
AcDbLine
 62
7
  6
BYLAYER
 10
22.3796200008
 20
21.6846902224
 11
22.0308074001
 21
21.8607787288
  0
LINE
  5
24B
100
AcDbEntity
  8
0
100
AcDbLine
 62
7
  6
BYLAYER
 10
23.115689567
 20
18.3830251368
 11
24.0373728289
 21
17.3563048304
  0
LINE
  5
24C
100
AcDbEntity
  8
0
100
AcDbLine
 62
7
  6
BYLAYER
 10
25.1301964512
 20
17.0634987486
 11
24.2085134019
 21
18.0902190212
  0
LINE
  5
24D
100
AcDbEntity
  8
0
100
AcDbLine
 62
7
  6
BYLAYER
 10
16.3257602763
 20
21.5350264218
 11
14.6603377552
 21
29.6735318354
  0
LINE
  5
24E
100
AcDbEntity
  8
0
100
AcDbLine
 62
7
  6
BYLAYER
 10
18.2391213639
 20
14.0087027686
 11
19.7235907217
 21
6.7544696907
  0
LINE
  5
24F
100
AcDbEntity
  8
0
100
AcDbLine
 62
7
  6
BYLAYER
 10
12.4556102397
 20
43.3196175749
 11
12.8195709169
 21
41.5410323183
  0
LINE
  5
250
100
AcDbEntity
  8
0
100
AcDbLine
 62
7
  6
BYLAYER
 10
18.2548936517
 20
15.1987794012
 11
16.8914433461
 21
21.8616217449
  0
LINE
  5
251
100
AcDbEntity
  8
0
100
AcDbLine
 62
7
  6
BYLAYER
 10
18.4102619077
 20
14.7426169819
 11
18.3092700637
 21
15.2361391961
  0
LINE
  5
252
100
AcDbEntity
  8
0
100
AcDbLine
 62
7
  6
BYLAYER
 10
12.0744467685
 20
45.9806379869
 11
13.5019517865
 21
39.0047762042
  0
LINE
  5
253
100
AcDbEntity
  8
0
100
AcDbLine
 62
7
  6
BYLAYER
 10
20.8164138604
 20
6.4616637385
 11
19.3319449862
 21
13.7158966868
  0
LINE
  5
254
100
AcDbEntity
  8
0
100
AcDbLine
 62
7
  6
BYLAYER
 10
22.0041781091
 20
16.4489396016
 11
23.9739017628
 21
10.1085586775
  0
LINE
  5
255
100
AcDbEntity
  8
0
100
AcDbLine
 62
7
  6
BYLAYER
 10
15.5851492004
 20
38.446614272
 11
14.1576441824
 21
45.4224760547
  0
LINE
  5
256
100
AcDbEntity
  8
0
100
AcDbLine
 62
7
  6
BYLAYER
 10
14.6603377552
 20
29.6735318354
 11
22.4125642462
 21
27.5964374186
  0
LINE
  5
257
100
AcDbEntity
  8
0
100
AcDbLine
 62
7
  6
BYLAYER
 10
26.2044964223
 20
7.9662953495
 11
25.5218422607
 21
10.1020717327
  0
LINE
  5
258
100
AcDbEntity
  8
0
100
AcDbLine
 62
7
  6
BYLAYER
 10
24.9010665709
 20
9.8601385818
 11
22.9327471408
 21
17.4496145013
  0
LINE
  5
259
100
AcDbEntity
  8
0
100
AcDbLine
 62
7
  6
BYLAYER
 10
21.736097929
 20
15.1039269164
 11
23.2205670088
 21
7.8496938604
  0
LINE
  5
25A
100
AcDbEntity
  8
0
100
AcDbLine
 62
7
  6
BYLAYER
 10
21.5654439497
 20
19.415188335
 11
22.0872018665
 21
16.8654866329
  0
LINE
  5
25B
100
AcDbEntity
  8
0
100
AcDbLine
 62
7
  6
BYLAYER
 10
23.2205670115
 20
7.8496938615
 11
23.4639225131
 21
5.4602900231
  0
LINE
  5
25C
100
AcDbEntity
  8
0
100
AcDbLine
 62
7
  6
BYLAYER
 10
28.9002419527
 20
31.3420775304
 11
27.4506790864
 21
30.505177015
  0
LINE
  5
25D
100
AcDbEntity
  8
0
100
AcDbLine
 62
7
  6
BYLAYER
 10
23.0843128916
 20
27.9842693648
 11
22.4125642462
 21
27.5964374186
  0
LINE
  5
25E
100
AcDbEntity
  8
0
100
AcDbLine
 62
7
  6
BYLAYER
 10
33.2666081474
 20
33.8629851805
 11
33.9383567927
 21
34.2508171267
  0
LINE
  5
25F
100
AcDbEntity
  8
0
100
AcDbLine
 62
7
  6
BYLAYER
 10
26.6146653255
 20
9.8092658003
 11
27.2973192861
 21
7.673489471
  0
LINE
  5
260
100
AcDbEntity
  8
0
100
AcDbLine
 62
7
  6
BYLAYER
 10
21.4876182879
 20
24.5152087451
 11
22.1538601961
 21
21.259450337
  0
LINE
  5
261
100
AcDbEntity
  8
0
100
AcDbLine
 62
7
  6
BYLAYER
 10
22.4226221613
 20
21.7698729283
 11
23.1156895589
 21
18.3830251243
  0
LINE
  5
262
100
AcDbEntity
  8
0
100
AcDbLine
 62
7
  6
BYLAYER
 10
24.0373728289
 20
17.3563048304
 11
25.5218421868
 21
10.1020717525
  0
LINE
  5
263
100
AcDbEntity
  8
0
100
AcDbLine
 62
7
  6
BYLAYER
 10
23.3559367193
 20
21.9534653986
 11
22.6896948112
 21
25.2092238066
  0
LINE
  5
264
100
AcDbEntity
  8
0
100
AcDbLine
 62
7
  6
BYLAYER
 10
24.2085134099
 20
18.0902190337
 11
23.5154461634
 21
21.477066902
  0
LINE
  5
265
100
AcDbEntity
  8
0
100
AcDbLine
 62
7
  6
BYLAYER
 10
16.3257602763
 20
21.5350264218
 11
16.8914433461
 21
21.8616217449
  0
LINE
  5
266
100
AcDbEntity
  8
0
100
AcDbLine
 62
7
  6
BYLAYER
 10
21.487618288
 20
24.5152087451
 11
22.6896948112
 21
25.2092238066
  0
LINE
  5
267
100
AcDbEntity
  8
0
100
AcDbLine
 62
7
  6
BYLAYER
 10
27.2858697531
 20
27.8628108068
 11
27.8515528229
 21
28.1894061299
  0
LINE
  5
268
100
AcDbEntity
  8
0
100
AcDbLine
 62
7
  6
BYLAYER
 10
22.4125642462
 20
27.5964374186
 11
20.5824296322
 21
36.5398498413
  0
LINE
  5
269
100
AcDbEntity
  8
0
100
AcDbLine
 62
7
  6
BYLAYER
 10
19.9515153952
 20
40.9675219221
 11
20.750597007
 21
37.0626089399
  0
LINE
  5
26A
100
AcDbEntity
  8
0
100
AcDbLine
 62
7
  6
BYLAYER
 10
26.6146653255
 20
9.8092658003
 11
25.1301964512
 21
17.0634987486
  0
LINE
  5
26B
100
AcDbEntity
  8
0
100
AcDbLine
 62
7
  6
BYLAYER
 10
21.2541782775
 20
36.9276817875
 11
23.0843128916
 21
27.9842693648
  0
LINE
  5
26C
100
AcDbEntity
  8
0
100
AcDbLine
 62
7
  6
BYLAYER
 10
19.1489637393
 20
47.3041950468
 11
20.3934552935
 21
41.2226745183
  0
LINE
  5
26D
100
AcDbEntity
  8
0
100
AcDbLine
 62
7
  6
BYLAYER
 10
21.7360980158
 20
15.1039268932
 11
22.087201837
 21
16.8654866408
  0
LINE
  5
26E
100
AcDbEntity
  8
0
100
AcDbLine
 62
7
  6
BYLAYER
 10
22.2852312798
 20
31.8891823471
 11
27.4506790864
 21
30.505177015
  0
LINE
  5
26F
100
AcDbEntity
  8
0
100
AcDbLine
 62
7
  6
BYLAYER
 10
27.5343493941
 20
18.4515289782
 11
29.0188184739
 21
11.1972959221
  0
LINE
  5
270
100
AcDbEntity
  8
0
100
AcDbLine
 62
7
  6
BYLAYER
 10
29.0188184766
 20
11.1972959233
 11
29.2621739782
 21
8.8078920848
  0
LINE
  5
271
100
AcDbEntity
  8
0
100
AcDbLine
 62
7
  6
BYLAYER
 10
27.7644377732
 20
20.8044617518
 11
27.8854532944
 21
20.2130887047
  0
LINE
  5
272
100
AcDbEntity
  8
0
100
AcDbLine
 62
7
  6
BYLAYER
 10
27.2858697531
 20
27.8628108068
 11
28.6493200587
 21
21.1999684631
  0
LINE
  5
273
100
AcDbEntity
  8
0
100
AcDbLine
 62
7
  6
BYLAYER
 10
27.5343494808
 20
18.451528955
 11
27.8854533021
 21
20.2130887026
  0
LINE
  5
274
100
AcDbEntity
  8
0
100
AcDbLine
 62
7
  6
BYLAYER
 10
20.5824296322
 20
36.5398498413
 11
6.3074046812
 21
40.3646316196
  0
LINE
  5
275
100
AcDbEntity
  8
0
100
AcDbLine
 62
7
  6
BYLAYER
 10
7.6473041466
 20
40.5435573285
 11
11.895660889
 21
39.4052729814
  0
LINE
  5
276
100
AcDbEntity
  8
0
100
AcDbLine
 62
7
  6
BYLAYER
 10
13.5019517865
 20
39.0047762042
 11
21.2541782775
 21
36.9276817875
  0
LINE
  5
277
100
AcDbEntity
  8
0
100
AcDbLine
 62
7
  6
BYLAYER
 10
28.1011603409
 20
35.2469905127
 11
33.2666081474
 21
33.8629851806
  0
LINE
  5
278
100
AcDbEntity
  8
0
100
AcDbLine
 62
7
  6
BYLAYER
 10
27.3734297007
 20
30.5258748452
 11
27.8515528228
 21
28.1894061299
  0
LINE
  5
279
100
AcDbEntity
  8
0
100
AcDbLine
 62
7
  6
BYLAYER
 10
27.4506790864
 20
30.505177015
 11
25.6205444723
 21
39.4485894376
  0
LINE
  5
27A
100
AcDbEntity
  8
0
100
AcDbLine
 62
7
  6
BYLAYER
 10
24.3399394383
 20
51.3011918704
 11
26.5665260681
 21
40.4204171055
  0
LINE
  5
27B
100
AcDbEntity
  8
0
100
AcDbLine
 62
7
  6
BYLAYER
 10
27.0701073386
 20
40.2854899531
 11
28.9002419527
 21
31.3420775304
  0
LINE
  5
27C
100
AcDbEntity
  8
0
100
AcDbLine
 62
7
  6
BYLAYER
 10
23.6051266834
 20
17.837810694
 11
22.0696408764
 21
16.9513028417
  0
LINE
  5
27D
100
AcDbEntity
  8
0
100
AcDbLine
 62
7
  6
BYLAYER
 10
17.8068752183
 20
14.4902086322
 11
15.5370621429
 21
13.1797392646
  0
LINE
  5
27E
100
AcDbEntity
  8
0
100
AcDbLine
 62
7
  6
BYLAYER
 10
23.1255174755
 20
40.4906588695
 11
23.4424997057
 21
40.51897701
  0
LINE
  5
27F
100
AcDbEntity
  8
0
100
AcDbLine
 62
7
  6
BYLAYER
 10
25.6205444723
 20
39.4485894376
 11
19.9515153952
 21
40.9675219221
  0
LINE
  5
280
100
AcDbEntity
  8
0
100
AcDbLine
 62
7
  6
BYLAYER
 10
12.6284617655
 20
43.2733045653
 11
12.4556102397
 21
43.3196175749
  0
LINE
  5
281
100
AcDbEntity
  8
0
100
AcDbLine
 62
7
  6
BYLAYER
 10
20.3934552935
 20
41.2226745183
 11
23.1255174755
 21
40.4906588695
  0
LINE
  5
282
100
AcDbEntity
  8
0
100
AcDbLine
 62
7
  6
BYLAYER
 10
23.1308799029
 20
42.0632392312
 11
21.1275223572
 21
43.8592229676
  0
LINE
  5
283
100
AcDbEntity
  8
0
100
AcDbLine
 62
7
  6
BYLAYER
 10
21.6932054269
 20
44.1858182907
 11
23.6965629726
 21
42.3898345543
  0
LINE
  5
284
100
AcDbEntity
  8
0
100
AcDbLine
 62
7
  6
BYLAYER
 10
24.1622831281
 20
41.0645984375
 11
27.0701073386
 21
40.2854899531
  0
LINE
  5
285
100
AcDbEntity
  8
0
100
AcDbLine
 62
7
  6
BYLAYER
 10
33.2666081474
 20
33.8629851806
 11
31.4364735334
 21
42.8063976032
  0
LINE
  5
286
100
AcDbEntity
  8
0
100
AcDbLine
 62
7
  6
BYLAYER
 10
32.1082221788
 20
43.1942295494
 11
33.9383567928
 21
34.2508171267
  0
LINE
  5
287
100
AcDbEntity
  8
0
100
AcDbLine
 62
7
  6
BYLAYER
 10
16.5029736669
 20
8.447670245
 11
16.0787113645
 21
8.2027237527
  0
LINE
  5
288
100
AcDbEntity
  8
0
100
AcDbLine
 62
7
  6
BYLAYER
 10
17.1299036004
 20
7.9210723424
 11
17.5541659027
 21
8.1660188347
  0
LINE
  5
289
100
AcDbEntity
  8
0
100
AcDbLine
 62
7
  6
BYLAYER
 10
14.1576441824
 20
45.4224760547
 11
12.0744467685
 21
45.9806379869
  0
LINE
  5
28A
100
AcDbEntity
  8
0
100
AcDbLine
 62
7
  6
BYLAYER
 10
18.1356638158
 20
5.9541547956
 11
18.8130500281
 21
6.3452415731
  0
LINE
  5
28B
100
AcDbEntity
  8
0
100
AcDbLine
 62
7
  6
BYLAYER
 10
24.9010665709
 20
9.8601385818
 11
25.5005267476
 21
10.2062350103
  0
LINE
  5
28C
100
AcDbEntity
  8
0
100
AcDbLine
 62
7
  6
BYLAYER
 10
31.4364735334
 20
42.8063976032
 11
25.7674444563
 21
44.3253300877
  0
LINE
  5
28D
100
AcDbEntity
  8
0
100
AcDbLine
 62
7
  6
BYLAYER
 10
25.6445088237
 20
44.9260859311
 11
32.1082221788
 21
43.1942295494
  0
LINE
  5
28E
100
AcDbEntity
  8
0
100
AcDbLine
 62
7
  6
BYLAYER
 10
21.499067821
 20
4.3258874092
 11
23.4639225131
 21
5.4602900231
  0
LINE
  5
28F
100
AcDbEntity
  8
0
100
AcDbLine
 62
7
  6
BYLAYER
 10
27.2973192861
 20
7.673489471
 11
29.2621739782
 21
8.8078920848
  0
LINE
  5
290
100
AcDbEntity
  8
0
100
AcDbLine
 62
7
  6
BYLAYER
 10
22.2567420244
 20
51.8593538027
 11
24.3399394383
 21
51.3011918704
  0
ARC
  5
291
100
AcDbEntity
  8
0
100
AcDbCircle
 62
7
  6
BYLAYER
 10
10.3912153822
 20
39.9918442163
 40
0.3680008972
100
AcDbArc
 50
191.561176209
 51
194.6797696325
  0
SPLINE
  5
292
100
AcDbEntity
  8
0
100
AcDbSpline
 62
7
  6
BYLAYER
 70
0
 71
3
 72
15
 73
11
 74
0
 42
0.0000001
 43
0.0000001
 44
0.0000000001
 40
0.0
 40
0.0
 40
0.0
 40
0.0
 40
0.1255621714
 40
0.2547986702
 40
0.3858027781
 40
0.5166171109
 40
0.6452642396
 40
0.7698686032
 40
0.8887079846
 40
1.0
 40
1.0
 40
1.0
 40
1.0
 10
13.0016165702
 20
41.5717402655
 30
0.0
 10
12.8855697834
 20
41.5675690264
 30
0.0
 10
12.6502970269
 20
41.5516815637
 30
0.0
 10
12.2961098125
 20
41.5071844059
 30
0.0
 10
11.9401202943
 20
41.4423994325
 30
0.0
 10
11.5887289631
 20
41.3584131647
 30
0.0
 10
11.2481850301
 20
41.2568127245
 30
0.0
 10
10.9245093843
 20
41.1393498865
 30
0.0
 10
10.6235934459
 20
41.0081261582
 30
0.0
 10
10.434712019
 20
40.9095134525
 30
0.0
 10
10.3455766712
 20
40.8580514427
 30
0.0
  0
SPLINE
  5
293
100
AcDbEntity
  8
0
100
AcDbSpline
 62
7
  6
BYLAYER
 70
0
 71
3
 72
14
 73
10
 74
0
 42
0.0000001
 43
0.0000001
 44
0.0000000001
 40
0.0
 40
0.0
 40
0.0
 40
0.0
 40
0.1185246546
 40
0.237743734
 40
0.3583276337
 40
0.4808812959
 40
0.6059410989
 40
0.7339830981
 40
1.0
 40
1.0
 40
1.0
 40
1.0
 10
25.3577631996
 20
20.6666436086
 30
0.0
 10
25.4883162146
 20
20.6316586997
 30
0.0
 10
25.7542470082
 20
20.5757561732
 30
0.0
 10
26.161615283
 20
20.5353420549
 30
0.0
 10
26.5755898969
 20
20.5385615167
 30
0.0
 10
26.9935779149
 20
20.5852215792
 30
0.0
 10
27.4131537648
 20
20.6751159054
 30
0.0
 10
27.9781867224
 20
20.8538595842
 30
0.0
 10
28.386609388
 20
21.048293292
 30
0.0
 10
28.6493200587
 20
21.1999684631
 30
0.0
  0
SPLINE
  5
294
100
AcDbEntity
  8
0
100
AcDbSpline
 62
7
  6
BYLAYER
 70
0
 71
3
 72
15
 73
11
 74
0
 42
0.0000001
 43
0.0000001
 44
0.0000000001
 40
0.0
 40
0.0
 40
0.0
 40
0.0
 40
0.1111841388
 40
0.2275056056
 40
0.3486513277
 40
0.4740605296
 40
0.6029263123
 40
0.7342693654
 40
0.8670203813
 40
1.0
 40
1.0
 40
1.0
 40
1.0
 10
18.2548936517
 20
15.1987794012
 30
0.0
 10
18.4929335698
 20
15.3362109916
 30
0.0
 10
18.9602637216
 20
15.6527566172
 30
0.0
 10
19.6079644603
 20
16.2244636614
 30
0.0
 10
20.2078428791
 20
16.8940773211
 30
0.0
 10
20.7495976332
 20
17.6497378837
 30
0.0
 10
21.2240055041
 20
18.4784312928
 30
0.0
 10
21.6230142027
 20
19.365813736
 30
0.0
 10
21.9396489726
 20
20.2964197288
 30
0.0
 10
22.092595806
 20
20.9364631121
 30
0.0
 10
22.1538601961
 20
21.259450337
 30
0.0
  0
SPLINE
  5
295
100
AcDbEntity
  8
0
100
AcDbSpline
 62
7
  6
BYLAYER
 70
0
 71
3
 72
15
 73
11
 74
0
 42
0.0000001
 43
0.0000001
 44
0.0000000001
 40
0.0
 40
0.0
 40
0.0
 40
0.0
 40
0.154804445
 40
0.3014768409
 40
0.4387600055
 40
0.5663915277
 40
0.6847776191
 40
0.7950585737
 40
0.8991934635
 40
1.0
 40
1.0
 40
1.0
 40
1.0
 10
24.1912026271
 20
41.5285915346
 30
0.0
 10
24.1989855494
 20
41.4905583298
 30
0.0
 10
24.2108580567
 20
41.4157605141
 30
0.0
 10
24.2173104526
 20
41.3057216749
 30
0.0
 10
24.2116668112
 20
41.2024085657
 30
0.0
 10
24.1940561503
 20
41.1075959139
 30
0.0
 10
24.1645937912
 20
41.0228318896
 30
0.0
 10
24.123685328
 20
40.9495121341
 30
0.0
 10
24.0717449074
 20
40.8891722419
 30
0.0
 10
24.0300739252
 20
40.8582156351
 30
0.0
 10
24.0081828715
 20
40.8455721668
 30
0.0
  0
SPLINE
  5
296
100
AcDbEntity
  8
0
100
AcDbSpline
 62
7
  6
BYLAYER
 70
0
 71
3
 72
11
 73
7
 74
0
 42
0.0000001
 43
0.0000001
 44
0.0000000001
 40
0.0
 40
0.0
 40
0.0
 40
0.0
 40
0.244628
 40
0.5003352285
 40
0.7558688491
 40
1.0
 40
1.0
 40
1.0
 40
1.0
 10
23.6965629726
 20
42.3898345543
 30
0.0
 10
23.757760933
 20
42.3349713863
 30
0.0
 10
23.8727903573
 20
42.211140642
 30
0.0
 10
24.0156094439
 20
42.0000777735
 30
0.0
 10
24.1258855903
 20
41.7705145363
 30
0.0
 10
24.1747586581
 20
41.6089491187
 30
0.0
 10
24.1912026271
 20
41.5285915346
 30
0.0
  0
SPLINE
  5
297
100
AcDbEntity
  8
0
100
AcDbSpline
 62
7
  6
BYLAYER
 70
0
 71
3
 72
15
 73
11
 74
0
 42
0.0000001
 43
0.0000001
 44
0.0000000001
 40
0.0
 40
0.0
 40
0.0
 40
0.0
 40
0.1199831077
 40
0.2441583297
 40
0.3711649457
 40
0.4996658595
 40
0.6282104313
 40
0.7553464804
 40
0.8797325346
 40
1.0
 40
1.0
 40
1.0
 40
1.0
 10
19.7146468091
 20
47.6307903699
 30
0.0
 10
19.7469992316
 20
47.4726921322
 30
0.0
 10
19.8276087428
 20
47.1538518494
 30
0.0
 10
19.9896569511
 20
46.6811469708
 30
0.0
 10
20.1927096094
 20
46.2120321548
 30
0.0
 10
20.4332843625
 20
45.7543899703
 30
0.0
 10
20.7074399338
 20
45.3158345159
 30
0.0
 10
21.0105838971
 20
44.9036096233
 30
0.0
 10
21.3376577071
 20
44.5247030104
 30
0.0
 10
21.5727622531
 20
44.2937940147
 30
0.0
 10
21.6932054269
 20
44.1858182907
 30
0.0
  0
SPLINE
  5
298
100
AcDbEntity
  8
0
100
AcDbSpline
 62
7
  6
BYLAYER
 70
0
 71
3
 72
15
 73
11
 74
0
 42
0.0000001
 43
0.0000001
 44
0.0000000001
 40
0.0
 40
0.0
 40
0.0
 40
0.0
 40
0.1602192107
 40
0.310938412
 40
0.4513569115
 40
0.581076983
 40
0.7001586758
 40
0.8089932264
 40
0.9084627238
 40
1.0
 40
1.0
 40
1.0
 40
1.0
 10
10.3455766712
 20
40.8580514427
 30
0.0
 10
10.2901885114
 20
40.8260732646
 30
0.0
 10
10.1843174527
 20
40.7611334823
 30
0.0
 10
10.0366371065
 20
40.6577085779
 30
0.0
 10
9.9059446753
 20
40.5518955149
 30
0.0
 10
9.7933721979
 20
40.4445237675
 30
0.0
 10
9.699720127
 20
40.3364371782
 30
0.0
 10
9.6257521335
 20
40.2282792353
 30
0.0
 10
9.5720334572
 20
40.1208641126
 30
0.0
 10
9.5493725786
 20
40.0475560991
 30
0.0
 10
9.5420893608
 20
40.0117492634
 30
0.0
  0
SPLINE
  5
299
100
AcDbEntity
  8
0
100
AcDbSpline
 62
7
  6
BYLAYER
 70
0
 71
3
 72
12
 73
8
 74
0
 42
0.0000001
 43
0.0000001
 44
0.0000000001
 40
0.0
 40
0.0
 40
0.0
 40
0.0
 40
0.2594154348
 40
0.5109995869
 40
0.6345701322
 40
0.7570531294
 40
1.0
 40
1.0
 40
1.0
 40
1.0
 10
23.3559367193
 20
21.9534653986
 30
0.0
 10
23.4929137783
 20
21.7959868873
 30
0.0
 10
23.7834034608
 20
21.502968662
 30
0.0
 10
24.192183899
 20
21.1938941046
 30
0.0
 10
24.5371552431
 20
20.9899420606
 30
0.0
 10
24.8903737821
 20
20.8160580123
 30
0.0
 10
25.1689591151
 20
20.7172383322
 30
0.0
 10
25.3577631996
 20
20.6666436086
 30
0.0
  0
SPLINE
  5
29A
100
AcDbEntity
  8
0
100
AcDbSpline
 62
7
  6
BYLAYER
 70
0
 71
3
 72
11
 73
7
 74
0
 42
0.0000001
 43
0.0000001
 44
0.0000000001
 40
0.0
 40
0.0
 40
0.0
 40
0.0
 40
0.2516528775
 40
0.509992898
 40
0.7631911134
 40
1.0
 40
1.0
 40
1.0
 40
1.0
 10
13.0653619136
 20
40.094790447
 30
0.0
 10
12.8971347351
 20
40.0870890027
 30
0.0
 10
12.5568825711
 20
40.052891061
 30
0.0
 10
12.0551978852
 20
39.9534519982
 30
0.0
 10
11.5746844384
 20
39.8098152446
 30
0.0
 10
11.2710653196
 20
39.6837238162
 30
0.0
 10
11.1289844869
 20
39.6135400772
 30
0.0
  0
SPLINE
  5
29B
100
AcDbEntity
  8
0
100
AcDbSpline
 62
7
  6
BYLAYER
 70
0
 71
3
 72
15
 73
11
 74
0
 42
0.0000001
 43
0.0000001
 44
0.0000000001
 40
0.0
 40
0.0
 40
0.0
 40
0.0
 40
0.1008065118
 40
0.2049413776
 40
0.3152223157
 40
0.4336083849
 40
0.5612399044
 40
0.698523107
 40
0.8451955556
 40
1.0
 40
1.0
 40
1.0
 40
1.0
 10
23.4424998017
 20
40.5189768437
 30
0.0
 10
23.4643908471
 20
40.5316203139
 30
0.0
 10
23.5060618292
 20
40.5625768983
 30
0.0
 10
23.5580022361
 20
40.6229167832
 30
0.0
 10
23.5989106942
 20
40.6962365215
 30
0.0
 10
23.6283730663
 20
40.7810005303
 30
0.0
 10
23.6459837346
 20
40.8758131844
 30
0.0
 10
23.6516273802
 20
40.9791263157
 30
0.0
 10
23.6451749795
 20
41.0891651769
 30
0.0
 10
23.6333024796
 20
41.1639630069
 30
0.0
 10
23.6255195573
 20
41.2019962115
 30
0.0
  0
SPLINE
  5
29C
100
AcDbEntity
  8
0
100
AcDbSpline
 62
7
  6
BYLAYER
 70
0
 71
3
 72
15
 73
11
 74
0
 42
0.0000001
 43
0.0000001
 44
0.0000000001
 40
0.0
 40
0.0
 40
0.0
 40
0.0
 40
0.1202674654
 40
0.2446535196
 40
0.3717895687
 40
0.5003341405
 40
0.6288350543
 40
0.7558416703
 40
0.8800168923
 40
1.0
 40
1.0
 40
1.0
 40
1.0
 10
21.1275223572
 20
43.8592229676
 30
0.0
 10
21.0070791833
 20
43.9671986916
 30
0.0
 10
20.7719746373
 20
44.1981076873
 30
0.0
 10
20.4449008273
 20
44.5770143002
 30
0.0
 10
20.141756864
 20
44.9892391928
 30
0.0
 10
19.8676012927
 20
45.4277946472
 30
0.0
 10
19.6270265396
 20
45.8854368317
 30
0.0
 10
19.4239738814
 20
46.3545516477
 30
0.0
 10
19.261925673
 20
46.8272565263
 30
0.0
 10
19.1813161618
 20
47.1460968091
 30
0.0
 10
19.1489637393
 20
47.3041950468
 30
0.0
  0
SPLINE
  5
29D
100
AcDbEntity
  8
0
100
AcDbSpline
 62
7
  6
BYLAYER
 70
0
 71
3
 72
11
 73
7
 74
0
 42
0.0000001
 43
0.0000001
 44
0.0000000001
 40
0.0
 40
0.0
 40
0.0
 40
0.0
 40
0.2441311509
 40
0.4996647715
 40
0.755372
 40
1.0
 40
1.0
 40
1.0
 40
1.0
 10
23.6255195573
 20
41.2019962115
 30
0.0
 10
23.6090755884
 20
41.2823537956
 30
0.0
 10
23.5602025206
 20
41.4439192132
 30
0.0
 10
23.4499263741
 20
41.6734824504
 30
0.0
 10
23.3071072875
 20
41.8845453189
 30
0.0
 10
23.1920778633
 20
42.0083760632
 30
0.0
 10
23.1308799029
 20
42.0632392312
 30
0.0
  0
SPLINE
  5
29E
100
AcDbEntity
  8
0
100
AcDbSpline
 62
7
  6
BYLAYER
 70
0
 71
3
 72
15
 73
11
 74
0
 42
0.0000001
 43
0.0000001
 44
0.0000000001
 40
0.0
 40
0.0
 40
0.0
 40
0.0
 40
0.111938317
 40
0.2319348287
 40
0.3578909332
 40
0.4877365953
 40
0.6191855664
 40
0.7498970551
 40
0.8775699975
 40
1.0
 40
1.0
 40
1.0
 40
1.0
 10
10.687084444
 20
40.7665494866
 30
0.0
 10
10.7664554679
 20
40.8123740951
 30
0.0
 10
10.9353489706
 20
40.8997425429
 30
0.0
 10
11.2051967999
 20
41.0145288497
 30
0.0
 10
11.4960080649
 20
41.1156940224
 30
0.0
 10
11.8015543297
 20
41.2010881404
 30
0.0
 10
12.1154456742
 20
41.2689468965
 30
0.0
 10
12.4310587518
 20
41.3178034488
 30
0.0
 10
12.7417069864
 20
41.3466201392
 30
0.0
 10
12.9465940386
 20
41.3522691253
 30
0.0
 10
13.0468290654
 20
41.3513004936
 30
0.0
  0
SPLINE
  5
29F
100
AcDbEntity
  8
0
100
AcDbSpline
 62
7
  6
BYLAYER
 70
0
 71
3
 72
15
 73
11
 74
0
 42
0.0000001
 43
0.0000001
 44
0.0000000001
 40
0.0
 40
0.0
 40
0.0
 40
0.0
 40
0.0887378409
 40
0.1826309234
 40
0.2858631029
 40
0.401163628
 40
0.5300561834
 40
0.6731020171
 40
0.8301218923
 40
1.0
 40
1.0
 40
1.0
 40
1.0
 10
10.0306807538
 20
39.9180916433
 30
0.0
 10
10.0239508276
 20
39.9509932988
 30
0.0
 10
10.0195616552
 20
40.0209632181
 30
0.0
 10
10.0410107796
 20
40.1280144814
 30
0.0
 10
10.0892388395
 20
40.2368127631
 30
0.0
 10
10.162936087
 20
40.3463324834
 30
0.0
 10
10.2611708174
 20
40.455596552
 30
0.0
 10
10.382747504
 20
40.5635941595
 30
0.0
 10
10.5262406816
 20
40.669012923
 30
0.0
 10
10.6314071691
 20
40.7344043889
 30
0.0
 10
10.687084444
 20
40.7665494866
 30
0.0
  0
ENDSEC
  0
SECTION
  2
OBJECTS
  0
DICTIONARY
  5
C
100
AcDbDictionary
280
0
281
1
  3
ACAD_GROUP
350
D
  3
ACAD_MLINESTYLE
350
17
  3
ACAD_LAYOUT
350
1A
  3
ACAD_PLOTSETTINGS
350
19
  3
ACAD_PLOTSTYLENAME
350
E
  0
DICTIONARY
  5
D
102
{ACAD_REACTORS
330
C
102
}
100
AcDbDictionary
280
0
281
1
  0
ACDBDICTIONARYWDFLT
  5
E
102
{ACAD_REACTORS
330
C
102
}
100
AcDbDictionary
281
1
  3
Normal
350
F
100
AcDbDictionaryWithDefault
340
F
  0
DICTIONARY
  5
17
102
{ACAD_REACTORS
330
C
102
}
100
AcDbDictionary
280
0
281
1
  3
Standard
350
18
  0
DICTIONARY
  5
19
102
{ACAD_REACTORS
330
C
102
}
100
AcDbDictionary
281
1
  0
DICTIONARY
  5
1A
102
{ACAD_REACTORS
330
C
102
}
100
AcDbDictionary
281
1
  3
Model
350
2A0
  3
Layout1
350
2A1
  0
ACDBPLACEHOLDER
  5
F
102
{ACAD_REACTORS
330
E
102
}
  0
MLINESTYLE
  5
18
102
{ACAD_REACTORS
330
17
102
}
100
AcDbMlineStyle
  2
STANDARD
 70
0
  3

 62
256
 51
90.0
 52
90.0
 71
2
 49
0.5
 62
256
  6
BYLAYER
 49
-0.5
 62
256
  6
BYLAYER
  0
LAYOUT
  5
2A0
102
{ACAD_REACTORS
330
1A
102
}
100
AcDbPlotSettings
  1

  2
none_device
  4

  6

 40
0.0
 41
0.0
 42
0.0
 43
0.0
 44
210.0
 45
297.0
 46
0.0
 47
0.0
 48
0.0
 49
0.0
140
0.0
141
0.0
142
1.0
143
1.0
 70
1024
 72
1
 73
0
 74
0
  7

 75
0
147
1.0
148
0.0
149
0.0
100
AcDbLayout
  1
Model
 70
0
 71
0
 10
0.0
 20
0.0
 11
210.0
 21
297.0
 12
0.0
 22
0.0
 32
0.0
 14
0.0
 24
0.0
 34
0.0
 15
0.0
 25
0.0
 35
0.0
146
0.0
 13
0.0
 23
0.0
 33
0.0
 16
1.0
 26
0.0
 36
0.0
 17
0.0
 27
1.0
 37
0.0
 76
0
330
210
345
0
346
0
  0
LAYOUT
  5
2A1
102
{ACAD_REACTORS
330
1A
102
}
100
AcDbPlotSettings
  1

  2
none_device
  4

  6

 40
0.0
 41
0.0
 42
0.0
 43
0.0
 44
210.0
 45
297.0
 46
0.0
 47
0.0
 48
0.0
 49
0.0
140
0.0
141
0.0
142
1.0
143
1.0
 70
0
 72
1
 73
0
 74
0
  7

 75
0
147
1.0
148
0.0
149
0.0
100
AcDbLayout
  1
Layout1
 70
0
 71
1
 10
0.0
 20
0.0
 11
210.0
 21
297.0
 12
0.0
 22
0.0
 32
0.0
 14
0.0
 24
0.0
 34
0.0
 15
0.0
 25
0.0
 35
0.0
146
0.0
 13
0.0
 23
0.0
 33
0.0
 16
1.0
 26
0.0
 36
0.0
 17
0.0
 27
1.0
 37
0.0
 76
0
330
211
345
0
346
0
  0
ENDSEC
  0
EOF
