999
DXF file: C:\Users\sesa63760\Dev\_Creo\CAD\MCADPD0004508_3D-CAD\drw0001_4.dxf
999
Pro/ENGINEER 2019471 by Parametric Technology Corporation
  0
SECTION
  2
HEADER
  9
$ACADVER
  1
AC1024
  9
$DWGCODEPAGE
  3
ANSI_1252
  9
$EXTMAX
 10
203.5563610239
 20
287.8868534481
 30
0.0
  9
$EXTMIN
 10
0.0
 20
0.0
 30
0.0
  9
$LIMMIN
 10
0.0
 20
0.0
  9
$LIMMAX
 10
203.5563610239
 20
287.8868534481
  9
$VIEWCTR
 10
101.778180512
 20
143.9434267241
  9
$VIEWSIZE
 40
287.8868534481
  9
$CLAYER
  8
0
  9
$LTSCALE
 40
18.7659578544
  9
$CELTYPE
  6
BYLAYER
  9
$DIMSCALE
 40
1.0
  9
$DIMASZ
 40
2.4232900122
  9
$DIMEXO
 40
1.0
  9
$DIMDLI
 40
12.9655708812
  9
$DIMEXE
 40
1.0
  9
$DIMCEN
 40
3.0707931034
  9
$DIMLFAC
 40
1.0
  9
$DIMBLK
  1
_FILLED
  9
$DIMALT
 70
0
  9
$DIMALTF
 40
0.0393700787
  9
$DIMTXT
 40
3.3926060171
  9
$DIMTOL
 70
1
  9
$DIMLIM
 70
0
  9
$DIMTFAC
 40
1.0
  9
$DIMTP
 40
0.01
  9
$DIMTM
 40
0.01
  9
$DIMGAP
 40
0.625
  9
$DIMDSEP
 70
46
  9
$AUNITS
 70
0
  9
$PDMODE
 70
3
  9
$PDSIZE
 40
0.3125
  9
$HANDSEED
  5
2DA
  9
$TILEMODE
 70
1
  9
$MEASUREMENT
 70
1
  9
$INSUNITS
 70
4
  0
ENDSEC
  0
SECTION
  2
CLASSES
  0
CLASS
  1
ACDBDICTIONARYWDFLT
  2
AcDbDictionaryWithDefault
  3
AutoCAD 2000
 90
0
 91
1
280
0
281
0
  0
CLASS
  1
ACDBPLACEHOLDER
  2
AcDbPlaceHolder
  3
AutoCAD 2000
 90
0
 91
1
280
0
281
0
  0
CLASS
  1
LAYOUT
  2
AcDbLayout
  3
AutoCAD 2000
 90
0
 91
0
280
0
281
0
  0
ENDSEC
  0
SECTION
  2
TABLES
  0
TABLE
  2
VPORT
  5
8
100
AcDbSymbolTable
 70
2
  0
VPORT
  5
1F4
100
AcDbSymbolTableRecord
100
AcDbViewportTableRecord
  2
*ACTIVE
 70
0
 10
0.0
 20
0.0
 11
1.0
 21
1.0
 12
101.778180512
 22
143.9434267241
 13
0.0
 23
0.0
 14
1.0
 24
1.0
 15
0.0
 25
0.0
 16
0.0
 26
0.0
 36
1.0
 17
0.0
 27
0.0
 37
0.0
 40
287.8868534481
 41
0.7070707071
 42
50.0
 43
0.0
 44
0.0
 50
0.0
 51
0.0
 71
0
 72
100
 73
1
 74
1
 75
0
 76
0
 77
0
 78
0
  0
ENDTAB
  0
TABLE
  2
LTYPE
  5
5
100
AcDbSymbolTable
 70
6
  0
LTYPE
  5
14
100
AcDbSymbolTableRecord
100
AcDbLinetypeTableRecord
  2
BYBLOCK
 70
0
  3

 72
65
 73
0
 40
0.0
  0
LTYPE
  5
15
100
AcDbSymbolTableRecord
100
AcDbLinetypeTableRecord
  2
BYLAYER
 70
0
  3

 72
65
 73
0
 40
0.0
  0
LTYPE
  5
16
100
AcDbSymbolTableRecord
100
AcDbLinetypeTableRecord
  2
CONTINUOUS
 70
64
  3
Solid line
 72
65
 73
0
 40
0.0
  0
LTYPE
  5
1F5
100
AcDbSymbolTableRecord
100
AcDbLinetypeTableRecord
  2
CENTER
 70
64
  3
____ _ ____ _ ____ _ ____ _ ____ _ ____ _ ____
 72
65
 73
4
 40
0.6
 49
0.375
 74
0
 49
-0.075
 74
0
 49
0.075
 74
0
 49
-0.075
 74
0
  0
LTYPE
  5
1F6
100
AcDbSymbolTableRecord
100
AcDbLinetypeTableRecord
  2
HIDDEN
 70
64
  3
- - - - - - - - - - - - - - - - - - - -
 72
65
 73
2
 40
0.2
 49
0.1
 74
0
 49
-0.1
 74
0
  0
LTYPE
  5
1F7
100
AcDbSymbolTableRecord
100
AcDbLinetypeTableRecord
  2
PHANTOM
 70
64
  3
_____ _ _ _____ _ _ _____ _ _ _____
 72
65
 73
6
 40
0.8
 49
0.45
 74
0
 49
-0.05
 74
0
 49
0.1
 74
0
 49
-0.05
 74
0
 49
0.1
 74
0
 49
-0.05
 74
0
  0
LTYPE
  5
1F8
100
AcDbSymbolTableRecord
100
AcDbLinetypeTableRecord
  2
DOT
 70
64
  3
. . . . . . . . . . . . . . . . . . . .
 72
65
 73
2
 40
0.2
 49
0.1
 74
0
 49
-0.1
 74
0
  0
LTYPE
  5
1F9
100
AcDbSymbolTableRecord
100
AcDbLinetypeTableRecord
  2
DASHED
 70
64
  3
- - - - - - - - - - - - - - - - - - - -
 72
65
 73
2
 40
0.2
 49
0.1
 74
0
 49
-0.1
 74
0
  0
ENDTAB
  0
TABLE
  2
LAYER
  5
2
100
AcDbSymbolTable
 70
36
  0
LAYER
  5
10
100
AcDbSymbolTableRecord
100
AcDbLayerTableRecord
  2
0
 70
0
 62
7
  6
CONTINUOUS
370
-3
390
F
  0
LAYER
  5
1FA
100
AcDbSymbolTableRecord
100
AcDbLayerTableRecord
  2
DEFAULT_1
 70
0
 62
7
  6
CENTER
370
-3
390
F
  0
LAYER
  5
1FB
100
AcDbSymbolTableRecord
100
AcDbLayerTableRecord
  2
DEFAULT_2
 70
0
 62
7
  6
HIDDEN
370
-3
390
F
  0
LAYER
  5
1FC
100
AcDbSymbolTableRecord
100
AcDbLayerTableRecord
  2
DEFAULT_3
 70
0
 62
7
  6
PHANTOM
370
-3
390
F
  0
LAYER
  5
1FD
100
AcDbSymbolTableRecord
100
AcDbLayerTableRecord
  2
00_COMPONENTS
 70
0
 62
7
  6
CONTINUOUS
370
-3
390
F
  0
LAYER
  5
1FE
100
AcDbSymbolTableRecord
100
AcDbLayerTableRecord
  2
01_1_DEFAULT_DATUMS
 70
0
 62
7
  6
CONTINUOUS
370
-3
390
F
  0
LAYER
  5
1FF
100
AcDbSymbolTableRecord
100
AcDbLayerTableRecord
  2
01_PLANES
 70
0
 62
7
  6
CONTINUOUS
370
-3
390
F
  0
LAYER
  5
200
100
AcDbSymbolTableRecord
100
AcDbLayerTableRecord
  2
02_COORD_SYS
 70
0
 62
7
  6
CONTINUOUS
370
-3
390
F
  0
LAYER
  5
201
100
AcDbSymbolTableRecord
100
AcDbLayerTableRecord
  2
03_AXES
 70
0
 62
7
  6
CONTINUOUS
370
-3
390
F
  0
LAYER
  5
202
100
AcDbSymbolTableRecord
100
AcDbLayerTableRecord
  2
04_POINTS
 70
0
 62
7
  6
CONTINUOUS
370
-3
390
F
  0
LAYER
  5
203
100
AcDbSymbolTableRecord
100
AcDbLayerTableRecord
  2
05_CURVES
 70
0
 62
7
  6
CONTINUOUS
370
-3
390
F
  0
LAYER
  5
204
100
AcDbSymbolTableRecord
100
AcDbLayerTableRecord
  2
06_SURFS
 70
0
 62
7
  6
CONTINUOUS
370
-3
390
F
  0
LAYER
  5
205
100
AcDbSymbolTableRecord
100
AcDbLayerTableRecord
  2
07_COSMETICS
 70
0
 62
7
  6
CONTINUOUS
370
-3
390
F
  0
LAYER
  5
206
100
AcDbSymbolTableRecord
100
AcDbLayerTableRecord
  2
10_NOTES
 70
0
 62
7
  6
CONTINUOUS
370
-3
390
F
  0
LAYER
  5
207
100
AcDbSymbolTableRecord
100
AcDbLayerTableRecord
  2
11_NOTES_PUB
 70
0
 62
7
  6
CONTINUOUS
370
-3
390
F
  0
LAYER
  5
208
100
AcDbSymbolTableRecord
100
AcDbLayerTableRecord
  2
13_REF_GTOL
 70
0
 62
7
  6
CONTINUOUS
370
-3
390
F
  0
LAYER
  5
209
100
AcDbSymbolTableRecord
100
AcDbLayerTableRecord
  2
16_MISC
 70
0
 62
7
  6
CONTINUOUS
370
-3
390
F
  0
LAYER
  5
20A
100
AcDbSymbolTableRecord
100
AcDbLayerTableRecord
  2
17_NO_PRINT
 70
0
 62
7
  6
CONTINUOUS
370
-3
390
F
  0
LAYER
  5
20B
100
AcDbSymbolTableRecord
100
AcDbLayerTableRecord
  2
18_DATUM_CAMS_JOINTS
 70
0
 62
7
  6
CONTINUOUS
370
-3
390
F
  0
LAYER
  5
20C
100
AcDbSymbolTableRecord
100
AcDbLayerTableRecord
  2
19_DATUM_FUNCTIONAL
 70
0
 62
7
  6
CONTINUOUS
370
-3
390
F
  0
LAYER
  5
20D
100
AcDbSymbolTableRecord
100
AcDbLayerTableRecord
  2
20_DATUM_KINEMATIC_SCHEME
 70
0
 62
7
  6
CONTINUOUS
370
-3
390
F
  0
ENDTAB
  0
TABLE
  2
STYLE
  5
3
100
AcDbSymbolTable
 70
1
  0
STYLE
  5
11
100
AcDbSymbolTableRecord
100
AcDbTextStyleTableRecord
  2
STANDARD
 70
0
 40
0.0
 41
1.0
 50
0.0
 71
0
 42
0.2
  3
ARIAL.TTF
  4

  0
STYLE
  5
20E
100
AcDbSymbolTableRecord
100
AcDbTextStyleTableRecord
  2
TEXTSTYLE_1
 70
0
 40
0.0
 41
0.8
 50
0.0
 71
0
 42
0.2
  3
gdt
  4

  0
ENDTAB
  0
TABLE
  2
VIEW
  5
6
100
AcDbSymbolTable
 70
0
  0
ENDTAB
  0
TABLE
  2
UCS
  5
7
100
AcDbSymbolTable
 70
0
  0
ENDTAB
  0
TABLE
  2
APPID
  5
9
100
AcDbSymbolTable
 70
1
  0
APPID
  5
20F
100
AcDbSymbolTableRecord
100
AcDbRegAppTableRecord
  2
ACAD
 70
0
  0
ENDTAB
  0
TABLE
  2
BLOCK_RECORD
  5
1
100
AcDbSymbolTable
 70
0
  0
BLOCK_RECORD
  5
210
100
AcDbSymbolTableRecord
100
AcDbBlockTableRecord
  2
*Model_Space
  0
BLOCK_RECORD
  5
211
100
AcDbSymbolTableRecord
100
AcDbBlockTableRecord
  2
*Paper_Space
  0
BLOCK_RECORD
  5
212
100
AcDbSymbolTableRecord
100
AcDbBlockTableRecord
  2
_FILLED
  0
ENDTAB
  0
TABLE
  2
DIMSTYLE
  5
A
100
AcDbSymbolTable
 70
1
100
AcDbDimStyleTable
 71
0
  0
DIMSTYLE
105
213
100
AcDbSymbolTableRecord
100
AcDbDimStyleTableRecord
  2
STANDARD
 70
0
  3

  4

 40
1.0
 41
2.4232900122
 42
1.0
 43
0.38
 44
1.0
 45
0.0
 46
0.0
 47
0.01
 48
0.01
140
3.3926060171
141
0.09
142
0.0
143
25.4
144
1.0
145
0.0
146
1.0
147
0.625
 71
1
 72
0
 73
0
 74
0
 75
0
 76
0
 77
1
 78
8
 79
2
170
0
171
1
172
0
173
0
174
0
175
0
176
0
177
0
178
0
270
2
179
2
271
2
272
2
273
2
274
2
275
0
280
0
281
0
282
0
283
1
284
8
285
0
286
0
287
3
288
0
340
11
278
46
341
212
342
212
343
212
344
212
  0
ENDTAB
  0
ENDSEC
  0
SECTION
  2
BLOCKS
  0
BLOCK
  5
20
100
AcDbEntity
  8
0
100
AcDbBlockBegin
  2
*Model_Space
 70
0
 10
0.0
 20
0.0
 30
0.0
  3
*Model_Space
  1

  0
ENDBLK
  5
21
100
AcDbEntity
  8
0
100
AcDbBlockEnd
  0
BLOCK
  5
1C
100
AcDbEntity
  8
0
100
AcDbBlockBegin
  2
*Paper_Space
 70
0
 10
0.0
 20
0.0
 30
0.0
  3
*Paper_Space
  1

  0
ENDBLK
  5
1D
100
AcDbEntity
  8
0
100
AcDbBlockEnd
  0
BLOCK
  5
214
100
AcDbEntity
  8
0
100
AcDbBlockBegin
  2
_FILLED
 70
64
 10
0.0
 20
0.0
  3
_FILLED
  1

  0
SOLID
  5
215
100
AcDbEntity
  8
0
  6
BYBLOCK
 62
0
100
AcDbTrace
 10
0.0
 20
0.0
 11
-1.0
 21
0.25
 12
-1.0
 22
-0.25
 13
-1.0
 23
-0.25
  0
ENDBLK
  5
216
100
AcDbEntity
  8
0
  6
BYBLOCK
 62
0
100
AcDbBlockEnd
  0
ENDSEC
  0
SECTION
  2
ENTITIES
  0
LINE
  5
217
100
AcDbEntity
  8
0
100
AcDbLine
 62
7
  6
BYLAYER
 10
22.6709606843
 20
126.3941223254
 11
22.6709606843
 21
176.8941223254
  0
LINE
  5
218
100
AcDbEntity
  8
0
100
AcDbLine
 62
7
  6
BYLAYER
 10
23.6709606843
 20
126.3941223254
 11
23.6709606843
 21
130.6620715178
  0
LINE
  5
219
100
AcDbEntity
  8
0
100
AcDbLine
 62
7
  6
BYLAYER
 10
24.1533087574
 20
175.7918945397
 11
24.1533246086
 21
177.8600554129
  0
LINE
  5
21A
100
AcDbEntity
  8
0
100
AcDbLine
 62
7
  6
BYLAYER
 10
24.6709606843
 20
130.3941223254
 11
24.6709606843
 21
174.8941223254
  0
LINE
  5
21B
100
AcDbEntity
  8
0
100
AcDbLine
 62
7
  6
BYLAYER
 10
136.0709606843
 20
58.4941223254
 11
114.2709606843
 21
58.4941223254
  0
LINE
  5
21C
100
AcDbEntity
  8
0
100
AcDbLine
 62
7
  6
BYLAYER
 10
112.5709588612
 20
59.5941223254
 11
137.5709606843
 21
59.5941223254
  0
LINE
  5
21D
100
AcDbEntity
  8
0
100
AcDbLine
 62
7
  6
BYLAYER
 10
137.5709606843
 20
61.5941223254
 11
112.4969926678
 21
61.5941224691
  0
LINE
  5
21E
100
AcDbEntity
  8
0
100
AcDbLine
 62
7
  6
BYLAYER
 10
40.2709606843
 20
61.9732394178
 11
38.7709606843
 21
61.9732394178
  0
LINE
  5
21F
100
AcDbEntity
  8
0
100
AcDbLine
 62
7
  6
BYLAYER
 10
139.5709606843
 20
62.0941223254
 11
138.0709606843
 21
62.0941223254
  0
LINE
  5
220
100
AcDbEntity
  8
0
100
AcDbLine
 62
7
  6
BYLAYER
 10
37.9209606843
 20
63.5941223254
 11
140.4209606843
 21
63.5941223254
  0
LINE
  5
221
100
AcDbEntity
  8
0
100
AcDbLine
 62
7
  6
BYLAYER
 10
29.9297797295
 20
177.8941222261
 11
29.9297797295
 21
175.8941223254
  0
LINE
  5
222
100
AcDbEntity
  8
0
100
AcDbLine
 62
7
  6
BYLAYER
 10
30.6709606843
 20
175.8941223254
 11
30.6709606843
 21
226.0941223254
  0
LINE
  5
223
100
AcDbEntity
  8
0
100
AcDbLine
 62
7
  6
BYLAYER
 10
31.6709606843
 20
174.8941223254
 11
31.6709606845
 21
227.0941223254
  0
LINE
  5
224
100
AcDbEntity
  8
0
100
AcDbLine
 62
7
  6
BYLAYER
 10
36.1709606843
 20
126.3941223254
 11
36.1709606843
 21
148.8941223254
  0
LINE
  5
225
100
AcDbEntity
  8
0
100
AcDbLine
 62
7
  6
BYLAYER
 10
36.1709606843
 20
223.8941223254
 11
36.1709606843
 21
227.8941223254
  0
LINE
  5
226
100
AcDbEntity
  8
0
100
AcDbLine
 62
7
  6
BYLAYER
 10
37.9209606843
 20
116.0941223254
 11
37.9209606843
 21
63.5941223254
  0
LINE
  5
227
100
AcDbEntity
  8
0
100
AcDbLine
 62
7
  6
BYLAYER
 10
38.1709606843
 20
223.8941223254
 11
38.1709606843
 21
116.0941223254
  0
LINE
  5
228
100
AcDbEntity
  8
0
100
AcDbLine
 62
7
  6
BYLAYER
 10
38.7709606843
 20
61.4550600767
 11
38.7709606843
 21
63.5941223254
  0
LINE
  5
229
100
AcDbEntity
  8
0
100
AcDbLine
 62
7
  6
BYLAYER
 10
39.1709606843
 20
123.9941223254
 11
39.1709606843
 21
120.9941223254
  0
LINE
  5
22A
100
AcDbEntity
  8
0
100
AcDbLine
 62
7
  6
BYLAYER
 10
40.2709606843
 20
61.9732394179
 11
40.2709606843
 21
63.5941223254
  0
LINE
  5
22B
100
AcDbEntity
  8
0
100
AcDbLine
 62
7
  6
BYLAYER
 10
40.9209606843
 20
63.5941223254
 11
40.9209606843
 21
116.0941223254
  0
LINE
  5
22C
100
AcDbEntity
  8
0
100
AcDbLine
 62
7
  6
BYLAYER
 10
41.1709606843
 20
116.0941223254
 11
41.1709606843
 21
120.9941223254
  0
LINE
  5
22D
100
AcDbEntity
  8
0
100
AcDbLine
 62
7
  6
BYLAYER
 10
41.1709606843
 20
123.9941223254
 11
41.1709606843
 21
148.8941223254
  0
LINE
  5
22E
100
AcDbEntity
  8
0
100
AcDbLine
 62
7
  6
BYLAYER
 10
43.9209606843
 20
63.5941223254
 11
43.9209606843
 21
120.9941223254
  0
LINE
  5
22F
100
AcDbEntity
  8
0
100
AcDbLine
 62
7
  6
BYLAYER
 10
43.9209606843
 20
123.9941223254
 11
43.9209606843
 21
148.8941223254
  0
LINE
  5
230
100
AcDbEntity
  8
0
100
AcDbLine
 62
7
  6
BYLAYER
 10
46.4209606843
 20
116.0941223254
 11
46.4209606843
 21
120.9941223254
  0
LINE
  5
231
100
AcDbEntity
  8
0
100
AcDbLine
 62
7
  6
BYLAYER
 10
46.4209606843
 20
123.9941223254
 11
46.4209606843
 21
148.8941223254
  0
LINE
  5
232
100
AcDbEntity
  8
0
100
AcDbLine
 62
7
  6
BYLAYER
 10
48.9209606843
 20
63.5941223254
 11
48.9209606843
 21
116.0941223254
  0
LINE
  5
233
100
AcDbEntity
  8
0
100
AcDbLine
 62
7
  6
BYLAYER
 10
40.7709606843
 20
61.4550600768
 11
40.6308000418
 21
59.4599773731
  0
LINE
  5
234
100
AcDbEntity
  8
0
100
AcDbLine
 62
7
  6
BYLAYER
 10
50.6709606843
 20
116.0941223254
 11
50.6709606843
 21
120.9941223254
  0
LINE
  5
235
100
AcDbEntity
  8
0
100
AcDbLine
 62
7
  6
BYLAYER
 10
59.1709606843
 20
123.9941223254
 11
59.1709606843
 21
120.9941223254
  0
LINE
  5
236
100
AcDbEntity
  8
0
100
AcDbLine
 62
7
  6
BYLAYER
 10
60.0496403408
 20
120.9941223254
 11
60.0496403408
 21
123.9941223254
  0
LINE
  5
237
100
AcDbEntity
  8
0
100
AcDbLine
 62
7
  6
BYLAYER
 10
61.6922810279
 20
123.9941223254
 11
61.6922810279
 21
120.9941223254
  0
LINE
  5
238
100
AcDbEntity
  8
0
100
AcDbLine
 62
7
  6
BYLAYER
 10
62.5709606843
 20
120.9941223254
 11
62.5709606843
 21
123.9941223254
  0
LINE
  5
239
100
AcDbEntity
  8
0
100
AcDbLine
 62
7
  6
BYLAYER
 10
62.6709606843
 20
116.0941223254
 11
62.6709606843
 21
123.9941223254
  0
LINE
  5
23A
100
AcDbEntity
  8
0
100
AcDbLine
 62
7
  6
BYLAYER
 10
64.4209606843
 20
116.0941223254
 11
64.4209606843
 21
63.5941223254
  0
LINE
  5
23B
100
AcDbEntity
  8
0
100
AcDbLine
 62
7
  6
BYLAYER
 10
66.9209606843
 20
148.8941223254
 11
66.9209606843
 21
116.0941223254
  0
LINE
  5
23C
100
AcDbEntity
  8
0
100
AcDbLine
 62
7
  6
BYLAYER
 10
69.4209606843
 20
63.5941223254
 11
69.4209606843
 21
148.8941223254
  0
LINE
  5
23D
100
AcDbEntity
  8
0
100
AcDbLine
 62
7
  6
BYLAYER
 10
169.1709606843
 20
107.4441223254
 11
159.1709606843
 21
107.4441223254
  0
LINE
  5
23E
100
AcDbEntity
  8
0
100
AcDbLine
 62
7
  6
BYLAYER
 10
172.1709606843
 20
108.7441223254
 11
169.1709606843
 21
108.7441223254
  0
LINE
  5
23F
100
AcDbEntity
  8
0
100
AcDbLine
 62
7
  6
BYLAYER
 10
159.1709606843
 20
108.7441223254
 11
142.1709606843
 21
108.7441223254
  0
LINE
  5
240
100
AcDbEntity
  8
0
100
AcDbLine
 62
7
  6
BYLAYER
 10
175.1709606843
 20
108.9441223254
 11
169.1709606843
 21
108.9441223254
  0
LINE
  5
241
100
AcDbEntity
  8
0
100
AcDbLine
 62
7
  6
BYLAYER
 10
159.1709606843
 20
108.9441223254
 11
153.1709606843
 21
108.9441223254
  0
LINE
  5
242
100
AcDbEntity
  8
0
100
AcDbLine
 62
7
  6
BYLAYER
 10
173.1709606843
 20
109.3441223254
 11
168.8709606843
 21
109.3441223254
  0
LINE
  5
243
100
AcDbEntity
  8
0
100
AcDbLine
 62
7
  6
BYLAYER
 10
159.4709606843
 20
109.3441223254
 11
155.1709606843
 21
109.3441223254
  0
LINE
  5
244
100
AcDbEntity
  8
0
100
AcDbLine
 62
7
  6
BYLAYER
 10
175.1709606843
 20
111.8441223254
 11
173.2709606843
 21
111.8441223254
  0
LINE
  5
245
100
AcDbEntity
  8
0
100
AcDbLine
 62
7
  6
BYLAYER
 10
173.1709606843
 20
111.8441223254
 11
171.1709606843
 21
111.8441223254
  0
LINE
  5
246
100
AcDbEntity
  8
0
100
AcDbLine
 62
7
  6
BYLAYER
 10
157.1709606843
 20
111.8441223254
 11
155.1709606843
 21
111.8441223254
  0
LINE
  5
247
100
AcDbEntity
  8
0
100
AcDbLine
 62
7
  6
BYLAYER
 10
155.0709606843
 20
111.8441223254
 11
153.1709606843
 21
111.8441223254
  0
LINE
  5
248
100
AcDbEntity
  8
0
100
AcDbLine
 62
7
  6
BYLAYER
 10
76.4209606843
 20
63.5941223254
 11
76.4209606843
 21
148.8941223254
  0
LINE
  5
249
100
AcDbEntity
  8
0
100
AcDbLine
 62
7
  6
BYLAYER
 10
78.9209606843
 20
116.0941223254
 11
78.9209606843
 21
148.8941223254
  0
LINE
  5
24A
100
AcDbEntity
  8
0
100
AcDbLine
 62
7
  6
BYLAYER
 10
79.1709606843
 20
123.9941223254
 11
79.1709606843
 21
120.9941223254
  0
LINE
  5
24B
100
AcDbEntity
  8
0
100
AcDbLine
 62
7
  6
BYLAYER
 10
81.4209606843
 20
63.5941223254
 11
81.4209606843
 21
116.0941223254
  0
LINE
  5
24C
100
AcDbEntity
  8
0
100
AcDbLine
 62
7
  6
BYLAYER
 10
142.1709606843
 20
113.9441223254
 11
186.1709606843
 21
113.9441223254
  0
LINE
  5
24D
100
AcDbEntity
  8
0
100
AcDbLine
 62
7
  6
BYLAYER
 10
186.1709606843
 20
114.8941223254
 11
142.1709606843
 21
114.8941223254
  0
LINE
  5
24E
100
AcDbEntity
  8
0
100
AcDbLine
 62
7
  6
BYLAYER
 10
37.9209606843
 20
116.0941223254
 11
140.4209606843
 21
116.0941223254
  0
LINE
  5
24F
100
AcDbEntity
  8
0
100
AcDbLine
 62
7
  6
BYLAYER
 10
183.8709606843
 20
117.0941223254
 11
186.1709606843
 21
117.0941223254
  0
LINE
  5
250
100
AcDbEntity
  8
0
100
AcDbLine
 62
7
  6
BYLAYER
 10
142.1709606843
 20
117.1941223254
 11
140.1709606843
 21
117.1941223254
  0
LINE
  5
251
100
AcDbEntity
  8
0
100
AcDbLine
 62
7
  6
BYLAYER
 10
83.1709606843
 20
116.0941223254
 11
83.1709606843
 21
120.9941223254
  0
LINE
  5
252
100
AcDbEntity
  8
0
100
AcDbLine
 62
7
  6
BYLAYER
 10
83.1709606843
 20
224.3941223254
 11
83.1709606843
 21
227.3941223254
  0
LINE
  5
253
100
AcDbEntity
  8
0
100
AcDbLine
 62
7
  6
BYLAYER
 10
85.9209606843
 20
223.8941223254
 11
85.9209606843
 21
227.8941223254
  0
LINE
  5
254
100
AcDbEntity
  8
0
100
AcDbLine
 62
7
  6
BYLAYER
 10
99.1709606843
 20
120.9941223254
 11
79.1709606843
 21
120.9941223254
  0
LINE
  5
255
100
AcDbEntity
  8
0
100
AcDbLine
 62
7
  6
BYLAYER
 10
62.5709606843
 20
120.9941223254
 11
39.1709606843
 21
120.9941223254
  0
LINE
  5
256
100
AcDbEntity
  8
0
100
AcDbLine
 62
7
  6
BYLAYER
 10
115.7709606843
 20
120.9941223254
 11
139.1709606843
 21
120.9941223254
  0
LINE
  5
257
100
AcDbEntity
  8
0
100
AcDbLine
 62
7
  6
BYLAYER
 10
99.1709606843
 20
123.9941223254
 11
79.1709606843
 21
123.9941223254
  0
LINE
  5
258
100
AcDbEntity
  8
0
100
AcDbLine
 62
7
  6
BYLAYER
 10
39.1709606843
 20
123.9941223254
 11
62.6709606843
 21
123.9941223254
  0
LINE
  5
259
100
AcDbEntity
  8
0
100
AcDbLine
 62
7
  6
BYLAYER
 10
115.6709606843
 20
123.9941223254
 11
139.1709606843
 21
123.9941223254
  0
LINE
  5
25A
100
AcDbEntity
  8
0
100
AcDbLine
 62
7
  6
BYLAYER
 10
36.1709606843
 20
126.3941223254
 11
22.6709606843
 21
126.3941223254
  0
LINE
  5
25B
100
AcDbEntity
  8
0
100
AcDbLine
 62
7
  6
BYLAYER
 10
92.4209606843
 20
223.8941223254
 11
92.4209606843
 21
227.8941223254
  0
LINE
  5
25C
100
AcDbEntity
  8
0
100
AcDbLine
 62
7
  6
BYLAYER
 10
95.1709606843
 20
116.0941223254
 11
95.1709606843
 21
120.9941223254
  0
LINE
  5
25D
100
AcDbEntity
  8
0
100
AcDbLine
 62
7
  6
BYLAYER
 10
95.1709606843
 20
224.3941223254
 11
95.1709606843
 21
227.3941223254
  0
LINE
  5
25E
100
AcDbEntity
  8
0
100
AcDbLine
 62
7
  6
BYLAYER
 10
96.9209606843
 20
116.0941223254
 11
96.9209606843
 21
63.5941223254
  0
LINE
  5
25F
100
AcDbEntity
  8
0
100
AcDbLine
 62
7
  6
BYLAYER
 10
24.6709606843
 20
130.3941223254
 11
36.1709606843
 21
130.3941223254
  0
LINE
  5
260
100
AcDbEntity
  8
0
100
AcDbLine
 62
7
  6
BYLAYER
 10
36.1709606843
 20
132.3941223254
 11
22.6709606843
 21
132.3941223254
  0
LINE
  5
261
100
AcDbEntity
  8
0
100
AcDbLine
 62
7
  6
BYLAYER
 10
36.1709606843
 20
134.8941223254
 11
38.1709606843
 21
134.8941223254
  0
LINE
  5
262
100
AcDbEntity
  8
0
100
AcDbLine
 62
7
  6
BYLAYER
 10
38.1709606843
 20
135.8941223254
 11
36.1709606843
 21
135.8941223254
  0
LINE
  5
263
100
AcDbEntity
  8
0
100
AcDbLine
 62
7
  6
BYLAYER
 10
99.1709606843
 20
123.9941223254
 11
99.1709606843
 21
120.9941223254
  0
LINE
  5
264
100
AcDbEntity
  8
0
100
AcDbLine
 62
7
  6
BYLAYER
 10
99.4209606843
 20
148.8941223254
 11
99.4209606843
 21
116.0941223254
  0
LINE
  5
265
100
AcDbEntity
  8
0
100
AcDbLine
 62
7
  6
BYLAYER
 10
101.9209606843
 20
63.5941223254
 11
101.9209606843
 21
148.8941223254
  0
LINE
  5
266
100
AcDbEntity
  8
0
100
AcDbLine
 62
7
  6
BYLAYER
 10
36.1709606843
 20
137.3941223254
 11
38.1709606843
 21
137.3941223254
  0
LINE
  5
267
100
AcDbEntity
  8
0
100
AcDbLine
 62
7
  6
BYLAYER
 10
36.1709606843
 20
138.3941223254
 11
38.1709606843
 21
138.3941223254
  0
LINE
  5
268
100
AcDbEntity
  8
0
100
AcDbLine
 62
7
  6
BYLAYER
 10
38.1709606843
 20
138.6870155442
 11
36.1709606843
 21
138.6870155442
  0
LINE
  5
269
100
AcDbEntity
  8
0
100
AcDbLine
 62
7
  6
BYLAYER
 10
36.1709606843
 20
140.1039911702
 11
38.1709606843
 21
140.1039911702
  0
LINE
  5
26A
100
AcDbEntity
  8
0
100
AcDbLine
 62
7
  6
BYLAYER
 10
38.1709606843
 20
140.8905572626
 11
36.1709606843
 21
140.8905572626
  0
LINE
  5
26B
100
AcDbEntity
  8
0
100
AcDbLine
 62
7
  6
BYLAYER
 10
36.1709606843
 20
141.759988959
 11
38.1709606843
 21
141.759988959
  0
LINE
  5
26C
100
AcDbEntity
  8
0
100
AcDbLine
 62
7
  6
BYLAYER
 10
36.1709606843
 20
141.8269762571
 11
38.1709606843
 21
141.8269762571
  0
LINE
  5
26D
100
AcDbEntity
  8
0
100
AcDbLine
 62
7
  6
BYLAYER
 10
38.1709606843
 20
141.8691223254
 11
36.1709606843
 21
141.8691223254
  0
LINE
  5
26E
100
AcDbEntity
  8
0
100
AcDbLine
 62
7
  6
BYLAYER
 10
38.1709606843
 20
142.4541299487
 11
36.1709606843
 21
142.4541299487
  0
LINE
  5
26F
100
AcDbEntity
  8
0
100
AcDbLine
 62
7
  6
BYLAYER
 10
38.1709606843
 20
142.8941223254
 11
36.1709606843
 21
142.8941223254
  0
LINE
  5
270
100
AcDbEntity
  8
0
100
AcDbLine
 62
7
  6
BYLAYER
 10
38.1709606843
 20
143.334114702
 11
36.1709606843
 21
143.334114702
  0
LINE
  5
271
100
AcDbEntity
  8
0
100
AcDbLine
 62
7
  6
BYLAYER
 10
38.1709606843
 20
143.9191223254
 11
36.1709606843
 21
143.9191223254
  0
LINE
  5
272
100
AcDbEntity
  8
0
100
AcDbLine
 62
7
  6
BYLAYER
 10
38.1709606843
 20
143.9612683936
 11
36.1709606843
 21
143.9612683936
  0
LINE
  5
273
100
AcDbEntity
  8
0
100
AcDbLine
 62
7
  6
BYLAYER
 10
38.1709606843
 20
144.0282556917
 11
36.1709606843
 21
144.0282556917
  0
LINE
  5
274
100
AcDbEntity
  8
0
100
AcDbLine
 62
7
  6
BYLAYER
 10
112.4969873795
 20
61.5941223254
 11
112.570961052
 21
59.5941223254
  0
LINE
  5
275
100
AcDbEntity
  8
0
100
AcDbLine
 62
7
  6
BYLAYER
 10
108.9209606843
 20
63.5941223254
 11
108.9209606843
 21
148.8941223254
  0
LINE
  5
276
100
AcDbEntity
  8
0
100
AcDbLine
 62
7
  6
BYLAYER
 10
111.4209606843
 20
116.0941223254
 11
111.4209606843
 21
148.8941223254
  0
LINE
  5
277
100
AcDbEntity
  8
0
100
AcDbLine
 62
7
  6
BYLAYER
 10
36.1709606843
 20
144.8976873881
 11
38.1709606843
 21
144.8976873881
  0
LINE
  5
278
100
AcDbEntity
  8
0
100
AcDbLine
 62
7
  6
BYLAYER
 10
38.1709606843
 20
145.6842534806
 11
36.1709606843
 21
145.6842534806
  0
LINE
  5
279
100
AcDbEntity
  8
0
100
AcDbLine
 62
7
  6
BYLAYER
 10
36.1709606843
 20
147.3941223254
 11
38.1709606843
 21
147.3941223254
  0
LINE
  5
27A
100
AcDbEntity
  8
0
100
AcDbLine
 62
7
  6
BYLAYER
 10
38.1709606843
 20
148.3941223254
 11
36.1709606843
 21
148.3941223254
  0
LINE
  5
27B
100
AcDbEntity
  8
0
100
AcDbLine
 62
7
  6
BYLAYER
 10
36.1709606843
 20
148.8941223254
 11
140.1709606843
 21
148.8941223254
  0
LINE
  5
27C
100
AcDbEntity
  8
0
100
AcDbLine
 62
7
  6
BYLAYER
 10
113.9209606843
 20
63.5941223254
 11
113.9209606843
 21
116.0941223254
  0
LINE
  5
27D
100
AcDbEntity
  8
0
100
AcDbLine
 62
7
  6
BYLAYER
 10
114.2709606843
 20
59.5941223254
 11
114.2709606843
 21
58.4941223254
  0
LINE
  5
27E
100
AcDbEntity
  8
0
100
AcDbLine
 62
7
  6
BYLAYER
 10
115.6709606843
 20
116.0941223254
 11
115.6709606843
 21
123.9941223254
  0
LINE
  5
27F
100
AcDbEntity
  8
0
100
AcDbLine
 62
7
  6
BYLAYER
 10
115.7709606843
 20
123.9941223254
 11
115.7709606843
 21
120.9941223254
  0
LINE
  5
280
100
AcDbEntity
  8
0
100
AcDbLine
 62
7
  6
BYLAYER
 10
116.6496403408
 20
120.9941223254
 11
116.6496403408
 21
123.9941223254
  0
LINE
  5
281
100
AcDbEntity
  8
0
100
AcDbLine
 62
7
  6
BYLAYER
 10
118.2922810279
 20
123.9941223254
 11
118.2922810279
 21
120.9941223254
  0
LINE
  5
282
100
AcDbEntity
  8
0
100
AcDbLine
 62
7
  6
BYLAYER
 10
119.1709606843
 20
120.9941223254
 11
119.1709606843
 21
123.9941223254
  0
LINE
  5
283
100
AcDbEntity
  8
0
100
AcDbLine
 62
7
  6
BYLAYER
 10
127.6709606843
 20
116.0941223254
 11
127.6709606843
 21
120.9941223254
  0
LINE
  5
284
100
AcDbEntity
  8
0
100
AcDbLine
 62
7
  6
BYLAYER
 10
38.1709606843
 20
159.9149376055
 11
140.1709606843
 21
159.9149376055
  0
LINE
  5
285
100
AcDbEntity
  8
0
100
AcDbLine
 62
7
  6
BYLAYER
 10
140.1709606843
 20
160.9755977773
 11
38.1709606843
 21
160.9755977773
  0
LINE
  5
286
100
AcDbEntity
  8
0
100
AcDbLine
 62
7
  6
BYLAYER
 10
22.6709606843
 20
166.8941223502
 11
38.1709606843
 21
166.8941223251
  0
LINE
  5
287
100
AcDbEntity
  8
0
100
AcDbLine
 62
7
  6
BYLAYER
 10
140.1709606843
 20
166.8941223254
 11
170.0207480509
 21
166.8941223254
  0
LINE
  5
288
100
AcDbEntity
  8
0
100
AcDbLine
 62
7
  6
BYLAYER
 10
129.4209606843
 20
116.0941223254
 11
129.4209606843
 21
63.5941223254
  0
LINE
  5
289
100
AcDbEntity
  8
0
100
AcDbLine
 62
7
  6
BYLAYER
 10
131.9209606843
 20
148.8941223254
 11
131.9209606843
 21
123.9941223254
  0
LINE
  5
28A
100
AcDbEntity
  8
0
100
AcDbLine
 62
7
  6
BYLAYER
 10
131.9209606843
 20
120.9941223254
 11
131.9209606843
 21
116.0941223254
  0
LINE
  5
28B
100
AcDbEntity
  8
0
100
AcDbLine
 62
7
  6
BYLAYER
 10
134.4209606843
 20
63.5941223254
 11
134.4209606843
 21
120.9941223254
  0
LINE
  5
28C
100
AcDbEntity
  8
0
100
AcDbLine
 62
7
  6
BYLAYER
 10
134.4209606843
 20
123.9941223254
 11
134.4209606843
 21
148.8941223254
  0
LINE
  5
28D
100
AcDbEntity
  8
0
100
AcDbLine
 62
7
  6
BYLAYER
 10
136.0709606843
 20
59.5941223254
 11
136.0709606843
 21
58.4941223254
  0
LINE
  5
28E
100
AcDbEntity
  8
0
100
AcDbLine
 62
7
  6
BYLAYER
 10
38.1709606843
 20
172.9362579491
 11
140.1709606843
 21
172.9362579491
  0
LINE
  5
28F
100
AcDbEntity
  8
0
100
AcDbLine
 62
7
  6
BYLAYER
 10
168.6101322052
 20
174.8941223254
 11
140.1709606843
 21
174.8941223254
  0
LINE
  5
290
100
AcDbEntity
  8
0
100
AcDbLine
 62
7
  6
BYLAYER
 10
38.1709606843
 20
174.8941223254
 11
24.6709606843
 21
174.8941223254
  0
LINE
  5
291
100
AcDbEntity
  8
0
100
AcDbLine
 62
7
  6
BYLAYER
 10
137.1709606843
 20
148.8941223254
 11
137.1709606843
 21
123.9941223254
  0
LINE
  5
292
100
AcDbEntity
  8
0
100
AcDbLine
 62
7
  6
BYLAYER
 10
137.1709606843
 20
120.9941223254
 11
137.1709606843
 21
116.0941223254
  0
LINE
  5
293
100
AcDbEntity
  8
0
100
AcDbLine
 62
7
  6
BYLAYER
 10
137.4209606843
 20
116.0941223254
 11
137.4209606843
 21
63.5941223254
  0
LINE
  5
294
100
AcDbEntity
  8
0
100
AcDbLine
 62
7
  6
BYLAYER
 10
137.5709606843
 20
61.5941223254
 11
137.5709606843
 21
59.5941223254
  0
LINE
  5
295
100
AcDbEntity
  8
0
100
AcDbLine
 62
7
  6
BYLAYER
 10
138.0709606843
 20
63.5941223254
 11
138.0709606843
 21
62.0941223254
  0
LINE
  5
296
100
AcDbEntity
  8
0
100
AcDbLine
 62
7
  6
BYLAYER
 10
139.1709606843
 20
120.9941223254
 11
139.1709606843
 21
123.9941223254
  0
LINE
  5
297
100
AcDbEntity
  8
0
100
AcDbLine
 62
7
  6
BYLAYER
 10
139.5709606843
 20
61.5941223254
 11
139.5709606843
 21
63.5941223254
  0
LINE
  5
298
100
AcDbEntity
  8
0
100
AcDbLine
 62
7
  6
BYLAYER
 10
140.1709606843
 20
116.0941223254
 11
140.1709606843
 21
174.8941223254
  0
LINE
  5
299
100
AcDbEntity
  8
0
100
AcDbLine
 62
7
  6
BYLAYER
 10
140.4209606843
 20
63.5941223254
 11
140.4209606843
 21
116.0941223254
  0
LINE
  5
29A
100
AcDbEntity
  8
0
100
AcDbLine
 62
7
  6
BYLAYER
 10
142.1709606843
 20
108.7441223254
 11
142.1709606843
 21
117.1941223254
  0
LINE
  5
29B
100
AcDbEntity
  8
0
100
AcDbLine
 62
7
  6
BYLAYER
 10
142.1709606843
 20
174.8941223254
 11
142.1709606843
 21
227.8941223254
  0
LINE
  5
29C
100
AcDbEntity
  8
0
100
AcDbLine
 62
7
  6
BYLAYER
 10
38.1709606843
 20
175.8941223254
 11
24.9297797142
 21
175.8941199383
  0
LINE
  5
29D
100
AcDbEntity
  8
0
100
AcDbLine
 62
7
  6
BYLAYER
 10
24.4121670713
 20
177.894120851
 11
30.6709606843
 21
177.8941223282
  0
LINE
  5
29E
100
AcDbEntity
  8
0
100
AcDbLine
 62
7
  6
BYLAYER
 10
24.6709607457
 20
178.8941223254
 11
29.6709606293
 21
178.8941223254
  0
LINE
  5
29F
100
AcDbEntity
  8
0
100
AcDbLine
 62
7
  6
BYLAYER
 10
183.8709606843
 20
117.0941223254
 11
173.3709606843
 21
127.5941223254
  0
LINE
  5
2A0
100
AcDbEntity
  8
0
100
AcDbLine
 62
7
  6
BYLAYER
 10
153.1709606843
 20
111.8441223254
 11
153.1709606843
 21
108.9441223254
  0
LINE
  5
2A1
100
AcDbEntity
  8
0
100
AcDbLine
 62
7
  6
BYLAYER
 10
155.0709606843
 20
113.9441223254
 11
155.0709606843
 21
108.9441223254
  0
LINE
  5
2A2
100
AcDbEntity
  8
0
100
AcDbLine
 62
7
  6
BYLAYER
 10
155.1709606843
 20
113.9441223254
 11
155.1709606843
 21
109.3441223254
  0
LINE
  5
2A3
100
AcDbEntity
  8
0
100
AcDbLine
 62
7
  6
BYLAYER
 10
157.1709606843
 20
113.9441223254
 11
157.1709606843
 21
111.8441223254
  0
LINE
  5
2A4
100
AcDbEntity
  8
0
100
AcDbLine
 62
7
  6
BYLAYER
 10
159.1709606843
 20
108.9441223254
 11
159.1709606843
 21
107.4441223254
  0
LINE
  5
2A5
100
AcDbEntity
  8
0
100
AcDbLine
 62
7
  6
BYLAYER
 10
159.4709606843
 20
113.9441223254
 11
159.4709606843
 21
109.3441223254
  0
LINE
  5
2A6
100
AcDbEntity
  8
0
100
AcDbLine
 62
7
  6
BYLAYER
 10
168.8709606843
 20
113.9441223254
 11
168.8709606843
 21
109.3441223254
  0
LINE
  5
2A7
100
AcDbEntity
  8
0
100
AcDbLine
 62
7
  6
BYLAYER
 10
169.1709606843
 20
108.9441223254
 11
169.1709606843
 21
107.4441223254
  0
LINE
  5
2A8
100
AcDbEntity
  8
0
100
AcDbLine
 62
7
  6
BYLAYER
 10
171.1709606843
 20
113.9441223254
 11
171.1709606843
 21
111.8441223254
  0
LINE
  5
2A9
100
AcDbEntity
  8
0
100
AcDbLine
 62
7
  6
BYLAYER
 10
173.1709606843
 20
113.9441223254
 11
173.1709606843
 21
109.3441223254
  0
LINE
  5
2AA
100
AcDbEntity
  8
0
100
AcDbLine
 62
7
  6
BYLAYER
 10
173.2709606843
 20
113.9441223254
 11
173.2709606843
 21
108.9441223254
  0
LINE
  5
2AB
100
AcDbEntity
  8
0
100
AcDbLine
 62
7
  6
BYLAYER
 10
173.3709606843
 20
147.8941223254
 11
173.3709606843
 21
127.5941223254
  0
LINE
  5
2AC
100
AcDbEntity
  8
0
100
AcDbLine
 62
7
  6
BYLAYER
 10
175.1709606843
 20
111.8441223254
 11
175.1709606843
 21
108.9441223254
  0
LINE
  5
2AD
100
AcDbEntity
  8
0
100
AcDbLine
 62
7
  6
BYLAYER
 10
173.3709606843
 20
147.8941223254
 11
168.6101322052
 21
174.8941223254
  0
LINE
  5
2AE
100
AcDbEntity
  8
0
100
AcDbLine
 62
7
  6
BYLAYER
 10
172.1709606843
 20
108.7441223254
 11
172.2245505228
 21
108.9441223254
  0
LINE
  5
2AF
100
AcDbEntity
  8
0
100
AcDbLine
 62
7
  6
BYLAYER
 10
173.2709606843
 20
112.8493782137
 11
173.564296485
 21
113.9441223254
  0
LINE
  5
2B0
100
AcDbEntity
  8
0
100
AcDbLine
 62
7
  6
BYLAYER
 10
38.1709606843
 20
221.4005474634
 11
142.1709606843
 21
221.4005474634
  0
LINE
  5
2B1
100
AcDbEntity
  8
0
100
AcDbLine
 62
7
  6
BYLAYER
 10
186.1709606843
 20
117.0941223254
 11
186.1709606843
 21
113.9441223254
  0
LINE
  5
2B2
100
AcDbEntity
  8
0
100
AcDbLine
 62
7
  6
BYLAYER
 10
142.1709606843
 20
222.7753201718
 11
38.1709606843
 21
222.7753201718
  0
LINE
  5
2B3
100
AcDbEntity
  8
0
100
AcDbLine
 62
7
  6
BYLAYER
 10
36.1709606843
 20
223.8941223254
 11
142.1709606843
 21
223.8941223254
  0
LINE
  5
2B4
100
AcDbEntity
  8
0
100
AcDbLine
 62
7
  6
BYLAYER
 10
142.1709606843
 20
224.3941223254
 11
95.1709606843
 21
224.3941223254
  0
LINE
  5
2B5
100
AcDbEntity
  8
0
100
AcDbLine
 62
7
  6
BYLAYER
 10
83.1709606843
 20
224.3941223254
 11
36.1709606843
 21
224.3941223254
  0
LINE
  5
2B6
100
AcDbEntity
  8
0
100
AcDbLine
 62
7
  6
BYLAYER
 10
30.6709606843
 20
225.0941222652
 11
36.1709606843
 21
225.0941223233
  0
LINE
  5
2B7
100
AcDbEntity
  8
0
100
AcDbLine
 62
7
  6
BYLAYER
 10
36.1709606843
 20
227.0941223254
 11
31.6709606843
 21
227.0941223254
  0
LINE
  5
2B8
100
AcDbEntity
  8
0
100
AcDbLine
 62
7
  6
BYLAYER
 10
36.1709606843
 20
227.3941223254
 11
83.1709606843
 21
227.3941223254
  0
LINE
  5
2B9
100
AcDbEntity
  8
0
100
AcDbLine
 62
7
  6
BYLAYER
 10
95.1709606843
 20
227.3941223254
 11
142.1709606843
 21
227.3941223254
  0
LINE
  5
2BA
100
AcDbEntity
  8
0
100
AcDbLine
 62
7
  6
BYLAYER
 10
36.1709606843
 20
227.8941223254
 11
142.1709606843
 21
227.8941223254
  0
ARC
  5
2BB
100
AcDbEntity
  8
0
100
AcDbCircle
 62
7
  6
BYLAYER
 10
75.6709606843
 20
558.2306532776
 40
500.0
100
AcDbArc
 50
265.9813993816
 51
274.2322760299
  0
ARC
  5
2BC
100
AcDbEntity
  8
0
100
AcDbCircle
 62
7
  6
BYLAYER
 10
75.6709606843
 20
558.2306532776
 40
498.0
100
AcDbArc
 50
265.9813988423
 51
274.2407709773
  0
ARC
  5
2BD
100
AcDbEntity
  8
0
100
AcDbCircle
 62
7
  6
BYLAYER
 10
24.9314102605
 20
172.881711422
 40
3.0124089575
100
AcDbArc
 50
90.031012862
 51
104.9691405907
  0
ARC
  5
2BE
100
AcDbEntity
  8
0
100
AcDbCircle
 62
7
  6
BYLAYER
 10
137.5709606843
 20
61.5941223254
 40
2.0
100
AcDbArc
 50
270.0
 51
360.0
  0
ARC
  5
2BF
100
AcDbEntity
  8
0
100
AcDbCircle
 62
7
  6
BYLAYER
 10
40.7709606843
 20
61.4550600767
 40
2.0
100
AcDbArc
 50
180.0
 51
265.9813993816
  0
ARC
  5
2C0
100
AcDbEntity
  8
0
100
AcDbCircle
 62
7
  6
BYLAYER
 10
24.6709606843
 20
176.8941223254
 40
2.0
100
AcDbArc
 50
89.9999987852
 51
180.0
  0
ARC
  5
2C1
100
AcDbEntity
  8
0
100
AcDbCircle
 62
7
  6
BYLAYER
 10
24.6709606843
 20
132.3941223254
 40
2.0
100
AcDbArc
 50
180.0
 51
270.0
  0
ARC
  5
2C2
100
AcDbEntity
  8
0
100
AcDbCircle
 62
7
  6
BYLAYER
 10
24.6709606843
 20
172.8941223254
 40
2.0
100
AcDbArc
 50
90.0000001434
 51
180.0
  0
ARC
  5
2C3
100
AcDbEntity
  8
0
100
AcDbCircle
 62
7
  6
BYLAYER
 10
24.4125905674
 20
176.8904773339
 40
1.0036436064
100
AcDbArc
 50
90.0241764513
 51
104.970680457
  0
ARC
  5
2C4
100
AcDbEntity
  8
0
100
AcDbCircle
 62
7
  6
BYLAYER
 10
31.6709606843
 20
226.0941223254
 40
1.0
100
AcDbArc
 50
89.9999999991
 51
180.0000000001
  0
ARC
  5
2C5
100
AcDbEntity
  8
0
100
AcDbCircle
 62
7
  6
BYLAYER
 10
29.6709606843
 20
179.8941223254
 40
1.0
100
AcDbArc
 50
270.0
 51
360.0
  0
ARC
  5
2C6
100
AcDbEntity
  8
0
100
AcDbCircle
 62
7
  6
BYLAYER
 10
29.6709606843
 20
175.8941223254
 40
1.0
100
AcDbArc
 50
270.0
 51
360.0
  0
SPLINE
  5
2C7
100
AcDbEntity
  8
0
100
AcDbSpline
 62
7
  6
BYLAYER
 70
0
 71
3
 72
12
 73
8
 74
0
 42
0.0000001
 43
0.0000001
 44
0.0000000001
 40
0.0
 40
0.0
 40
0.0
 40
0.0
 40
0.3579806034
 40
0.6655605992
 40
0.7873059369
 40
0.8833004232
 40
1.0
 40
1.0
 40
1.0
 40
1.0
 10
29.9297797294
 20
175.8941223254
 30
0.0
 10
29.9297797294
 20
175.7663925825
 30
0.0
 10
29.9178730416
 20
175.5285099609
 30
0.0
 10
29.8756033543
 20
175.2509733161
 30
0.0
 10
29.8196204991
 20
175.0694905725
 30
0.0
 10
29.7736347795
 20
174.9644626599
 30
0.0
 10
29.7125998315
 20
174.8941223254
 30
0.0
 10
29.6709606846
 20
174.8941223254
 30
0.0
  0
SPLINE
  5
2C8
100
AcDbEntity
  8
0
100
AcDbSpline
 62
7
  6
BYLAYER
 70
0
 71
3
 72
19
 73
15
 74
0
 42
0.0000001
 43
0.0000001
 44
0.0000000001
 40
0.0
 40
0.0
 40
0.0
 40
0.0
 40
0.0731366248
 40
0.1091068464
 40
0.144434688
 40
0.213728566
 40
0.2789729173
 40
0.3393380242
 40
0.3957500059
 40
0.5010570031
 40
0.6056631961
 40
0.7217267366
 40
0.8560114155
 40
1.0
 40
1.0
 40
1.0
 40
1.0
 10
137.5709606843
 20
61.5941223254
 30
0.0
 10
137.5677907985
 20
61.5025760269
 30
0.0
 10
137.5729697409
 20
61.3648318575
 30
0.0
 10
137.6137533553
 20
61.1878909074
 30
0.0
 10
137.681826635
 20
61.0247344612
 30
0.0
 10
137.7944636396
 20
60.8436425933
 30
0.0
 10
137.9045062506
 20
60.6258788494
 30
0.0
 10
138.0304692075
 20
60.4341055426
 30
0.0
 10
138.2424043756
 20
60.2474456298
 30
0.0
 10
138.5858073141
 20
60.1606041597
 30
0.0
 10
138.9940644389
 20
60.2807914635
 30
0.0
 10
139.3197359175
 20
60.6048213328
 30
0.0
 10
139.5233006158
 20
61.0633593324
 30
0.0
 10
139.5709606843
 20
61.4137814669
 30
0.0
 10
139.5709606843
 20
61.5941223254
 30
0.0
  0
SPLINE
  5
2C9
100
AcDbEntity
  8
0
100
AcDbSpline
 62
7
  6
BYLAYER
 70
0
 71
3
 72
12
 73
8
 74
0
 42
0.0000001
 43
0.0000001
 44
0.0000000001
 40
0.0
 40
0.0
 40
0.0
 40
0.0
 40
0.349707319
 40
0.6688781756
 40
0.7942216453
 40
0.8900710074
 40
1.0
 40
1.0
 40
1.0
 40
1.0
 10
24.1532745086
 20
177.8600353709
 30
0.0
 10
24.1250126108
 20
177.9731519492
 30
0.0
 10
24.0807094885
 20
178.1922307815
 30
0.0
 10
24.0528539284
 20
178.4555475732
 30
0.0
 10
24.0617907621
 20
178.6377478993
 30
0.0
 10
24.0791187495
 20
178.7428083816
 30
0.0
 10
24.1180706459
 20
178.8162452116
 30
0.0
 10
24.1534713998
 20
178.8257353612
 30
0.0
  0
SPLINE
  5
2CA
100
AcDbEntity
  8
0
100
AcDbSpline
 62
7
  6
BYLAYER
 70
0
 71
3
 72
13
 73
9
 74
0
 42
0.0000001
 43
0.0000001
 44
0.0000000001
 40
0.0
 40
0.0
 40
0.0
 40
0.0
 40
0.3358781657
 40
0.613957059
 40
0.7284909387
 40
0.8280173414
 40
0.9163861868
 40
1.0
 40
1.0
 40
1.0
 40
1.0
 10
24.1533166829
 20
177.8600462919
 30
0.0
 10
23.9437691661
 20
177.8281259729
 30
0.0
 10
23.5639242108
 20
177.7407700914
 30
0.0
 10
23.1427037071
 20
177.5440961571
 30
0.0
 10
22.8950153628
 20
177.354685052
 30
0.0
 10
22.7670620022
 20
177.2109240704
 30
0.0
 10
22.6883352629
 20
177.0561955179
 30
0.0
 10
22.6709606843
 20
176.9468889803
 30
0.0
 10
22.6709606843
 20
176.8941222766
 30
0.0
  0
SPLINE
  5
2CB
100
AcDbEntity
  8
0
100
AcDbSpline
 62
7
  6
BYLAYER
 70
0
 71
3
 72
13
 73
9
 74
0
 42
0.0000001
 43
0.0000001
 44
0.0000000001
 40
0.0
 40
0.0
 40
0.0
 40
0.0
 40
0.1364660806
 40
0.2670932129
 40
0.3937370249
 40
0.5175989884
 40
0.7600554422
 40
1.0
 40
1.0
 40
1.0
 40
1.0
 10
24.1533166829
 20
175.7918989603
 30
0.0
 10
24.008537282
 20
175.7336536201
 30
0.0
 10
23.7404715183
 20
175.5775508366
 30
0.0
 10
23.4186032054
 20
175.2579753276
 30
0.0
 10
23.1700146609
 20
174.8977185918
 30
0.0
 10
22.9173600096
 20
174.3922217937
 30
0.0
 10
22.7205956356
 20
173.7213975941
 30
0.0
 10
22.6710035759
 20
173.1685118932
 30
0.0
 10
22.6709606843
 20
172.8941222492
 30
0.0
  0
SPLINE
  5
2CC
100
AcDbEntity
  8
0
100
AcDbSpline
 62
7
  6
BYLAYER
 70
0
 71
3
 72
19
 73
15
 74
0
 42
0.0000001
 43
0.0000001
 44
0.0000000001
 40
0.0
 40
0.0
 40
0.0
 40
0.0
 40
0.1450924937
 40
0.2802410401
 40
0.3424695295
 40
0.4008603279
 40
0.4545820889
 40
0.5068419983
 40
0.5589761171
 40
0.6109536809
 40
0.66750205
 40
0.727267747
 40
0.8572873016
 40
1.0
 40
1.0
 40
1.0
 40
1.0
 10
40.7709606843
 20
61.4550600767
 30
0.0
 10
40.7516638804
 20
61.280080342
 30
0.0
 10
40.6753454426
 20
60.9470938778
 30
0.0
 10
40.4894540351
 20
60.5636850042
 30
0.0
 10
40.2610464478
 20
60.349606433
 30
0.0
 10
40.0869518905
 20
60.2295616589
 30
0.0
 10
39.9064990604
 20
60.1387780737
 30
0.0
 10
39.7121893473
 20
60.1179613122
 30
0.0
 10
39.5231605602
 20
60.1451534999
 30
0.0
 10
39.3392020233
 20
60.2169351805
 30
0.0
 10
39.1779425464
 20
60.3458713023
 30
0.0
 10
38.9813511413
 20
60.5728171478
 30
0.0
 10
38.8140074815
 20
60.9495168629
 30
0.0
 10
38.7709606843
 20
61.2819069324
 30
0.0
 10
38.7709606843
 20
61.4550600767
 30
0.0
  0
SPLINE
  5
2CD
100
AcDbEntity
  8
0
100
AcDbSpline
 62
7
  6
BYLAYER
 70
0
 71
3
 72
9
 73
5
 74
0
 42
0.0000001
 43
0.0000001
 44
0.0000000001
 40
0.0
 40
0.0
 40
0.0
 40
0.0
 40
0.4985083073
 40
1.0
 40
1.0
 40
1.0
 40
1.0
 10
40.2709606843
 20
61.9732394179
 30
0.0
 10
40.2719145221
 20
61.8471132512
 30
0.0
 10
40.4098888501
 20
61.6015696128
 30
0.0
 10
40.6455143037
 20
61.4741411781
 30
0.0
 10
40.7709559823
 20
61.4550600294
 30
0.0
  0
SPLINE
  5
2CE
100
AcDbEntity
  8
0
100
AcDbSpline
 62
7
  6
BYLAYER
 70
0
 71
3
 72
9
 73
5
 74
0
 42
0.0000001
 43
0.0000001
 44
0.0000000001
 40
0.0
 40
0.0
 40
0.0
 40
0.0
 40
0.5002022446
 40
1.0
 40
1.0
 40
1.0
 40
1.0
 10
137.5709606843
 20
61.5941223254
 30
0.0
 10
137.6958144447
 20
61.5998542743
 30
0.0
 10
137.9365103988
 20
61.7278014703
 30
0.0
 10
138.0670501675
 20
61.9692993692
 30
0.0
 10
138.0709606843
 20
62.0941223254
 30
0.0
  0
SPLINE
  5
2CF
100
AcDbEntity
  8
0
100
AcDbSpline
 62
7
  6
BYLAYER
 70
0
 71
3
 72
14
 73
10
 74
0
 42
0.0000001
 43
0.0000001
 44
0.0000000001
 40
0.0
 40
0.0
 40
0.0
 40
0.0
 40
0.3775860234
 40
0.5434424898
 40
0.6861742935
 40
0.8022940429
 40
0.8905059403
 40
0.9530461116
 40
1.0
 40
1.0
 40
1.0
 40
1.0
 10
29.9297797295
 20
177.8941223254
 30
0.0
 10
29.9261787363
 20
178.0286343351
 30
0.0
 10
29.9115360999
 20
178.2223168823
 30
0.0
 10
29.8703763794
 20
178.4634843306
 30
0.0
 10
29.8375665673
 20
178.6112428899
 30
0.0
 10
29.8043139236
 20
178.7306163067
 30
0.0
 10
29.7680231214
 20
178.8186292636
 30
0.0
 10
29.7266603161
 20
178.8776814982
 30
0.0
 10
29.6876935949
 20
178.8941223318
 30
0.0
 10
29.6709606538
 20
178.8941223254
 30
0.0
  0
SPLINE
  5
2D0
100
AcDbEntity
  8
0
100
AcDbSpline
 62
7
  6
BYLAYER
 70
0
 71
3
 72
9
 73
5
 74
0
 42
0.0000001
 43
0.0000001
 44
0.0000000001
 40
0.0
 40
0.0
 40
0.0
 40
0.0
 40
0.5378663727
 40
1.0
 40
1.0
 40
1.0
 40
1.0
 10
24.4120726505
 20
177.8941223254
 30
0.0
 10
24.4121067886
 20
178.0218531844
 30
0.0
 10
24.4236765021
 20
178.2593653609
 30
0.0
 10
24.4604491158
 20
178.4949822943
 30
0.0
 10
24.4879484789
 20
178.6012272361
 30
0.0
  0
SPLINE
  5
2D1
100
AcDbEntity
  8
0
100
AcDbSpline
 62
7
  6
BYLAYER
 70
0
 71
3
 72
10
 73
6
 74
0
 42
0.0000001
 43
0.0000001
 44
0.0000000001
 40
0.0
 40
0.0
 40
0.0
 40
0.0
 40
0.3640595285
 40
0.651105341
 40
1.0
 40
1.0
 40
1.0
 40
1.0
 10
24.4879484789
 20
178.6012272361
 30
0.0
 10
24.4988334007
 20
178.6432815877
 30
0.0
 10
24.5224042479
 20
178.7188423289
 30
0.0
 10
24.568255496
 20
178.8237413231
 30
0.0
 10
24.6292981946
 20
178.894121901
 30
0.0
 10
24.6709288861
 20
178.8941223254
 30
0.0
  0
SPLINE
  5
2D2
100
AcDbEntity
  8
0
100
AcDbSpline
 62
7
  6
BYLAYER
 70
0
 71
3
 72
12
 73
8
 74
0
 42
0.0000001
 43
0.0000001
 44
0.0000000001
 40
0.0
 40
0.0
 40
0.0
 40
0.0
 40
0.110522694
 40
0.2076513154
 40
0.3346835399
 40
0.6558240768
 40
1.0
 40
1.0
 40
1.0
 40
1.0
 10
24.6709606553
 20
174.8941220636
 30
0.0
 10
24.710409778
 20
174.8941220643
 30
0.0
 10
24.7713487691
 20
174.9603195026
 30
0.0
 10
24.8180855495
 20
175.0655604859
 30
0.0
 10
24.8769330995
 20
175.2536900776
 30
0.0
 10
24.9181680153
 20
175.5335084476
 30
0.0
 10
24.9297796774
 20
175.771274811
 30
0.0
 10
24.9297796615
 20
175.8941223254
 30
0.0
  0
SPLINE
  5
2D3
100
AcDbEntity
  8
0
100
AcDbSpline
 62
7
  6
BYLAYER
 70
0
 71
3
 72
12
 73
8
 74
0
 42
0.0000001
 43
0.0000001
 44
0.0000000001
 40
0.0
 40
0.0
 40
0.0
 40
0.0
 40
0.3531404358
 40
0.6725157745
 40
0.7969091923
 40
0.8915961254
 40
1.0
 40
1.0
 40
1.0
 40
1.0
 10
24.153266039
 20
175.7918835011
 30
0.0
 10
24.1818332284
 20
175.6776248528
 30
0.0
 10
24.2263365878
 20
175.4572760112
 30
0.0
 10
24.254022443
 20
175.1929097827
 30
0.0
 10
24.2446398834
 20
175.0113503332
 30
0.0
 10
24.2270893828
 20
174.9073839514
 30
0.0
 10
24.1882086971
 20
174.8353132115
 30
0.0
 10
24.1532869028
 20
174.8259558172
 30
0.0
  0
ELLIPSE
  5
2D4
100
AcDbEntity
  8
0
100
AcDbEllipse
 62
7
  6
BYLAYER
 10
94.6709606843
 20
227.3941223254
 30
0.0
 11
0.0
 21
0.5
 31
0.0
 40
1.0
 41
-1.5707963268
 42
0.0
  0
ELLIPSE
  5
2D5
100
AcDbEntity
  8
0
100
AcDbEllipse
 62
7
  6
BYLAYER
 10
83.6709606843
 20
227.3941223254
 30
0.0
 11
0.0
 21
0.5
 31
0.0
 40
1.0
 41
0.0
 42
1.5707963268
  0
ELLIPSE
  5
2D6
100
AcDbEntity
  8
0
100
AcDbEllipse
 62
7
  6
BYLAYER
 10
83.6709606843
 20
224.3941223254
 30
0.0
 11
0.0
 21
0.5
 31
0.0
 40
1.0
 41
-4.7123889804
 42
-3.1415926536
  0
ELLIPSE
  5
2D7
100
AcDbEntity
  8
0
100
AcDbEllipse
 62
7
  6
BYLAYER
 10
94.6709606843
 20
224.3941223254
 30
0.0
 11
-0.0
 21
0.5
 31
0.0
 40
1.0
 41
-3.1415926536
 42
-1.5707963268
  0
ENDSEC
  0
SECTION
  2
OBJECTS
  0
DICTIONARY
  5
C
100
AcDbDictionary
280
0
281
1
  3
ACAD_GROUP
350
D
  3
ACAD_MLINESTYLE
350
17
  3
ACAD_LAYOUT
350
1A
  3
ACAD_PLOTSETTINGS
350
19
  3
ACAD_PLOTSTYLENAME
350
E
  0
DICTIONARY
  5
D
102
{ACAD_REACTORS
330
C
102
}
100
AcDbDictionary
280
0
281
1
  0
ACDBDICTIONARYWDFLT
  5
E
102
{ACAD_REACTORS
330
C
102
}
100
AcDbDictionary
281
1
  3
Normal
350
F
100
AcDbDictionaryWithDefault
340
F
  0
DICTIONARY
  5
17
102
{ACAD_REACTORS
330
C
102
}
100
AcDbDictionary
280
0
281
1
  3
Standard
350
18
  0
DICTIONARY
  5
19
102
{ACAD_REACTORS
330
C
102
}
100
AcDbDictionary
281
1
  0
DICTIONARY
  5
1A
102
{ACAD_REACTORS
330
C
102
}
100
AcDbDictionary
281
1
  3
Model
350
2D8
  3
Layout1
350
2D9
  0
ACDBPLACEHOLDER
  5
F
102
{ACAD_REACTORS
330
E
102
}
  0
MLINESTYLE
  5
18
102
{ACAD_REACTORS
330
17
102
}
100
AcDbMlineStyle
  2
STANDARD
 70
0
  3

 62
256
 51
90.0
 52
90.0
 71
2
 49
0.5
 62
256
  6
BYLAYER
 49
-0.5
 62
256
  6
BYLAYER
  0
LAYOUT
  5
2D8
102
{ACAD_REACTORS
330
1A
102
}
100
AcDbPlotSettings
  1

  2
none_device
  4

  6

 40
0.0
 41
0.0
 42
0.0
 43
0.0
 44
210.0
 45
297.0
 46
0.0
 47
0.0
 48
0.0
 49
0.0
140
0.0
141
0.0
142
1.0
143
1.0
 70
1024
 72
1
 73
0
 74
0
  7

 75
0
147
1.0
148
0.0
149
0.0
100
AcDbLayout
  1
Model
 70
0
 71
0
 10
0.0
 20
0.0
 11
210.0
 21
297.0
 12
0.0
 22
0.0
 32
0.0
 14
0.0
 24
0.0
 34
0.0
 15
0.0
 25
0.0
 35
0.0
146
0.0
 13
0.0
 23
0.0
 33
0.0
 16
1.0
 26
0.0
 36
0.0
 17
0.0
 27
1.0
 37
0.0
 76
0
330
210
345
0
346
0
  0
LAYOUT
  5
2D9
102
{ACAD_REACTORS
330
1A
102
}
100
AcDbPlotSettings
  1

  2
none_device
  4

  6

 40
0.0
 41
0.0
 42
0.0
 43
0.0
 44
210.0
 45
297.0
 46
0.0
 47
0.0
 48
0.0
 49
0.0
140
0.0
141
0.0
142
1.0
143
1.0
 70
0
 72
1
 73
0
 74
0
  7

 75
0
147
1.0
148
0.0
149
0.0
100
AcDbLayout
  1
Layout1
 70
0
 71
1
 10
0.0
 20
0.0
 11
210.0
 21
297.0
 12
0.0
 22
0.0
 32
0.0
 14
0.0
 24
0.0
 34
0.0
 15
0.0
 25
0.0
 35
0.0
146
0.0
 13
0.0
 23
0.0
 33
0.0
 16
1.0
 26
0.0
 36
0.0
 17
0.0
 27
1.0
 37
0.0
 76
0
330
211
345
0
346
0
  0
ENDSEC
  0
EOF
