999
DXF file: C:\Users\sesa63760\Dev\_Creo\CAD\MCADID0005320_3D-CAD\drw0001_7.dxf
999
Pro/ENGINEER 2019471 by Parametric Technology Corporation
  0
SECTION
  2
HEADER
  9
$ACADVER
  1
AC1024
  9
$DWGCODEPAGE
  3
ANSI_1252
  9
$EXTMAX
 10
103.8534338098
 20
146.8784278167
 30
0.0
  9
$EXTMIN
 10
0.0
 20
0.0
 30
0.0
  9
$LIMMIN
 10
0.0
 20
0.0
  9
$LIMMAX
 10
103.8534338098
 20
146.8784278167
  9
$VIEWCTR
 10
51.9267169049
 20
73.4392139083
  9
$VIEWSIZE
 40
146.8784278167
  9
$CLAYER
  8
0
  9
$LTSCALE
 40
9.5742975169
  9
$CELTYPE
  6
BYLAYER
  9
$DIMSCALE
 40
1.0
  9
$DIMASZ
 40
1.2363504025
  9
$DIMEXO
 40
1.0
  9
$DIMDLI
 40
6.6149691935
  9
$DIMEXE
 40
1.0
  9
$DIMCEN
 40
1.56670323
  9
$DIMLFAC
 40
1.0
  9
$DIMBLK
  1
_FILLED
  9
$DIMALT
 70
0
  9
$DIMALTF
 40
0.0393700787
  9
$DIMTXT
 40
1.7308905635
  9
$DIMTOL
 70
1
  9
$DIMLIM
 70
0
  9
$DIMTFAC
 40
1.0
  9
$DIMTP
 40
0.01
  9
$DIMTM
 40
0.01
  9
$DIMGAP
 40
0.625
  9
$DIMDSEP
 70
46
  9
$AUNITS
 70
0
  9
$PDMODE
 70
3
  9
$PDSIZE
 40
0.3125
  9
$HANDSEED
  5
4C3
  9
$TILEMODE
 70
1
  9
$MEASUREMENT
 70
1
  9
$INSUNITS
 70
4
  0
ENDSEC
  0
SECTION
  2
CLASSES
  0
CLASS
  1
ACDBDICTIONARYWDFLT
  2
AcDbDictionaryWithDefault
  3
AutoCAD 2000
 90
0
 91
1
280
0
281
0
  0
CLASS
  1
ACDBPLACEHOLDER
  2
AcDbPlaceHolder
  3
AutoCAD 2000
 90
0
 91
1
280
0
281
0
  0
CLASS
  1
LAYOUT
  2
AcDbLayout
  3
AutoCAD 2000
 90
0
 91
0
280
0
281
0
  0
ENDSEC
  0
SECTION
  2
TABLES
  0
TABLE
  2
VPORT
  5
8
100
AcDbSymbolTable
 70
2
  0
VPORT
  5
1F4
100
AcDbSymbolTableRecord
100
AcDbViewportTableRecord
  2
*ACTIVE
 70
0
 10
0.0
 20
0.0
 11
1.0
 21
1.0
 12
51.9267169049
 22
73.4392139083
 13
0.0
 23
0.0
 14
1.0
 24
1.0
 15
0.0
 25
0.0
 16
0.0
 26
0.0
 36
1.0
 17
0.0
 27
0.0
 37
0.0
 40
146.8784278167
 41
0.7070707071
 42
50.0
 43
0.0
 44
0.0
 50
0.0
 51
0.0
 71
0
 72
100
 73
1
 74
1
 75
0
 76
0
 77
0
 78
0
  0
ENDTAB
  0
TABLE
  2
LTYPE
  5
5
100
AcDbSymbolTable
 70
6
  0
LTYPE
  5
14
100
AcDbSymbolTableRecord
100
AcDbLinetypeTableRecord
  2
BYBLOCK
 70
0
  3

 72
65
 73
0
 40
0.0
  0
LTYPE
  5
15
100
AcDbSymbolTableRecord
100
AcDbLinetypeTableRecord
  2
BYLAYER
 70
0
  3

 72
65
 73
0
 40
0.0
  0
LTYPE
  5
16
100
AcDbSymbolTableRecord
100
AcDbLinetypeTableRecord
  2
CONTINUOUS
 70
64
  3
Solid line
 72
65
 73
0
 40
0.0
  0
LTYPE
  5
1F5
100
AcDbSymbolTableRecord
100
AcDbLinetypeTableRecord
  2
CENTER
 70
64
  3
____ _ ____ _ ____ _ ____ _ ____ _ ____ _ ____
 72
65
 73
4
 40
0.6
 49
0.375
 74
0
 49
-0.075
 74
0
 49
0.075
 74
0
 49
-0.075
 74
0
  0
LTYPE
  5
1F6
100
AcDbSymbolTableRecord
100
AcDbLinetypeTableRecord
  2
HIDDEN
 70
64
  3
- - - - - - - - - - - - - - - - - - - -
 72
65
 73
2
 40
0.2
 49
0.1
 74
0
 49
-0.1
 74
0
  0
LTYPE
  5
1F7
100
AcDbSymbolTableRecord
100
AcDbLinetypeTableRecord
  2
PHANTOM
 70
64
  3
_____ _ _ _____ _ _ _____ _ _ _____
 72
65
 73
6
 40
0.8
 49
0.45
 74
0
 49
-0.05
 74
0
 49
0.1
 74
0
 49
-0.05
 74
0
 49
0.1
 74
0
 49
-0.05
 74
0
  0
LTYPE
  5
1F8
100
AcDbSymbolTableRecord
100
AcDbLinetypeTableRecord
  2
DOT
 70
64
  3
. . . . . . . . . . . . . . . . . . . .
 72
65
 73
2
 40
0.2
 49
0.1
 74
0
 49
-0.1
 74
0
  0
LTYPE
  5
1F9
100
AcDbSymbolTableRecord
100
AcDbLinetypeTableRecord
  2
DASHED
 70
64
  3
- - - - - - - - - - - - - - - - - - - -
 72
65
 73
2
 40
0.2
 49
0.1
 74
0
 49
-0.1
 74
0
  0
ENDTAB
  0
TABLE
  2
LAYER
  5
2
100
AcDbSymbolTable
 70
36
  0
LAYER
  5
10
100
AcDbSymbolTableRecord
100
AcDbLayerTableRecord
  2
0
 70
0
 62
7
  6
CONTINUOUS
370
-3
390
F
  0
LAYER
  5
1FA
100
AcDbSymbolTableRecord
100
AcDbLayerTableRecord
  2
DEFAULT_1
 70
0
 62
7
  6
CENTER
370
-3
390
F
  0
LAYER
  5
1FB
100
AcDbSymbolTableRecord
100
AcDbLayerTableRecord
  2
DEFAULT_2
 70
0
 62
7
  6
HIDDEN
370
-3
390
F
  0
LAYER
  5
1FC
100
AcDbSymbolTableRecord
100
AcDbLayerTableRecord
  2
DEFAULT_3
 70
0
 62
7
  6
PHANTOM
370
-3
390
F
  0
LAYER
  5
1FD
100
AcDbSymbolTableRecord
100
AcDbLayerTableRecord
  2
00_COMPONENTS
 70
0
 62
7
  6
CONTINUOUS
370
-3
390
F
  0
LAYER
  5
1FE
100
AcDbSymbolTableRecord
100
AcDbLayerTableRecord
  2
01_1_DEFAULT_DATUMS
 70
0
 62
7
  6
CONTINUOUS
370
-3
390
F
  0
LAYER
  5
1FF
100
AcDbSymbolTableRecord
100
AcDbLayerTableRecord
  2
01_PLANES
 70
0
 62
7
  6
CONTINUOUS
370
-3
390
F
  0
LAYER
  5
200
100
AcDbSymbolTableRecord
100
AcDbLayerTableRecord
  2
02_COORD_SYS
 70
0
 62
7
  6
CONTINUOUS
370
-3
390
F
  0
LAYER
  5
201
100
AcDbSymbolTableRecord
100
AcDbLayerTableRecord
  2
03_AXES
 70
0
 62
7
  6
CONTINUOUS
370
-3
390
F
  0
LAYER
  5
202
100
AcDbSymbolTableRecord
100
AcDbLayerTableRecord
  2
04_POINTS
 70
0
 62
7
  6
CONTINUOUS
370
-3
390
F
  0
LAYER
  5
203
100
AcDbSymbolTableRecord
100
AcDbLayerTableRecord
  2
05_CURVES
 70
0
 62
7
  6
CONTINUOUS
370
-3
390
F
  0
LAYER
  5
204
100
AcDbSymbolTableRecord
100
AcDbLayerTableRecord
  2
06_SURFS
 70
0
 62
7
  6
CONTINUOUS
370
-3
390
F
  0
LAYER
  5
205
100
AcDbSymbolTableRecord
100
AcDbLayerTableRecord
  2
07_COSMETICS
 70
0
 62
7
  6
CONTINUOUS
370
-3
390
F
  0
LAYER
  5
206
100
AcDbSymbolTableRecord
100
AcDbLayerTableRecord
  2
10_NOTES
 70
0
 62
7
  6
CONTINUOUS
370
-3
390
F
  0
LAYER
  5
207
100
AcDbSymbolTableRecord
100
AcDbLayerTableRecord
  2
11_NOTES_PUB
 70
0
 62
7
  6
CONTINUOUS
370
-3
390
F
  0
LAYER
  5
208
100
AcDbSymbolTableRecord
100
AcDbLayerTableRecord
  2
13_REF_GTOL
 70
0
 62
7
  6
CONTINUOUS
370
-3
390
F
  0
LAYER
  5
209
100
AcDbSymbolTableRecord
100
AcDbLayerTableRecord
  2
16_MISC
 70
0
 62
7
  6
CONTINUOUS
370
-3
390
F
  0
LAYER
  5
20A
100
AcDbSymbolTableRecord
100
AcDbLayerTableRecord
  2
17_NO_PRINT
 70
0
 62
7
  6
CONTINUOUS
370
-3
390
F
  0
LAYER
  5
20B
100
AcDbSymbolTableRecord
100
AcDbLayerTableRecord
  2
18_DATUM_CAMS_JOINTS
 70
0
 62
7
  6
CONTINUOUS
370
-3
390
F
  0
LAYER
  5
20C
100
AcDbSymbolTableRecord
100
AcDbLayerTableRecord
  2
19_DATUM_FUNCTIONAL
 70
0
 62
7
  6
CONTINUOUS
370
-3
390
F
  0
LAYER
  5
20D
100
AcDbSymbolTableRecord
100
AcDbLayerTableRecord
  2
20_DATUM_KINEMATIC_SCHEME
 70
0
 62
7
  6
CONTINUOUS
370
-3
390
F
  0
ENDTAB
  0
TABLE
  2
STYLE
  5
3
100
AcDbSymbolTable
 70
1
  0
STYLE
  5
11
100
AcDbSymbolTableRecord
100
AcDbTextStyleTableRecord
  2
STANDARD
 70
0
 40
0.0
 41
1.0
 50
0.0
 71
0
 42
0.2
  3
ARIAL.TTF
  4

  0
STYLE
  5
20E
100
AcDbSymbolTableRecord
100
AcDbTextStyleTableRecord
  2
TEXTSTYLE_1
 70
0
 40
0.0
 41
0.8
 50
0.0
 71
0
 42
0.2
  3
gdt
  4

  0
ENDTAB
  0
TABLE
  2
VIEW
  5
6
100
AcDbSymbolTable
 70
0
  0
ENDTAB
  0
TABLE
  2
UCS
  5
7
100
AcDbSymbolTable
 70
0
  0
ENDTAB
  0
TABLE
  2
APPID
  5
9
100
AcDbSymbolTable
 70
1
  0
APPID
  5
20F
100
AcDbSymbolTableRecord
100
AcDbRegAppTableRecord
  2
ACAD
 70
0
  0
ENDTAB
  0
TABLE
  2
BLOCK_RECORD
  5
1
100
AcDbSymbolTable
 70
0
  0
BLOCK_RECORD
  5
210
100
AcDbSymbolTableRecord
100
AcDbBlockTableRecord
  2
*Model_Space
  0
BLOCK_RECORD
  5
211
100
AcDbSymbolTableRecord
100
AcDbBlockTableRecord
  2
*Paper_Space
  0
BLOCK_RECORD
  5
212
100
AcDbSymbolTableRecord
100
AcDbBlockTableRecord
  2
_FILLED
  0
ENDTAB
  0
TABLE
  2
DIMSTYLE
  5
A
100
AcDbSymbolTable
 70
1
100
AcDbDimStyleTable
 71
0
  0
DIMSTYLE
105
213
100
AcDbSymbolTableRecord
100
AcDbDimStyleTableRecord
  2
STANDARD
 70
0
  3

  4

 40
1.0
 41
1.2363504025
 42
1.0
 43
0.38
 44
1.0
 45
0.0
 46
0.0
 47
0.01
 48
0.01
140
1.7308905635
141
0.09
142
0.0
143
25.4
144
1.0
145
0.0
146
1.0
147
0.625
 71
1
 72
0
 73
0
 74
0
 75
0
 76
0
 77
1
 78
8
 79
2
170
0
171
1
172
0
173
0
174
0
175
0
176
0
177
0
178
0
270
2
179
2
271
2
272
2
273
2
274
2
275
0
280
0
281
0
282
0
283
1
284
8
285
0
286
0
287
3
288
0
340
11
278
46
341
212
342
212
343
212
344
212
  0
ENDTAB
  0
ENDSEC
  0
SECTION
  2
BLOCKS
  0
BLOCK
  5
20
100
AcDbEntity
  8
0
100
AcDbBlockBegin
  2
*Model_Space
 70
0
 10
0.0
 20
0.0
 30
0.0
  3
*Model_Space
  1

  0
ENDBLK
  5
21
100
AcDbEntity
  8
0
100
AcDbBlockEnd
  0
BLOCK
  5
1C
100
AcDbEntity
  8
0
100
AcDbBlockBegin
  2
*Paper_Space
 70
0
 10
0.0
 20
0.0
 30
0.0
  3
*Paper_Space
  1

  0
ENDBLK
  5
1D
100
AcDbEntity
  8
0
100
AcDbBlockEnd
  0
BLOCK
  5
214
100
AcDbEntity
  8
0
100
AcDbBlockBegin
  2
_FILLED
 70
64
 10
0.0
 20
0.0
  3
_FILLED
  1

  0
SOLID
  5
215
100
AcDbEntity
  8
0
  6
BYBLOCK
 62
0
100
AcDbTrace
 10
0.0
 20
0.0
 11
-1.0
 21
0.25
 12
-1.0
 22
-0.25
 13
-1.0
 23
-0.25
  0
ENDBLK
  5
216
100
AcDbEntity
  8
0
  6
BYBLOCK
 62
0
100
AcDbBlockEnd
  0
ENDSEC
  0
SECTION
  2
ENTITIES
  0
LINE
  5
217
100
AcDbEntity
  8
0
100
AcDbLine
 62
7
  6
BYLAYER
 10
36.7564946623
 20
10.8765543242
 11
67.3364946623
 21
10.8765543242
  0
LINE
  5
218
100
AcDbEntity
  8
0
100
AcDbLine
 62
7
  6
BYLAYER
 10
46.9164946623
 20
11.0765543242
 11
46.9664946623
 21
11.0765543242
  0
LINE
  5
219
100
AcDbEntity
  8
0
100
AcDbLine
 62
7
  6
BYLAYER
 10
57.1764946623
 20
12.1765543242
 11
57.1264946623
 21
12.1765543242
  0
LINE
  5
21A
100
AcDbEntity
  8
0
100
AcDbLine
 62
7
  6
BYLAYER
 10
46.9664946623
 20
12.1765543242
 11
46.9164946623
 21
12.1765543242
  0
LINE
  5
21B
100
AcDbEntity
  8
0
100
AcDbLine
 62
7
  6
BYLAYER
 10
67.3364946623
 20
12.4765543242
 11
57.1764946623
 21
12.4765543242
  0
LINE
  5
21C
100
AcDbEntity
  8
0
100
AcDbLine
 62
7
  6
BYLAYER
 10
57.1264946623
 20
12.4765543242
 11
46.9664946623
 21
12.4765543242
  0
LINE
  5
21D
100
AcDbEntity
  8
0
100
AcDbLine
 62
7
  6
BYLAYER
 10
46.9164946623
 20
12.4765543242
 11
36.7564946623
 21
12.4765543242
  0
LINE
  5
21E
100
AcDbEntity
  8
0
100
AcDbLine
 62
7
  6
BYLAYER
 10
46.9164946623
 20
12.6972560922
 11
46.9664946623
 21
12.6972560922
  0
LINE
  5
21F
100
AcDbEntity
  8
0
100
AcDbLine
 62
7
  6
BYLAYER
 10
57.1264946623
 20
12.6972560922
 11
57.1764946623
 21
12.6972560922
  0
LINE
  5
220
100
AcDbEntity
  8
0
100
AcDbLine
 62
7
  6
BYLAYER
 10
71.956494662
 20
13.2765543242
 11
67.3364946623
 21
13.2765543242
  0
LINE
  5
221
100
AcDbEntity
  8
0
100
AcDbLine
 62
7
  6
BYLAYER
 10
57.1764946623
 20
13.2765543242
 11
57.1264946623
 21
13.2765543242
  0
LINE
  5
222
100
AcDbEntity
  8
0
100
AcDbLine
 62
7
  6
BYLAYER
 10
46.9664946623
 20
13.2765543242
 11
46.9164946623
 21
13.2765543242
  0
LINE
  5
223
100
AcDbEntity
  8
0
100
AcDbLine
 62
7
  6
BYLAYER
 10
36.7564946623
 20
13.2765543242
 11
32.3564946623
 21
13.2765543242
  0
LINE
  5
224
100
AcDbEntity
  8
0
100
AcDbLine
 62
7
  6
BYLAYER
 10
32.3564946623
 20
13.3750466516
 11
35.7564946623
 21
13.3750466516
  0
LINE
  5
225
100
AcDbEntity
  8
0
100
AcDbLine
 62
7
  6
BYLAYER
 10
68.5564946622
 20
13.4242928154
 11
71.9564946621
 21
13.4242928154
  0
LINE
  5
226
100
AcDbEntity
  8
0
100
AcDbLine
 62
7
  6
BYLAYER
 10
35.9288204944
 20
13.4750409257
 11
68.3841688302
 21
13.4750409257
  0
LINE
  5
227
100
AcDbEntity
  8
0
100
AcDbLine
 62
7
  6
BYLAYER
 10
35.7564946623
 20
13.5735332531
 11
68.5564946623
 21
13.5735332531
  0
LINE
  5
228
100
AcDbEntity
  8
0
100
AcDbLine
 62
7
  6
BYLAYER
 10
68.3564946623
 20
17.7687809065
 11
35.9564946623
 21
17.7687809066
  0
LINE
  5
229
100
AcDbEntity
  8
0
100
AcDbLine
 62
7
  6
BYLAYER
 10
32.3564946623
 20
17.9943776775
 11
71.9564946623
 21
17.9943776775
  0
LINE
  5
22A
100
AcDbEntity
  8
0
100
AcDbLine
 62
7
  6
BYLAYER
 10
35.9564946623
 20
18.1579564526
 11
36.7564946623
 21
18.1579564526
  0
LINE
  5
22B
100
AcDbEntity
  8
0
100
AcDbLine
 62
7
  6
BYLAYER
 10
67.3364946623
 20
18.1579564526
 11
68.356494568
 21
18.1579564526
  0
LINE
  5
22C
100
AcDbEntity
  8
0
100
AcDbLine
 62
7
  6
BYLAYER
 10
68.356494568
 20
18.7765543242
 11
67.3364946623
 21
18.7765543242
  0
LINE
  5
22D
100
AcDbEntity
  8
0
100
AcDbLine
 62
7
  6
BYLAYER
 10
68.356494568
 20
19.0765543242
 11
67.3364946623
 21
19.0765543242
  0
LINE
  5
22E
100
AcDbEntity
  8
0
100
AcDbLine
 62
7
  6
BYLAYER
 10
66.8364946623
 20
20.6765543242
 11
62.8664946623
 21
20.6765543242
  0
LINE
  5
22F
100
AcDbEntity
  8
0
100
AcDbLine
 62
7
  6
BYLAYER
 10
61.6464946623
 20
20.6765543242
 11
57.6764946623
 21
20.6765543242
  0
LINE
  5
230
100
AcDbEntity
  8
0
100
AcDbLine
 62
7
  6
BYLAYER
 10
56.6264946623
 20
20.6765543242
 11
52.6564946623
 21
20.6765543242
  0
LINE
  5
231
100
AcDbEntity
  8
0
100
AcDbLine
 62
7
  6
BYLAYER
 10
51.4364946623
 20
20.6765543242
 11
47.4664946623
 21
20.6765543242
  0
LINE
  5
232
100
AcDbEntity
  8
0
100
AcDbLine
 62
7
  6
BYLAYER
 10
46.4164946623
 20
20.6765543242
 11
42.4464946623
 21
20.6765543242
  0
LINE
  5
233
100
AcDbEntity
  8
0
100
AcDbLine
 62
7
  6
BYLAYER
 10
41.2264946623
 20
20.6765543242
 11
37.2564946623
 21
20.6765543242
  0
LINE
  5
234
100
AcDbEntity
  8
0
100
AcDbLine
 62
7
  6
BYLAYER
 10
68.356494568
 20
21.2765543242
 11
67.3364946623
 21
21.2765543242
  0
LINE
  5
235
100
AcDbEntity
  8
0
100
AcDbLine
 62
7
  6
BYLAYER
 10
68.356494568
 20
21.5765543242
 11
67.3364946623
 21
21.5765543242
  0
LINE
  5
236
100
AcDbEntity
  8
0
100
AcDbLine
 62
7
  6
BYLAYER
 10
46.9164946623
 20
22.5765543242
 11
46.9664946623
 21
22.5765543242
  0
LINE
  5
237
100
AcDbEntity
  8
0
100
AcDbLine
 62
7
  6
BYLAYER
 10
57.1264946623
 20
22.5765543242
 11
57.1764946623
 21
22.5765543242
  0
LINE
  5
238
100
AcDbEntity
  8
0
100
AcDbLine
 62
7
  6
BYLAYER
 10
37.2564946623
 20
25.3765543242
 11
41.2264946623
 21
25.3765543242
  0
LINE
  5
239
100
AcDbEntity
  8
0
100
AcDbLine
 62
7
  6
BYLAYER
 10
42.4464946623
 20
25.3765543242
 11
46.4164946623
 21
25.3765543242
  0
LINE
  5
23A
100
AcDbEntity
  8
0
100
AcDbLine
 62
7
  6
BYLAYER
 10
47.4664946623
 20
25.3765543242
 11
51.4364946623
 21
25.3765543242
  0
LINE
  5
23B
100
AcDbEntity
  8
0
100
AcDbLine
 62
7
  6
BYLAYER
 10
52.6564946623
 20
25.3765543242
 11
56.6264946623
 21
25.3765543242
  0
LINE
  5
23C
100
AcDbEntity
  8
0
100
AcDbLine
 62
7
  6
BYLAYER
 10
57.6764946623
 20
25.3765543242
 11
61.6464946623
 21
25.3765543242
  0
LINE
  5
23D
100
AcDbEntity
  8
0
100
AcDbLine
 62
7
  6
BYLAYER
 10
62.8664946623
 20
25.3765543242
 11
66.8364946623
 21
25.3765543242
  0
LINE
  5
23E
100
AcDbEntity
  8
0
100
AcDbLine
 62
7
  6
BYLAYER
 10
40.5564946623
 20
117.7478728291
 11
38.1564946623
 21
116.362232183
  0
LINE
  5
23F
100
AcDbEntity
  8
0
100
AcDbLine
 62
7
  6
BYLAYER
 10
68.356494568
 20
27.8765543242
 11
35.9564946623
 21
27.8765543242
  0
LINE
  5
240
100
AcDbEntity
  8
0
100
AcDbLine
 62
7
  6
BYLAYER
 10
35.7564946623
 20
28.0765543242
 11
68.556494568
 21
28.0765543242
  0
LINE
  5
241
100
AcDbEntity
  8
0
100
AcDbLine
 62
7
  6
BYLAYER
 10
35.9564946623
 20
27.8765543242
 11
35.7564946623
 21
28.0765543242
  0
LINE
  5
242
100
AcDbEntity
  8
0
100
AcDbLine
 62
7
  6
BYLAYER
 10
46.3564946623
 20
117.7478728291
 11
43.9564946623
 21
116.362232183
  0
LINE
  5
243
100
AcDbEntity
  8
0
100
AcDbLine
 62
7
  6
BYLAYER
 10
37.6564946623
 20
112.724920171
 11
35.2564946623
 21
111.339279525
  0
LINE
  5
244
100
AcDbEntity
  8
0
100
AcDbLine
 62
7
  6
BYLAYER
 10
40.5564946623
 20
112.2053102448
 11
42.9564946623
 21
113.5909508909
  0
LINE
  5
245
100
AcDbEntity
  8
0
100
AcDbLine
 62
7
  6
BYLAYER
 10
52.1564946623
 20
117.7478728291
 11
49.7564946623
 21
116.362232183
  0
LINE
  5
246
100
AcDbEntity
  8
0
100
AcDbLine
 62
7
  6
BYLAYER
 10
43.4564946623
 20
112.724920171
 11
41.0564946623
 21
111.339279525
  0
LINE
  5
247
100
AcDbEntity
  8
0
100
AcDbLine
 62
7
  6
BYLAYER
 10
46.3564946623
 20
112.2053102448
 11
48.7564946623
 21
113.5909508909
  0
LINE
  5
248
100
AcDbEntity
  8
0
100
AcDbLine
 62
7
  6
BYLAYER
 10
37.6564946623
 20
107.1823575868
 11
40.0564946623
 21
108.5679982328
  0
LINE
  5
249
100
AcDbEntity
  8
0
100
AcDbLine
 62
7
  6
BYLAYER
 10
57.9564946623
 20
117.7478728291
 11
55.5564946623
 21
116.362232183
  0
LINE
  5
24A
100
AcDbEntity
  8
0
100
AcDbLine
 62
7
  6
BYLAYER
 10
49.2564946623
 20
112.724920171
 11
46.8564946623
 21
111.339279525
  0
LINE
  5
24B
100
AcDbEntity
  8
0
100
AcDbLine
 62
7
  6
BYLAYER
 10
40.5564946623
 20
107.7019728291
 11
38.1564946623
 21
106.316332183
  0
LINE
  5
24C
100
AcDbEntity
  8
0
100
AcDbLine
 62
7
  6
BYLAYER
 10
52.1564946623
 20
112.2053102448
 11
54.5564946623
 21
113.5909508909
  0
LINE
  5
24D
100
AcDbEntity
  8
0
100
AcDbLine
 62
7
  6
BYLAYER
 10
43.4564946623
 20
107.1823575868
 11
45.8564946623
 21
108.5679982328
  0
LINE
  5
24E
100
AcDbEntity
  8
0
100
AcDbLine
 62
7
  6
BYLAYER
 10
63.7564946623
 20
117.7478728291
 11
61.3564946623
 21
116.362232183
  0
LINE
  5
24F
100
AcDbEntity
  8
0
100
AcDbLine
 62
7
  6
BYLAYER
 10
55.0564946623
 20
112.724920171
 11
52.6564946623
 21
111.339279525
  0
LINE
  5
250
100
AcDbEntity
  8
0
100
AcDbLine
 62
7
  6
BYLAYER
 10
46.3564946623
 20
107.7019728291
 11
43.9564946623
 21
106.316332183
  0
LINE
  5
251
100
AcDbEntity
  8
0
100
AcDbLine
 62
7
  6
BYLAYER
 10
37.6564946623
 20
102.679020171
 11
35.2564946623
 21
101.293379525
  0
LINE
  5
252
100
AcDbEntity
  8
0
100
AcDbLine
 62
7
  6
BYLAYER
 10
57.9564946623
 20
112.2053102448
 11
60.3564946623
 21
113.5909508909
  0
LINE
  5
253
100
AcDbEntity
  8
0
100
AcDbLine
 62
7
  6
BYLAYER
 10
40.5564946623
 20
102.1594102448
 11
42.9564946623
 21
103.5450508909
  0
LINE
  5
254
100
AcDbEntity
  8
0
100
AcDbLine
 62
7
  6
BYLAYER
 10
49.2564946623
 20
107.1823575868
 11
51.6564946623
 21
108.5679982328
  0
LINE
  5
255
100
AcDbEntity
  8
0
100
AcDbLine
 62
7
  6
BYLAYER
 10
38.1564946623
 20
43.2696508909
 11
40.5564946623
 21
41.8840102448
  0
LINE
  5
256
100
AcDbEntity
  8
0
100
AcDbLine
 62
7
  6
BYLAYER
 10
35.2564946623
 20
48.2925982328
 11
37.6564946623
 21
46.9069575868
  0
LINE
  5
257
100
AcDbEntity
  8
0
100
AcDbLine
 62
7
  6
BYLAYER
 10
43.9564946623
 20
43.2696508909
 11
46.3564946623
 21
41.8840102448
  0
LINE
  5
258
100
AcDbEntity
  8
0
100
AcDbLine
 62
7
  6
BYLAYER
 10
60.8564946623
 20
112.724920171
 11
58.4564946623
 21
111.339279525
  0
LINE
  5
259
100
AcDbEntity
  8
0
100
AcDbLine
 62
7
  6
BYLAYER
 10
52.1564946623
 20
107.7019728291
 11
49.7564946623
 21
106.316332183
  0
LINE
  5
25A
100
AcDbEntity
  8
0
100
AcDbLine
 62
7
  6
BYLAYER
 10
43.4564946623
 20
102.679020171
 11
41.0564946623
 21
101.293379525
  0
LINE
  5
25B
100
AcDbEntity
  8
0
100
AcDbLine
 62
7
  6
BYLAYER
 10
63.7564946623
 20
112.2053102448
 11
66.1564946623
 21
113.5909508909
  0
LINE
  5
25C
100
AcDbEntity
  8
0
100
AcDbLine
 62
7
  6
BYLAYER
 10
46.3564946623
 20
102.1594102448
 11
48.7564946623
 21
103.5450508909
  0
LINE
  5
25D
100
AcDbEntity
  8
0
100
AcDbLine
 62
7
  6
BYLAYER
 10
55.0564946623
 20
107.1823575868
 11
57.4564946623
 21
108.5679982328
  0
LINE
  5
25E
100
AcDbEntity
  8
0
100
AcDbLine
 62
7
  6
BYLAYER
 10
37.6564946623
 20
97.1364575868
 11
40.0564946623
 21
98.5220982328
  0
LINE
  5
25F
100
AcDbEntity
  8
0
100
AcDbLine
 62
7
  6
BYLAYER
 10
66.6564946623
 20
112.724920171
 11
64.2564946623
 21
111.339279525
  0
LINE
  5
260
100
AcDbEntity
  8
0
100
AcDbLine
 62
7
  6
BYLAYER
 10
57.9564946623
 20
107.7019728291
 11
55.5564946623
 21
106.316332183
  0
LINE
  5
261
100
AcDbEntity
  8
0
100
AcDbLine
 62
7
  6
BYLAYER
 10
49.2564946623
 20
102.679020171
 11
46.8564946623
 21
101.293379525
  0
LINE
  5
262
100
AcDbEntity
  8
0
100
AcDbLine
 62
7
  6
BYLAYER
 10
40.5564946623
 20
97.6560728291
 11
38.1564946623
 21
96.270432183
  0
LINE
  5
263
100
AcDbEntity
  8
0
100
AcDbLine
 62
7
  6
BYLAYER
 10
42.9564946623
 20
46.040932183
 11
40.5564946623
 21
47.4265728291
  0
LINE
  5
264
100
AcDbEntity
  8
0
100
AcDbLine
 62
7
  6
BYLAYER
 10
41.0564946623
 20
48.2925982328
 11
43.4564946623
 21
46.9069575868
  0
LINE
  5
265
100
AcDbEntity
  8
0
100
AcDbLine
 62
7
  6
BYLAYER
 10
49.7564946623
 20
43.2696508909
 11
52.1564946623
 21
41.8840102448
  0
LINE
  5
266
100
AcDbEntity
  8
0
100
AcDbLine
 62
7
  6
BYLAYER
 10
52.1564946623
 20
102.1594102448
 11
54.5564946623
 21
103.5450508909
  0
LINE
  5
267
100
AcDbEntity
  8
0
100
AcDbLine
 62
7
  6
BYLAYER
 10
60.8564946623
 20
107.1823575868
 11
63.2564946623
 21
108.5679982328
  0
LINE
  5
268
100
AcDbEntity
  8
0
100
AcDbLine
 62
7
  6
BYLAYER
 10
43.4564946623
 20
97.1364575868
 11
45.8564946623
 21
98.5220982328
  0
LINE
  5
269
100
AcDbEntity
  8
0
100
AcDbLine
 62
7
  6
BYLAYER
 10
63.7564946623
 20
107.7019728291
 11
61.3564946623
 21
106.316332183
  0
LINE
  5
26A
100
AcDbEntity
  8
0
100
AcDbLine
 62
7
  6
BYLAYER
 10
55.0564946623
 20
102.679020171
 11
52.6564946623
 21
101.293379525
  0
LINE
  5
26B
100
AcDbEntity
  8
0
100
AcDbLine
 62
7
  6
BYLAYER
 10
46.3564946623
 20
97.6560728291
 11
43.9564946623
 21
96.270432183
  0
LINE
  5
26C
100
AcDbEntity
  8
0
100
AcDbLine
 62
7
  6
BYLAYER
 10
37.6564946623
 20
92.633120171
 11
35.2564946623
 21
91.247479525
  0
LINE
  5
26D
100
AcDbEntity
  8
0
100
AcDbLine
 62
7
  6
BYLAYER
 10
57.9564946623
 20
102.1594102448
 11
60.3564946623
 21
103.5450508909
  0
LINE
  5
26E
100
AcDbEntity
  8
0
100
AcDbLine
 62
7
  6
BYLAYER
 10
66.6564946623
 20
107.1823575868
 11
69.0564946623
 21
108.5679982328
  0
LINE
  5
26F
100
AcDbEntity
  8
0
100
AcDbLine
 62
7
  6
BYLAYER
 10
40.5564946623
 20
92.1135102448
 11
42.9564946623
 21
93.4991508909
  0
LINE
  5
270
100
AcDbEntity
  8
0
100
AcDbLine
 62
7
  6
BYLAYER
 10
49.2564946623
 20
97.1364575868
 11
51.6564946623
 21
98.5220982328
  0
LINE
  5
271
100
AcDbEntity
  8
0
100
AcDbLine
 62
7
  6
BYLAYER
 10
32.1564946623
 20
51.9765543242
 11
32.0564946623
 21
51.9765543242
  0
LINE
  5
272
100
AcDbEntity
  8
0
100
AcDbLine
 62
7
  6
BYLAYER
 10
48.7564946623
 20
46.040932183
 11
46.3564946623
 21
47.4265728291
  0
LINE
  5
273
100
AcDbEntity
  8
0
100
AcDbLine
 62
7
  6
BYLAYER
 10
40.0564946623
 20
51.063879525
 11
37.6564946623
 21
52.449520171
  0
LINE
  5
274
100
AcDbEntity
  8
0
100
AcDbLine
 62
7
  6
BYLAYER
 10
46.8564946623
 20
48.2925982328
 11
49.2564946623
 21
46.9069575868
  0
LINE
  5
275
100
AcDbEntity
  8
0
100
AcDbLine
 62
7
  6
BYLAYER
 10
55.5564946623
 20
43.2696508909
 11
57.9564946623
 21
41.8840102448
  0
LINE
  5
276
100
AcDbEntity
  8
0
100
AcDbLine
 62
7
  6
BYLAYER
 10
38.1564946623
 20
53.3155508909
 11
40.5564946623
 21
51.9299102448
  0
LINE
  5
277
100
AcDbEntity
  8
0
100
AcDbLine
 62
7
  6
BYLAYER
 10
54.5564946623
 20
46.040932183
 11
52.1564946623
 21
47.4265728291
  0
LINE
  5
278
100
AcDbEntity
  8
0
100
AcDbLine
 62
7
  6
BYLAYER
 10
45.8564946623
 20
51.063879525
 11
43.4564946623
 21
52.449520171
  0
LINE
  5
279
100
AcDbEntity
  8
0
100
AcDbLine
 62
7
  6
BYLAYER
 10
52.6564946623
 20
48.2925982328
 11
55.0564946623
 21
46.9069575868
  0
LINE
  5
27A
100
AcDbEntity
  8
0
100
AcDbLine
 62
7
  6
BYLAYER
 10
61.3564946623
 20
43.2696508909
 11
63.7564946623
 21
41.8840102448
  0
LINE
  5
27B
100
AcDbEntity
  8
0
100
AcDbLine
 62
7
  6
BYLAYER
 10
35.2564946623
 20
58.3384982328
 11
37.6564946623
 21
56.9528575868
  0
LINE
  5
27C
100
AcDbEntity
  8
0
100
AcDbLine
 62
7
  6
BYLAYER
 10
43.9564946623
 20
53.3155508909
 11
46.3564946623
 21
51.9299102448
  0
LINE
  5
27D
100
AcDbEntity
  8
0
100
AcDbLine
 62
7
  6
BYLAYER
 10
32.0564946623
 20
51.9765543242
 11
32.0564946623
 21
111.9765543242
  0
LINE
  5
27E
100
AcDbEntity
  8
0
100
AcDbLine
 62
7
  6
BYLAYER
 10
32.1564946623
 20
13.4765543242
 11
32.1564946623
 21
126.0356898039
  0
LINE
  5
27F
100
AcDbEntity
  8
0
100
AcDbLine
 62
7
  6
BYLAYER
 10
32.3564946623
 20
126.035689804
 11
32.3564946623
 21
13.2765543242
  0
LINE
  5
280
100
AcDbEntity
  8
0
100
AcDbLine
 62
7
  6
BYLAYER
 10
33.6564946623
 20
128.4765543242
 11
33.6564946623
 21
135.5765543242
  0
LINE
  5
281
100
AcDbEntity
  8
0
100
AcDbLine
 62
7
  6
BYLAYER
 10
33.9064946623
 20
129.2405689526
 11
33.9064946623
 21
128.4765543242
  0
LINE
  5
282
100
AcDbEntity
  8
0
100
AcDbLine
 62
7
  6
BYLAYER
 10
34.2564946623
 20
128.135689804
 11
34.2564946623
 21
127.935689804
  0
LINE
  5
283
100
AcDbEntity
  8
0
100
AcDbLine
 62
7
  6
BYLAYER
 10
34.6564946623
 20
128.4765543242
 11
34.6564946623
 21
128.3765543242
  0
LINE
  5
284
100
AcDbEntity
  8
0
100
AcDbLine
 62
7
  6
BYLAYER
 10
40.6139352524
 20
130.0765543242
 11
40.8719089096
 21
131.5395956361
  0
LINE
  5
285
100
AcDbEntity
  8
0
100
AcDbLine
 62
7
  6
BYLAYER
 10
42.2386178314
 20
130.0765543242
 11
42.4476013144
 21
131.2617585518
  0
LINE
  5
286
100
AcDbEntity
  8
0
100
AcDbLine
 62
7
  6
BYLAYER
 10
60.8564946623
 20
102.679020171
 11
58.4564946623
 21
101.293379525
  0
LINE
  5
287
100
AcDbEntity
  8
0
100
AcDbLine
 62
7
  6
BYLAYER
 10
52.1564946623
 20
97.6560728291
 11
49.7564946623
 21
96.270432183
  0
LINE
  5
288
100
AcDbEntity
  8
0
100
AcDbLine
 62
7
  6
BYLAYER
 10
43.4564946623
 20
92.633120171
 11
41.0564946623
 21
91.247479525
  0
LINE
  5
289
100
AcDbEntity
  8
0
100
AcDbLine
 62
7
  6
BYLAYER
 10
63.7564946623
 20
102.1594102448
 11
66.1564946623
 21
103.5450508909
  0
LINE
  5
28A
100
AcDbEntity
  8
0
100
AcDbLine
 62
7
  6
BYLAYER
 10
46.3564946623
 20
92.1135102448
 11
48.7564946623
 21
93.4991508909
  0
LINE
  5
28B
100
AcDbEntity
  8
0
100
AcDbLine
 62
7
  6
BYLAYER
 10
55.0564946623
 20
97.1364575868
 11
57.4564946623
 21
98.5220982328
  0
LINE
  5
28C
100
AcDbEntity
  8
0
100
AcDbLine
 62
7
  6
BYLAYER
 10
37.6564946623
 20
87.0905575868
 11
40.0564946623
 21
88.4761982328
  0
LINE
  5
28D
100
AcDbEntity
  8
0
100
AcDbLine
 62
7
  6
BYLAYER
 10
66.6564946623
 20
102.679020171
 11
64.2564946623
 21
101.293379525
  0
LINE
  5
28E
100
AcDbEntity
  8
0
100
AcDbLine
 62
7
  6
BYLAYER
 10
57.9564946623
 20
97.6560728291
 11
55.5564946623
 21
96.270432183
  0
LINE
  5
28F
100
AcDbEntity
  8
0
100
AcDbLine
 62
7
  6
BYLAYER
 10
49.2564946623
 20
92.633120171
 11
46.8564946623
 21
91.247479525
  0
LINE
  5
290
100
AcDbEntity
  8
0
100
AcDbLine
 62
7
  6
BYLAYER
 10
40.5564946623
 20
87.6101728291
 11
38.1564946623
 21
86.224532183
  0
LINE
  5
291
100
AcDbEntity
  8
0
100
AcDbLine
 62
7
  6
BYLAYER
 10
32.0564946623
 20
52.9765543242
 11
32.1564946623
 21
52.9765543242
  0
LINE
  5
292
100
AcDbEntity
  8
0
100
AcDbLine
 62
7
  6
BYLAYER
 10
60.3564946623
 20
46.040932183
 11
57.9564946623
 21
47.4265728291
  0
LINE
  5
293
100
AcDbEntity
  8
0
100
AcDbLine
 62
7
  6
BYLAYER
 10
51.6564946623
 20
51.063879525
 11
49.2564946623
 21
52.449520171
  0
LINE
  5
294
100
AcDbEntity
  8
0
100
AcDbLine
 62
7
  6
BYLAYER
 10
42.9564946623
 20
56.086832183
 11
40.5564946623
 21
57.4724728291
  0
LINE
  5
295
100
AcDbEntity
  8
0
100
AcDbLine
 62
7
  6
BYLAYER
 10
58.4564946623
 20
48.2925982328
 11
60.8564946623
 21
46.9069575868
  0
LINE
  5
296
100
AcDbEntity
  8
0
100
AcDbLine
 62
7
  6
BYLAYER
 10
41.0564946623
 20
58.3384982328
 11
43.4564946623
 21
56.9528575868
  0
LINE
  5
297
100
AcDbEntity
  8
0
100
AcDbLine
 62
7
  6
BYLAYER
 10
49.7564946623
 20
53.3155508909
 11
52.1564946623
 21
51.9299102448
  0
LINE
  5
298
100
AcDbEntity
  8
0
100
AcDbLine
 62
7
  6
BYLAYER
 10
35.2564946623
 20
111.339279525
 11
35.2564946623
 21
108.5679982328
  0
LINE
  5
299
100
AcDbEntity
  8
0
100
AcDbLine
 62
7
  6
BYLAYER
 10
35.2564946623
 20
101.293379525
 11
35.2564946623
 21
98.5220982328
  0
LINE
  5
29A
100
AcDbEntity
  8
0
100
AcDbLine
 62
7
  6
BYLAYER
 10
35.2564946623
 20
91.247479525
 11
35.2564946623
 21
88.4761982328
  0
LINE
  5
29B
100
AcDbEntity
  8
0
100
AcDbLine
 62
7
  6
BYLAYER
 10
35.2564946623
 20
81.201579525
 11
35.2564946623
 21
78.4302982328
  0
LINE
  5
29C
100
AcDbEntity
  8
0
100
AcDbLine
 62
7
  6
BYLAYER
 10
35.2564946623
 20
71.155679525
 11
35.2564946623
 21
68.3843982328
  0
LINE
  5
29D
100
AcDbEntity
  8
0
100
AcDbLine
 62
7
  6
BYLAYER
 10
35.2564946623
 20
61.109779525
 11
35.2564946623
 21
58.3384982328
  0
LINE
  5
29E
100
AcDbEntity
  8
0
100
AcDbLine
 62
7
  6
BYLAYER
 10
35.2564946623
 20
51.063879525
 11
35.2564946623
 21
48.2925982328
  0
LINE
  5
29F
100
AcDbEntity
  8
0
100
AcDbLine
 62
7
  6
BYLAYER
 10
35.2564946623
 20
130.0765543242
 11
35.2564946623
 21
135.5765543242
  0
LINE
  5
2A0
100
AcDbEntity
  8
0
100
AcDbLine
 62
7
  6
BYLAYER
 10
35.7564946623
 20
13.2765543242
 11
35.7564946623
 21
13.5735332531
  0
LINE
  5
2A1
100
AcDbEntity
  8
0
100
AcDbLine
 62
7
  6
BYLAYER
 10
35.7564946623
 20
17.9943776775
 11
35.7564946623
 21
28.0765543242
  0
LINE
  5
2A2
100
AcDbEntity
  8
0
100
AcDbLine
 62
7
  6
BYLAYER
 10
35.9564946623
 20
17.7687809065
 11
35.9564946623
 21
27.8765543242
  0
LINE
  5
2A3
100
AcDbEntity
  8
0
100
AcDbLine
 62
7
  6
BYLAYER
 10
36.7564946623
 20
27.8765543242
 11
36.7564946623
 21
17.9943776775
  0
LINE
  5
2A4
100
AcDbEntity
  8
0
100
AcDbLine
 62
7
  6
BYLAYER
 10
36.7564946623
 20
10.8765543242
 11
36.7564946623
 21
13.4750409257
  0
LINE
  5
2A5
100
AcDbEntity
  8
0
100
AcDbLine
 62
7
  6
BYLAYER
 10
37.2564946623
 20
20.6765543242
 11
37.2564946623
 21
25.3765543242
  0
LINE
  5
2A6
100
AcDbEntity
  8
0
100
AcDbLine
 62
7
  6
BYLAYER
 10
38.1564946623
 20
116.362232183
 11
38.1564946623
 21
113.5909508909
  0
LINE
  5
2A7
100
AcDbEntity
  8
0
100
AcDbLine
 62
7
  6
BYLAYER
 10
38.1564946623
 20
106.316332183
 11
38.1564946623
 21
103.5450508909
  0
LINE
  5
2A8
100
AcDbEntity
  8
0
100
AcDbLine
 62
7
  6
BYLAYER
 10
38.1564946623
 20
96.270432183
 11
38.1564946623
 21
93.4991508909
  0
LINE
  5
2A9
100
AcDbEntity
  8
0
100
AcDbLine
 62
7
  6
BYLAYER
 10
38.1564946623
 20
86.224532183
 11
38.1564946623
 21
83.4532508909
  0
LINE
  5
2AA
100
AcDbEntity
  8
0
100
AcDbLine
 62
7
  6
BYLAYER
 10
38.1564946623
 20
76.178632183
 11
38.1564946623
 21
73.4073508909
  0
LINE
  5
2AB
100
AcDbEntity
  8
0
100
AcDbLine
 62
7
  6
BYLAYER
 10
38.1564946623
 20
66.132732183
 11
38.1564946623
 21
63.3614508909
  0
LINE
  5
2AC
100
AcDbEntity
  8
0
100
AcDbLine
 62
7
  6
BYLAYER
 10
38.1564946623
 20
56.086832183
 11
38.1564946623
 21
53.3155508909
  0
LINE
  5
2AD
100
AcDbEntity
  8
0
100
AcDbLine
 62
7
  6
BYLAYER
 10
38.1564946623
 20
46.040932183
 11
38.1564946623
 21
43.2696508909
  0
LINE
  5
2AE
100
AcDbEntity
  8
0
100
AcDbLine
 62
7
  6
BYLAYER
 10
52.1564946623
 20
92.1135102448
 11
54.5564946623
 21
93.4991508909
  0
LINE
  5
2AF
100
AcDbEntity
  8
0
100
AcDbLine
 62
7
  6
BYLAYER
 10
60.8564946623
 20
97.1364575868
 11
63.2564946623
 21
98.5220982328
  0
LINE
  5
2B0
100
AcDbEntity
  8
0
100
AcDbLine
 62
7
  6
BYLAYER
 10
43.4564946623
 20
87.0905575868
 11
45.8564946623
 21
88.4761982328
  0
LINE
  5
2B1
100
AcDbEntity
  8
0
100
AcDbLine
 62
7
  6
BYLAYER
 10
63.7564946623
 20
97.6560728291
 11
61.3564946623
 21
96.270432183
  0
LINE
  5
2B2
100
AcDbEntity
  8
0
100
AcDbLine
 62
7
  6
BYLAYER
 10
55.0564946623
 20
92.633120171
 11
52.6564946623
 21
91.247479525
  0
LINE
  5
2B3
100
AcDbEntity
  8
0
100
AcDbLine
 62
7
  6
BYLAYER
 10
46.3564946623
 20
87.6101728291
 11
43.9564946623
 21
86.224532183
  0
LINE
  5
2B4
100
AcDbEntity
  8
0
100
AcDbLine
 62
7
  6
BYLAYER
 10
37.6564946623
 20
82.587220171
 11
35.2564946623
 21
81.201579525
  0
LINE
  5
2B5
100
AcDbEntity
  8
0
100
AcDbLine
 62
7
  6
BYLAYER
 10
57.9564946623
 20
92.1135102448
 11
60.3564946623
 21
93.4991508909
  0
LINE
  5
2B6
100
AcDbEntity
  8
0
100
AcDbLine
 62
7
  6
BYLAYER
 10
66.6564946623
 20
97.1364575868
 11
69.0564946623
 21
98.5220982328
  0
LINE
  5
2B7
100
AcDbEntity
  8
0
100
AcDbLine
 62
7
  6
BYLAYER
 10
40.5564946623
 20
82.0676102448
 11
42.9564946623
 21
83.4532508909
  0
LINE
  5
2B8
100
AcDbEntity
  8
0
100
AcDbLine
 62
7
  6
BYLAYER
 10
49.2564946623
 20
87.0905575868
 11
51.6564946623
 21
88.4761982328
  0
LINE
  5
2B9
100
AcDbEntity
  8
0
100
AcDbLine
 62
7
  6
BYLAYER
 10
66.1564946623
 20
46.040932183
 11
63.7564946623
 21
47.4265728291
  0
LINE
  5
2BA
100
AcDbEntity
  8
0
100
AcDbLine
 62
7
  6
BYLAYER
 10
57.4564946623
 20
51.063879525
 11
55.0564946623
 21
52.449520171
  0
LINE
  5
2BB
100
AcDbEntity
  8
0
100
AcDbLine
 62
7
  6
BYLAYER
 10
48.7564946623
 20
56.086832183
 11
46.3564946623
 21
57.4724728291
  0
LINE
  5
2BC
100
AcDbEntity
  8
0
100
AcDbLine
 62
7
  6
BYLAYER
 10
40.0564946623
 20
61.109779525
 11
37.6564946623
 21
62.495420171
  0
LINE
  5
2BD
100
AcDbEntity
  8
0
100
AcDbLine
 62
7
  6
BYLAYER
 10
64.2564946623
 20
48.2925982328
 11
66.6564946623
 21
46.9069575868
  0
LINE
  5
2BE
100
AcDbEntity
  8
0
100
AcDbLine
 62
7
  6
BYLAYER
 10
46.8564946623
 20
58.3384982328
 11
49.2564946623
 21
56.9528575868
  0
LINE
  5
2BF
100
AcDbEntity
  8
0
100
AcDbLine
 62
7
  6
BYLAYER
 10
55.5564946623
 20
53.3155508909
 11
57.9564946623
 21
51.9299102448
  0
LINE
  5
2C0
100
AcDbEntity
  8
0
100
AcDbLine
 62
7
  6
BYLAYER
 10
38.1564946623
 20
63.3614508909
 11
40.5564946623
 21
61.9758102448
  0
LINE
  5
2C1
100
AcDbEntity
  8
0
100
AcDbLine
 62
7
  6
BYLAYER
 10
63.2564946623
 20
51.063879525
 11
60.8564946623
 21
52.449520171
  0
LINE
  5
2C2
100
AcDbEntity
  8
0
100
AcDbLine
 62
7
  6
BYLAYER
 10
54.5564946623
 20
56.086832183
 11
52.1564946623
 21
57.4724728291
  0
LINE
  5
2C3
100
AcDbEntity
  8
0
100
AcDbLine
 62
7
  6
BYLAYER
 10
45.8564946623
 20
61.109779525
 11
43.4564946623
 21
62.495420171
  0
LINE
  5
2C4
100
AcDbEntity
  8
0
100
AcDbLine
 62
7
  6
BYLAYER
 10
52.6564946623
 20
58.3384982328
 11
55.0564946623
 21
56.9528575868
  0
LINE
  5
2C5
100
AcDbEntity
  8
0
100
AcDbLine
 62
7
  6
BYLAYER
 10
61.3564946623
 20
53.3155508909
 11
63.7564946623
 21
51.9299102448
  0
LINE
  5
2C6
100
AcDbEntity
  8
0
100
AcDbLine
 62
7
  6
BYLAYER
 10
35.2564946623
 20
68.3843982328
 11
37.6564946623
 21
66.9987575868
  0
LINE
  5
2C7
100
AcDbEntity
  8
0
100
AcDbLine
 62
7
  6
BYLAYER
 10
43.9564946623
 20
63.3614508909
 11
46.3564946623
 21
61.9758102448
  0
LINE
  5
2C8
100
AcDbEntity
  8
0
100
AcDbLine
 62
7
  6
BYLAYER
 10
40.0564946623
 20
48.2925982328
 11
40.0564946623
 21
51.063879525
  0
LINE
  5
2C9
100
AcDbEntity
  8
0
100
AcDbLine
 62
7
  6
BYLAYER
 10
40.0564946623
 20
58.3384982328
 11
40.0564946623
 21
61.109779525
  0
LINE
  5
2CA
100
AcDbEntity
  8
0
100
AcDbLine
 62
7
  6
BYLAYER
 10
40.0564946623
 20
68.3843982328
 11
40.0564946623
 21
71.155679525
  0
LINE
  5
2CB
100
AcDbEntity
  8
0
100
AcDbLine
 62
7
  6
BYLAYER
 10
40.0564946623
 20
78.4302982328
 11
40.0564946623
 21
81.201579525
  0
LINE
  5
2CC
100
AcDbEntity
  8
0
100
AcDbLine
 62
7
  6
BYLAYER
 10
40.0564946623
 20
88.4761982328
 11
40.0564946623
 21
91.247479525
  0
LINE
  5
2CD
100
AcDbEntity
  8
0
100
AcDbLine
 62
7
  6
BYLAYER
 10
40.0564946623
 20
98.5220982328
 11
40.0564946623
 21
101.293379525
  0
LINE
  5
2CE
100
AcDbEntity
  8
0
100
AcDbLine
 62
7
  6
BYLAYER
 10
40.0564946623
 20
108.5679982328
 11
40.0564946623
 21
111.339279525
  0
LINE
  5
2CF
100
AcDbEntity
  8
0
100
AcDbLine
 62
7
  6
BYLAYER
 10
41.0564946623
 20
111.339279525
 11
41.0564946623
 21
108.5679982328
  0
LINE
  5
2D0
100
AcDbEntity
  8
0
100
AcDbLine
 62
7
  6
BYLAYER
 10
41.0564946623
 20
101.293379525
 11
41.0564946623
 21
98.5220982328
  0
LINE
  5
2D1
100
AcDbEntity
  8
0
100
AcDbLine
 62
7
  6
BYLAYER
 10
41.0564946623
 20
91.247479525
 11
41.0564946623
 21
88.4761982328
  0
LINE
  5
2D2
100
AcDbEntity
  8
0
100
AcDbLine
 62
7
  6
BYLAYER
 10
41.0564946623
 20
81.201579525
 11
41.0564946623
 21
78.4302982328
  0
LINE
  5
2D3
100
AcDbEntity
  8
0
100
AcDbLine
 62
7
  6
BYLAYER
 10
41.0564946623
 20
71.155679525
 11
41.0564946623
 21
68.3843982328
  0
LINE
  5
2D4
100
AcDbEntity
  8
0
100
AcDbLine
 62
7
  6
BYLAYER
 10
41.0564946623
 20
61.109779525
 11
41.0564946623
 21
58.3384982328
  0
LINE
  5
2D5
100
AcDbEntity
  8
0
100
AcDbLine
 62
7
  6
BYLAYER
 10
41.0564946623
 20
51.063879525
 11
41.0564946623
 21
48.2925982328
  0
LINE
  5
2D6
100
AcDbEntity
  8
0
100
AcDbLine
 62
7
  6
BYLAYER
 10
41.2264946623
 20
25.3765543242
 11
41.2264946623
 21
20.6765543242
  0
LINE
  5
2D7
100
AcDbEntity
  8
0
100
AcDbLine
 62
7
  6
BYLAYER
 10
42.4064946623
 20
131.0286311431
 11
42.4064946623
 21
130.0765543242
  0
LINE
  5
2D8
100
AcDbEntity
  8
0
100
AcDbLine
 62
7
  6
BYLAYER
 10
42.4464946623
 20
20.6765543242
 11
42.4464946623
 21
25.3765543242
  0
LINE
  5
2D9
100
AcDbEntity
  8
0
100
AcDbLine
 62
7
  6
BYLAYER
 10
42.6564946623
 20
130.0765543242
 11
42.6564946623
 21
131.0765543242
  0
LINE
  5
2DA
100
AcDbEntity
  8
0
100
AcDbLine
 62
7
  6
BYLAYER
 10
42.9564946623
 20
43.2696508909
 11
42.9564946623
 21
46.040932183
  0
LINE
  5
2DB
100
AcDbEntity
  8
0
100
AcDbLine
 62
7
  6
BYLAYER
 10
42.9564946623
 20
53.3155508909
 11
42.9564946623
 21
56.086832183
  0
LINE
  5
2DC
100
AcDbEntity
  8
0
100
AcDbLine
 62
7
  6
BYLAYER
 10
42.9564946623
 20
63.3614508909
 11
42.9564946623
 21
66.132732183
  0
LINE
  5
2DD
100
AcDbEntity
  8
0
100
AcDbLine
 62
7
  6
BYLAYER
 10
42.9564946623
 20
73.4073508909
 11
42.9564946623
 21
76.178632183
  0
LINE
  5
2DE
100
AcDbEntity
  8
0
100
AcDbLine
 62
7
  6
BYLAYER
 10
42.9564946623
 20
83.4532508909
 11
42.9564946623
 21
86.224532183
  0
LINE
  5
2DF
100
AcDbEntity
  8
0
100
AcDbLine
 62
7
  6
BYLAYER
 10
42.9564946623
 20
93.4991508909
 11
42.9564946623
 21
96.270432183
  0
LINE
  5
2E0
100
AcDbEntity
  8
0
100
AcDbLine
 62
7
  6
BYLAYER
 10
42.9564946623
 20
103.5450508909
 11
42.9564946623
 21
106.316332183
  0
LINE
  5
2E1
100
AcDbEntity
  8
0
100
AcDbLine
 62
7
  6
BYLAYER
 10
42.9564946623
 20
113.5909508909
 11
42.9564946623
 21
116.362232183
  0
LINE
  5
2E2
100
AcDbEntity
  8
0
100
AcDbLine
 62
7
  6
BYLAYER
 10
43.1564946623
 20
131.0765543242
 11
43.1564946623
 21
130.0765543242
  0
LINE
  5
2E3
100
AcDbEntity
  8
0
100
AcDbLine
 62
7
  6
BYLAYER
 10
60.8564946623
 20
92.633120171
 11
58.4564946623
 21
91.247479525
  0
LINE
  5
2E4
100
AcDbEntity
  8
0
100
AcDbLine
 62
7
  6
BYLAYER
 10
52.1564946623
 20
87.6101728291
 11
49.7564946623
 21
86.224532183
  0
LINE
  5
2E5
100
AcDbEntity
  8
0
100
AcDbLine
 62
7
  6
BYLAYER
 10
43.4564946623
 20
82.587220171
 11
41.0564946623
 21
81.201579525
  0
LINE
  5
2E6
100
AcDbEntity
  8
0
100
AcDbLine
 62
7
  6
BYLAYER
 10
63.7564946623
 20
92.1135102448
 11
66.1564946623
 21
93.4991508909
  0
LINE
  5
2E7
100
AcDbEntity
  8
0
100
AcDbLine
 62
7
  6
BYLAYER
 10
46.3564946623
 20
82.0676102448
 11
48.7564946623
 21
83.4532508909
  0
LINE
  5
2E8
100
AcDbEntity
  8
0
100
AcDbLine
 62
7
  6
BYLAYER
 10
55.0564946623
 20
87.0905575868
 11
57.4564946623
 21
88.4761982328
  0
LINE
  5
2E9
100
AcDbEntity
  8
0
100
AcDbLine
 62
7
  6
BYLAYER
 10
37.6564946623
 20
77.0446575868
 11
40.0564946623
 21
78.4302982328
  0
LINE
  5
2EA
100
AcDbEntity
  8
0
100
AcDbLine
 62
7
  6
BYLAYER
 10
66.6564946623
 20
92.633120171
 11
64.2564946623
 21
91.247479525
  0
LINE
  5
2EB
100
AcDbEntity
  8
0
100
AcDbLine
 62
7
  6
BYLAYER
 10
57.9564946623
 20
87.6101728291
 11
55.5564946623
 21
86.224532183
  0
LINE
  5
2EC
100
AcDbEntity
  8
0
100
AcDbLine
 62
7
  6
BYLAYER
 10
49.2564946623
 20
82.587220171
 11
46.8564946623
 21
81.201579525
  0
LINE
  5
2ED
100
AcDbEntity
  8
0
100
AcDbLine
 62
7
  6
BYLAYER
 10
40.5564946623
 20
77.5642728291
 11
38.1564946623
 21
76.178632183
  0
LINE
  5
2EE
100
AcDbEntity
  8
0
100
AcDbLine
 62
7
  6
BYLAYER
 10
69.0564946623
 20
51.063879525
 11
66.6564946623
 21
52.449520171
  0
LINE
  5
2EF
100
AcDbEntity
  8
0
100
AcDbLine
 62
7
  6
BYLAYER
 10
60.3564946623
 20
56.086832183
 11
57.9564946623
 21
57.4724728291
  0
LINE
  5
2F0
100
AcDbEntity
  8
0
100
AcDbLine
 62
7
  6
BYLAYER
 10
51.6564946623
 20
61.109779525
 11
49.2564946623
 21
62.495420171
  0
LINE
  5
2F1
100
AcDbEntity
  8
0
100
AcDbLine
 62
7
  6
BYLAYER
 10
42.9564946623
 20
66.132732183
 11
40.5564946623
 21
67.5183728291
  0
LINE
  5
2F2
100
AcDbEntity
  8
0
100
AcDbLine
 62
7
  6
BYLAYER
 10
58.4564946623
 20
58.3384982328
 11
60.8564946623
 21
56.9528575868
  0
LINE
  5
2F3
100
AcDbEntity
  8
0
100
AcDbLine
 62
7
  6
BYLAYER
 10
41.0564946623
 20
68.3843982328
 11
43.4564946623
 21
66.9987575868
  0
LINE
  5
2F4
100
AcDbEntity
  8
0
100
AcDbLine
 62
7
  6
BYLAYER
 10
49.7564946623
 20
63.3614508909
 11
52.1564946623
 21
61.9758102448
  0
LINE
  5
2F5
100
AcDbEntity
  8
0
100
AcDbLine
 62
7
  6
BYLAYER
 10
66.1564946623
 20
56.086832183
 11
63.7564946623
 21
57.4724728291
  0
LINE
  5
2F6
100
AcDbEntity
  8
0
100
AcDbLine
 62
7
  6
BYLAYER
 10
57.4564946623
 20
61.109779525
 11
55.0564946623
 21
62.495420171
  0
LINE
  5
2F7
100
AcDbEntity
  8
0
100
AcDbLine
 62
7
  6
BYLAYER
 10
48.7564946623
 20
66.132732183
 11
46.3564946623
 21
67.5183728291
  0
LINE
  5
2F8
100
AcDbEntity
  8
0
100
AcDbLine
 62
7
  6
BYLAYER
 10
40.0564946623
 20
71.155679525
 11
37.6564946623
 21
72.541320171
  0
LINE
  5
2F9
100
AcDbEntity
  8
0
100
AcDbLine
 62
7
  6
BYLAYER
 10
43.9564946623
 20
116.362232183
 11
43.9564946623
 21
113.5909508909
  0
LINE
  5
2FA
100
AcDbEntity
  8
0
100
AcDbLine
 62
7
  6
BYLAYER
 10
43.9564946623
 20
106.316332183
 11
43.9564946623
 21
103.5450508909
  0
LINE
  5
2FB
100
AcDbEntity
  8
0
100
AcDbLine
 62
7
  6
BYLAYER
 10
43.9564946623
 20
96.270432183
 11
43.9564946623
 21
93.4991508909
  0
LINE
  5
2FC
100
AcDbEntity
  8
0
100
AcDbLine
 62
7
  6
BYLAYER
 10
43.9564946623
 20
86.224532183
 11
43.9564946623
 21
83.4532508909
  0
LINE
  5
2FD
100
AcDbEntity
  8
0
100
AcDbLine
 62
7
  6
BYLAYER
 10
43.9564946623
 20
76.178632183
 11
43.9564946623
 21
73.4073508909
  0
LINE
  5
2FE
100
AcDbEntity
  8
0
100
AcDbLine
 62
7
  6
BYLAYER
 10
43.9564946623
 20
66.132732183
 11
43.9564946623
 21
63.3614508909
  0
LINE
  5
2FF
100
AcDbEntity
  8
0
100
AcDbLine
 62
7
  6
BYLAYER
 10
43.9564946623
 20
56.086832183
 11
43.9564946623
 21
53.3155508909
  0
LINE
  5
300
100
AcDbEntity
  8
0
100
AcDbLine
 62
7
  6
BYLAYER
 10
43.9564946623
 20
46.040932183
 11
43.9564946623
 21
43.2696508909
  0
LINE
  5
301
100
AcDbEntity
  8
0
100
AcDbLine
 62
7
  6
BYLAYER
 10
44.6564946623
 20
130.0765543242
 11
44.6564946623
 21
130.4765543242
  0
LINE
  5
302
100
AcDbEntity
  8
0
100
AcDbLine
 62
7
  6
BYLAYER
 10
44.9065102083
 20
131.2765543189
 11
44.9065102083
 21
132.8765543242
  0
LINE
  5
303
100
AcDbEntity
  8
0
100
AcDbLine
 62
7
  6
BYLAYER
 10
45.4065102083
 20
132.8765543242
 11
45.4065102083
 21
131.2765543242
  0
LINE
  5
304
100
AcDbEntity
  8
0
100
AcDbLine
 62
7
  6
BYLAYER
 10
45.6564946623
 20
130.4765543242
 11
45.6564946623
 21
136.0781969124
  0
LINE
  5
305
100
AcDbEntity
  8
0
100
AcDbLine
 62
7
  6
BYLAYER
 10
45.8564946623
 20
48.2925982328
 11
45.8564946623
 21
51.063879525
  0
LINE
  5
306
100
AcDbEntity
  8
0
100
AcDbLine
 62
7
  6
BYLAYER
 10
45.8564946623
 20
58.3384982328
 11
45.8564946623
 21
61.109779525
  0
LINE
  5
307
100
AcDbEntity
  8
0
100
AcDbLine
 62
7
  6
BYLAYER
 10
45.8564946623
 20
68.3843982328
 11
45.8564946623
 21
71.155679525
  0
LINE
  5
308
100
AcDbEntity
  8
0
100
AcDbLine
 62
7
  6
BYLAYER
 10
45.8564946623
 20
78.4302982328
 11
45.8564946623
 21
81.201579525
  0
LINE
  5
309
100
AcDbEntity
  8
0
100
AcDbLine
 62
7
  6
BYLAYER
 10
45.8564946623
 20
88.4761982328
 11
45.8564946623
 21
91.247479525
  0
LINE
  5
30A
100
AcDbEntity
  8
0
100
AcDbLine
 62
7
  6
BYLAYER
 10
45.8564946623
 20
98.5220982328
 11
45.8564946623
 21
101.293379525
  0
LINE
  5
30B
100
AcDbEntity
  8
0
100
AcDbLine
 62
7
  6
BYLAYER
 10
45.8564946623
 20
108.5679982328
 11
45.8564946623
 21
111.339279525
  0
LINE
  5
30C
100
AcDbEntity
  8
0
100
AcDbLine
 62
7
  6
BYLAYER
 10
46.1564946623
 20
128.535689804
 11
46.1564946623
 21
127.935689804
  0
LINE
  5
30D
100
AcDbEntity
  8
0
100
AcDbLine
 62
7
  6
BYLAYER
 10
46.4164946623
 20
25.3765543242
 11
46.4164946623
 21
20.6765543242
  0
LINE
  5
30E
100
AcDbEntity
  8
0
100
AcDbLine
 62
7
  6
BYLAYER
 10
46.6564946623
 20
130.0765543242
 11
46.6564946623
 21
130.4765543242
  0
LINE
  5
30F
100
AcDbEntity
  8
0
100
AcDbLine
 62
7
  6
BYLAYER
 10
46.8564946623
 20
111.339279525
 11
46.8564946623
 21
108.5679982328
  0
LINE
  5
310
100
AcDbEntity
  8
0
100
AcDbLine
 62
7
  6
BYLAYER
 10
46.8564946623
 20
101.293379525
 11
46.8564946623
 21
98.5220982328
  0
LINE
  5
311
100
AcDbEntity
  8
0
100
AcDbLine
 62
7
  6
BYLAYER
 10
46.8564946623
 20
91.247479525
 11
46.8564946623
 21
88.4761982328
  0
LINE
  5
312
100
AcDbEntity
  8
0
100
AcDbLine
 62
7
  6
BYLAYER
 10
46.8564946623
 20
81.201579525
 11
46.8564946623
 21
78.4302982328
  0
LINE
  5
313
100
AcDbEntity
  8
0
100
AcDbLine
 62
7
  6
BYLAYER
 10
46.8564946623
 20
71.155679525
 11
46.8564946623
 21
68.3843982328
  0
LINE
  5
314
100
AcDbEntity
  8
0
100
AcDbLine
 62
7
  6
BYLAYER
 10
46.8564946623
 20
61.109779525
 11
46.8564946623
 21
58.3384982328
  0
LINE
  5
315
100
AcDbEntity
  8
0
100
AcDbLine
 62
7
  6
BYLAYER
 10
46.8564946623
 20
51.063879525
 11
46.8564946623
 21
48.2925982328
  0
LINE
  5
316
100
AcDbEntity
  8
0
100
AcDbLine
 62
7
  6
BYLAYER
 10
46.9164946623
 20
27.8765543242
 11
46.9164946623
 21
17.9943776775
  0
LINE
  5
317
100
AcDbEntity
  8
0
100
AcDbLine
 62
7
  6
BYLAYER
 10
46.9164946623
 20
10.8765543242
 11
46.9164946623
 21
13.4750409257
  0
LINE
  5
318
100
AcDbEntity
  8
0
100
AcDbLine
 62
7
  6
BYLAYER
 10
46.9664946623
 20
27.8765543242
 11
46.9664946623
 21
17.9943776775
  0
LINE
  5
319
100
AcDbEntity
  8
0
100
AcDbLine
 62
7
  6
BYLAYER
 10
46.9664946623
 20
10.8765543242
 11
46.9664946623
 21
13.4750409257
  0
LINE
  5
31A
100
AcDbEntity
  8
0
100
AcDbLine
 62
7
  6
BYLAYER
 10
47.4664946623
 20
20.6765543242
 11
47.4664946623
 21
25.3765543242
  0
LINE
  5
31B
100
AcDbEntity
  8
0
100
AcDbLine
 62
7
  6
BYLAYER
 10
52.1564946623
 20
82.0676102448
 11
54.5564946623
 21
83.4532508909
  0
LINE
  5
31C
100
AcDbEntity
  8
0
100
AcDbLine
 62
7
  6
BYLAYER
 10
60.8564946623
 20
87.0905575868
 11
63.2564946623
 21
88.4761982328
  0
LINE
  5
31D
100
AcDbEntity
  8
0
100
AcDbLine
 62
7
  6
BYLAYER
 10
43.4564946623
 20
77.0446575868
 11
45.8564946623
 21
78.4302982328
  0
LINE
  5
31E
100
AcDbEntity
  8
0
100
AcDbLine
 62
7
  6
BYLAYER
 10
63.7564946623
 20
87.6101728291
 11
61.3564946623
 21
86.224532183
  0
LINE
  5
31F
100
AcDbEntity
  8
0
100
AcDbLine
 62
7
  6
BYLAYER
 10
55.0564946623
 20
82.587220171
 11
52.6564946623
 21
81.201579525
  0
LINE
  5
320
100
AcDbEntity
  8
0
100
AcDbLine
 62
7
  6
BYLAYER
 10
46.3564946623
 20
77.5642728291
 11
43.9564946623
 21
76.178632183
  0
LINE
  5
321
100
AcDbEntity
  8
0
100
AcDbLine
 62
7
  6
BYLAYER
 10
37.6564946623
 20
72.541320171
 11
35.2564946623
 21
71.155679525
  0
LINE
  5
322
100
AcDbEntity
  8
0
100
AcDbLine
 62
7
  6
BYLAYER
 10
57.9564946623
 20
82.0676102448
 11
60.3564946623
 21
83.4532508909
  0
LINE
  5
323
100
AcDbEntity
  8
0
100
AcDbLine
 62
7
  6
BYLAYER
 10
66.6564946623
 20
87.0905575868
 11
69.0564946623
 21
88.4761982328
  0
LINE
  5
324
100
AcDbEntity
  8
0
100
AcDbLine
 62
7
  6
BYLAYER
 10
40.5564946623
 20
72.0217102448
 11
42.9564946623
 21
73.4073508909
  0
LINE
  5
325
100
AcDbEntity
  8
0
100
AcDbLine
 62
7
  6
BYLAYER
 10
49.2564946623
 20
77.0446575868
 11
51.6564946623
 21
78.4302982328
  0
LINE
  5
326
100
AcDbEntity
  8
0
100
AcDbLine
 62
7
  6
BYLAYER
 10
64.2564946623
 20
58.3384982328
 11
66.6564946623
 21
56.9528575868
  0
LINE
  5
327
100
AcDbEntity
  8
0
100
AcDbLine
 62
7
  6
BYLAYER
 10
46.8564946623
 20
68.3843982328
 11
49.2564946623
 21
66.9987575868
  0
LINE
  5
328
100
AcDbEntity
  8
0
100
AcDbLine
 62
7
  6
BYLAYER
 10
55.5564946623
 20
63.3614508909
 11
57.9564946623
 21
61.9758102448
  0
LINE
  5
329
100
AcDbEntity
  8
0
100
AcDbLine
 62
7
  6
BYLAYER
 10
38.1564946623
 20
73.4073508909
 11
40.5564946623
 21
72.0217102448
  0
LINE
  5
32A
100
AcDbEntity
  8
0
100
AcDbLine
 62
7
  6
BYLAYER
 10
63.2564946623
 20
61.109779525
 11
60.8564946623
 21
62.495420171
  0
LINE
  5
32B
100
AcDbEntity
  8
0
100
AcDbLine
 62
7
  6
BYLAYER
 10
54.5564946623
 20
66.132732183
 11
52.1564946623
 21
67.5183728291
  0
LINE
  5
32C
100
AcDbEntity
  8
0
100
AcDbLine
 62
7
  6
BYLAYER
 10
45.8564946623
 20
71.155679525
 11
43.4564946623
 21
72.541320171
  0
LINE
  5
32D
100
AcDbEntity
  8
0
100
AcDbLine
 62
7
  6
BYLAYER
 10
52.6564946623
 20
68.3843982328
 11
55.0564946623
 21
66.9987575868
  0
LINE
  5
32E
100
AcDbEntity
  8
0
100
AcDbLine
 62
7
  6
BYLAYER
 10
61.3564946623
 20
63.3614508909
 11
63.7564946623
 21
61.9758102448
  0
LINE
  5
32F
100
AcDbEntity
  8
0
100
AcDbLine
 62
7
  6
BYLAYER
 10
35.2564946623
 20
78.4302982328
 11
37.6564946623
 21
77.0446575868
  0
LINE
  5
330
100
AcDbEntity
  8
0
100
AcDbLine
 62
7
  6
BYLAYER
 10
43.9564946623
 20
73.4073508909
 11
46.3564946623
 21
72.0217102448
  0
LINE
  5
331
100
AcDbEntity
  8
0
100
AcDbLine
 62
7
  6
BYLAYER
 10
48.7564946623
 20
43.2696508909
 11
48.7564946623
 21
46.040932183
  0
LINE
  5
332
100
AcDbEntity
  8
0
100
AcDbLine
 62
7
  6
BYLAYER
 10
48.7564946623
 20
53.3155508909
 11
48.7564946623
 21
56.086832183
  0
LINE
  5
333
100
AcDbEntity
  8
0
100
AcDbLine
 62
7
  6
BYLAYER
 10
48.7564946623
 20
63.3614508909
 11
48.7564946623
 21
66.132732183
  0
LINE
  5
334
100
AcDbEntity
  8
0
100
AcDbLine
 62
7
  6
BYLAYER
 10
48.7564946623
 20
73.4073508909
 11
48.7564946623
 21
76.178632183
  0
LINE
  5
335
100
AcDbEntity
  8
0
100
AcDbLine
 62
7
  6
BYLAYER
 10
48.7564946623
 20
83.4532508909
 11
48.7564946623
 21
86.224532183
  0
LINE
  5
336
100
AcDbEntity
  8
0
100
AcDbLine
 62
7
  6
BYLAYER
 10
48.7564946623
 20
93.4991508909
 11
48.7564946623
 21
96.270432183
  0
LINE
  5
337
100
AcDbEntity
  8
0
100
AcDbLine
 62
7
  6
BYLAYER
 10
48.7564946623
 20
103.5450508909
 11
48.7564946623
 21
106.316332183
  0
LINE
  5
338
100
AcDbEntity
  8
0
100
AcDbLine
 62
7
  6
BYLAYER
 10
48.7564946623
 20
113.5909508909
 11
48.7564946623
 21
116.362232183
  0
LINE
  5
339
100
AcDbEntity
  8
0
100
AcDbLine
 62
7
  6
BYLAYER
 10
49.7564946623
 20
116.362232183
 11
49.7564946623
 21
113.5909508909
  0
LINE
  5
33A
100
AcDbEntity
  8
0
100
AcDbLine
 62
7
  6
BYLAYER
 10
49.7564946623
 20
106.316332183
 11
49.7564946623
 21
103.5450508909
  0
LINE
  5
33B
100
AcDbEntity
  8
0
100
AcDbLine
 62
7
  6
BYLAYER
 10
49.7564946623
 20
96.270432183
 11
49.7564946623
 21
93.4991508909
  0
LINE
  5
33C
100
AcDbEntity
  8
0
100
AcDbLine
 62
7
  6
BYLAYER
 10
49.7564946623
 20
86.224532183
 11
49.7564946623
 21
83.4532508909
  0
LINE
  5
33D
100
AcDbEntity
  8
0
100
AcDbLine
 62
7
  6
BYLAYER
 10
49.7564946623
 20
76.178632183
 11
49.7564946623
 21
73.4073508909
  0
LINE
  5
33E
100
AcDbEntity
  8
0
100
AcDbLine
 62
7
  6
BYLAYER
 10
49.7564946623
 20
66.132732183
 11
49.7564946623
 21
63.3614508909
  0
LINE
  5
33F
100
AcDbEntity
  8
0
100
AcDbLine
 62
7
  6
BYLAYER
 10
49.7564946623
 20
56.086832183
 11
49.7564946623
 21
53.3155508909
  0
LINE
  5
340
100
AcDbEntity
  8
0
100
AcDbLine
 62
7
  6
BYLAYER
 10
49.7564946623
 20
46.040932183
 11
49.7564946623
 21
43.2696508909
  0
LINE
  5
341
100
AcDbEntity
  8
0
100
AcDbLine
 62
7
  6
BYLAYER
 10
51.4364946623
 20
25.3765543242
 11
51.4364946623
 21
20.6765543242
  0
LINE
  5
342
100
AcDbEntity
  8
0
100
AcDbLine
 62
7
  6
BYLAYER
 10
51.6564946623
 20
48.2925982328
 11
51.6564946623
 21
51.063879525
  0
LINE
  5
343
100
AcDbEntity
  8
0
100
AcDbLine
 62
7
  6
BYLAYER
 10
51.6564946623
 20
58.3384982328
 11
51.6564946623
 21
61.109779525
  0
LINE
  5
344
100
AcDbEntity
  8
0
100
AcDbLine
 62
7
  6
BYLAYER
 10
51.6564946623
 20
68.3843982328
 11
51.6564946623
 21
71.155679525
  0
LINE
  5
345
100
AcDbEntity
  8
0
100
AcDbLine
 62
7
  6
BYLAYER
 10
51.6564946623
 20
78.4302982328
 11
51.6564946623
 21
81.201579525
  0
LINE
  5
346
100
AcDbEntity
  8
0
100
AcDbLine
 62
7
  6
BYLAYER
 10
51.6564946623
 20
88.4761982328
 11
51.6564946623
 21
91.247479525
  0
LINE
  5
347
100
AcDbEntity
  8
0
100
AcDbLine
 62
7
  6
BYLAYER
 10
51.6564946623
 20
98.5220982328
 11
51.6564946623
 21
101.293379525
  0
LINE
  5
348
100
AcDbEntity
  8
0
100
AcDbLine
 62
7
  6
BYLAYER
 10
51.6564946623
 20
108.5679982328
 11
51.6564946623
 21
111.339279525
  0
LINE
  5
349
100
AcDbEntity
  8
0
100
AcDbLine
 62
7
  6
BYLAYER
 10
52.6564946623
 20
111.339279525
 11
52.6564946623
 21
108.5679982328
  0
LINE
  5
34A
100
AcDbEntity
  8
0
100
AcDbLine
 62
7
  6
BYLAYER
 10
52.6564946623
 20
101.293379525
 11
52.6564946623
 21
98.5220982328
  0
LINE
  5
34B
100
AcDbEntity
  8
0
100
AcDbLine
 62
7
  6
BYLAYER
 10
52.6564946623
 20
91.247479525
 11
52.6564946623
 21
88.4761982328
  0
LINE
  5
34C
100
AcDbEntity
  8
0
100
AcDbLine
 62
7
  6
BYLAYER
 10
52.6564946623
 20
81.201579525
 11
52.6564946623
 21
78.4302982328
  0
LINE
  5
34D
100
AcDbEntity
  8
0
100
AcDbLine
 62
7
  6
BYLAYER
 10
52.6564946623
 20
71.155679525
 11
52.6564946623
 21
68.3843982328
  0
LINE
  5
34E
100
AcDbEntity
  8
0
100
AcDbLine
 62
7
  6
BYLAYER
 10
52.6564946623
 20
61.109779525
 11
52.6564946623
 21
58.3384982328
  0
LINE
  5
34F
100
AcDbEntity
  8
0
100
AcDbLine
 62
7
  6
BYLAYER
 10
52.6564946623
 20
51.063879525
 11
52.6564946623
 21
48.2925982328
  0
LINE
  5
350
100
AcDbEntity
  8
0
100
AcDbLine
 62
7
  6
BYLAYER
 10
52.6564946623
 20
20.6765543242
 11
52.6564946623
 21
25.3765543242
  0
LINE
  5
351
100
AcDbEntity
  8
0
100
AcDbLine
 62
7
  6
BYLAYER
 10
60.8564946623
 20
82.587220171
 11
58.4564946623
 21
81.201579525
  0
LINE
  5
352
100
AcDbEntity
  8
0
100
AcDbLine
 62
7
  6
BYLAYER
 10
52.1564946623
 20
77.5642728291
 11
49.7564946623
 21
76.178632183
  0
LINE
  5
353
100
AcDbEntity
  8
0
100
AcDbLine
 62
7
  6
BYLAYER
 10
43.4564946623
 20
72.541320171
 11
41.0564946623
 21
71.155679525
  0
LINE
  5
354
100
AcDbEntity
  8
0
100
AcDbLine
 62
7
  6
BYLAYER
 10
63.7564946623
 20
82.0676102448
 11
66.1564946623
 21
83.4532508909
  0
LINE
  5
355
100
AcDbEntity
  8
0
100
AcDbLine
 62
7
  6
BYLAYER
 10
46.3564946623
 20
72.0217102448
 11
48.7564946623
 21
73.4073508909
  0
LINE
  5
356
100
AcDbEntity
  8
0
100
AcDbLine
 62
7
  6
BYLAYER
 10
55.0564946623
 20
77.0446575868
 11
57.4564946623
 21
78.4302982328
  0
LINE
  5
357
100
AcDbEntity
  8
0
100
AcDbLine
 62
7
  6
BYLAYER
 10
37.6564946623
 20
66.9987575868
 11
40.0564946623
 21
68.3843982328
  0
LINE
  5
358
100
AcDbEntity
  8
0
100
AcDbLine
 62
7
  6
BYLAYER
 10
66.6564946623
 20
82.587220171
 11
64.2564946623
 21
81.201579525
  0
LINE
  5
359
100
AcDbEntity
  8
0
100
AcDbLine
 62
7
  6
BYLAYER
 10
57.9564946623
 20
77.5642728291
 11
55.5564946623
 21
76.178632183
  0
LINE
  5
35A
100
AcDbEntity
  8
0
100
AcDbLine
 62
7
  6
BYLAYER
 10
49.2564946623
 20
72.541320171
 11
46.8564946623
 21
71.155679525
  0
LINE
  5
35B
100
AcDbEntity
  8
0
100
AcDbLine
 62
7
  6
BYLAYER
 10
40.5564946623
 20
67.5183728291
 11
38.1564946623
 21
66.132732183
  0
LINE
  5
35C
100
AcDbEntity
  8
0
100
AcDbLine
 62
7
  6
BYLAYER
 10
69.0564946623
 20
61.109779525
 11
66.6564946623
 21
62.495420171
  0
LINE
  5
35D
100
AcDbEntity
  8
0
100
AcDbLine
 62
7
  6
BYLAYER
 10
60.3564946623
 20
66.132732183
 11
57.9564946623
 21
67.5183728291
  0
LINE
  5
35E
100
AcDbEntity
  8
0
100
AcDbLine
 62
7
  6
BYLAYER
 10
51.6564946623
 20
71.155679525
 11
49.2564946623
 21
72.541320171
  0
LINE
  5
35F
100
AcDbEntity
  8
0
100
AcDbLine
 62
7
  6
BYLAYER
 10
42.9564946623
 20
76.178632183
 11
40.5564946623
 21
77.5642728291
  0
LINE
  5
360
100
AcDbEntity
  8
0
100
AcDbLine
 62
7
  6
BYLAYER
 10
58.4564946623
 20
68.3843982328
 11
60.8564946623
 21
66.9987575868
  0
LINE
  5
361
100
AcDbEntity
  8
0
100
AcDbLine
 62
7
  6
BYLAYER
 10
41.0564946623
 20
78.4302982328
 11
43.4564946623
 21
77.0446575868
  0
LINE
  5
362
100
AcDbEntity
  8
0
100
AcDbLine
 62
7
  6
BYLAYER
 10
49.7564946623
 20
73.4073508909
 11
52.1564946623
 21
72.0217102448
  0
LINE
  5
363
100
AcDbEntity
  8
0
100
AcDbLine
 62
7
  6
BYLAYER
 10
66.1564946623
 20
66.132732183
 11
63.7564946623
 21
67.5183728291
  0
LINE
  5
364
100
AcDbEntity
  8
0
100
AcDbLine
 62
7
  6
BYLAYER
 10
57.4564946623
 20
71.155679525
 11
55.0564946623
 21
72.541320171
  0
LINE
  5
365
100
AcDbEntity
  8
0
100
AcDbLine
 62
7
  6
BYLAYER
 10
48.7564946623
 20
76.178632183
 11
46.3564946623
 21
77.5642728291
  0
LINE
  5
366
100
AcDbEntity
  8
0
100
AcDbLine
 62
7
  6
BYLAYER
 10
40.0564946623
 20
81.201579525
 11
37.6564946623
 21
82.587220171
  0
LINE
  5
367
100
AcDbEntity
  8
0
100
AcDbLine
 62
7
  6
BYLAYER
 10
54.5564946623
 20
43.2696508909
 11
54.5564946623
 21
46.040932183
  0
LINE
  5
368
100
AcDbEntity
  8
0
100
AcDbLine
 62
7
  6
BYLAYER
 10
54.5564946623
 20
53.3155508909
 11
54.5564946623
 21
56.086832183
  0
LINE
  5
369
100
AcDbEntity
  8
0
100
AcDbLine
 62
7
  6
BYLAYER
 10
54.5564946623
 20
63.3614508909
 11
54.5564946623
 21
66.132732183
  0
LINE
  5
36A
100
AcDbEntity
  8
0
100
AcDbLine
 62
7
  6
BYLAYER
 10
54.5564946623
 20
73.4073508909
 11
54.5564946623
 21
76.178632183
  0
LINE
  5
36B
100
AcDbEntity
  8
0
100
AcDbLine
 62
7
  6
BYLAYER
 10
54.5564946623
 20
83.4532508909
 11
54.5564946623
 21
86.224532183
  0
LINE
  5
36C
100
AcDbEntity
  8
0
100
AcDbLine
 62
7
  6
BYLAYER
 10
54.5564946623
 20
93.4991508909
 11
54.5564946623
 21
96.270432183
  0
LINE
  5
36D
100
AcDbEntity
  8
0
100
AcDbLine
 62
7
  6
BYLAYER
 10
54.5564946623
 20
103.5450508909
 11
54.5564946623
 21
106.316332183
  0
LINE
  5
36E
100
AcDbEntity
  8
0
100
AcDbLine
 62
7
  6
BYLAYER
 10
54.5564946623
 20
113.5909508909
 11
54.5564946623
 21
116.362232183
  0
LINE
  5
36F
100
AcDbEntity
  8
0
100
AcDbLine
 62
7
  6
BYLAYER
 10
55.5564946623
 20
116.362232183
 11
55.5564946623
 21
113.5909508909
  0
LINE
  5
370
100
AcDbEntity
  8
0
100
AcDbLine
 62
7
  6
BYLAYER
 10
55.5564946623
 20
106.316332183
 11
55.5564946623
 21
103.5450508909
  0
LINE
  5
371
100
AcDbEntity
  8
0
100
AcDbLine
 62
7
  6
BYLAYER
 10
55.5564946623
 20
96.270432183
 11
55.5564946623
 21
93.4991508909
  0
LINE
  5
372
100
AcDbEntity
  8
0
100
AcDbLine
 62
7
  6
BYLAYER
 10
55.5564946623
 20
86.224532183
 11
55.5564946623
 21
83.4532508909
  0
LINE
  5
373
100
AcDbEntity
  8
0
100
AcDbLine
 62
7
  6
BYLAYER
 10
55.5564946623
 20
76.178632183
 11
55.5564946623
 21
73.4073508909
  0
LINE
  5
374
100
AcDbEntity
  8
0
100
AcDbLine
 62
7
  6
BYLAYER
 10
55.5564946623
 20
66.132732183
 11
55.5564946623
 21
63.3614508909
  0
LINE
  5
375
100
AcDbEntity
  8
0
100
AcDbLine
 62
7
  6
BYLAYER
 10
55.5564946623
 20
56.086832183
 11
55.5564946623
 21
53.3155508909
  0
LINE
  5
376
100
AcDbEntity
  8
0
100
AcDbLine
 62
7
  6
BYLAYER
 10
55.5564946623
 20
46.040932183
 11
55.5564946623
 21
43.2696508909
  0
LINE
  5
377
100
AcDbEntity
  8
0
100
AcDbLine
 62
7
  6
BYLAYER
 10
56.6264946623
 20
25.3765543242
 11
56.6264946623
 21
20.6765543242
  0
LINE
  5
378
100
AcDbEntity
  8
0
100
AcDbLine
 62
7
  6
BYLAYER
 10
52.1564946623
 20
72.0217102448
 11
54.5564946623
 21
73.4073508909
  0
LINE
  5
379
100
AcDbEntity
  8
0
100
AcDbLine
 62
7
  6
BYLAYER
 10
60.8564946623
 20
77.0446575868
 11
63.2564946623
 21
78.4302982328
  0
LINE
  5
37A
100
AcDbEntity
  8
0
100
AcDbLine
 62
7
  6
BYLAYER
 10
43.4564946623
 20
66.9987575868
 11
45.8564946623
 21
68.3843982328
  0
LINE
  5
37B
100
AcDbEntity
  8
0
100
AcDbLine
 62
7
  6
BYLAYER
 10
63.7564946623
 20
77.5642728291
 11
61.3564946623
 21
76.178632183
  0
LINE
  5
37C
100
AcDbEntity
  8
0
100
AcDbLine
 62
7
  6
BYLAYER
 10
55.0564946623
 20
72.541320171
 11
52.6564946623
 21
71.155679525
  0
LINE
  5
37D
100
AcDbEntity
  8
0
100
AcDbLine
 62
7
  6
BYLAYER
 10
46.3564946623
 20
67.5183728291
 11
43.9564946623
 21
66.132732183
  0
LINE
  5
37E
100
AcDbEntity
  8
0
100
AcDbLine
 62
7
  6
BYLAYER
 10
37.6564946623
 20
62.495420171
 11
35.2564946623
 21
61.109779525
  0
LINE
  5
37F
100
AcDbEntity
  8
0
100
AcDbLine
 62
7
  6
BYLAYER
 10
57.9564946623
 20
72.0217102448
 11
60.3564946623
 21
73.4073508909
  0
LINE
  5
380
100
AcDbEntity
  8
0
100
AcDbLine
 62
7
  6
BYLAYER
 10
66.6564946623
 20
77.0446575868
 11
69.0564946623
 21
78.4302982328
  0
LINE
  5
381
100
AcDbEntity
  8
0
100
AcDbLine
 62
7
  6
BYLAYER
 10
40.5564946623
 20
61.9758102448
 11
42.9564946623
 21
63.3614508909
  0
LINE
  5
382
100
AcDbEntity
  8
0
100
AcDbLine
 62
7
  6
BYLAYER
 10
49.2564946623
 20
66.9987575868
 11
51.6564946623
 21
68.3843982328
  0
LINE
  5
383
100
AcDbEntity
  8
0
100
AcDbLine
 62
7
  6
BYLAYER
 10
64.2564946623
 20
68.3843982328
 11
66.6564946623
 21
66.9987575868
  0
LINE
  5
384
100
AcDbEntity
  8
0
100
AcDbLine
 62
7
  6
BYLAYER
 10
46.8564946623
 20
78.4302982328
 11
49.2564946623
 21
77.0446575868
  0
LINE
  5
385
100
AcDbEntity
  8
0
100
AcDbLine
 62
7
  6
BYLAYER
 10
55.5564946623
 20
73.4073508909
 11
57.9564946623
 21
72.0217102448
  0
LINE
  5
386
100
AcDbEntity
  8
0
100
AcDbLine
 62
7
  6
BYLAYER
 10
38.1564946623
 20
83.4532508909
 11
40.5564946623
 21
82.0676102448
  0
LINE
  5
387
100
AcDbEntity
  8
0
100
AcDbLine
 62
7
  6
BYLAYER
 10
63.2564946623
 20
71.155679525
 11
60.8564946623
 21
72.541320171
  0
LINE
  5
388
100
AcDbEntity
  8
0
100
AcDbLine
 62
7
  6
BYLAYER
 10
54.5564946623
 20
76.178632183
 11
52.1564946623
 21
77.5642728291
  0
LINE
  5
389
100
AcDbEntity
  8
0
100
AcDbLine
 62
7
  6
BYLAYER
 10
45.8564946623
 20
81.201579525
 11
43.4564946623
 21
82.587220171
  0
LINE
  5
38A
100
AcDbEntity
  8
0
100
AcDbLine
 62
7
  6
BYLAYER
 10
52.6564946623
 20
78.4302982328
 11
55.0564946623
 21
77.0446575868
  0
LINE
  5
38B
100
AcDbEntity
  8
0
100
AcDbLine
 62
7
  6
BYLAYER
 10
61.3564946623
 20
73.4073508909
 11
63.7564946623
 21
72.0217102448
  0
LINE
  5
38C
100
AcDbEntity
  8
0
100
AcDbLine
 62
7
  6
BYLAYER
 10
35.2564946623
 20
88.4761982328
 11
37.6564946623
 21
87.0905575868
  0
LINE
  5
38D
100
AcDbEntity
  8
0
100
AcDbLine
 62
7
  6
BYLAYER
 10
43.9564946623
 20
83.4532508909
 11
46.3564946623
 21
82.0676102448
  0
LINE
  5
38E
100
AcDbEntity
  8
0
100
AcDbLine
 62
7
  6
BYLAYER
 10
57.1264946623
 20
27.8765543242
 11
57.1264946623
 21
17.9943776775
  0
LINE
  5
38F
100
AcDbEntity
  8
0
100
AcDbLine
 62
7
  6
BYLAYER
 10
57.1264946623
 20
10.8765543242
 11
57.1264946623
 21
13.4750409257
  0
LINE
  5
390
100
AcDbEntity
  8
0
100
AcDbLine
 62
7
  6
BYLAYER
 10
57.1764946623
 20
27.8765543242
 11
57.1764946623
 21
17.9943776775
  0
LINE
  5
391
100
AcDbEntity
  8
0
100
AcDbLine
 62
7
  6
BYLAYER
 10
57.1764946623
 20
10.8765543242
 11
57.1764946623
 21
13.4750409257
  0
LINE
  5
392
100
AcDbEntity
  8
0
100
AcDbLine
 62
7
  6
BYLAYER
 10
57.4564946623
 20
48.2925982328
 11
57.4564946623
 21
51.063879525
  0
LINE
  5
393
100
AcDbEntity
  8
0
100
AcDbLine
 62
7
  6
BYLAYER
 10
57.4564946623
 20
58.3384982328
 11
57.4564946623
 21
61.109779525
  0
LINE
  5
394
100
AcDbEntity
  8
0
100
AcDbLine
 62
7
  6
BYLAYER
 10
57.4564946623
 20
68.3843982328
 11
57.4564946623
 21
71.155679525
  0
LINE
  5
395
100
AcDbEntity
  8
0
100
AcDbLine
 62
7
  6
BYLAYER
 10
57.4564946623
 20
78.4302982328
 11
57.4564946623
 21
81.201579525
  0
LINE
  5
396
100
AcDbEntity
  8
0
100
AcDbLine
 62
7
  6
BYLAYER
 10
57.4564946623
 20
88.4761982328
 11
57.4564946623
 21
91.247479525
  0
LINE
  5
397
100
AcDbEntity
  8
0
100
AcDbLine
 62
7
  6
BYLAYER
 10
57.4564946623
 20
98.5220982328
 11
57.4564946623
 21
101.293379525
  0
LINE
  5
398
100
AcDbEntity
  8
0
100
AcDbLine
 62
7
  6
BYLAYER
 10
57.4564946623
 20
108.5679982328
 11
57.4564946623
 21
111.339279525
  0
LINE
  5
399
100
AcDbEntity
  8
0
100
AcDbLine
 62
7
  6
BYLAYER
 10
57.6564946623
 20
130.0765543242
 11
57.6564946623
 21
130.4765543242
  0
LINE
  5
39A
100
AcDbEntity
  8
0
100
AcDbLine
 62
7
  6
BYLAYER
 10
57.6764946623
 20
20.6765543242
 11
57.6764946623
 21
25.3765543242
  0
LINE
  5
39B
100
AcDbEntity
  8
0
100
AcDbLine
 62
7
  6
BYLAYER
 10
58.1564946623
 20
127.935689804
 11
58.1564946623
 21
128.535689804
  0
LINE
  5
39C
100
AcDbEntity
  8
0
100
AcDbLine
 62
7
  6
BYLAYER
 10
58.4564946623
 20
111.339279525
 11
58.4564946623
 21
108.5679982328
  0
LINE
  5
39D
100
AcDbEntity
  8
0
100
AcDbLine
 62
7
  6
BYLAYER
 10
58.4564946623
 20
101.293379525
 11
58.4564946623
 21
98.5220982328
  0
LINE
  5
39E
100
AcDbEntity
  8
0
100
AcDbLine
 62
7
  6
BYLAYER
 10
58.4564946623
 20
91.247479525
 11
58.4564946623
 21
88.4761982328
  0
LINE
  5
39F
100
AcDbEntity
  8
0
100
AcDbLine
 62
7
  6
BYLAYER
 10
58.4564946623
 20
81.201579525
 11
58.4564946623
 21
78.4302982328
  0
LINE
  5
3A0
100
AcDbEntity
  8
0
100
AcDbLine
 62
7
  6
BYLAYER
 10
58.4564946623
 20
71.155679525
 11
58.4564946623
 21
68.3843982328
  0
LINE
  5
3A1
100
AcDbEntity
  8
0
100
AcDbLine
 62
7
  6
BYLAYER
 10
58.4564946623
 20
61.109779525
 11
58.4564946623
 21
58.3384982328
  0
LINE
  5
3A2
100
AcDbEntity
  8
0
100
AcDbLine
 62
7
  6
BYLAYER
 10
58.4564946623
 20
51.063879525
 11
58.4564946623
 21
48.2925982328
  0
LINE
  5
3A3
100
AcDbEntity
  8
0
100
AcDbLine
 62
7
  6
BYLAYER
 10
58.6564946623
 20
130.4765543242
 11
58.6564946623
 21
136.0781969124
  0
LINE
  5
3A4
100
AcDbEntity
  8
0
100
AcDbLine
 62
7
  6
BYLAYER
 10
58.9064791163
 20
131.2765543242
 11
58.9064791163
 21
132.8765543242
  0
LINE
  5
3A5
100
AcDbEntity
  8
0
100
AcDbLine
 62
7
  6
BYLAYER
 10
59.4064791163
 20
132.8765543242
 11
59.4064791163
 21
131.2765507476
  0
LINE
  5
3A6
100
AcDbEntity
  8
0
100
AcDbLine
 62
7
  6
BYLAYER
 10
59.6564946623
 20
130.0765543242
 11
59.6564946623
 21
130.4765543242
  0
LINE
  5
3A7
100
AcDbEntity
  8
0
100
AcDbLine
 62
7
  6
BYLAYER
 10
60.3564946623
 20
43.2696508909
 11
60.3564946623
 21
46.040932183
  0
LINE
  5
3A8
100
AcDbEntity
  8
0
100
AcDbLine
 62
7
  6
BYLAYER
 10
60.3564946623
 20
53.3155508909
 11
60.3564946623
 21
56.086832183
  0
LINE
  5
3A9
100
AcDbEntity
  8
0
100
AcDbLine
 62
7
  6
BYLAYER
 10
60.3564946623
 20
63.3614508909
 11
60.3564946623
 21
66.132732183
  0
LINE
  5
3AA
100
AcDbEntity
  8
0
100
AcDbLine
 62
7
  6
BYLAYER
 10
60.3564946623
 20
73.4073508909
 11
60.3564946623
 21
76.178632183
  0
LINE
  5
3AB
100
AcDbEntity
  8
0
100
AcDbLine
 62
7
  6
BYLAYER
 10
60.3564946623
 20
83.4532508909
 11
60.3564946623
 21
86.224532183
  0
LINE
  5
3AC
100
AcDbEntity
  8
0
100
AcDbLine
 62
7
  6
BYLAYER
 10
60.3564946623
 20
93.4991508909
 11
60.3564946623
 21
96.270432183
  0
LINE
  5
3AD
100
AcDbEntity
  8
0
100
AcDbLine
 62
7
  6
BYLAYER
 10
60.3564946623
 20
103.5450508909
 11
60.3564946623
 21
106.316332183
  0
LINE
  5
3AE
100
AcDbEntity
  8
0
100
AcDbLine
 62
7
  6
BYLAYER
 10
60.3564946623
 20
113.5909508909
 11
60.3564946623
 21
116.362232183
  0
LINE
  5
3AF
100
AcDbEntity
  8
0
100
AcDbLine
 62
7
  6
BYLAYER
 10
61.1564946623
 20
130.0765543242
 11
61.1564946623
 21
131.0765543242
  0
LINE
  5
3B0
100
AcDbEntity
  8
0
100
AcDbLine
 62
7
  6
BYLAYER
 10
61.3564946623
 20
116.362232183
 11
61.3564946623
 21
113.5909508909
  0
LINE
  5
3B1
100
AcDbEntity
  8
0
100
AcDbLine
 62
7
  6
BYLAYER
 10
61.3564946623
 20
106.316332183
 11
61.3564946623
 21
103.5450508909
  0
LINE
  5
3B2
100
AcDbEntity
  8
0
100
AcDbLine
 62
7
  6
BYLAYER
 10
61.3564946623
 20
96.270432183
 11
61.3564946623
 21
93.4991508909
  0
LINE
  5
3B3
100
AcDbEntity
  8
0
100
AcDbLine
 62
7
  6
BYLAYER
 10
61.3564946623
 20
86.224532183
 11
61.3564946623
 21
83.4532508909
  0
LINE
  5
3B4
100
AcDbEntity
  8
0
100
AcDbLine
 62
7
  6
BYLAYER
 10
61.3564946623
 20
76.178632183
 11
61.3564946623
 21
73.4073508909
  0
LINE
  5
3B5
100
AcDbEntity
  8
0
100
AcDbLine
 62
7
  6
BYLAYER
 10
61.3564946623
 20
66.132732183
 11
61.3564946623
 21
63.3614508909
  0
LINE
  5
3B6
100
AcDbEntity
  8
0
100
AcDbLine
 62
7
  6
BYLAYER
 10
61.3564946623
 20
56.086832183
 11
61.3564946623
 21
53.3155508909
  0
LINE
  5
3B7
100
AcDbEntity
  8
0
100
AcDbLine
 62
7
  6
BYLAYER
 10
61.3564946623
 20
46.040932183
 11
61.3564946623
 21
43.2696508909
  0
LINE
  5
3B8
100
AcDbEntity
  8
0
100
AcDbLine
 62
7
  6
BYLAYER
 10
60.8564946623
 20
72.541320171
 11
58.4564946623
 21
71.155679525
  0
LINE
  5
3B9
100
AcDbEntity
  8
0
100
AcDbLine
 62
7
  6
BYLAYER
 10
52.1564946623
 20
67.5183728291
 11
49.7564946623
 21
66.132732183
  0
LINE
  5
3BA
100
AcDbEntity
  8
0
100
AcDbLine
 62
7
  6
BYLAYER
 10
43.4564946623
 20
62.495420171
 11
41.0564946623
 21
61.109779525
  0
LINE
  5
3BB
100
AcDbEntity
  8
0
100
AcDbLine
 62
7
  6
BYLAYER
 10
63.7564946623
 20
72.0217102448
 11
66.1564946623
 21
73.4073508909
  0
LINE
  5
3BC
100
AcDbEntity
  8
0
100
AcDbLine
 62
7
  6
BYLAYER
 10
46.3564946623
 20
61.9758102448
 11
48.7564946623
 21
63.3614508909
  0
LINE
  5
3BD
100
AcDbEntity
  8
0
100
AcDbLine
 62
7
  6
BYLAYER
 10
55.0564946623
 20
66.9987575868
 11
57.4564946623
 21
68.3843982328
  0
LINE
  5
3BE
100
AcDbEntity
  8
0
100
AcDbLine
 62
7
  6
BYLAYER
 10
37.6564946623
 20
56.9528575868
 11
40.0564946623
 21
58.3384982328
  0
LINE
  5
3BF
100
AcDbEntity
  8
0
100
AcDbLine
 62
7
  6
BYLAYER
 10
66.6564946623
 20
72.541320171
 11
64.2564946623
 21
71.155679525
  0
LINE
  5
3C0
100
AcDbEntity
  8
0
100
AcDbLine
 62
7
  6
BYLAYER
 10
57.9564946623
 20
67.5183728291
 11
55.5564946623
 21
66.132732183
  0
LINE
  5
3C1
100
AcDbEntity
  8
0
100
AcDbLine
 62
7
  6
BYLAYER
 10
49.2564946623
 20
62.495420171
 11
46.8564946623
 21
61.109779525
  0
LINE
  5
3C2
100
AcDbEntity
  8
0
100
AcDbLine
 62
7
  6
BYLAYER
 10
40.5564946623
 20
57.4724728291
 11
38.1564946623
 21
56.086832183
  0
LINE
  5
3C3
100
AcDbEntity
  8
0
100
AcDbLine
 62
7
  6
BYLAYER
 10
69.0564946623
 20
71.155679525
 11
66.6564946623
 21
72.541320171
  0
LINE
  5
3C4
100
AcDbEntity
  8
0
100
AcDbLine
 62
7
  6
BYLAYER
 10
60.3564946623
 20
76.178632183
 11
57.9564946623
 21
77.5642728291
  0
LINE
  5
3C5
100
AcDbEntity
  8
0
100
AcDbLine
 62
7
  6
BYLAYER
 10
51.6564946623
 20
81.201579525
 11
49.2564946623
 21
82.587220171
  0
LINE
  5
3C6
100
AcDbEntity
  8
0
100
AcDbLine
 62
7
  6
BYLAYER
 10
42.9564946623
 20
86.224532183
 11
40.5564946623
 21
87.6101728291
  0
LINE
  5
3C7
100
AcDbEntity
  8
0
100
AcDbLine
 62
7
  6
BYLAYER
 10
58.4564946623
 20
78.4302982328
 11
60.8564946623
 21
77.0446575868
  0
LINE
  5
3C8
100
AcDbEntity
  8
0
100
AcDbLine
 62
7
  6
BYLAYER
 10
41.0564946623
 20
88.4761982328
 11
43.4564946623
 21
87.0905575868
  0
LINE
  5
3C9
100
AcDbEntity
  8
0
100
AcDbLine
 62
7
  6
BYLAYER
 10
49.7564946623
 20
83.4532508909
 11
52.1564946623
 21
82.0676102448
  0
LINE
  5
3CA
100
AcDbEntity
  8
0
100
AcDbLine
 62
7
  6
BYLAYER
 10
66.1564946623
 20
76.178632183
 11
63.7564946623
 21
77.5642728291
  0
LINE
  5
3CB
100
AcDbEntity
  8
0
100
AcDbLine
 62
7
  6
BYLAYER
 10
57.4564946623
 20
81.201579525
 11
55.0564946623
 21
82.587220171
  0
LINE
  5
3CC
100
AcDbEntity
  8
0
100
AcDbLine
 62
7
  6
BYLAYER
 10
48.7564946623
 20
86.224532183
 11
46.3564946623
 21
87.6101728291
  0
LINE
  5
3CD
100
AcDbEntity
  8
0
100
AcDbLine
 62
7
  6
BYLAYER
 10
40.0564946623
 20
91.247479525
 11
37.6564946623
 21
92.633120171
  0
LINE
  5
3CE
100
AcDbEntity
  8
0
100
AcDbLine
 62
7
  6
BYLAYER
 10
61.6464946623
 20
25.3765543242
 11
61.6464946623
 21
20.6765543242
  0
LINE
  5
3CF
100
AcDbEntity
  8
0
100
AcDbLine
 62
7
  6
BYLAYER
 10
61.6564946623
 20
131.0765543242
 11
61.6564946623
 21
130.0765543242
  0
LINE
  5
3D0
100
AcDbEntity
  8
0
100
AcDbLine
 62
7
  6
BYLAYER
 10
61.9064946623
 20
131.0286311431
 11
61.9064946623
 21
130.0765543242
  0
LINE
  5
3D1
100
AcDbEntity
  8
0
100
AcDbLine
 62
7
  6
BYLAYER
 10
62.8664946623
 20
20.6765543242
 11
62.8664946623
 21
25.3765543242
  0
LINE
  5
3D2
100
AcDbEntity
  8
0
100
AcDbLine
 62
7
  6
BYLAYER
 10
63.2564946623
 20
48.2925982328
 11
63.2564946623
 21
51.063879525
  0
LINE
  5
3D3
100
AcDbEntity
  8
0
100
AcDbLine
 62
7
  6
BYLAYER
 10
63.2564946623
 20
58.3384982328
 11
63.2564946623
 21
61.109779525
  0
LINE
  5
3D4
100
AcDbEntity
  8
0
100
AcDbLine
 62
7
  6
BYLAYER
 10
63.2564946623
 20
68.3843982328
 11
63.2564946623
 21
71.155679525
  0
LINE
  5
3D5
100
AcDbEntity
  8
0
100
AcDbLine
 62
7
  6
BYLAYER
 10
63.2564946623
 20
78.4302982328
 11
63.2564946623
 21
81.201579525
  0
LINE
  5
3D6
100
AcDbEntity
  8
0
100
AcDbLine
 62
7
  6
BYLAYER
 10
63.2564946623
 20
88.4761982328
 11
63.2564946623
 21
91.247479525
  0
LINE
  5
3D7
100
AcDbEntity
  8
0
100
AcDbLine
 62
7
  6
BYLAYER
 10
63.2564946623
 20
98.5220982328
 11
63.2564946623
 21
101.293379525
  0
LINE
  5
3D8
100
AcDbEntity
  8
0
100
AcDbLine
 62
7
  6
BYLAYER
 10
63.2564946623
 20
108.5679982328
 11
63.2564946623
 21
111.339279525
  0
LINE
  5
3D9
100
AcDbEntity
  8
0
100
AcDbLine
 62
7
  6
BYLAYER
 10
64.2564946623
 20
111.339279525
 11
64.2564946623
 21
108.5679982328
  0
LINE
  5
3DA
100
AcDbEntity
  8
0
100
AcDbLine
 62
7
  6
BYLAYER
 10
64.2564946623
 20
101.293379525
 11
64.2564946623
 21
98.5220982328
  0
LINE
  5
3DB
100
AcDbEntity
  8
0
100
AcDbLine
 62
7
  6
BYLAYER
 10
64.2564946623
 20
91.247479525
 11
64.2564946623
 21
88.4761982328
  0
LINE
  5
3DC
100
AcDbEntity
  8
0
100
AcDbLine
 62
7
  6
BYLAYER
 10
64.2564946623
 20
81.201579525
 11
64.2564946623
 21
78.4302982328
  0
LINE
  5
3DD
100
AcDbEntity
  8
0
100
AcDbLine
 62
7
  6
BYLAYER
 10
64.2564946623
 20
71.155679525
 11
64.2564946623
 21
68.3843982328
  0
LINE
  5
3DE
100
AcDbEntity
  8
0
100
AcDbLine
 62
7
  6
BYLAYER
 10
64.2564946623
 20
61.109779525
 11
64.2564946623
 21
58.3384982328
  0
LINE
  5
3DF
100
AcDbEntity
  8
0
100
AcDbLine
 62
7
  6
BYLAYER
 10
64.2564946623
 20
51.063879525
 11
64.2564946623
 21
48.2925982328
  0
LINE
  5
3E0
100
AcDbEntity
  8
0
100
AcDbLine
 62
7
  6
BYLAYER
 10
52.1564946623
 20
61.9758102448
 11
54.5564946623
 21
63.3614508909
  0
LINE
  5
3E1
100
AcDbEntity
  8
0
100
AcDbLine
 62
7
  6
BYLAYER
 10
60.8564946623
 20
66.9987575868
 11
63.2564946623
 21
68.3843982328
  0
LINE
  5
3E2
100
AcDbEntity
  8
0
100
AcDbLine
 62
7
  6
BYLAYER
 10
43.4564946623
 20
56.9528575868
 11
45.8564946623
 21
58.3384982328
  0
LINE
  5
3E3
100
AcDbEntity
  8
0
100
AcDbLine
 62
7
  6
BYLAYER
 10
63.7564946623
 20
67.5183728291
 11
61.3564946623
 21
66.132732183
  0
LINE
  5
3E4
100
AcDbEntity
  8
0
100
AcDbLine
 62
7
  6
BYLAYER
 10
55.0564946623
 20
62.495420171
 11
52.6564946623
 21
61.109779525
  0
LINE
  5
3E5
100
AcDbEntity
  8
0
100
AcDbLine
 62
7
  6
BYLAYER
 10
46.3564946623
 20
57.4724728291
 11
43.9564946623
 21
56.086832183
  0
LINE
  5
3E6
100
AcDbEntity
  8
0
100
AcDbLine
 62
7
  6
BYLAYER
 10
37.6564946623
 20
52.449520171
 11
35.2564946623
 21
51.063879525
  0
LINE
  5
3E7
100
AcDbEntity
  8
0
100
AcDbLine
 62
7
  6
BYLAYER
 10
57.9564946623
 20
61.9758102448
 11
60.3564946623
 21
63.3614508909
  0
LINE
  5
3E8
100
AcDbEntity
  8
0
100
AcDbLine
 62
7
  6
BYLAYER
 10
66.6564946623
 20
66.9987575868
 11
69.0564946623
 21
68.3843982328
  0
LINE
  5
3E9
100
AcDbEntity
  8
0
100
AcDbLine
 62
7
  6
BYLAYER
 10
40.5564946623
 20
51.9299102448
 11
42.9564946623
 21
53.3155508909
  0
LINE
  5
3EA
100
AcDbEntity
  8
0
100
AcDbLine
 62
7
  6
BYLAYER
 10
49.2564946623
 20
56.9528575868
 11
51.6564946623
 21
58.3384982328
  0
LINE
  5
3EB
100
AcDbEntity
  8
0
100
AcDbLine
 62
7
  6
BYLAYER
 10
64.2564946623
 20
78.4302982328
 11
66.6564946623
 21
77.0446575868
  0
LINE
  5
3EC
100
AcDbEntity
  8
0
100
AcDbLine
 62
7
  6
BYLAYER
 10
46.8564946623
 20
88.4761982328
 11
49.2564946623
 21
87.0905575868
  0
LINE
  5
3ED
100
AcDbEntity
  8
0
100
AcDbLine
 62
7
  6
BYLAYER
 10
55.5564946623
 20
83.4532508909
 11
57.9564946623
 21
82.0676102448
  0
LINE
  5
3EE
100
AcDbEntity
  8
0
100
AcDbLine
 62
7
  6
BYLAYER
 10
38.1564946623
 20
93.4991508909
 11
40.5564946623
 21
92.1135102448
  0
LINE
  5
3EF
100
AcDbEntity
  8
0
100
AcDbLine
 62
7
  6
BYLAYER
 10
63.2564946623
 20
81.201579525
 11
60.8564946623
 21
82.587220171
  0
LINE
  5
3F0
100
AcDbEntity
  8
0
100
AcDbLine
 62
7
  6
BYLAYER
 10
54.5564946623
 20
86.224532183
 11
52.1564946623
 21
87.6101728291
  0
LINE
  5
3F1
100
AcDbEntity
  8
0
100
AcDbLine
 62
7
  6
BYLAYER
 10
45.8564946623
 20
91.247479525
 11
43.4564946623
 21
92.633120171
  0
LINE
  5
3F2
100
AcDbEntity
  8
0
100
AcDbLine
 62
7
  6
BYLAYER
 10
52.6564946623
 20
88.4761982328
 11
55.0564946623
 21
87.0905575868
  0
LINE
  5
3F3
100
AcDbEntity
  8
0
100
AcDbLine
 62
7
  6
BYLAYER
 10
61.3564946623
 20
83.4532508909
 11
63.7564946623
 21
82.0676102448
  0
LINE
  5
3F4
100
AcDbEntity
  8
0
100
AcDbLine
 62
7
  6
BYLAYER
 10
35.2564946623
 20
98.5220982328
 11
37.6564946623
 21
97.1364575868
  0
LINE
  5
3F5
100
AcDbEntity
  8
0
100
AcDbLine
 62
7
  6
BYLAYER
 10
43.9564946623
 20
93.4991508909
 11
46.3564946623
 21
92.1135102448
  0
LINE
  5
3F6
100
AcDbEntity
  8
0
100
AcDbLine
 62
7
  6
BYLAYER
 10
66.1564946623
 20
43.2696508909
 11
66.1564946623
 21
46.040932183
  0
LINE
  5
3F7
100
AcDbEntity
  8
0
100
AcDbLine
 62
7
  6
BYLAYER
 10
66.1564946623
 20
53.3155508909
 11
66.1564946623
 21
56.086832183
  0
LINE
  5
3F8
100
AcDbEntity
  8
0
100
AcDbLine
 62
7
  6
BYLAYER
 10
66.1564946623
 20
63.3614508909
 11
66.1564946623
 21
66.132732183
  0
LINE
  5
3F9
100
AcDbEntity
  8
0
100
AcDbLine
 62
7
  6
BYLAYER
 10
66.1564946623
 20
73.4073508909
 11
66.1564946623
 21
76.178632183
  0
LINE
  5
3FA
100
AcDbEntity
  8
0
100
AcDbLine
 62
7
  6
BYLAYER
 10
66.1564946623
 20
83.4532508909
 11
66.1564946623
 21
86.224532183
  0
LINE
  5
3FB
100
AcDbEntity
  8
0
100
AcDbLine
 62
7
  6
BYLAYER
 10
66.1564946623
 20
93.4991508909
 11
66.1564946623
 21
96.270432183
  0
LINE
  5
3FC
100
AcDbEntity
  8
0
100
AcDbLine
 62
7
  6
BYLAYER
 10
66.1564946623
 20
103.5450508909
 11
66.1564946623
 21
106.316332183
  0
LINE
  5
3FD
100
AcDbEntity
  8
0
100
AcDbLine
 62
7
  6
BYLAYER
 10
66.1564946623
 20
113.5909508909
 11
66.1564946623
 21
116.362232183
  0
LINE
  5
3FE
100
AcDbEntity
  8
0
100
AcDbLine
 62
7
  6
BYLAYER
 10
66.8364946623
 20
25.3765543242
 11
66.8364946623
 21
20.6765543242
  0
LINE
  5
3FF
100
AcDbEntity
  8
0
100
AcDbLine
 62
7
  6
BYLAYER
 10
67.3364946623
 20
27.8765543242
 11
67.3364946623
 21
17.9943776775
  0
LINE
  5
400
100
AcDbEntity
  8
0
100
AcDbLine
 62
7
  6
BYLAYER
 10
67.3364946623
 20
10.8765543242
 11
67.3364946623
 21
13.4750409257
  0
LINE
  5
401
100
AcDbEntity
  8
0
100
AcDbLine
 62
7
  6
BYLAYER
 10
68.3564946623
 20
17.7687809064
 11
68.356494568
 21
27.8765543242
  0
LINE
  5
402
100
AcDbEntity
  8
0
100
AcDbLine
 62
7
  6
BYLAYER
 10
68.556494568
 20
28.0765543242
 11
68.556494568
 21
17.9943776775
  0
LINE
  5
403
100
AcDbEntity
  8
0
100
AcDbLine
 62
7
  6
BYLAYER
 10
68.5564946623
 20
13.5735332531
 11
68.5564946624
 21
13.2765543242
  0
LINE
  5
404
100
AcDbEntity
  8
0
100
AcDbLine
 62
7
  6
BYLAYER
 10
69.0564946623
 20
135.5765543242
 11
69.0564946623
 21
130.0765543242
  0
LINE
  5
405
100
AcDbEntity
  8
0
100
AcDbLine
 62
7
  6
BYLAYER
 10
69.0564946623
 20
48.2925982328
 11
69.0564946623
 21
51.063879525
  0
LINE
  5
406
100
AcDbEntity
  8
0
100
AcDbLine
 62
7
  6
BYLAYER
 10
69.0564946623
 20
58.3384982328
 11
69.0564946623
 21
61.109779525
  0
LINE
  5
407
100
AcDbEntity
  8
0
100
AcDbLine
 62
7
  6
BYLAYER
 10
69.0564946623
 20
68.3843982328
 11
69.0564946623
 21
71.155679525
  0
LINE
  5
408
100
AcDbEntity
  8
0
100
AcDbLine
 62
7
  6
BYLAYER
 10
69.0564946623
 20
78.4302982328
 11
69.0564946623
 21
81.201579525
  0
LINE
  5
409
100
AcDbEntity
  8
0
100
AcDbLine
 62
7
  6
BYLAYER
 10
69.0564946623
 20
88.4761982328
 11
69.0564946623
 21
91.247479525
  0
LINE
  5
40A
100
AcDbEntity
  8
0
100
AcDbLine
 62
7
  6
BYLAYER
 10
69.0564946623
 20
98.5220982328
 11
69.0564946623
 21
101.293379525
  0
LINE
  5
40B
100
AcDbEntity
  8
0
100
AcDbLine
 62
7
  6
BYLAYER
 10
69.0564946623
 20
108.5679982328
 11
69.0564946623
 21
111.339279525
  0
LINE
  5
40C
100
AcDbEntity
  8
0
100
AcDbLine
 62
7
  6
BYLAYER
 10
69.6564946623
 20
128.3765543242
 11
69.6564946623
 21
128.4765543242
  0
LINE
  5
40D
100
AcDbEntity
  8
0
100
AcDbLine
 62
7
  6
BYLAYER
 10
70.0564946623
 20
127.935689804
 11
70.0564946623
 21
128.135689804
  0
LINE
  5
40E
100
AcDbEntity
  8
0
100
AcDbLine
 62
7
  6
BYLAYER
 10
60.8564946623
 20
62.495420171
 11
58.4564946623
 21
61.109779525
  0
LINE
  5
40F
100
AcDbEntity
  8
0
100
AcDbLine
 62
7
  6
BYLAYER
 10
52.1564946623
 20
57.4724728291
 11
49.7564946623
 21
56.086832183
  0
LINE
  5
410
100
AcDbEntity
  8
0
100
AcDbLine
 62
7
  6
BYLAYER
 10
43.4564946623
 20
52.449520171
 11
41.0564946623
 21
51.063879525
  0
LINE
  5
411
100
AcDbEntity
  8
0
100
AcDbLine
 62
7
  6
BYLAYER
 10
63.7564946623
 20
61.9758102448
 11
66.1564946623
 21
63.3614508909
  0
LINE
  5
412
100
AcDbEntity
  8
0
100
AcDbLine
 62
7
  6
BYLAYER
 10
46.3564946623
 20
51.9299102448
 11
48.7564946623
 21
53.3155508909
  0
LINE
  5
413
100
AcDbEntity
  8
0
100
AcDbLine
 62
7
  6
BYLAYER
 10
55.0564946623
 20
56.9528575868
 11
57.4564946623
 21
58.3384982328
  0
LINE
  5
414
100
AcDbEntity
  8
0
100
AcDbLine
 62
7
  6
BYLAYER
 10
37.6564946623
 20
46.9069575868
 11
40.0564946623
 21
48.2925982328
  0
LINE
  5
415
100
AcDbEntity
  8
0
100
AcDbLine
 62
7
  6
BYLAYER
 10
66.6564946623
 20
62.495420171
 11
64.2564946623
 21
61.109779525
  0
LINE
  5
416
100
AcDbEntity
  8
0
100
AcDbLine
 62
7
  6
BYLAYER
 10
57.9564946623
 20
57.4724728291
 11
55.5564946623
 21
56.086832183
  0
LINE
  5
417
100
AcDbEntity
  8
0
100
AcDbLine
 62
7
  6
BYLAYER
 10
49.2564946623
 20
52.449520171
 11
46.8564946623
 21
51.063879525
  0
LINE
  5
418
100
AcDbEntity
  8
0
100
AcDbLine
 62
7
  6
BYLAYER
 10
40.5564946623
 20
47.4265728291
 11
38.1564946623
 21
46.040932183
  0
LINE
  5
419
100
AcDbEntity
  8
0
100
AcDbLine
 62
7
  6
BYLAYER
 10
69.0564946623
 20
81.201579525
 11
66.6564946623
 21
82.587220171
  0
LINE
  5
41A
100
AcDbEntity
  8
0
100
AcDbLine
 62
7
  6
BYLAYER
 10
60.3564946623
 20
86.224532183
 11
57.9564946623
 21
87.6101728291
  0
LINE
  5
41B
100
AcDbEntity
  8
0
100
AcDbLine
 62
7
  6
BYLAYER
 10
51.6564946623
 20
91.247479525
 11
49.2564946623
 21
92.633120171
  0
LINE
  5
41C
100
AcDbEntity
  8
0
100
AcDbLine
 62
7
  6
BYLAYER
 10
42.9564946623
 20
96.270432183
 11
40.5564946623
 21
97.6560728291
  0
LINE
  5
41D
100
AcDbEntity
  8
0
100
AcDbLine
 62
7
  6
BYLAYER
 10
58.4564946623
 20
88.4761982328
 11
60.8564946623
 21
87.0905575868
  0
LINE
  5
41E
100
AcDbEntity
  8
0
100
AcDbLine
 62
7
  6
BYLAYER
 10
41.0564946623
 20
98.5220982328
 11
43.4564946623
 21
97.1364575868
  0
LINE
  5
41F
100
AcDbEntity
  8
0
100
AcDbLine
 62
7
  6
BYLAYER
 10
49.7564946623
 20
93.4991508909
 11
52.1564946623
 21
92.1135102448
  0
LINE
  5
420
100
AcDbEntity
  8
0
100
AcDbLine
 62
7
  6
BYLAYER
 10
66.1564946623
 20
86.224532183
 11
63.7564946623
 21
87.6101728291
  0
LINE
  5
421
100
AcDbEntity
  8
0
100
AcDbLine
 62
7
  6
BYLAYER
 10
57.4564946623
 20
91.247479525
 11
55.0564946623
 21
92.633120171
  0
LINE
  5
422
100
AcDbEntity
  8
0
100
AcDbLine
 62
7
  6
BYLAYER
 10
48.7564946623
 20
96.270432183
 11
46.3564946623
 21
97.6560728291
  0
LINE
  5
423
100
AcDbEntity
  8
0
100
AcDbLine
 62
7
  6
BYLAYER
 10
40.0564946623
 20
101.293379525
 11
37.6564946623
 21
102.679020171
  0
LINE
  5
424
100
AcDbEntity
  8
0
100
AcDbLine
 62
7
  6
BYLAYER
 10
70.4064946623
 20
128.4765543242
 11
70.4064946623
 21
129.2405851387
  0
LINE
  5
425
100
AcDbEntity
  8
0
100
AcDbLine
 62
7
  6
BYLAYER
 10
70.6564946623
 20
128.4765543242
 11
70.6564946623
 21
135.5765543242
  0
LINE
  5
426
100
AcDbEntity
  8
0
100
AcDbLine
 62
7
  6
BYLAYER
 10
71.9564946617
 20
13.2765543242
 11
71.9564946623
 21
126.035689804
  0
LINE
  5
427
100
AcDbEntity
  8
0
100
AcDbLine
 62
7
  6
BYLAYER
 10
72.1564946623
 20
13.476554325
 11
72.1564946623
 21
126.035689804
  0
LINE
  5
428
100
AcDbEntity
  8
0
100
AcDbLine
 62
7
  6
BYLAYER
 10
52.1564946623
 20
51.9299102448
 11
54.5564946623
 21
53.3155508909
  0
LINE
  5
429
100
AcDbEntity
  8
0
100
AcDbLine
 62
7
  6
BYLAYER
 10
60.8564946623
 20
56.9528575868
 11
63.2564946623
 21
58.3384982328
  0
LINE
  5
42A
100
AcDbEntity
  8
0
100
AcDbLine
 62
7
  6
BYLAYER
 10
43.4564946623
 20
46.9069575868
 11
45.8564946623
 21
48.2925982328
  0
LINE
  5
42B
100
AcDbEntity
  8
0
100
AcDbLine
 62
7
  6
BYLAYER
 10
63.7564946623
 20
57.4724728291
 11
61.3564946623
 21
56.086832183
  0
LINE
  5
42C
100
AcDbEntity
  8
0
100
AcDbLine
 62
7
  6
BYLAYER
 10
55.0564946623
 20
52.449520171
 11
52.6564946623
 21
51.063879525
  0
LINE
  5
42D
100
AcDbEntity
  8
0
100
AcDbLine
 62
7
  6
BYLAYER
 10
46.3564946623
 20
47.4265728291
 11
43.9564946623
 21
46.040932183
  0
LINE
  5
42E
100
AcDbEntity
  8
0
100
AcDbLine
 62
7
  6
BYLAYER
 10
57.9564946623
 20
51.9299102448
 11
60.3564946623
 21
53.3155508909
  0
LINE
  5
42F
100
AcDbEntity
  8
0
100
AcDbLine
 62
7
  6
BYLAYER
 10
66.6564946623
 20
56.9528575868
 11
69.0564946623
 21
58.3384982328
  0
LINE
  5
430
100
AcDbEntity
  8
0
100
AcDbLine
 62
7
  6
BYLAYER
 10
40.5564946623
 20
41.8840102448
 11
42.9564946623
 21
43.2696508909
  0
LINE
  5
431
100
AcDbEntity
  8
0
100
AcDbLine
 62
7
  6
BYLAYER
 10
49.2564946623
 20
46.9069575868
 11
51.6564946623
 21
48.2925982328
  0
LINE
  5
432
100
AcDbEntity
  8
0
100
AcDbLine
 62
7
  6
BYLAYER
 10
64.2564946623
 20
88.4761982328
 11
66.6564946623
 21
87.0905575868
  0
LINE
  5
433
100
AcDbEntity
  8
0
100
AcDbLine
 62
7
  6
BYLAYER
 10
46.8564946623
 20
98.5220982328
 11
49.2564946623
 21
97.1364575868
  0
LINE
  5
434
100
AcDbEntity
  8
0
100
AcDbLine
 62
7
  6
BYLAYER
 10
55.5564946623
 20
93.4991508909
 11
57.9564946623
 21
92.1135102448
  0
LINE
  5
435
100
AcDbEntity
  8
0
100
AcDbLine
 62
7
  6
BYLAYER
 10
38.1564946623
 20
103.5450508909
 11
40.5564946623
 21
102.1594102448
  0
LINE
  5
436
100
AcDbEntity
  8
0
100
AcDbLine
 62
7
  6
BYLAYER
 10
63.2564946623
 20
91.247479525
 11
60.8564946623
 21
92.633120171
  0
LINE
  5
437
100
AcDbEntity
  8
0
100
AcDbLine
 62
7
  6
BYLAYER
 10
54.5564946623
 20
96.270432183
 11
52.1564946623
 21
97.6560728291
  0
LINE
  5
438
100
AcDbEntity
  8
0
100
AcDbLine
 62
7
  6
BYLAYER
 10
45.8564946623
 20
101.293379525
 11
43.4564946623
 21
102.679020171
  0
LINE
  5
439
100
AcDbEntity
  8
0
100
AcDbLine
 62
7
  6
BYLAYER
 10
52.6564946623
 20
98.5220982328
 11
55.0564946623
 21
97.1364575868
  0
LINE
  5
43A
100
AcDbEntity
  8
0
100
AcDbLine
 62
7
  6
BYLAYER
 10
61.3564946623
 20
93.4991508909
 11
63.7564946623
 21
92.1135102448
  0
LINE
  5
43B
100
AcDbEntity
  8
0
100
AcDbLine
 62
7
  6
BYLAYER
 10
35.2564946623
 20
108.5679982328
 11
37.6564946623
 21
107.1823575868
  0
LINE
  5
43C
100
AcDbEntity
  8
0
100
AcDbLine
 62
7
  6
BYLAYER
 10
43.9564946623
 20
103.5450508909
 11
46.3564946623
 21
102.1594102448
  0
LINE
  5
43D
100
AcDbEntity
  8
0
100
AcDbLine
 62
7
  6
BYLAYER
 10
62.0743714932
 20
130.0765543242
 11
61.8653880102
 21
131.2617585518
  0
LINE
  5
43E
100
AcDbEntity
  8
0
100
AcDbLine
 62
7
  6
BYLAYER
 10
63.6990540722
 20
130.0765543242
 11
63.441080415
 21
131.5395956361
  0
LINE
  5
43F
100
AcDbEntity
  8
0
100
AcDbLine
 62
7
  6
BYLAYER
 10
60.8564946623
 20
52.449520171
 11
58.4564946623
 21
51.063879525
  0
LINE
  5
440
100
AcDbEntity
  8
0
100
AcDbLine
 62
7
  6
BYLAYER
 10
52.1564946623
 20
47.4265728291
 11
49.7564946623
 21
46.040932183
  0
LINE
  5
441
100
AcDbEntity
  8
0
100
AcDbLine
 62
7
  6
BYLAYER
 10
63.7564946623
 20
51.9299102448
 11
66.1564946623
 21
53.3155508909
  0
LINE
  5
442
100
AcDbEntity
  8
0
100
AcDbLine
 62
7
  6
BYLAYER
 10
46.3564946623
 20
41.8840102448
 11
48.7564946623
 21
43.2696508909
  0
LINE
  5
443
100
AcDbEntity
  8
0
100
AcDbLine
 62
7
  6
BYLAYER
 10
55.0564946623
 20
46.9069575868
 11
57.4564946623
 21
48.2925982328
  0
LINE
  5
444
100
AcDbEntity
  8
0
100
AcDbLine
 62
7
  6
BYLAYER
 10
66.6564946623
 20
52.449520171
 11
64.2564946623
 21
51.063879525
  0
LINE
  5
445
100
AcDbEntity
  8
0
100
AcDbLine
 62
7
  6
BYLAYER
 10
57.9564946623
 20
47.4265728291
 11
55.5564946623
 21
46.040932183
  0
LINE
  5
446
100
AcDbEntity
  8
0
100
AcDbLine
 62
7
  6
BYLAYER
 10
69.0564946623
 20
91.247479525
 11
66.6564946623
 21
92.633120171
  0
LINE
  5
447
100
AcDbEntity
  8
0
100
AcDbLine
 62
7
  6
BYLAYER
 10
60.3564946623
 20
96.270432183
 11
57.9564946623
 21
97.6560728291
  0
LINE
  5
448
100
AcDbEntity
  8
0
100
AcDbLine
 62
7
  6
BYLAYER
 10
51.6564946623
 20
101.293379525
 11
49.2564946623
 21
102.679020171
  0
LINE
  5
449
100
AcDbEntity
  8
0
100
AcDbLine
 62
7
  6
BYLAYER
 10
42.9564946623
 20
106.316332183
 11
40.5564946623
 21
107.7019728291
  0
LINE
  5
44A
100
AcDbEntity
  8
0
100
AcDbLine
 62
7
  6
BYLAYER
 10
58.4564946623
 20
98.5220982328
 11
60.8564946623
 21
97.1364575868
  0
LINE
  5
44B
100
AcDbEntity
  8
0
100
AcDbLine
 62
7
  6
BYLAYER
 10
41.0564946623
 20
108.5679982328
 11
43.4564946623
 21
107.1823575868
  0
LINE
  5
44C
100
AcDbEntity
  8
0
100
AcDbLine
 62
7
  6
BYLAYER
 10
49.7564946623
 20
103.5450508909
 11
52.1564946623
 21
102.1594102448
  0
LINE
  5
44D
100
AcDbEntity
  8
0
100
AcDbLine
 62
7
  6
BYLAYER
 10
66.1564946623
 20
96.270432183
 11
63.7564946623
 21
97.6560728291
  0
LINE
  5
44E
100
AcDbEntity
  8
0
100
AcDbLine
 62
7
  6
BYLAYER
 10
57.4564946623
 20
101.293379525
 11
55.0564946623
 21
102.679020171
  0
LINE
  5
44F
100
AcDbEntity
  8
0
100
AcDbLine
 62
7
  6
BYLAYER
 10
48.7564946623
 20
106.316332183
 11
46.3564946623
 21
107.7019728291
  0
LINE
  5
450
100
AcDbEntity
  8
0
100
AcDbLine
 62
7
  6
BYLAYER
 10
40.0564946623
 20
111.339279525
 11
37.6564946623
 21
112.724920171
  0
LINE
  5
451
100
AcDbEntity
  8
0
100
AcDbLine
 62
7
  6
BYLAYER
 10
52.1564946623
 20
41.8840102448
 11
54.5564946623
 21
43.2696508909
  0
LINE
  5
452
100
AcDbEntity
  8
0
100
AcDbLine
 62
7
  6
BYLAYER
 10
60.8564946623
 20
46.9069575868
 11
63.2564946623
 21
48.2925982328
  0
LINE
  5
453
100
AcDbEntity
  8
0
100
AcDbLine
 62
7
  6
BYLAYER
 10
63.7564946623
 20
47.4265728291
 11
61.3564946623
 21
46.040932183
  0
LINE
  5
454
100
AcDbEntity
  8
0
100
AcDbLine
 62
7
  6
BYLAYER
 10
57.9564946623
 20
41.8840102448
 11
60.3564946623
 21
43.2696508909
  0
LINE
  5
455
100
AcDbEntity
  8
0
100
AcDbLine
 62
7
  6
BYLAYER
 10
66.6564946623
 20
46.9069575868
 11
69.0564946623
 21
48.2925982328
  0
LINE
  5
456
100
AcDbEntity
  8
0
100
AcDbLine
 62
7
  6
BYLAYER
 10
64.2564946623
 20
98.5220982328
 11
66.6564946623
 21
97.1364575868
  0
LINE
  5
457
100
AcDbEntity
  8
0
100
AcDbLine
 62
7
  6
BYLAYER
 10
46.8564946623
 20
108.5679982328
 11
49.2564946623
 21
107.1823575868
  0
LINE
  5
458
100
AcDbEntity
  8
0
100
AcDbLine
 62
7
  6
BYLAYER
 10
55.5564946623
 20
103.5450508909
 11
57.9564946623
 21
102.1594102448
  0
LINE
  5
459
100
AcDbEntity
  8
0
100
AcDbLine
 62
7
  6
BYLAYER
 10
38.1564946623
 20
113.5909508909
 11
40.5564946623
 21
112.2053102448
  0
LINE
  5
45A
100
AcDbEntity
  8
0
100
AcDbLine
 62
7
  6
BYLAYER
 10
63.2564946623
 20
101.293379525
 11
60.8564946623
 21
102.679020171
  0
LINE
  5
45B
100
AcDbEntity
  8
0
100
AcDbLine
 62
7
  6
BYLAYER
 10
54.5564946623
 20
106.316332183
 11
52.1564946623
 21
107.7019728291
  0
LINE
  5
45C
100
AcDbEntity
  8
0
100
AcDbLine
 62
7
  6
BYLAYER
 10
45.8564946623
 20
111.339279525
 11
43.4564946623
 21
112.724920171
  0
LINE
  5
45D
100
AcDbEntity
  8
0
100
AcDbLine
 62
7
  6
BYLAYER
 10
52.6564946623
 20
108.5679982328
 11
55.0564946623
 21
107.1823575868
  0
LINE
  5
45E
100
AcDbEntity
  8
0
100
AcDbLine
 62
7
  6
BYLAYER
 10
61.3564946623
 20
103.5450508909
 11
63.7564946623
 21
102.1594102448
  0
LINE
  5
45F
100
AcDbEntity
  8
0
100
AcDbLine
 62
7
  6
BYLAYER
 10
43.9564946623
 20
113.5909508909
 11
46.3564946623
 21
112.2053102448
  0
LINE
  5
460
100
AcDbEntity
  8
0
100
AcDbLine
 62
7
  6
BYLAYER
 10
63.7564946623
 20
41.8840102448
 11
66.1564946623
 21
43.2696508909
  0
LINE
  5
461
100
AcDbEntity
  8
0
100
AcDbLine
 62
7
  6
BYLAYER
 10
69.0564946623
 20
101.293379525
 11
66.6564946623
 21
102.679020171
  0
LINE
  5
462
100
AcDbEntity
  8
0
100
AcDbLine
 62
7
  6
BYLAYER
 10
60.3564946623
 20
106.316332183
 11
57.9564946623
 21
107.7019728291
  0
LINE
  5
463
100
AcDbEntity
  8
0
100
AcDbLine
 62
7
  6
BYLAYER
 10
51.6564946623
 20
111.339279525
 11
49.2564946623
 21
112.724920171
  0
LINE
  5
464
100
AcDbEntity
  8
0
100
AcDbLine
 62
7
  6
BYLAYER
 10
42.9564946623
 20
116.362232183
 11
40.5564946623
 21
117.7478728291
  0
LINE
  5
465
100
AcDbEntity
  8
0
100
AcDbLine
 62
7
  6
BYLAYER
 10
58.4564946623
 20
108.5679982328
 11
60.8564946623
 21
107.1823575868
  0
LINE
  5
466
100
AcDbEntity
  8
0
100
AcDbLine
 62
7
  6
BYLAYER
 10
49.7564946623
 20
113.5909508909
 11
52.1564946623
 21
112.2053102448
  0
LINE
  5
467
100
AcDbEntity
  8
0
100
AcDbLine
 62
7
  6
BYLAYER
 10
66.1564946623
 20
106.316332183
 11
63.7564946623
 21
107.7019728291
  0
LINE
  5
468
100
AcDbEntity
  8
0
100
AcDbLine
 62
7
  6
BYLAYER
 10
57.4564946623
 20
111.339279525
 11
55.0564946623
 21
112.724920171
  0
LINE
  5
469
100
AcDbEntity
  8
0
100
AcDbLine
 62
7
  6
BYLAYER
 10
48.7564946623
 20
116.362232183
 11
46.3564946623
 21
117.7478728291
  0
LINE
  5
46A
100
AcDbEntity
  8
0
100
AcDbLine
 62
7
  6
BYLAYER
 10
32.1564946623
 20
110.9765543242
 11
32.0564946623
 21
110.9765543242
  0
LINE
  5
46B
100
AcDbEntity
  8
0
100
AcDbLine
 62
7
  6
BYLAYER
 10
32.0564946623
 20
111.9765543242
 11
32.1564946623
 21
111.9765543242
  0
LINE
  5
46C
100
AcDbEntity
  8
0
100
AcDbLine
 62
7
  6
BYLAYER
 10
64.2564946623
 20
108.5679982328
 11
66.6564946623
 21
107.1823575868
  0
LINE
  5
46D
100
AcDbEntity
  8
0
100
AcDbLine
 62
7
  6
BYLAYER
 10
55.5564946623
 20
113.5909508909
 11
57.9564946623
 21
112.2053102448
  0
LINE
  5
46E
100
AcDbEntity
  8
0
100
AcDbLine
 62
7
  6
BYLAYER
 10
63.2564946623
 20
111.339279525
 11
60.8564946623
 21
112.724920171
  0
LINE
  5
46F
100
AcDbEntity
  8
0
100
AcDbLine
 62
7
  6
BYLAYER
 10
54.5564946623
 20
116.362232183
 11
52.1564946623
 21
117.7478728291
  0
LINE
  5
470
100
AcDbEntity
  8
0
100
AcDbLine
 62
7
  6
BYLAYER
 10
61.3564946623
 20
113.5909508909
 11
63.7564946623
 21
112.2053102448
  0
LINE
  5
471
100
AcDbEntity
  8
0
100
AcDbLine
 62
7
  6
BYLAYER
 10
68.356494568
 20
27.8765543242
 11
68.556494568
 21
28.0765543242
  0
LINE
  5
472
100
AcDbEntity
  8
0
100
AcDbLine
 62
7
  6
BYLAYER
 10
65.1564946623
 20
116.4765543242
 11
61.5545064194
 21
116.4765543242
  0
LINE
  5
473
100
AcDbEntity
  8
0
100
AcDbLine
 62
7
  6
BYLAYER
 10
60.1584829053
 20
116.4765543242
 11
55.7545064194
 21
116.4765543242
  0
LINE
  5
474
100
AcDbEntity
  8
0
100
AcDbLine
 62
7
  6
BYLAYER
 10
54.3584829053
 20
116.4765543242
 11
49.9545064194
 21
116.4765543242
  0
LINE
  5
475
100
AcDbEntity
  8
0
100
AcDbLine
 62
7
  6
BYLAYER
 10
48.5584829053
 20
116.4765543242
 11
44.1545064194
 21
116.4765543242
  0
LINE
  5
476
100
AcDbEntity
  8
0
100
AcDbLine
 62
7
  6
BYLAYER
 10
42.7584829053
 20
116.4765543242
 11
39.1564946623
 21
116.4765543242
  0
LINE
  5
477
100
AcDbEntity
  8
0
100
AcDbLine
 62
7
  6
BYLAYER
 10
69.0564946623
 20
111.339279525
 11
66.6564946623
 21
112.724920171
  0
LINE
  5
478
100
AcDbEntity
  8
0
100
AcDbLine
 62
7
  6
BYLAYER
 10
60.3564946623
 20
116.362232183
 11
57.9564946623
 21
117.7478728291
  0
LINE
  5
479
100
AcDbEntity
  8
0
100
AcDbLine
 62
7
  6
BYLAYER
 10
66.1564946623
 20
116.362232183
 11
63.7564946623
 21
117.7478728291
  0
LINE
  5
47A
100
AcDbEntity
  8
0
100
AcDbLine
 62
7
  6
BYLAYER
 10
72.1564946623
 20
126.035689804
 11
71.9564946623
 21
126.035689804
  0
LINE
  5
47B
100
AcDbEntity
  8
0
100
AcDbLine
 62
7
  6
BYLAYER
 10
32.3564946623
 20
126.035689804
 11
32.1564946623
 21
126.035689804
  0
LINE
  5
47C
100
AcDbEntity
  8
0
100
AcDbLine
 62
7
  6
BYLAYER
 10
70.0564946624
 20
127.935689804
 11
58.1564946623
 21
127.935689804
  0
LINE
  5
47D
100
AcDbEntity
  8
0
100
AcDbLine
 62
7
  6
BYLAYER
 10
46.1564946623
 20
127.935689804
 11
34.2564946623
 21
127.935689804
  0
LINE
  5
47E
100
AcDbEntity
  8
0
100
AcDbLine
 62
7
  6
BYLAYER
 10
34.2564946616
 20
128.135689804
 11
46.1564946623
 21
128.135689804
  0
LINE
  5
47F
100
AcDbEntity
  8
0
100
AcDbLine
 62
7
  6
BYLAYER
 10
58.1564946623
 20
128.135689804
 11
70.0564946618
 21
128.135689804
  0
LINE
  5
480
100
AcDbEntity
  8
0
100
AcDbLine
 62
7
  6
BYLAYER
 10
69.6564946627
 20
128.3765543242
 11
58.1564946623
 21
128.3765543242
  0
LINE
  5
481
100
AcDbEntity
  8
0
100
AcDbLine
 62
7
  6
BYLAYER
 10
46.1564946623
 20
128.3765543242
 11
34.6564946618
 21
128.3765543242
  0
LINE
  5
482
100
AcDbEntity
  8
0
100
AcDbLine
 62
7
  6
BYLAYER
 10
33.6564946623
 20
128.4765543242
 11
46.1564946623
 21
128.4765543242
  0
LINE
  5
483
100
AcDbEntity
  8
0
100
AcDbLine
 62
7
  6
BYLAYER
 10
58.1564946623
 20
128.4765543242
 11
70.6564946623
 21
128.4765543242
  0
LINE
  5
484
100
AcDbEntity
  8
0
100
AcDbLine
 62
7
  6
BYLAYER
 10
46.3564946623
 20
128.735689804
 11
57.9564946623
 21
128.735689804
  0
LINE
  5
485
100
AcDbEntity
  8
0
100
AcDbLine
 62
7
  6
BYLAYER
 10
35.2564946623
 20
130.0765543242
 11
69.0564946623
 21
130.0765543242
  0
LINE
  5
486
100
AcDbEntity
  8
0
100
AcDbLine
 62
7
  6
BYLAYER
 10
59.6564946623
 20
130.4765543242
 11
57.6564946623
 21
130.4765543242
  0
LINE
  5
487
100
AcDbEntity
  8
0
100
AcDbLine
 62
7
  6
BYLAYER
 10
46.6564946623
 20
130.4765543242
 11
44.6564946623
 21
130.4765543242
  0
LINE
  5
488
100
AcDbEntity
  8
0
100
AcDbLine
 62
7
  6
BYLAYER
 10
42.6564946623
 20
131.0765543242
 11
61.6564946623
 21
131.0765543242
  0
LINE
  5
489
100
AcDbEntity
  8
0
100
AcDbLine
 62
7
  6
BYLAYER
 10
42.4652342294
 20
131.2765543242
 11
45.4065102083
 21
131.2765543242
  0
LINE
  5
48A
100
AcDbEntity
  8
0
100
AcDbLine
 62
7
  6
BYLAYER
 10
45.6564946623
 20
131.2774546931
 11
58.6564946623
 21
131.2774546931
  0
LINE
  5
48B
100
AcDbEntity
  8
0
100
AcDbLine
 62
7
  6
BYLAYER
 10
70.6564946623
 20
131.5765543242
 11
69.0564946623
 21
131.5765543242
  0
LINE
  5
48C
100
AcDbEntity
  8
0
100
AcDbLine
 62
7
  6
BYLAYER
 10
33.6564946623
 20
131.5765543242
 11
35.2564946623
 21
131.5765543242
  0
LINE
  5
48D
100
AcDbEntity
  8
0
100
AcDbLine
 62
7
  6
BYLAYER
 10
61.8477550952
 20
131.2763731464
 11
58.9064791163
 21
131.2765543242
  0
LINE
  5
48E
100
AcDbEntity
  8
0
100
AcDbLine
 62
7
  6
BYLAYER
 10
58.6564946623
 20
131.6953912552
 11
45.6564946623
 21
131.6953912552
  0
LINE
  5
48F
100
AcDbEntity
  8
0
100
AcDbLine
 62
7
  6
BYLAYER
 10
61.8477550952
 20
132.8765543242
 11
58.9064791163
 21
132.8765543242
  0
LINE
  5
490
100
AcDbEntity
  8
0
100
AcDbLine
 62
7
  6
BYLAYER
 10
42.4652342294
 20
132.8765543242
 11
45.4065102083
 21
132.8765543242
  0
LINE
  5
491
100
AcDbEntity
  8
0
100
AcDbLine
 62
7
  6
BYLAYER
 10
45.6564946623
 20
133.4462434513
 11
58.6564946623
 21
133.4462434513
  0
LINE
  5
492
100
AcDbEntity
  8
0
100
AcDbLine
 62
7
  6
BYLAYER
 10
68.6564946623
 20
134.2765543242
 11
60.9064946623
 21
134.2765543242
  0
LINE
  5
493
100
AcDbEntity
  8
0
100
AcDbLine
 62
7
  6
BYLAYER
 10
35.6564946623
 20
134.2765543242
 11
43.4064946623
 21
134.2765543242
  0
LINE
  5
494
100
AcDbEntity
  8
0
100
AcDbLine
 62
7
  6
BYLAYER
 10
70.6564946623
 20
135.5765543242
 11
69.0564946623
 21
135.5765543242
  0
LINE
  5
495
100
AcDbEntity
  8
0
100
AcDbLine
 62
7
  6
BYLAYER
 10
33.6564946623
 20
135.5765543242
 11
35.2564946623
 21
135.5765543242
  0
LINE
  5
496
100
AcDbEntity
  8
0
100
AcDbLine
 62
7
  6
BYLAYER
 10
46.6564946623
 20
136.7209845221
 11
57.6564946623
 21
136.7209845221
  0
ARC
  5
497
100
AcDbEntity
  8
0
100
AcDbCircle
 62
7
  6
BYLAYER
 10
35.7564946623
 20
13.4765543242
 40
0.2
100
AcDbArc
 50
270.0
 51
0.000000065
  0
ARC
  5
498
100
AcDbEntity
  8
0
100
AcDbCircle
 62
7
  6
BYLAYER
 10
32.3564946623
 20
13.4765543242
 40
0.2
100
AcDbArc
 50
179.9999999993
 51
270.0
  0
ARC
  5
499
100
AcDbEntity
  8
0
100
AcDbCircle
 62
7
  6
BYLAYER
 10
34.6564946623
 20
125.9765543242
 40
2.5
100
AcDbArc
 50
90.0
 51
171.9055872701
  0
ARC
  5
49A
100
AcDbEntity
  8
0
100
AcDbCircle
 62
7
  6
BYLAYER
 10
34.6564946623
 20
125.9765543242
 40
2.4
100
AcDbArc
 50
90.0000000109
 51
129.0955944932
  0
ARC
  5
49B
100
AcDbEntity
  8
0
100
AcDbCircle
 62
7
  6
BYLAYER
 10
34.2564946623
 20
126.035689804
 40
2.1
100
AcDbArc
 50
90.000000023
 51
180.0
  0
ARC
  5
49C
100
AcDbEntity
  8
0
100
AcDbCircle
 62
7
  6
BYLAYER
 10
43.4064946623
 20
132.2765543242
 40
2.0
100
AcDbArc
 50
18.0085555573
 51
90.0
  0
ARC
  5
49D
100
AcDbEntity
  8
0
100
AcDbCircle
 62
7
  6
BYLAYER
 10
35.6564946623
 20
132.2765543242
 40
2.0
100
AcDbArc
 50
90.0
 51
102.0578575166
  0
ARC
  5
49E
100
AcDbEntity
  8
0
100
AcDbCircle
 62
7
  6
BYLAYER
 10
34.2564946623
 20
126.035689804
 40
1.9
100
AcDbArc
 50
90.0
 51
180.0
  0
ARC
  5
49F
100
AcDbEntity
  8
0
100
AcDbCircle
 62
7
  6
BYLAYER
 10
42.4652342294
 20
131.2586493931
 40
1.6179049311
100
AcDbArc
 50
90.0
 51
170.0000000001
  0
ARC
  5
4A0
100
AcDbEntity
  8
0
100
AcDbCircle
 62
7
  6
BYLAYER
 10
35.2564946623
 20
130.0765543242
 40
1.6
100
AcDbArc
 50
180.0
 51
270.0
  0
ARC
  5
4A1
100
AcDbEntity
  8
0
100
AcDbCircle
 62
7
  6
BYLAYER
 10
39.1564946623
 20
117.4765543242
 40
1.0
100
AcDbArc
 50
239.9332666753
 51
270.0
  0
ARC
  5
4A2
100
AcDbEntity
  8
0
100
AcDbCircle
 62
7
  6
BYLAYER
 10
46.3564946623
 20
128.535689804
 40
0.2
100
AcDbArc
 50
90.0
 51
180.0
  0
ARC
  5
4A3
100
AcDbEntity
  8
0
100
AcDbCircle
 62
7
  6
BYLAYER
 10
42.4652342294
 20
131.2586493931
 40
0.0179049311
100
AcDbArc
 50
90.0
 51
170.0000000048
  0
ARC
  5
4A4
100
AcDbEntity
  8
0
100
AcDbCircle
 62
7
  6
BYLAYER
 10
71.9564946623
 20
13.4765543242
 40
0.2000000001
100
AcDbArc
 50
270.0000000139
 51
0.0000002136
  0
ARC
  5
4A5
100
AcDbEntity
  8
0
100
AcDbCircle
 62
7
  6
BYLAYER
 10
68.5564946623
 20
13.4765543974
 40
0.2
100
AcDbArc
 50
180.0000143642
 51
270.0000000047
  0
ARC
  5
4A6
100
AcDbEntity
  8
0
100
AcDbCircle
 62
7
  6
BYLAYER
 10
69.6564946623
 20
125.9765543242
 40
2.5
100
AcDbArc
 50
8.0944127022
 51
90.0
  0
ARC
  5
4A7
100
AcDbEntity
  8
0
100
AcDbCircle
 62
7
  6
BYLAYER
 10
69.6564946623
 20
125.9765543242
 40
2.4
100
AcDbArc
 50
50.9049930255
 51
89.9999999895
  0
ARC
  5
4A8
100
AcDbEntity
  8
0
100
AcDbCircle
 62
7
  6
BYLAYER
 10
70.0564946623
 20
126.035689804
 40
2.1
100
AcDbArc
 50
0.0
 51
90.0000000142
  0
ARC
  5
4A9
100
AcDbEntity
  8
0
100
AcDbCircle
 62
7
  6
BYLAYER
 10
68.6564946623
 20
132.2765543242
 40
2.0
100
AcDbArc
 50
77.9424369169
 51
90.0
  0
ARC
  5
4AA
100
AcDbEntity
  8
0
100
AcDbCircle
 62
7
  6
BYLAYER
 10
60.9064946623
 20
132.2765543242
 40
2.0
100
AcDbArc
 50
90.0
 51
161.9917580195
  0
ARC
  5
4AB
100
AcDbEntity
  8
0
100
AcDbCircle
 62
7
  6
BYLAYER
 10
70.0564946623
 20
126.035689804
 40
1.9
100
AcDbArc
 50
0.0
 51
89.9999999974
  0
ARC
  5
4AC
100
AcDbEntity
  8
0
100
AcDbCircle
 62
7
  6
BYLAYER
 10
61.8477550952
 20
131.2586493931
 40
1.6179049311
100
AcDbArc
 50
9.9999999999
 51
90.0
  0
ARC
  5
4AD
100
AcDbEntity
  8
0
100
AcDbCircle
 62
7
  6
BYLAYER
 10
69.0564946623
 20
130.0765543242
 40
1.6
100
AcDbArc
 50
270.0
 51
360.0
  0
ARC
  5
4AE
100
AcDbEntity
  8
0
100
AcDbCircle
 62
7
  6
BYLAYER
 10
65.1564946623
 20
117.4765543242
 40
1.0
100
AcDbArc
 50
270.0
 51
300.0636513896
  0
ARC
  5
4AF
100
AcDbEntity
  8
0
100
AcDbCircle
 62
7
  6
BYLAYER
 10
57.9564946623
 20
128.535689804
 40
0.2
100
AcDbArc
 50
0.0
 51
90.0
  0
ARC
  5
4B0
100
AcDbEntity
  8
0
100
AcDbCircle
 62
7
  6
BYLAYER
 10
61.8477550952
 20
131.2586493931
 40
0.0179049311
100
AcDbArc
 50
9.9999999922
 51
90.0
  0
SPLINE
  5
4B1
100
AcDbEntity
  8
0
100
AcDbSpline
 62
7
  6
BYLAYER
 70
0
 71
3
 72
14
 73
10
 74
0
 42
0.0000001
 43
0.0000001
 44
0.0000000001
 40
0.0
 40
0.0
 40
0.0
 40
0.0
 40
0.2961940358
 40
0.4364991852
 40
0.5680306413
 40
0.6892998805
 40
0.8002344443
 40
0.9026367505
 40
1.0
 40
1.0
 40
1.0
 40
1.0
 10
57.6564946623
 20
136.7209845221
 30
0.0
 10
57.7851043399
 20
136.7209845221
 30
0.0
 10
57.9760790988
 20
136.6977523272
 30
0.0
 10
58.2102565075
 20
136.6183142478
 30
0.0
 10
58.3624281383
 20
136.539249755
 30
0.0
 10
58.4883334217
 20
136.4423260445
 30
0.0
 10
58.5832584307
 20
136.3306041236
 30
0.0
 10
58.642742672
 20
136.2077148307
 30
0.0
 10
58.6564946623
 20
136.1204727675
 30
0.0
 10
58.6564946623
 20
136.0781969124
 30
0.0
  0
SPLINE
  5
4B2
100
AcDbEntity
  8
0
100
AcDbSpline
 62
7
  6
BYLAYER
 70
0
 71
3
 72
14
 73
10
 74
0
 42
0.0000001
 43
0.0000001
 44
0.0000000001
 40
0.0
 40
0.0
 40
0.0
 40
0.0
 40
0.0973632194
 40
0.1997654708
 40
0.3107000087
 40
0.4319692299
 40
0.5635006826
 40
0.7038058475
 40
1.0
 40
1.0
 40
1.0
 40
1.0
 10
45.6564946623
 20
136.0781969124
 30
0.0
 10
45.6564946623
 20
136.1204727545
 30
0.0
 10
45.6702466216
 20
136.2077147847
 30
0.0
 10
45.7297308441
 20
136.3306040343
 30
0.0
 10
45.8246557979
 20
136.4423259426
 30
0.0
 10
45.9505610466
 20
136.5392496665
 30
0.0
 10
46.1027326617
 20
136.6183141854
 30
0.0
 10
46.3369101158
 20
136.6977523084
 30
0.0
 10
46.5278849337
 20
136.7209845221
 30
0.0
 10
46.6564946623
 20
136.7209845221
 30
0.0
  0
SPLINE
  5
4B3
100
AcDbEntity
  8
0
100
AcDbSpline
 62
7
  6
BYLAYER
 70
0
 71
3
 72
9
 73
5
 74
0
 42
0.0000001
 43
0.0000001
 44
0.0000000001
 40
0.0
 40
0.0
 40
0.0
 40
0.0
 40
0.2562142724
 40
1.0
 40
1.0
 40
1.0
 40
1.0
 10
71.9564946622
 20
13.4242928154
 30
0.0
 10
71.9649367083
 20
13.4242928154
 30
0.0
 10
71.9978655456
 20
13.425411496
 30
0.0
 10
72.0307410937
 20
13.4305846594
 30
0.0
 10
72.0543203479
 20
13.4372643007
 30
0.0
  0
SPLINE
  5
4B4
100
AcDbEntity
  8
0
100
AcDbSpline
 62
7
  6
BYLAYER
 70
0
 71
3
 72
9
 73
5
 74
0
 42
0.0000001
 43
0.0000001
 44
0.0000000001
 40
0.0
 40
0.0
 40
0.0
 40
0.0
 40
0.2782331572
 40
1.0
 40
1.0
 40
1.0
 40
1.0
 10
72.0543203479
 20
13.4372643007
 30
0.0
 10
72.0616962927
 20
13.4393537928
 30
0.0
 10
72.087829156
 20
13.4479168542
 30
0.0
 10
72.1130321003
 20
13.4608045398
 30
0.0
 10
72.1281584135
 20
13.4737151896
 30
0.0
  0
SPLINE
  5
4B5
100
AcDbEntity
  8
0
100
AcDbSpline
 62
7
  6
BYLAYER
 70
0
 71
3
 72
8
 73
4
 74
0
 42
0.0000001
 43
0.0000001
 44
0.0000000001
 40
0.0
 40
0.0
 40
0.0
 40
0.0
 40
1.0
 40
1.0
 40
1.0
 40
1.0
 10
72.1281584135
 20
13.4737151896
 30
0.0
 10
72.1327882775
 20
13.4776668831
 30
0.0
 10
72.1371323146
 20
13.4820008609
 30
0.0
 10
72.1409822872
 20
13.4867156497
 30
0.0
  0
SPLINE
  5
4B6
100
AcDbEntity
  8
0
100
AcDbSpline
 62
7
  6
BYLAYER
 70
0
 71
3
 72
9
 73
5
 74
0
 42
0.0000001
 43
0.0000001
 44
0.0000000001
 40
0.0
 40
0.0
 40
0.0
 40
0.0
 40
0.2732982968
 40
1.0
 40
1.0
 40
1.0
 40
1.0
 10
72.1409822872
 20
13.4867156497
 30
0.0
 10
72.1434309512
 20
13.4897143551
 30
0.0
 10
72.1516827944
 20
13.5011952399
 30
0.0
 10
72.1564946623
 20
13.5155062585
 30
0.0
 10
72.1564946623
 20
13.525800488
 30
0.0
  0
SPLINE
  5
4B7
100
AcDbEntity
  8
0
100
AcDbSpline
 62
7
  6
BYLAYER
 70
0
 71
3
 72
10
 73
6
 74
0
 42
0.0000001
 43
0.0000001
 44
0.0000000001
 40
0.0
 40
0.0
 40
0.0
 40
0.0
 40
0.5791805734
 40
0.8164566536
 40
1.0
 40
1.0
 40
1.0
 40
1.0
 10
35.7564946623
 20
13.5735332531
 30
0.0
 10
35.7858881883
 20
13.548206934
 30
0.0
 10
35.8296331366
 20
13.5144358868
 30
0.0
 10
35.8888574379
 20
13.4835058334
 30
0.0
 10
35.9165727794
 20
13.4749569162
 30
0.0
 10
35.9288684101
 20
13.4749635957
 30
0.0
  0
SPLINE
  5
4B8
100
AcDbEntity
  8
0
100
AcDbSpline
 62
7
  6
BYLAYER
 70
0
 71
3
 72
9
 73
5
 74
0
 42
0.0000001
 43
0.0000001
 44
0.0000000001
 40
0.0
 40
0.0
 40
0.0
 40
0.0
 40
0.5514342841
 40
1.0
 40
1.0
 40
1.0
 40
1.0
 10
35.7564946623
 20
13.3750466517
 30
0.0
 10
35.7901348252
 20
13.3750466517
 30
0.0
 10
35.8510946047
 20
13.382475412
 30
0.0
 10
35.9091907027
 20
13.4076840568
 30
0.0
 10
35.9296997431
 20
13.425800488
 30
0.0
  0
SPLINE
  5
4B9
100
AcDbEntity
  8
0
100
AcDbSpline
 62
7
  6
BYLAYER
 70
0
 71
3
 72
9
 73
5
 74
0
 42
0.0000001
 43
0.0000001
 44
0.0000000001
 40
0.0
 40
0.0
 40
0.0
 40
0.0
 40
0.2771815497
 40
1.0
 40
1.0
 40
1.0
 40
1.0
 10
35.9296997431
 20
13.425800488
 30
0.0
 10
35.9328675244
 20
13.4285987122
 30
0.0
 10
35.9437078083
 20
13.4392753857
 30
0.0
 10
35.952052924
 20
13.4529426989
 30
0.0
 10
35.9548136445
 20
13.4636134803
 30
0.0
  0
SPLINE
  5
4BA
100
AcDbEntity
  8
0
100
AcDbSpline
 62
7
  6
BYLAYER
 70
0
 71
3
 72
9
 73
5
 74
0
 42
0.0000001
 43
0.0000001
 44
0.0000000001
 40
0.0
 40
0.0
 40
0.0
 40
0.0
 40
0.4287256382
 40
1.0
 40
1.0
 40
1.0
 40
1.0
 10
68.3841685043
 20
13.4750409492
 30
0.0
 10
68.4001045155
 20
13.4750418563
 30
0.0
 10
68.4362825278
 20
13.4884959559
 30
0.0
 10
68.4680223908
 20
13.5072654118
 30
0.0
 10
68.485663987
 20
13.5190842115
 30
0.0
  0
SPLINE
  5
4BB
100
AcDbEntity
  8
0
100
AcDbSpline
 62
7
  6
BYLAYER
 70
0
 71
3
 72
9
 73
5
 74
0
 42
0.0000001
 43
0.0000001
 44
0.0000000001
 40
0.0
 40
0.0
 40
0.0
 40
0.0
 40
0.2379560313
 40
1.0
 40
1.0
 40
1.0
 40
1.0
 10
68.485663987
 20
13.5190842115
 30
0.0
 10
68.4915533517
 20
13.5230297286
 30
0.0
 10
68.5159941511
 20
13.5400708496
 30
0.0
 10
68.5392964123
 20
13.5587147394
 30
0.0
 10
68.5564946623
 20
13.5735332531
 30
0.0
  0
SPLINE
  5
4BC
100
AcDbEntity
  8
0
100
AcDbSpline
 62
7
  6
BYLAYER
 70
0
 71
3
 72
12
 73
8
 74
0
 42
0.0000001
 43
0.0000001
 44
0.0000000001
 40
0.0
 40
0.0
 40
0.0
 40
0.0
 40
0.1173221754
 40
0.2116394994
 40
0.3317766928
 40
0.6389287102
 40
1.0
 40
1.0
 40
1.0
 40
1.0
 10
72.1564946623
 20
18.0489039359
 30
0.0
 10
72.1564946623
 20
18.0404800442
 30
0.0
 10
72.1431649565
 20
18.0278105191
 30
0.0
 10
72.1223699961
 20
18.017928673
 30
0.0
 10
72.0863692934
 20
18.0060564093
 30
0.0
 10
72.0304705603
 20
17.9969757729
 30
0.0
 10
71.9824200719
 20
17.9943776775
 30
0.0
 10
71.9564946623
 20
17.9943776775
 30
0.0
  0
SPLINE
  5
4BD
100
AcDbEntity
  8
0
100
AcDbSpline
 62
7
  6
BYLAYER
 70
0
 71
3
 72
9
 73
5
 74
0
 42
0.0000001
 43
0.0000001
 44
0.0000000001
 40
0.0
 40
0.0
 40
0.0
 40
0.0
 40
0.2151827856
 40
1.0
 40
1.0
 40
1.0
 40
1.0
 10
68.3832873939
 20
13.4750485748
 30
0.0
 10
68.3894205431
 20
13.4696567619
 30
0.0
 10
68.4205849793
 20
13.4476502869
 30
0.0
 10
68.4579743244
 20
13.4360424948
 30
0.0
 10
68.4872513016
 20
13.4305706049
 30
0.0
  0
SPLINE
  5
4BE
100
AcDbEntity
  8
0
100
AcDbSpline
 62
7
  6
BYLAYER
 70
0
 71
3
 72
9
 73
5
 74
0
 42
0.0000001
 43
0.0000001
 44
0.0000000001
 40
0.0
 40
0.0
 40
0.0
 40
0.0
 40
0.2454624426
 40
1.0
 40
1.0
 40
1.0
 40
1.0
 10
68.4872513016
 20
13.4305706049
 30
0.0
 10
68.4928477001
 20
13.4295246337
 30
0.0
 10
68.5157517287
 20
13.4258392692
 30
0.0
 10
68.5389937647
 20
13.4242928153
 30
0.0
 10
68.5564946623
 20
13.4242928153
 30
0.0
  0
SPLINE
  5
4BF
100
AcDbEntity
  8
0
100
AcDbSpline
 62
7
  6
BYLAYER
 70
0
 71
3
 72
12
 73
8
 74
0
 42
0.0000001
 43
0.0000001
 44
0.0000000001
 40
0.0
 40
0.0
 40
0.0
 40
0.0
 40
0.3611155787
 40
0.6682580106
 40
0.7883435031
 40
0.8826439924
 40
1.0
 40
1.0
 40
1.0
 40
1.0
 10
32.3564946623
 20
17.9943776775
 30
0.0
 10
32.3305667224
 20
17.9943776775
 30
0.0
 10
32.2825154012
 20
17.9969879599
 30
0.0
 10
32.2266195803
 20
18.0060620671
 30
0.0
 10
32.1906232708
 20
18.0179300525
 30
0.0
 10
32.1698348278
 20
18.0278143203
 30
0.0
 10
32.1564946623
 20
18.0404778262
 30
0.0
 10
32.1564946623
 20
18.0489039359
 30
0.0
  0
SPLINE
  5
4C0
100
AcDbEntity
  8
0
100
AcDbSpline
 62
7
  6
BYLAYER
 70
0
 71
3
 72
11
 73
7
 74
0
 42
0.0000001
 43
0.0000001
 44
0.0000000001
 40
0.0
 40
0.0
 40
0.0
 40
0.0
 40
0.1725695966
 40
0.3979174392
 40
0.6819631803
 40
1.0
 40
1.0
 40
1.0
 40
1.0
 10
32.1564946623
 20
13.4765543242
 30
0.0
 10
32.1564946623
 20
13.4626583998
 30
0.0
 10
32.1713928745
 20
13.431011086
 30
0.0
 10
32.2182199667
 20
13.4000174913
 30
0.0
 10
32.2822206458
 20
13.3797030646
 30
0.0
 10
32.3308851939
 20
13.3750466516
 30
0.0
 10
32.3564946623
 20
13.3750466516
 30
0.0
  0
ENDSEC
  0
SECTION
  2
OBJECTS
  0
DICTIONARY
  5
C
100
AcDbDictionary
280
0
281
1
  3
ACAD_GROUP
350
D
  3
ACAD_MLINESTYLE
350
17
  3
ACAD_LAYOUT
350
1A
  3
ACAD_PLOTSETTINGS
350
19
  3
ACAD_PLOTSTYLENAME
350
E
  0
DICTIONARY
  5
D
102
{ACAD_REACTORS
330
C
102
}
100
AcDbDictionary
280
0
281
1
  0
ACDBDICTIONARYWDFLT
  5
E
102
{ACAD_REACTORS
330
C
102
}
100
AcDbDictionary
281
1
  3
Normal
350
F
100
AcDbDictionaryWithDefault
340
F
  0
DICTIONARY
  5
17
102
{ACAD_REACTORS
330
C
102
}
100
AcDbDictionary
280
0
281
1
  3
Standard
350
18
  0
DICTIONARY
  5
19
102
{ACAD_REACTORS
330
C
102
}
100
AcDbDictionary
281
1
  0
DICTIONARY
  5
1A
102
{ACAD_REACTORS
330
C
102
}
100
AcDbDictionary
281
1
  3
Model
350
4C1
  3
Layout1
350
4C2
  0
ACDBPLACEHOLDER
  5
F
102
{ACAD_REACTORS
330
E
102
}
  0
MLINESTYLE
  5
18
102
{ACAD_REACTORS
330
17
102
}
100
AcDbMlineStyle
  2
STANDARD
 70
0
  3

 62
256
 51
90.0
 52
90.0
 71
2
 49
0.5
 62
256
  6
BYLAYER
 49
-0.5
 62
256
  6
BYLAYER
  0
LAYOUT
  5
4C1
102
{ACAD_REACTORS
330
1A
102
}
100
AcDbPlotSettings
  1

  2
none_device
  4

  6

 40
0.0
 41
0.0
 42
0.0
 43
0.0
 44
210.0
 45
297.0
 46
0.0
 47
0.0
 48
0.0
 49
0.0
140
0.0
141
0.0
142
1.0
143
1.0
 70
1024
 72
1
 73
0
 74
0
  7

 75
0
147
1.0
148
0.0
149
0.0
100
AcDbLayout
  1
Model
 70
0
 71
0
 10
0.0
 20
0.0
 11
210.0
 21
297.0
 12
0.0
 22
0.0
 32
0.0
 14
0.0
 24
0.0
 34
0.0
 15
0.0
 25
0.0
 35
0.0
146
0.0
 13
0.0
 23
0.0
 33
0.0
 16
1.0
 26
0.0
 36
0.0
 17
0.0
 27
1.0
 37
0.0
 76
0
330
210
345
0
346
0
  0
LAYOUT
  5
4C2
102
{ACAD_REACTORS
330
1A
102
}
100
AcDbPlotSettings
  1

  2
none_device
  4

  6

 40
0.0
 41
0.0
 42
0.0
 43
0.0
 44
210.0
 45
297.0
 46
0.0
 47
0.0
 48
0.0
 49
0.0
140
0.0
141
0.0
142
1.0
143
1.0
 70
0
 72
1
 73
0
 74
0
  7

 75
0
147
1.0
148
0.0
149
0.0
100
AcDbLayout
  1
Layout1
 70
0
 71
1
 10
0.0
 20
0.0
 11
210.0
 21
297.0
 12
0.0
 22
0.0
 32
0.0
 14
0.0
 24
0.0
 34
0.0
 15
0.0
 25
0.0
 35
0.0
146
0.0
 13
0.0
 23
0.0
 33
0.0
 16
1.0
 26
0.0
 36
0.0
 17
0.0
 27
1.0
 37
0.0
 76
0
330
211
345
0
346
0
  0
ENDSEC
  0
EOF
