999
DXF file: C:\Users\sesa63760\Dev\_Creo\CAD\MCADID0001039_3D-CAD\drw0001_6.dxf
999
Pro/ENGINEER 2019471 by Parametric Technology Corporation
  0
SECTION
  2
HEADER
  9
$ACADVER
  1
AC1024
  9
$DWGCODEPAGE
  3
ANSI_1252
  9
$EXTMAX
 10
1511.0414761428
 20
2137.044373402
 30
0.0
  9
$EXTMIN
 10
0.0
 20
0.0
 30
0.0
  9
$LIMMIN
 10
0.0
 20
0.0
  9
$LIMMAX
 10
1511.0414761428
 20
2137.044373402
  9
$VIEWCTR
 10
755.5207380714
 20
1068.522186701
  9
$VIEWSIZE
 40
2137.044373402
  9
$CLAYER
  8
0
  9
$LTSCALE
 40
139.3036332292
  9
$CELTYPE
  6
BYLAYER
  9
$DIMSCALE
 40
1.0
  9
$DIMASZ
 40
17.9885890017
  9
$DIMEXO
 40
1.0
  9
$DIMDLI
 40
96.2461465947
  9
$DIMEXE
 40
1.0
  9
$DIMCEN
 40
22.795139983
  9
$DIMLFAC
 40
1.0
  9
$DIMBLK
  1
_FILLED
  9
$DIMALT
 70
0
  9
$DIMALTF
 40
0.0393700787
  9
$DIMTXT
 40
25.1840246024
  9
$DIMTOL
 70
1
  9
$DIMLIM
 70
0
  9
$DIMTFAC
 40
1.0
  9
$DIMTP
 40
0.01
  9
$DIMTM
 40
0.01
  9
$DIMGAP
 40
0.625
  9
$DIMDSEP
 70
46
  9
$AUNITS
 70
0
  9
$PDMODE
 70
3
  9
$PDSIZE
 40
0.3125
  9
$HANDSEED
  5
32B
  9
$TILEMODE
 70
1
  9
$MEASUREMENT
 70
1
  9
$INSUNITS
 70
4
  0
ENDSEC
  0
SECTION
  2
CLASSES
  0
CLASS
  1
ACDBDICTIONARYWDFLT
  2
AcDbDictionaryWithDefault
  3
AutoCAD 2000
 90
0
 91
1
280
0
281
0
  0
CLASS
  1
ACDBPLACEHOLDER
  2
AcDbPlaceHolder
  3
AutoCAD 2000
 90
0
 91
1
280
0
281
0
  0
CLASS
  1
LAYOUT
  2
AcDbLayout
  3
AutoCAD 2000
 90
0
 91
0
280
0
281
0
  0
ENDSEC
  0
SECTION
  2
TABLES
  0
TABLE
  2
VPORT
  5
8
100
AcDbSymbolTable
 70
2
  0
VPORT
  5
1F4
100
AcDbSymbolTableRecord
100
AcDbViewportTableRecord
  2
*ACTIVE
 70
0
 10
0.0
 20
0.0
 11
1.0
 21
1.0
 12
755.5207380714
 22
1068.522186701
 13
0.0
 23
0.0
 14
1.0
 24
1.0
 15
0.0
 25
0.0
 16
0.0
 26
0.0
 36
1.0
 17
0.0
 27
0.0
 37
0.0
 40
2137.044373402
 41
0.7070707071
 42
50.0
 43
0.0
 44
0.0
 50
0.0
 51
0.0
 71
0
 72
100
 73
1
 74
1
 75
0
 76
0
 77
0
 78
0
  0
ENDTAB
  0
TABLE
  2
LTYPE
  5
5
100
AcDbSymbolTable
 70
6
  0
LTYPE
  5
14
100
AcDbSymbolTableRecord
100
AcDbLinetypeTableRecord
  2
BYBLOCK
 70
0
  3

 72
65
 73
0
 40
0.0
  0
LTYPE
  5
15
100
AcDbSymbolTableRecord
100
AcDbLinetypeTableRecord
  2
BYLAYER
 70
0
  3

 72
65
 73
0
 40
0.0
  0
LTYPE
  5
16
100
AcDbSymbolTableRecord
100
AcDbLinetypeTableRecord
  2
CONTINUOUS
 70
64
  3
Solid line
 72
65
 73
0
 40
0.0
  0
LTYPE
  5
1F5
100
AcDbSymbolTableRecord
100
AcDbLinetypeTableRecord
  2
CENTER
 70
64
  3
____ _ ____ _ ____ _ ____ _ ____ _ ____ _ ____
 72
65
 73
4
 40
0.6
 49
0.375
 74
0
 49
-0.075
 74
0
 49
0.075
 74
0
 49
-0.075
 74
0
  0
LTYPE
  5
1F6
100
AcDbSymbolTableRecord
100
AcDbLinetypeTableRecord
  2
HIDDEN
 70
64
  3
- - - - - - - - - - - - - - - - - - - -
 72
65
 73
2
 40
0.2
 49
0.1
 74
0
 49
-0.1
 74
0
  0
LTYPE
  5
1F7
100
AcDbSymbolTableRecord
100
AcDbLinetypeTableRecord
  2
PHANTOM
 70
64
  3
_____ _ _ _____ _ _ _____ _ _ _____
 72
65
 73
6
 40
0.8
 49
0.45
 74
0
 49
-0.05
 74
0
 49
0.1
 74
0
 49
-0.05
 74
0
 49
0.1
 74
0
 49
-0.05
 74
0
  0
LTYPE
  5
1F8
100
AcDbSymbolTableRecord
100
AcDbLinetypeTableRecord
  2
DOT
 70
64
  3
. . . . . . . . . . . . . . . . . . . .
 72
65
 73
2
 40
0.2
 49
0.1
 74
0
 49
-0.1
 74
0
  0
LTYPE
  5
1F9
100
AcDbSymbolTableRecord
100
AcDbLinetypeTableRecord
  2
DASHED
 70
64
  3
- - - - - - - - - - - - - - - - - - - -
 72
65
 73
2
 40
0.2
 49
0.1
 74
0
 49
-0.1
 74
0
  0
ENDTAB
  0
TABLE
  2
LAYER
  5
2
100
AcDbSymbolTable
 70
36
  0
LAYER
  5
10
100
AcDbSymbolTableRecord
100
AcDbLayerTableRecord
  2
0
 70
0
 62
7
  6
CONTINUOUS
370
-3
390
F
  0
LAYER
  5
1FA
100
AcDbSymbolTableRecord
100
AcDbLayerTableRecord
  2
DEFAULT_1
 70
0
 62
7
  6
CENTER
370
-3
390
F
  0
LAYER
  5
1FB
100
AcDbSymbolTableRecord
100
AcDbLayerTableRecord
  2
DEFAULT_2
 70
0
 62
8
  6
HIDDEN
370
-3
390
F
  0
LAYER
  5
1FC
100
AcDbSymbolTableRecord
100
AcDbLayerTableRecord
  2
DEFAULT_3
 70
0
 62
7
  6
PHANTOM
370
-3
390
F
  0
LAYER
  5
1FD
100
AcDbSymbolTableRecord
100
AcDbLayerTableRecord
  2
00_COMPONENTS
 70
0
 62
7
  6
CONTINUOUS
370
-3
390
F
  0
LAYER
  5
1FE
100
AcDbSymbolTableRecord
100
AcDbLayerTableRecord
  2
01_1_DEFAULT_DATUMS
 70
0
 62
7
  6
CONTINUOUS
370
-3
390
F
  0
LAYER
  5
1FF
100
AcDbSymbolTableRecord
100
AcDbLayerTableRecord
  2
01_PLANES
 70
0
 62
7
  6
CONTINUOUS
370
-3
390
F
  0
LAYER
  5
200
100
AcDbSymbolTableRecord
100
AcDbLayerTableRecord
  2
02_COORD_SYS
 70
0
 62
7
  6
CONTINUOUS
370
-3
390
F
  0
LAYER
  5
201
100
AcDbSymbolTableRecord
100
AcDbLayerTableRecord
  2
03_AXES
 70
0
 62
7
  6
CONTINUOUS
370
-3
390
F
  0
LAYER
  5
202
100
AcDbSymbolTableRecord
100
AcDbLayerTableRecord
  2
04_POINTS
 70
0
 62
7
  6
CONTINUOUS
370
-3
390
F
  0
LAYER
  5
203
100
AcDbSymbolTableRecord
100
AcDbLayerTableRecord
  2
05_CURVES
 70
0
 62
7
  6
CONTINUOUS
370
-3
390
F
  0
LAYER
  5
204
100
AcDbSymbolTableRecord
100
AcDbLayerTableRecord
  2
06_SURFS
 70
0
 62
7
  6
CONTINUOUS
370
-3
390
F
  0
LAYER
  5
205
100
AcDbSymbolTableRecord
100
AcDbLayerTableRecord
  2
07_COSMETICS
 70
0
 62
7
  6
CONTINUOUS
370
-3
390
F
  0
LAYER
  5
206
100
AcDbSymbolTableRecord
100
AcDbLayerTableRecord
  2
10_NOTES
 70
0
 62
7
  6
CONTINUOUS
370
-3
390
F
  0
LAYER
  5
207
100
AcDbSymbolTableRecord
100
AcDbLayerTableRecord
  2
11_NOTES_PUB
 70
0
 62
7
  6
CONTINUOUS
370
-3
390
F
  0
LAYER
  5
208
100
AcDbSymbolTableRecord
100
AcDbLayerTableRecord
  2
13_REF_GTOL
 70
0
 62
7
  6
CONTINUOUS
370
-3
390
F
  0
LAYER
  5
209
100
AcDbSymbolTableRecord
100
AcDbLayerTableRecord
  2
16_MISC
 70
0
 62
7
  6
CONTINUOUS
370
-3
390
F
  0
LAYER
  5
20A
100
AcDbSymbolTableRecord
100
AcDbLayerTableRecord
  2
17_NO_PRINT
 70
0
 62
7
  6
CONTINUOUS
370
-3
390
F
  0
LAYER
  5
20B
100
AcDbSymbolTableRecord
100
AcDbLayerTableRecord
  2
18_DATUM_CAMS_JOINTS
 70
0
 62
7
  6
CONTINUOUS
370
-3
390
F
  0
LAYER
  5
20C
100
AcDbSymbolTableRecord
100
AcDbLayerTableRecord
  2
19_DATUM_FUNCTIONAL
 70
0
 62
7
  6
CONTINUOUS
370
-3
390
F
  0
LAYER
  5
20D
100
AcDbSymbolTableRecord
100
AcDbLayerTableRecord
  2
20_DATUM_KINEMATIC_SCHEME
 70
0
 62
7
  6
CONTINUOUS
370
-3
390
F
  0
ENDTAB
  0
TABLE
  2
STYLE
  5
3
100
AcDbSymbolTable
 70
1
  0
STYLE
  5
11
100
AcDbSymbolTableRecord
100
AcDbTextStyleTableRecord
  2
STANDARD
 70
0
 40
0.0
 41
0.8
 50
0.0
 71
0
 42
0.2
  3
txt
  4

  0
STYLE
  5
20E
100
AcDbSymbolTableRecord
100
AcDbTextStyleTableRecord
  2
TEXTSTYLE_1
 70
0
 40
0.0
 41
0.8
 50
0.0
 71
0
 42
0.2
  3
gdt
  4

  0
ENDTAB
  0
TABLE
  2
VIEW
  5
6
100
AcDbSymbolTable
 70
0
  0
ENDTAB
  0
TABLE
  2
UCS
  5
7
100
AcDbSymbolTable
 70
0
  0
ENDTAB
  0
TABLE
  2
APPID
  5
9
100
AcDbSymbolTable
 70
1
  0
APPID
  5
20F
100
AcDbSymbolTableRecord
100
AcDbRegAppTableRecord
  2
ACAD
 70
0
  0
ENDTAB
  0
TABLE
  2
BLOCK_RECORD
  5
1
100
AcDbSymbolTable
 70
0
  0
BLOCK_RECORD
  5
210
100
AcDbSymbolTableRecord
100
AcDbBlockTableRecord
  2
*Model_Space
  0
BLOCK_RECORD
  5
211
100
AcDbSymbolTableRecord
100
AcDbBlockTableRecord
  2
*Paper_Space
  0
BLOCK_RECORD
  5
212
100
AcDbSymbolTableRecord
100
AcDbBlockTableRecord
  2
_FILLED
  0
ENDTAB
  0
TABLE
  2
DIMSTYLE
  5
A
100
AcDbSymbolTable
 70
1
100
AcDbDimStyleTable
 71
0
  0
DIMSTYLE
105
213
100
AcDbSymbolTableRecord
100
AcDbDimStyleTableRecord
  2
STANDARD
 70
0
  3

  4

 40
1.0
 41
17.9885890017
 42
1.0
 43
0.38
 44
1.0
 45
0.0
 46
0.0
 47
0.01
 48
0.01
140
25.1840246024
141
0.09
142
0.0
143
25.4
144
1.0
145
0.0
146
1.0
147
0.625
 71
1
 72
0
 73
0
 74
0
 75
0
 76
0
 77
1
 78
8
 79
2
170
0
171
1
172
0
173
0
174
0
175
0
176
0
177
0
178
0
270
2
179
2
271
2
272
2
273
2
274
2
275
0
280
0
281
0
282
0
283
1
284
8
285
0
286
0
287
3
288
0
340
11
278
46
341
212
342
212
343
212
344
212
  0
ENDTAB
  0
ENDSEC
  0
SECTION
  2
BLOCKS
  0
BLOCK
  5
20
100
AcDbEntity
  8
0
100
AcDbBlockBegin
  2
*Model_Space
 70
0
 10
0.0
 20
0.0
 30
0.0
  3
*Model_Space
  1

  0
ENDBLK
  5
21
100
AcDbEntity
  8
0
100
AcDbBlockEnd
  0
BLOCK
  5
1C
100
AcDbEntity
  8
0
100
AcDbBlockBegin
  2
*Paper_Space
 70
0
 10
0.0
 20
0.0
 30
0.0
  3
*Paper_Space
  1

  0
ENDBLK
  5
1D
100
AcDbEntity
  8
0
100
AcDbBlockEnd
  0
BLOCK
  5
214
100
AcDbEntity
  8
0
100
AcDbBlockBegin
  2
_FILLED
 70
64
 10
0.0
 20
0.0
  3
_FILLED
  1

  0
SOLID
  5
215
100
AcDbEntity
  8
0
  6
BYBLOCK
 62
0
100
AcDbTrace
 10
0.0
 20
0.0
 11
-1.0
 21
0.25
 12
-1.0
 22
-0.25
 13
-1.0
 23
-0.25
  0
ENDBLK
  5
216
100
AcDbEntity
  8
0
  6
BYBLOCK
 62
0
100
AcDbBlockEnd
  0
ENDSEC
  0
SECTION
  2
ENTITIES
  0
LINE
  5
217
100
AcDbEntity
  8
0
100
AcDbLine
 62
7
  6
CONTINUOUS
 10
170.9070080159
 20
878.5798497081
 11
170.9070080159
 21
1008.5798497081
  0
LINE
  5
218
100
AcDbEntity
  8
0
100
AcDbLine
 62
7
  6
CONTINUOUS
 10
195.9070080159
 20
1033.5798497081
 11
195.9070080159
 21
1242.5798497081
  0
LINE
  5
219
100
AcDbEntity
  8
0
100
AcDbLine
 62
7
  6
CONTINUOUS
 10
198.9070080159
 20
1242.5798497081
 11
198.9070080159
 21
1246.0798497081
  0
LINE
  5
21A
100
AcDbEntity
  8
0
100
AcDbLine
 62
7
  6
CONTINUOUS
 10
200.9070080159
 20
1246.0798497081
 11
200.9070080159
 21
1242.5798497081
  0
LINE
  5
21B
100
AcDbEntity
  8
0
100
AcDbLine
 62
7
  6
CONTINUOUS
 10
204.9070080159
 20
1242.5798497081
 11
204.9070080159
 21
1245.5798497081
  0
LINE
  5
21C
100
AcDbEntity
  8
0
100
AcDbLine
 62
7
  6
CONTINUOUS
 10
205.9070080159
 20
1242.5798497081
 11
205.9070080159
 21
1248.5798497081
  0
LINE
  5
21D
100
AcDbEntity
  8
0
100
AcDbLine
 62
7
  6
CONTINUOUS
 10
207.9070080159
 20
1246.5798497081
 11
207.9070080159
 21
1248.5798497081
  0
LINE
  5
21E
100
AcDbEntity
  8
0
100
AcDbLine
 62
7
  6
CONTINUOUS
 10
284.0107759532
 20
1255.585984577
 11
283.9993929239
 21
1255.5631537516
  0
LINE
  5
21F
100
AcDbEntity
  8
0
100
AcDbLine
 62
7
  6
CONTINUOUS
 10
274.9070080159
 20
1248.5798497081
 11
274.9070080159
 21
1250.1798497081
  0
LINE
  5
220
100
AcDbEntity
  8
0
100
AcDbLine
 62
7
  6
CONTINUOUS
 10
274.9070080159
 20
1251.4798497081
 11
274.9070080159
 21
1253.8051328744
  0
LINE
  5
221
100
AcDbEntity
  8
0
100
AcDbLine
 62
7
  6
CONTINUOUS
 10
275.0159660877
 20
1251.4798497081
 11
275.0159660877
 21
1250.1798497081
  0
LINE
  5
222
100
AcDbEntity
  8
0
100
AcDbLine
 62
7
  6
CONTINUOUS
 10
280.1970080159
 20
1255.9645236911
 11
280.1970080159
 21
1255.5631537516
  0
LINE
  5
223
100
AcDbEntity
  8
0
100
AcDbLine
 62
7
  6
CONTINUOUS
 10
281.6170080159
 20
1255.5631537516
 11
281.6170080159
 21
1255.9645236758
  0
LINE
  5
224
100
AcDbEntity
  8
0
100
AcDbLine
 62
7
  6
CONTINUOUS
 10
286.8070080159
 20
1250.1798497081
 11
286.8070080159
 21
1251.4798497081
  0
LINE
  5
225
100
AcDbEntity
  8
0
100
AcDbLine
 62
7
  6
CONTINUOUS
 10
286.9070080159
 20
1253.8051328744
 11
286.9070080159
 21
1251.4798497081
  0
LINE
  5
226
100
AcDbEntity
  8
0
100
AcDbLine
 62
7
  6
CONTINUOUS
 10
286.9070080159
 20
1250.1798497081
 11
286.9070080159
 21
1248.5798497081
  0
LINE
  5
227
100
AcDbEntity
  8
0
100
AcDbLine
 62
7
  6
CONTINUOUS
 10
195.9070080159
 20
1033.5798497081
 11
170.9070080159
 21
1008.5798497081
  0
LINE
  5
228
100
AcDbEntity
  8
0
100
AcDbLine
 62
7
  6
CONTINUOUS
 10
277.8146231079
 20
1255.5631537516
 11
277.8032400786
 21
1255.585984577
  0
LINE
  5
229
100
AcDbEntity
  8
0
100
AcDbLine
 62
7
  6
CONTINUOUS
 10
680.0107759532
 20
1255.585984577
 11
679.9993929239
 21
1255.5631537516
  0
LINE
  5
22A
100
AcDbEntity
  8
0
100
AcDbLine
 62
7
  6
CONTINUOUS
 10
1356.9070080159
 20
878.5798497081
 11
1121.9070080159
 21
878.5798497081
  0
LINE
  5
22B
100
AcDbEntity
  8
0
100
AcDbLine
 62
7
  6
CONTINUOUS
 10
170.9070080159
 20
878.5798497081
 11
1120.9070080159
 21
878.5798497081
  0
LINE
  5
22C
100
AcDbEntity
  8
0
100
AcDbLine
 62
7
  6
CONTINUOUS
 10
1121.9070080159
 20
881.5798497081
 11
170.9070080159
 21
881.5798497081
  0
LINE
  5
22D
100
AcDbEntity
  8
0
100
AcDbLine
 62
7
  6
CONTINUOUS
 10
1358.9070080159
 20
882.7320719078
 11
1356.9070080159
 21
882.7320719078
  0
LINE
  5
22E
100
AcDbEntity
  8
0
100
AcDbLine
 62
7
  6
CONTINUOUS
 10
639.2070080159
 20
1249.0798497081
 11
639.2070080159
 21
1248.5798497081
  0
LINE
  5
22F
100
AcDbEntity
  8
0
100
AcDbLine
 62
7
  6
CONTINUOUS
 10
648.7070080159
 20
1249.0798497081
 11
648.7070080159
 21
1248.5798497081
  0
LINE
  5
230
100
AcDbEntity
  8
0
100
AcDbLine
 62
7
  6
CONTINUOUS
 10
1358.9070080159
 20
912.5798497081
 11
1360.5070080159
 21
912.5798497081
  0
LINE
  5
231
100
AcDbEntity
  8
0
100
AcDbLine
 62
7
  6
CONTINUOUS
 10
1361.8070080159
 20
912.5798497081
 11
1364.1322911822
 21
912.5798497081
  0
LINE
  5
232
100
AcDbEntity
  8
0
100
AcDbLine
 62
7
  6
CONTINUOUS
 10
1360.5070080159
 20
912.6798497081
 11
1361.8070080159
 21
912.6798497081
  0
LINE
  5
233
100
AcDbEntity
  8
0
100
AcDbLine
 62
7
  6
CONTINUOUS
 10
1365.8903120594
 20
917.8698497081
 11
1366.2916737462
 21
917.8698497081
  0
LINE
  5
234
100
AcDbEntity
  8
0
100
AcDbLine
 62
7
  6
CONTINUOUS
 10
1366.2916819996
 20
919.2898497081
 11
1365.8903120594
 21
919.2898497081
  0
LINE
  5
235
100
AcDbEntity
  8
0
100
AcDbLine
 62
7
  6
CONTINUOUS
 10
1361.8070080159
 20
924.4708916363
 11
1360.5070080159
 21
924.4708916363
  0
LINE
  5
236
100
AcDbEntity
  8
0
100
AcDbLine
 62
7
  6
CONTINUOUS
 10
1358.9070080159
 20
924.5798497081
 11
1360.5070080159
 21
924.5798497081
  0
LINE
  5
237
100
AcDbEntity
  8
0
100
AcDbLine
 62
7
  6
CONTINUOUS
 10
1361.8070080159
 20
924.5798497081
 11
1364.1322911822
 21
924.5798497081
  0
LINE
  5
238
100
AcDbEntity
  8
0
100
AcDbLine
 62
7
  6
CONTINUOUS
 10
649.2070080159
 20
1249.0798497081
 11
649.2070080159
 21
1248.5798497081
  0
LINE
  5
239
100
AcDbEntity
  8
0
100
AcDbLine
 62
7
  6
CONTINUOUS
 10
670.9070080159
 20
1248.5798497081
 11
670.9070080159
 21
1250.1798497081
  0
LINE
  5
23A
100
AcDbEntity
  8
0
100
AcDbLine
 62
7
  6
CONTINUOUS
 10
670.9070080159
 20
1251.4798497081
 11
670.9070080159
 21
1253.8051328744
  0
LINE
  5
23B
100
AcDbEntity
  8
0
100
AcDbLine
 62
7
  6
CONTINUOUS
 10
671.0159660877
 20
1251.4798497081
 11
671.0159660877
 21
1250.1798497081
  0
LINE
  5
23C
100
AcDbEntity
  8
0
100
AcDbLine
 62
7
  6
CONTINUOUS
 10
676.1970080159
 20
1255.9645236911
 11
676.1970080159
 21
1255.5631537516
  0
LINE
  5
23D
100
AcDbEntity
  8
0
100
AcDbLine
 62
7
  6
CONTINUOUS
 10
677.6170080159
 20
1255.5631537516
 11
677.6170080159
 21
1255.9645236758
  0
LINE
  5
23E
100
AcDbEntity
  8
0
100
AcDbLine
 62
7
  6
CONTINUOUS
 10
682.8070080159
 20
1250.1798497081
 11
682.8070080159
 21
1251.4798497081
  0
LINE
  5
23F
100
AcDbEntity
  8
0
100
AcDbLine
 62
7
  6
CONTINUOUS
 10
682.9070080159
 20
1253.8051328744
 11
682.9070080159
 21
1251.4798497081
  0
LINE
  5
240
100
AcDbEntity
  8
0
100
AcDbLine
 62
7
  6
CONTINUOUS
 10
682.9070080159
 20
1250.1798497081
 11
682.9070080159
 21
1248.5798497081
  0
LINE
  5
241
100
AcDbEntity
  8
0
100
AcDbLine
 62
7
  6
CONTINUOUS
 10
764.0107759532
 20
1255.585984577
 11
763.9993929239
 21
1255.5631537516
  0
LINE
  5
242
100
AcDbEntity
  8
0
100
AcDbLine
 62
7
  6
CONTINUOUS
 10
716.4070080159
 20
1241.5798497081
 11
716.4070080159
 21
1246.0798497081
  0
LINE
  5
243
100
AcDbEntity
  8
0
100
AcDbLine
 62
7
  6
CONTINUOUS
 10
718.4070080159
 20
1246.0798497081
 11
718.4070080159
 21
1241.5798497081
  0
LINE
  5
244
100
AcDbEntity
  8
0
100
AcDbLine
 62
7
  6
CONTINUOUS
 10
719.4070080159
 20
1248.5798497081
 11
719.4070080159
 21
1246.5798497081
  0
LINE
  5
245
100
AcDbEntity
  8
0
100
AcDbLine
 62
7
  6
CONTINUOUS
 10
719.4070080159
 20
1241.5798497081
 11
719.4070080159
 21
1246.0798497081
  0
LINE
  5
246
100
AcDbEntity
  8
0
100
AcDbLine
 62
7
  6
CONTINUOUS
 10
721.4070080159
 20
1246.0798497081
 11
721.4070080159
 21
1241.5798497081
  0
LINE
  5
247
100
AcDbEntity
  8
0
100
AcDbLine
 62
7
  6
CONTINUOUS
 10
737.8270080159
 20
1253.8798497081
 11
737.8270080159
 21
1248.5798497081
  0
LINE
  5
248
100
AcDbEntity
  8
0
100
AcDbLine
 62
7
  6
CONTINUOUS
 10
744.8270080159
 20
1248.5798497081
 11
744.8270080159
 21
1253.8798497081
  0
LINE
  5
249
100
AcDbEntity
  8
0
100
AcDbLine
 62
7
  6
CONTINUOUS
 10
754.9070080159
 20
1248.5798497081
 11
754.9070080159
 21
1250.1798497081
  0
LINE
  5
24A
100
AcDbEntity
  8
0
100
AcDbLine
 62
7
  6
CONTINUOUS
 10
754.9070080159
 20
1251.4798497081
 11
754.9070080159
 21
1253.8051328744
  0
LINE
  5
24B
100
AcDbEntity
  8
0
100
AcDbLine
 62
7
  6
CONTINUOUS
 10
755.0159660877
 20
1251.4798497081
 11
755.0159660877
 21
1250.1798497081
  0
LINE
  5
24C
100
AcDbEntity
  8
0
100
AcDbLine
 62
7
  6
CONTINUOUS
 10
760.1970080159
 20
1255.9645236911
 11
760.1970080159
 21
1255.5631537516
  0
LINE
  5
24D
100
AcDbEntity
  8
0
100
AcDbLine
 62
7
  6
CONTINUOUS
 10
761.6170080159
 20
1255.5631537516
 11
761.6170080159
 21
1255.9645236758
  0
LINE
  5
24E
100
AcDbEntity
  8
0
100
AcDbLine
 62
7
  6
CONTINUOUS
 10
766.8070080159
 20
1250.1798497081
 11
766.8070080159
 21
1251.4798497081
  0
LINE
  5
24F
100
AcDbEntity
  8
0
100
AcDbLine
 62
7
  6
CONTINUOUS
 10
766.9070080159
 20
1253.8051328744
 11
766.9070080159
 21
1251.4798497081
  0
LINE
  5
250
100
AcDbEntity
  8
0
100
AcDbLine
 62
7
  6
CONTINUOUS
 10
766.9070080159
 20
1250.1798497081
 11
766.9070080159
 21
1248.5798497081
  0
LINE
  5
251
100
AcDbEntity
  8
0
100
AcDbLine
 62
7
  6
CONTINUOUS
 10
769.9270080489
 20
1253.8798497081
 11
769.9270080489
 21
1254.3798497081
  0
LINE
  5
252
100
AcDbEntity
  8
0
100
AcDbLine
 62
7
  6
CONTINUOUS
 10
673.8146231079
 20
1255.5631537516
 11
673.8032400786
 21
1255.585984577
  0
LINE
  5
253
100
AcDbEntity
  8
0
100
AcDbLine
 62
7
  6
CONTINUOUS
 10
783.9270080489
 20
1253.8798497081
 11
783.9270080489
 21
1254.3798497081
  0
LINE
  5
254
100
AcDbEntity
  8
0
100
AcDbLine
 62
7
  6
CONTINUOUS
 10
797.9270080489
 20
1253.8798497081
 11
797.9270080489
 21
1254.3798497081
  0
LINE
  5
255
100
AcDbEntity
  8
0
100
AcDbLine
 62
7
  6
CONTINUOUS
 10
1358.9070080156
 20
1092.5798497081
 11
1360.5070080156
 21
1092.5798497081
  0
LINE
  5
256
100
AcDbEntity
  8
0
100
AcDbLine
 62
7
  6
CONTINUOUS
 10
1361.8070080156
 20
1092.5798497081
 11
1364.1322911819
 21
1092.5798497081
  0
LINE
  5
257
100
AcDbEntity
  8
0
100
AcDbLine
 62
7
  6
CONTINUOUS
 10
1360.5070080156
 20
1092.6798497081
 11
1361.8070080156
 21
1092.6798497081
  0
LINE
  5
258
100
AcDbEntity
  8
0
100
AcDbLine
 62
7
  6
CONTINUOUS
 10
1365.8903120591
 20
1097.8698497081
 11
1366.2916737459
 21
1097.8698497081
  0
LINE
  5
259
100
AcDbEntity
  8
0
100
AcDbLine
 62
7
  6
CONTINUOUS
 10
1366.2916819993
 20
1099.2898497081
 11
1365.8903120591
 21
1099.2898497081
  0
LINE
  5
25A
100
AcDbEntity
  8
0
100
AcDbLine
 62
7
  6
CONTINUOUS
 10
1361.8070080156
 20
1104.4708916363
 11
1360.5070080156
 21
1104.4708916363
  0
LINE
  5
25B
100
AcDbEntity
  8
0
100
AcDbLine
 62
7
  6
CONTINUOUS
 10
1358.9070080156
 20
1104.5798497081
 11
1360.5070080156
 21
1104.5798497081
  0
LINE
  5
25C
100
AcDbEntity
  8
0
100
AcDbLine
 62
7
  6
CONTINUOUS
 10
1361.8070080156
 20
1104.5798497081
 11
1364.1322911819
 21
1104.5798497081
  0
LINE
  5
25D
100
AcDbEntity
  8
0
100
AcDbLine
 62
7
  6
CONTINUOUS
 10
1065.9070080159
 20
1113.5798497081
 11
1095.9070080159
 21
1113.5798497081
  0
LINE
  5
25E
100
AcDbEntity
  8
0
100
AcDbLine
 62
7
  6
CONTINUOUS
 10
1358.9070080159
 20
1114.3375224932
 11
1356.9070080159
 21
1114.3375224932
  0
LINE
  5
25F
100
AcDbEntity
  8
0
100
AcDbLine
 62
7
  6
CONTINUOUS
 10
195.9070080159
 20
1114.687209021
 11
1065.9070080159
 21
1114.687209021
  0
LINE
  5
260
100
AcDbEntity
  8
0
100
AcDbLine
 62
7
  6
CONTINUOUS
 10
856.8270080159
 20
1253.8798497081
 11
856.8270080159
 21
1248.5798497081
  0
LINE
  5
261
100
AcDbEntity
  8
0
100
AcDbLine
 62
7
  6
CONTINUOUS
 10
1065.9070080159
 20
1116.8085293645
 11
195.9070080159
 21
1116.8085293645
  0
LINE
  5
262
100
AcDbEntity
  8
0
100
AcDbLine
 62
7
  6
CONTINUOUS
 10
1360.4262413952
 20
1118.5405605446
 11
1356.9070080159
 21
1118.5405605446
  0
LINE
  5
263
100
AcDbEntity
  8
0
100
AcDbLine
 62
7
  6
CONTINUOUS
 10
195.9070080159
 20
1120.6369564893
 11
1065.9070080159
 21
1120.6369564893
  0
LINE
  5
264
100
AcDbEntity
  8
0
100
AcDbLine
 62
7
  6
CONTINUOUS
 10
1065.9070080159
 20
1121.3440632705
 11
195.9070080159
 21
1121.3440632705
  0
LINE
  5
265
100
AcDbEntity
  8
0
100
AcDbLine
 62
7
  6
CONTINUOUS
 10
195.9070080159
 20
1139.8156361457
 11
1065.9070080159
 21
1139.8156361457
  0
LINE
  5
266
100
AcDbEntity
  8
0
100
AcDbLine
 62
7
  6
CONTINUOUS
 10
1065.9070080159
 20
1140.5227429269
 11
195.9070080159
 21
1140.5227429269
  0
LINE
  5
267
100
AcDbEntity
  8
0
100
AcDbLine
 62
7
  6
CONTINUOUS
 10
195.9070080159
 20
1144.3511700517
 11
1065.9070080159
 21
1144.3511700517
  0
LINE
  5
268
100
AcDbEntity
  8
0
100
AcDbLine
 62
7
  6
CONTINUOUS
 10
1065.9070080159
 20
1146.4724903952
 11
195.9070080159
 21
1146.4724903952
  0
LINE
  5
269
100
AcDbEntity
  8
0
100
AcDbLine
 62
7
  6
CONTINUOUS
 10
1095.9070080159
 20
1148.5798497081
 11
1065.9070080159
 21
1148.5798497081
  0
LINE
  5
26A
100
AcDbEntity
  8
0
100
AcDbLine
 62
7
  6
CONTINUOUS
 10
757.8146231079
 20
1255.5631537516
 11
757.8032400786
 21
1255.585984577
  0
LINE
  5
26B
100
AcDbEntity
  8
0
100
AcDbLine
 62
7
  6
CONTINUOUS
 10
863.8270080159
 20
1248.5798497081
 11
863.8270080159
 21
1253.8798497081
  0
LINE
  5
26C
100
AcDbEntity
  8
0
100
AcDbLine
 62
7
  6
CONTINUOUS
 10
1365.9131428848
 20
915.4760817708
 11
1365.8903120594
 21
915.4874648001
  0
LINE
  5
26D
100
AcDbEntity
  8
0
100
AcDbLine
 62
7
  6
CONTINUOUS
 10
1014.0107759532
 20
1255.585984577
 11
1013.9993929239
 21
1255.5631537516
  0
LINE
  5
26E
100
AcDbEntity
  8
0
100
AcDbLine
 62
7
  6
CONTINUOUS
 10
721.4070080159
 20
1241.5798497081
 11
719.4070080159
 21
1241.5798497081
  0
LINE
  5
26F
100
AcDbEntity
  8
0
100
AcDbLine
 62
7
  6
CONTINUOUS
 10
718.4070080159
 20
1241.5798497081
 11
716.4070080159
 21
1241.5798497081
  0
LINE
  5
270
100
AcDbEntity
  8
0
100
AcDbLine
 62
7
  6
CONTINUOUS
 10
195.9070080159
 20
1242.5798497081
 11
205.9070080159
 21
1242.5798497081
  0
LINE
  5
271
100
AcDbEntity
  8
0
100
AcDbLine
 62
7
  6
CONTINUOUS
 10
1085.9070080159
 20
1242.5798497081
 11
1095.9070080159
 21
1242.5798497081
  0
LINE
  5
272
100
AcDbEntity
  8
0
100
AcDbLine
 62
7
  6
CONTINUOUS
 10
205.9070080159
 20
1245.5798497081
 11
204.9070080159
 21
1245.5798497081
  0
LINE
  5
273
100
AcDbEntity
  8
0
100
AcDbLine
 62
7
  6
CONTINUOUS
 10
201.4070080159
 20
1246.5798497081
 11
1090.4070080159
 21
1246.5798497081
  0
LINE
  5
274
100
AcDbEntity
  8
0
100
AcDbLine
 62
7
  6
CONTINUOUS
 10
201.4070080159
 20
1248.5798497081
 11
715.9070080159
 21
1248.5798497081
  0
LINE
  5
275
100
AcDbEntity
  8
0
100
AcDbLine
 62
7
  6
CONTINUOUS
 10
719.4070080159
 20
1248.5798497081
 11
721.5914708976
 21
1248.5798497081
  0
LINE
  5
276
100
AcDbEntity
  8
0
100
AcDbLine
 62
7
  6
CONTINUOUS
 10
721.9070080159
 20
1248.5798497081
 11
1090.4070080159
 21
1248.5798497081
  0
LINE
  5
277
100
AcDbEntity
  8
0
100
AcDbLine
 62
7
  6
CONTINUOUS
 10
649.2070080159
 20
1249.0798497081
 11
639.2070080159
 21
1249.0798497081
  0
LINE
  5
278
100
AcDbEntity
  8
0
100
AcDbLine
 62
7
  6
CONTINUOUS
 10
274.9070080159
 20
1250.1798497081
 11
286.9070080159
 21
1250.1798497081
  0
LINE
  5
279
100
AcDbEntity
  8
0
100
AcDbLine
 62
7
  6
CONTINUOUS
 10
670.9070080159
 20
1250.1798497081
 11
682.9070080159
 21
1250.1798497081
  0
LINE
  5
27A
100
AcDbEntity
  8
0
100
AcDbLine
 62
7
  6
CONTINUOUS
 10
754.9070080159
 20
1250.1798497081
 11
766.9070080159
 21
1250.1798497081
  0
LINE
  5
27B
100
AcDbEntity
  8
0
100
AcDbLine
 62
7
  6
CONTINUOUS
 10
1004.9070080159
 20
1250.1798497081
 11
1016.9070080159
 21
1250.1798497081
  0
LINE
  5
27C
100
AcDbEntity
  8
0
100
AcDbLine
 62
7
  6
CONTINUOUS
 10
1350.3454310955
 20
1251.0798497087
 11
1099.9070080159
 21
1251.0798497087
  0
LINE
  5
27D
100
AcDbEntity
  8
0
100
AcDbLine
 62
7
  6
CONTINUOUS
 10
1016.9070080159
 20
1251.4798497081
 11
1004.9070080159
 21
1251.4798497081
  0
LINE
  5
27E
100
AcDbEntity
  8
0
100
AcDbLine
 62
7
  6
CONTINUOUS
 10
766.9070080159
 20
1251.4798497081
 11
754.9070080159
 21
1251.4798497081
  0
LINE
  5
27F
100
AcDbEntity
  8
0
100
AcDbLine
 62
7
  6
CONTINUOUS
 10
682.9070080159
 20
1251.4798497081
 11
670.9070080159
 21
1251.4798497081
  0
LINE
  5
280
100
AcDbEntity
  8
0
100
AcDbLine
 62
7
  6
CONTINUOUS
 10
286.9070080159
 20
1251.4798497081
 11
274.9070080159
 21
1251.4798497081
  0
LINE
  5
281
100
AcDbEntity
  8
0
100
AcDbLine
 62
7
  6
CONTINUOUS
 10
1116.9070080159
 20
1253.7298497087
 11
1122.9070080159
 21
1253.7298497087
  0
LINE
  5
282
100
AcDbEntity
  8
0
100
AcDbLine
 62
7
  6
CONTINUOUS
 10
1326.9070080159
 20
1253.7298497087
 11
1332.9070080159
 21
1253.7298497087
  0
LINE
  5
283
100
AcDbEntity
  8
0
100
AcDbLine
 62
7
  6
CONTINUOUS
 10
274.9070080159
 20
1253.8051328744
 11
286.9070080159
 21
1253.8051328744
  0
LINE
  5
284
100
AcDbEntity
  8
0
100
AcDbLine
 62
7
  6
CONTINUOUS
 10
670.9070080159
 20
1253.8051328744
 11
682.9070080159
 21
1253.8051328744
  0
LINE
  5
285
100
AcDbEntity
  8
0
100
AcDbLine
 62
7
  6
CONTINUOUS
 10
754.9070080159
 20
1253.8051328744
 11
766.9070080159
 21
1253.8051328744
  0
LINE
  5
286
100
AcDbEntity
  8
0
100
AcDbLine
 62
7
  6
CONTINUOUS
 10
1004.9070080159
 20
1253.8051328744
 11
1016.9070080159
 21
1253.8051328744
  0
LINE
  5
287
100
AcDbEntity
  8
0
100
AcDbLine
 62
7
  6
CONTINUOUS
 10
737.8270080159
 20
1253.8798497081
 11
754.9070080159
 21
1253.8798497081
  0
LINE
  5
288
100
AcDbEntity
  8
0
100
AcDbLine
 62
7
  6
CONTINUOUS
 10
766.9070080159
 20
1253.8798497081
 11
863.8270080159
 21
1253.8798497081
  0
LINE
  5
289
100
AcDbEntity
  8
0
100
AcDbLine
 62
7
  6
CONTINUOUS
 10
1335.9069318362
 20
1253.9798497087
 11
1323.9070841956
 21
1253.9798497087
  0
LINE
  5
28A
100
AcDbEntity
  8
0
100
AcDbLine
 62
7
  6
CONTINUOUS
 10
1125.9069318362
 20
1253.9798497087
 11
1113.9070841956
 21
1253.9798497087
  0
LINE
  5
28B
100
AcDbEntity
  8
0
100
AcDbLine
 62
7
  6
CONTINUOUS
 10
275.1353378256
 20
1254.2461109833
 11
286.6786782062
 21
1254.2461109833
  0
LINE
  5
28C
100
AcDbEntity
  8
0
100
AcDbLine
 62
7
  6
CONTINUOUS
 10
671.1353378256
 20
1254.2461109833
 11
682.6786782062
 21
1254.2461109833
  0
LINE
  5
28D
100
AcDbEntity
  8
0
100
AcDbLine
 62
7
  6
CONTINUOUS
 10
755.1353378256
 20
1254.2461109833
 11
766.6786782062
 21
1254.2461109833
  0
LINE
  5
28E
100
AcDbEntity
  8
0
100
AcDbLine
 62
7
  6
CONTINUOUS
 10
1005.1353378256
 20
1254.2461109833
 11
1016.6786782062
 21
1254.2461109833
  0
LINE
  5
28F
100
AcDbEntity
  8
0
100
AcDbLine
 62
7
  6
CONTINUOUS
 10
797.9270080159
 20
1254.3798497081
 11
791.1270080159
 21
1254.3798497081
  0
LINE
  5
290
100
AcDbEntity
  8
0
100
AcDbLine
 62
7
  6
CONTINUOUS
 10
783.9270080159
 20
1254.3798497081
 11
766.4292693452
 21
1254.3798497081
  0
LINE
  5
291
100
AcDbEntity
  8
0
100
AcDbLine
 62
7
  6
CONTINUOUS
 10
755.3847466866
 20
1254.3798497081
 11
749.1270080159
 21
1254.3798497081
  0
LINE
  5
292
100
AcDbEntity
  8
0
100
AcDbLine
 62
7
  6
CONTINUOUS
 10
1350.3454310955
 20
1254.6205440405
 11
1360.4262413952
 21
1254.6205440405
  0
LINE
  5
293
100
AcDbEntity
  8
0
100
AcDbLine
 62
7
  6
CONTINUOUS
 10
1012.244628554
 20
1255.9645169963
 11
1011.6170248056
 21
1255.9645169963
  0
LINE
  5
294
100
AcDbEntity
  8
0
100
AcDbLine
 62
7
  6
CONTINUOUS
 10
1010.1969911878
 20
1255.9645169963
 11
1009.5693874562
 21
1255.9645169963
  0
LINE
  5
295
100
AcDbEntity
  8
0
100
AcDbLine
 62
7
  6
CONTINUOUS
 10
762.244628554
 20
1255.9645169963
 11
761.6170248056
 21
1255.9645169963
  0
LINE
  5
296
100
AcDbEntity
  8
0
100
AcDbLine
 62
7
  6
CONTINUOUS
 10
760.1969911878
 20
1255.9645169963
 11
759.5693874562
 21
1255.9645169963
  0
LINE
  5
297
100
AcDbEntity
  8
0
100
AcDbLine
 62
7
  6
CONTINUOUS
 10
678.244628554
 20
1255.9645169963
 11
677.6170248056
 21
1255.9645169963
  0
LINE
  5
298
100
AcDbEntity
  8
0
100
AcDbLine
 62
7
  6
CONTINUOUS
 10
676.1969911878
 20
1255.9645169963
 11
675.5693874562
 21
1255.9645169963
  0
LINE
  5
299
100
AcDbEntity
  8
0
100
AcDbLine
 62
7
  6
CONTINUOUS
 10
280.1969911878
 20
1255.9645169963
 11
279.5693874568
 21
1255.9645169963
  0
LINE
  5
29A
100
AcDbEntity
  8
0
100
AcDbLine
 62
7
  6
CONTINUOUS
 10
282.244628554
 20
1255.9645169963
 11
281.6170248056
 21
1255.9645169963
  0
LINE
  5
29B
100
AcDbEntity
  8
0
100
AcDbLine
 62
7
  6
CONTINUOUS
 10
1113.9070080159
 20
1256.305132875
 11
1125.9070080159
 21
1256.305132875
  0
LINE
  5
29C
100
AcDbEntity
  8
0
100
AcDbLine
 62
7
  6
CONTINUOUS
 10
1323.9070080159
 20
1256.305132875
 11
1335.9070080159
 21
1256.305132875
  0
LINE
  5
29D
100
AcDbEntity
  8
0
100
AcDbLine
 62
7
  6
CONTINUOUS
 10
1114.1353378256
 20
1256.7461109839
 11
1125.6786782062
 21
1256.7461109839
  0
LINE
  5
29E
100
AcDbEntity
  8
0
100
AcDbLine
 62
7
  6
CONTINUOUS
 10
1324.1353378256
 20
1256.7461109839
 11
1335.6786782062
 21
1256.7461109839
  0
LINE
  5
29F
100
AcDbEntity
  8
0
100
AcDbLine
 62
7
  6
CONTINUOUS
 10
1331.2446285517
 20
1258.4645169969
 11
1330.6170041075
 21
1258.4645169969
  0
LINE
  5
2A0
100
AcDbEntity
  8
0
100
AcDbLine
 62
7
  6
CONTINUOUS
 10
1329.1969911829
 20
1258.4645169969
 11
1328.5693764718
 21
1258.4645169969
  0
LINE
  5
2A1
100
AcDbEntity
  8
0
100
AcDbLine
 62
7
  6
CONTINUOUS
 10
1121.2446285518
 20
1258.4645169969
 11
1120.6170041075
 21
1258.4645169969
  0
LINE
  5
2A2
100
AcDbEntity
  8
0
100
AcDbLine
 62
7
  6
CONTINUOUS
 10
1119.1969911829
 20
1258.4645169969
 11
1118.5693764718
 21
1258.4645169969
  0
LINE
  5
2A3
100
AcDbEntity
  8
0
100
AcDbLine
 62
7
  6
CONTINUOUS
 10
1099.9070080159
 20
1029.5798497081
 11
1095.9070080159
 21
1033.5798497081
  0
LINE
  5
2A4
100
AcDbEntity
  8
0
100
AcDbLine
 62
7
  6
CONTINUOUS
 10
1004.9070080159
 20
1248.5798497081
 11
1004.9070080159
 21
1250.1798497081
  0
LINE
  5
2A5
100
AcDbEntity
  8
0
100
AcDbLine
 62
7
  6
CONTINUOUS
 10
1004.9070080159
 20
1251.4798497081
 11
1004.9070080159
 21
1253.8051328744
  0
LINE
  5
2A6
100
AcDbEntity
  8
0
100
AcDbLine
 62
7
  6
CONTINUOUS
 10
1005.0159660877
 20
1251.4798497081
 11
1005.0159660877
 21
1250.1798497081
  0
LINE
  5
2A7
100
AcDbEntity
  8
0
100
AcDbLine
 62
7
  6
CONTINUOUS
 10
1010.1970080159
 20
1255.9645236911
 11
1010.1970080159
 21
1255.5631537516
  0
LINE
  5
2A8
100
AcDbEntity
  8
0
100
AcDbLine
 62
7
  6
CONTINUOUS
 10
1011.6170080159
 20
1255.5631537516
 11
1011.6170080159
 21
1255.9645236758
  0
LINE
  5
2A9
100
AcDbEntity
  8
0
100
AcDbLine
 62
7
  6
CONTINUOUS
 10
1016.8070080159
 20
1250.1798497081
 11
1016.8070080159
 21
1251.4798497081
  0
LINE
  5
2AA
100
AcDbEntity
  8
0
100
AcDbLine
 62
7
  6
CONTINUOUS
 10
1016.9070080159
 20
1253.8051328744
 11
1016.9070080159
 21
1251.4798497081
  0
LINE
  5
2AB
100
AcDbEntity
  8
0
100
AcDbLine
 62
7
  6
CONTINUOUS
 10
1016.9070080159
 20
1250.1798497081
 11
1016.9070080159
 21
1248.5798497081
  0
LINE
  5
2AC
100
AcDbEntity
  8
0
100
AcDbLine
 62
7
  6
CONTINUOUS
 10
1123.0107765045
 20
1258.0859856834
 11
1122.9993929239
 21
1258.0631537522
  0
LINE
  5
2AD
100
AcDbEntity
  8
0
100
AcDbLine
 62
7
  6
CONTINUOUS
 10
1365.8903120591
 20
1101.6722346161
 11
1365.9131428845
 21
1101.6836176454
  0
LINE
  5
2AE
100
AcDbEntity
  8
0
100
AcDbLine
 62
7
  6
CONTINUOUS
 10
1065.9070080159
 20
1113.5798497081
 11
1065.9070080159
 21
1148.5798497081
  0
LINE
  5
2AF
100
AcDbEntity
  8
0
100
AcDbLine
 62
7
  6
CONTINUOUS
 10
1365.9131428845
 20
1095.4760817708
 11
1365.8903120591
 21
1095.4874648001
  0
LINE
  5
2B0
100
AcDbEntity
  8
0
100
AcDbLine
 62
7
  6
CONTINUOUS
 10
1007.8146231079
 20
1255.5631537516
 11
1007.8032400786
 21
1255.585984577
  0
LINE
  5
2B1
100
AcDbEntity
  8
0
100
AcDbLine
 62
7
  6
CONTINUOUS
 10
1083.9070080159
 20
1248.5798497081
 11
1083.9070080159
 21
1246.5798497081
  0
LINE
  5
2B2
100
AcDbEntity
  8
0
100
AcDbLine
 62
7
  6
CONTINUOUS
 10
1085.9070080159
 20
1242.5798497081
 11
1085.9070080159
 21
1248.5798497081
  0
LINE
  5
2B3
100
AcDbEntity
  8
0
100
AcDbLine
 62
7
  6
CONTINUOUS
 10
1090.9070080159
 20
1242.5798497081
 11
1090.9070080159
 21
1246.0798497081
  0
LINE
  5
2B4
100
AcDbEntity
  8
0
100
AcDbLine
 62
7
  6
CONTINUOUS
 10
1092.9070080159
 20
1246.0798497081
 11
1092.9070080159
 21
1242.5798497081
  0
LINE
  5
2B5
100
AcDbEntity
  8
0
100
AcDbLine
 62
7
  6
CONTINUOUS
 10
1095.9070080159
 20
1242.5798497081
 11
1095.9070080159
 21
1148.5798497081
  0
LINE
  5
2B6
100
AcDbEntity
  8
0
100
AcDbLine
 62
7
  6
CONTINUOUS
 10
1095.9070080159
 20
1113.5798497081
 11
1095.9070080159
 21
1033.5798497081
  0
LINE
  5
2B7
100
AcDbEntity
  8
0
100
AcDbLine
 62
7
  6
CONTINUOUS
 10
1099.9070080159
 20
1251.0798497087
 11
1099.9070080159
 21
881.5798497081
  0
LINE
  5
2B8
100
AcDbEntity
  8
0
100
AcDbLine
 62
7
  6
CONTINUOUS
 10
1113.9070080159
 20
1256.305132875
 11
1113.9070080159
 21
1253.9798497087
  0
LINE
  5
2B9
100
AcDbEntity
  8
0
100
AcDbLine
 62
7
  6
CONTINUOUS
 10
1116.9070080159
 20
1253.7298497087
 11
1116.9070080159
 21
1251.0798497087
  0
LINE
  5
2BA
100
AcDbEntity
  8
0
100
AcDbLine
 62
7
  6
CONTINUOUS
 10
1119.1970080159
 20
1258.4645236937
 11
1119.1970080159
 21
1258.0631537522
  0
LINE
  5
2BB
100
AcDbEntity
  8
0
100
AcDbLine
 62
7
  6
CONTINUOUS
 10
1120.6170080159
 20
1258.0631537522
 11
1120.6170080159
 21
1258.464515442
  0
LINE
  5
2BC
100
AcDbEntity
  8
0
100
AcDbLine
 62
7
  6
CONTINUOUS
 10
1120.9070080159
 20
881.5798497081
 11
1120.9070080159
 21
878.5798497081
  0
LINE
  5
2BD
100
AcDbEntity
  8
0
100
AcDbLine
 62
7
  6
CONTINUOUS
 10
1121.9070080159
 20
881.5798497081
 11
1121.9070080159
 21
878.5798497081
  0
LINE
  5
2BE
100
AcDbEntity
  8
0
100
AcDbLine
 62
7
  6
CONTINUOUS
 10
1122.9070080159
 20
1253.7298497087
 11
1122.9070080159
 21
1251.0798497087
  0
LINE
  5
2BF
100
AcDbEntity
  8
0
100
AcDbLine
 62
7
  6
CONTINUOUS
 10
1125.9070080159
 20
1256.305132875
 11
1125.9070080159
 21
1253.9798497087
  0
LINE
  5
2C0
100
AcDbEntity
  8
0
100
AcDbLine
 62
7
  6
CONTINUOUS
 10
1333.0107765045
 20
1258.0859856834
 11
1332.9993929239
 21
1258.0631537522
  0
LINE
  5
2C1
100
AcDbEntity
  8
0
100
AcDbLine
 62
7
  6
CONTINUOUS
 10
1365.8903120594
 20
921.6722346161
 11
1365.9131428848
 21
921.6836176454
  0
LINE
  5
2C2
100
AcDbEntity
  8
0
100
AcDbLine
 62
7
  6
CONTINUOUS
 10
1116.8146231079
 20
1258.0631537522
 11
1116.8032395273
 21
1258.0859856834
  0
LINE
  5
2C3
100
AcDbEntity
  8
0
100
AcDbLine
 62
7
  6
CONTINUOUS
 10
1323.9070080159
 20
1256.305132875
 11
1323.9070080159
 21
1253.9798497087
  0
LINE
  5
2C4
100
AcDbEntity
  8
0
100
AcDbLine
 62
7
  6
CONTINUOUS
 10
1326.9070080159
 20
1253.7298497087
 11
1326.9070080159
 21
1251.0798497087
  0
LINE
  5
2C5
100
AcDbEntity
  8
0
100
AcDbLine
 62
7
  6
CONTINUOUS
 10
1329.1970080159
 20
1258.4645236937
 11
1329.1970080159
 21
1258.0631537522
  0
LINE
  5
2C6
100
AcDbEntity
  8
0
100
AcDbLine
 62
7
  6
CONTINUOUS
 10
1330.6170080159
 20
1258.0631537522
 11
1330.6170080159
 21
1258.464515442
  0
LINE
  5
2C7
100
AcDbEntity
  8
0
100
AcDbLine
 62
7
  6
CONTINUOUS
 10
1332.9070080159
 20
1253.7298497087
 11
1332.9070080159
 21
1251.0798497087
  0
LINE
  5
2C8
100
AcDbEntity
  8
0
100
AcDbLine
 62
7
  6
CONTINUOUS
 10
1335.9070080159
 20
1256.305132875
 11
1335.9070080159
 21
1253.9798497087
  0
LINE
  5
2C9
100
AcDbEntity
  8
0
100
AcDbLine
 62
7
  6
CONTINUOUS
 10
1350.3454310955
 20
1251.0798497087
 11
1350.3454310955
 21
1254.6205440405
  0
LINE
  5
2CA
100
AcDbEntity
  8
0
100
AcDbLine
 62
7
  6
CONTINUOUS
 10
1356.9070080159
 20
1118.5405605446
 11
1356.9070080159
 21
878.5798497081
  0
LINE
  5
2CB
100
AcDbEntity
  8
0
100
AcDbLine
 62
7
  6
CONTINUOUS
 10
1358.9070080159
 20
882.7320719078
 11
1358.9070080159
 21
1114.3375224932
  0
LINE
  5
2CC
100
AcDbEntity
  8
0
100
AcDbLine
 62
7
  6
CONTINUOUS
 10
1360.4262413952
 20
1254.6205440405
 11
1360.4262413952
 21
1118.5405605446
  0
LINE
  5
2CD
100
AcDbEntity
  8
0
100
AcDbLine
 62
7
  6
CONTINUOUS
 10
1360.5070080156
 20
1104.5798497081
 11
1360.5070080156
 21
1092.5798497081
  0
LINE
  5
2CE
100
AcDbEntity
  8
0
100
AcDbLine
 62
7
  6
CONTINUOUS
 10
1360.5070080159
 20
924.5798497081
 11
1360.5070080159
 21
912.5798497081
  0
LINE
  5
2CF
100
AcDbEntity
  8
0
100
AcDbLine
 62
7
  6
CONTINUOUS
 10
1361.8070080159
 20
912.5798497081
 11
1361.8070080159
 21
924.5798497081
  0
LINE
  5
2D0
100
AcDbEntity
  8
0
100
AcDbLine
 62
7
  6
CONTINUOUS
 10
1361.8070080156
 20
1092.5798497081
 11
1361.8070080156
 21
1104.5798497081
  0
LINE
  5
2D1
100
AcDbEntity
  8
0
100
AcDbLine
 62
7
  6
CONTINUOUS
 10
1364.1322911819
 20
1104.5798497081
 11
1364.1322911819
 21
1092.5798497081
  0
LINE
  5
2D2
100
AcDbEntity
  8
0
100
AcDbLine
 62
7
  6
CONTINUOUS
 10
1364.1322911822
 20
924.5798497081
 11
1364.1322911822
 21
912.5798497081
  0
LINE
  5
2D3
100
AcDbEntity
  8
0
100
AcDbLine
 62
7
  6
CONTINUOUS
 10
1364.5732692908
 20
1104.3515198984
 11
1364.5732692908
 21
1092.8081795178
  0
LINE
  5
2D4
100
AcDbEntity
  8
0
100
AcDbLine
 62
7
  6
CONTINUOUS
 10
1364.5732692911
 20
924.3515198984
 11
1364.5732692911
 21
912.8081795178
  0
LINE
  5
2D5
100
AcDbEntity
  8
0
100
AcDbLine
 62
7
  6
CONTINUOUS
 10
1366.2916753041
 20
917.2422291709
 11
1366.2916753041
 21
917.869853624
  0
LINE
  5
2D6
100
AcDbEntity
  8
0
100
AcDbLine
 62
7
  6
CONTINUOUS
 10
1366.2916753041
 20
919.289866538
 11
1366.2916753041
 21
919.9174812568
  0
LINE
  5
2D7
100
AcDbEntity
  8
0
100
AcDbLine
 62
7
  6
CONTINUOUS
 10
1366.2916753038
 20
1097.2422291709
 11
1366.2916753038
 21
1097.869853624
  0
LINE
  5
2D8
100
AcDbEntity
  8
0
100
AcDbLine
 62
7
  6
CONTINUOUS
 10
1366.2916753038
 20
1099.289866538
 11
1366.2916753038
 21
1099.9174812568
  0
LINE
  5
2D9
100
AcDbEntity
  8
0
100
AcDbLine
 62
7
  6
CONTINUOUS
 10
1326.8146231079
 20
1258.0631537522
 11
1326.8032395273
 21
1258.0859856834
  0
CIRCLE
  5
2DA
100
AcDbEntity
  8
0
100
AcDbCircle
 62
7
  6
CONTINUOUS
 10
198.9070080159
 20
1000.5798497081
 40
12.0
  0
ARC
  5
2DB
100
AcDbEntity
  8
0
100
AcDbCircle
 62
7
  6
CONTINUOUS
 10
280.9070073781
 20
1244.5351858644
 40
11.0507998184
100
AcDbArc
 50
86.3162775517
 51
93.6837224483
  0
ARC
  5
2DC
100
AcDbEntity
  8
0
100
AcDbCircle
 62
7
  6
CONTINUOUS
 10
760.9070073781
 20
1244.5351858644
 40
11.0507998184
100
AcDbArc
 50
86.3162775517
 51
93.6837224483
  0
ARC
  5
2DD
100
AcDbEntity
  8
0
100
AcDbCircle
 62
7
  6
CONTINUOUS
 10
676.9070073781
 20
1244.5351858644
 40
11.0507998184
100
AcDbArc
 50
86.3162775517
 51
93.6837224483
  0
ARC
  5
2DE
100
AcDbEntity
  8
0
100
AcDbCircle
 62
7
  6
CONTINUOUS
 10
280.9070080159
 20
1246.0798497081
 40
10.0
100
AcDbArc
 50
108.0819426134
 51
125.251531542
  0
ARC
  5
2DF
100
AcDbEntity
  8
0
100
AcDbCircle
 62
7
  6
CONTINUOUS
 10
280.9070080159
 20
1246.0798497081
 40
10.0
100
AcDbArc
 50
54.748468458
 51
71.9180573866
  0
ARC
  5
2E0
100
AcDbEntity
  8
0
100
AcDbCircle
 62
7
  6
CONTINUOUS
 10
760.9070080159
 20
1246.0798497081
 40
10.0
100
AcDbArc
 50
108.0819426134
 51
125.251531542
  0
ARC
  5
2E1
100
AcDbEntity
  8
0
100
AcDbCircle
 62
7
  6
CONTINUOUS
 10
760.9070080159
 20
1246.0798497081
 40
10.0
100
AcDbArc
 50
54.748468458
 51
71.9180573866
  0
ARC
  5
2E2
100
AcDbEntity
  8
0
100
AcDbCircle
 62
7
  6
CONTINUOUS
 10
676.9070080159
 20
1246.0798497081
 40
10.0
100
AcDbArc
 50
108.0819426134
 51
125.251531542
  0
ARC
  5
2E3
100
AcDbEntity
  8
0
100
AcDbCircle
 62
7
  6
CONTINUOUS
 10
676.9070080159
 20
1246.0798497081
 40
10.0
100
AcDbArc
 50
54.748468458
 51
71.9180573866
  0
ARC
  5
2E4
100
AcDbEntity
  8
0
100
AcDbCircle
 62
7
  6
CONTINUOUS
 10
280.9070080159
 20
1246.0798497081
 40
9.9747631551
100
AcDbArc
 50
97.706426074
 51
108.0604891642
  0
ARC
  5
2E5
100
AcDbEntity
  8
0
100
AcDbCircle
 62
7
  6
CONTINUOUS
 10
280.9070080159
 20
1246.0798497081
 40
9.9747631551
100
AcDbArc
 50
71.9395108358
 51
82.2935744795
  0
ARC
  5
2E6
100
AcDbEntity
  8
0
100
AcDbCircle
 62
7
  6
CONTINUOUS
 10
760.9070080159
 20
1246.0798497081
 40
9.9747631551
100
AcDbArc
 50
97.7064260895
 51
108.0604891642
  0
ARC
  5
2E7
100
AcDbEntity
  8
0
100
AcDbCircle
 62
7
  6
CONTINUOUS
 10
760.9070080159
 20
1246.0798497081
 40
9.9747631551
100
AcDbArc
 50
71.9395108358
 51
82.2935744795
  0
ARC
  5
2E8
100
AcDbEntity
  8
0
100
AcDbCircle
 62
7
  6
CONTINUOUS
 10
676.9070080159
 20
1246.0798497081
 40
9.9747631551
100
AcDbArc
 50
97.7064260895
 51
108.0604891642
  0
ARC
  5
2E9
100
AcDbEntity
  8
0
100
AcDbCircle
 62
7
  6
CONTINUOUS
 10
676.9070080159
 20
1246.0798497081
 40
9.9747631551
100
AcDbArc
 50
71.9395108358
 51
82.2935744795
  0
ARC
  5
2EA
100
AcDbEntity
  8
0
100
AcDbCircle
 62
7
  6
CONTINUOUS
 10
715.9070080159
 20
1246.0798497081
 40
2.5
100
AcDbArc
 50
0.0
 51
90.0
  0
ARC
  5
2EB
100
AcDbEntity
  8
0
100
AcDbCircle
 62
7
  6
CONTINUOUS
 10
201.4070080159
 20
1246.0798497081
 40
2.5
100
AcDbArc
 50
90.0
 51
180.0
  0
ARC
  5
2EC
100
AcDbEntity
  8
0
100
AcDbCircle
 62
7
  6
CONTINUOUS
 10
721.9070080159
 20
1246.0798497081
 40
2.5
100
AcDbArc
 50
90.0
 51
180.0
  0
ARC
  5
2ED
100
AcDbEntity
  8
0
100
AcDbCircle
 62
7
  6
CONTINUOUS
 10
286.3670080159
 20
1253.8051328744
 40
0.54
100
AcDbArc
 50
0.0
 51
54.748468458
  0
ARC
  5
2EE
100
AcDbEntity
  8
0
100
AcDbCircle
 62
7
  6
CONTINUOUS
 10
275.4470080159
 20
1253.8051328744
 40
0.54
100
AcDbArc
 50
125.251531542
 51
180.0
  0
ARC
  5
2EF
100
AcDbEntity
  8
0
100
AcDbCircle
 62
7
  6
CONTINUOUS
 10
766.3670080159
 20
1253.8051328744
 40
0.54
100
AcDbArc
 50
0.0
 51
54.748468458
  0
ARC
  5
2F0
100
AcDbEntity
  8
0
100
AcDbCircle
 62
7
  6
CONTINUOUS
 10
755.4470080159
 20
1253.8051328744
 40
0.54
100
AcDbArc
 50
125.251531542
 51
180.0
  0
ARC
  5
2F1
100
AcDbEntity
  8
0
100
AcDbCircle
 62
7
  6
CONTINUOUS
 10
682.3670080159
 20
1253.8051328744
 40
0.54
100
AcDbArc
 50
0.0
 51
54.748468458
  0
ARC
  5
2F2
100
AcDbEntity
  8
0
100
AcDbCircle
 62
7
  6
CONTINUOUS
 10
671.4470080159
 20
1253.8051328744
 40
0.54
100
AcDbArc
 50
125.251531542
 51
180.0
  0
ARC
  5
2F3
100
AcDbEntity
  8
0
100
AcDbCircle
 62
7
  6
CONTINUOUS
 10
715.9070080159
 20
1246.0798497081
 40
0.5
100
AcDbArc
 50
0.0
 51
90.0
  0
ARC
  5
2F4
100
AcDbEntity
  8
0
100
AcDbCircle
 62
7
  6
CONTINUOUS
 10
201.4070080159
 20
1246.0798497081
 40
0.5
100
AcDbArc
 50
90.0
 51
180.0
  0
ARC
  5
2F5
100
AcDbEntity
  8
0
100
AcDbCircle
 62
7
  6
CONTINUOUS
 10
721.9070080159
 20
1246.0798497081
 40
0.5
100
AcDbArc
 50
90.0
 51
180.0
  0
ARC
  5
2F6
100
AcDbEntity
  8
0
100
AcDbCircle
 62
7
  6
CONTINUOUS
 10
1092.9070080159
 20
1000.5798497081
 40
12.0
100
AcDbArc
 50
52.3519367627
 51
307.7192059901
  0
ARC
  5
2F7
100
AcDbEntity
  8
0
100
AcDbCircle
 62
7
  6
CONTINUOUS
 10
1354.8623441722
 20
918.5798503459
 40
11.0507998184
100
AcDbArc
 50
356.3162775517
 51
3.6837224483
  0
ARC
  5
2F8
100
AcDbEntity
  8
0
100
AcDbCircle
 62
7
  6
CONTINUOUS
 10
1356.4070080159
 20
918.5798497081
 40
10.0
100
AcDbArc
 50
18.0819426134
 51
35.251531542
  0
ARC
  5
2F9
100
AcDbEntity
  8
0
100
AcDbCircle
 62
7
  6
CONTINUOUS
 10
1356.4070080159
 20
918.5798497081
 40
10.0
100
AcDbArc
 50
324.748468458
 51
341.9180573866
  0
ARC
  5
2FA
100
AcDbEntity
  8
0
100
AcDbCircle
 62
7
  6
CONTINUOUS
 10
1356.4070080159
 20
918.5798497081
 40
9.9747631551
100
AcDbArc
 50
7.7067146408
 51
18.0604891642
  0
ARC
  5
2FB
100
AcDbEntity
  8
0
100
AcDbCircle
 62
7
  6
CONTINUOUS
 10
1356.4070080159
 20
918.5798497081
 40
9.9747631551
100
AcDbArc
 50
341.9395108358
 51
352.2935745042
  0
ARC
  5
2FC
100
AcDbEntity
  8
0
100
AcDbCircle
 62
7
  6
CONTINUOUS
 10
1364.1322911822
 20
913.1198497081
 40
0.54
100
AcDbArc
 50
270.0
 51
324.7484684581
  0
ARC
  5
2FD
100
AcDbEntity
  8
0
100
AcDbCircle
 62
7
  6
CONTINUOUS
 10
1364.1322911822
 20
924.0398497081
 40
0.54
100
AcDbArc
 50
35.251531542
 51
90.0
  0
ARC
  5
2FE
100
AcDbEntity
  8
0
100
AcDbCircle
 62
7
  6
CONTINUOUS
 10
1119.9070080159
 20
1247.0266128215
 40
11.059355122
100
AcDbArc
 50
86.319134448
 51
93.680865552
  0
ARC
  5
2FF
100
AcDbEntity
  8
0
100
AcDbCircle
 62
7
  6
CONTINUOUS
 10
1010.9070073781
 20
1244.5351858644
 40
11.0507998184
100
AcDbArc
 50
86.3162775517
 51
93.6837224483
  0
ARC
  5
300
100
AcDbEntity
  8
0
100
AcDbCircle
 62
7
  6
CONTINUOUS
 10
1010.9070080159
 20
1246.0798497081
 40
10.0
100
AcDbArc
 50
108.0819426134
 51
125.251531542
  0
ARC
  5
301
100
AcDbEntity
  8
0
100
AcDbCircle
 62
7
  6
CONTINUOUS
 10
1010.9070080159
 20
1246.0798497081
 40
10.0
100
AcDbArc
 50
54.748468458
 51
71.9180573866
  0
ARC
  5
302
100
AcDbEntity
  8
0
100
AcDbCircle
 62
7
  6
CONTINUOUS
 10
1119.9070080159
 20
1248.5798497087
 40
10.0
100
AcDbArc
 50
54.748468458
 51
71.9180573866
  0
ARC
  5
303
100
AcDbEntity
  8
0
100
AcDbCircle
 62
7
  6
CONTINUOUS
 10
1119.9070080159
 20
1248.5798497087
 40
10.0
100
AcDbArc
 50
108.0819426134
 51
125.251531542
  0
ARC
  5
304
100
AcDbEntity
  8
0
100
AcDbCircle
 62
7
  6
CONTINUOUS
 10
1010.9070080159
 20
1246.0798497081
 40
9.9747631551
100
AcDbArc
 50
97.7064260901
 51
108.0604891642
  0
ARC
  5
305
100
AcDbEntity
  8
0
100
AcDbCircle
 62
7
  6
CONTINUOUS
 10
1010.9070080159
 20
1246.0798497081
 40
9.9747631551
100
AcDbArc
 50
71.9395108358
 51
82.2935744793
  0
ARC
  5
306
100
AcDbEntity
  8
0
100
AcDbCircle
 62
7
  6
CONTINUOUS
 10
1119.9070080159
 20
1248.5798497087
 40
9.9747631551
100
AcDbArc
 50
97.70671452
 51
108.0604891642
  0
ARC
  5
307
100
AcDbEntity
  8
0
100
AcDbCircle
 62
7
  6
CONTINUOUS
 10
1119.9070080159
 20
1248.5798497087
 40
9.9747631551
100
AcDbArc
 50
71.9395108358
 51
82.2935745378
  0
ARC
  5
308
100
AcDbEntity
  8
0
100
AcDbCircle
 62
7
  6
CONTINUOUS
 10
1090.4070080159
 20
1246.0798497081
 40
2.5
100
AcDbArc
 50
0.0
 51
90.0
  0
ARC
  5
309
100
AcDbEntity
  8
0
100
AcDbCircle
 62
7
  6
CONTINUOUS
 10
1016.3670080159
 20
1253.8051328744
 40
0.54
100
AcDbArc
 50
0.0
 51
54.748468458
  0
ARC
  5
30A
100
AcDbEntity
  8
0
100
AcDbCircle
 62
7
  6
CONTINUOUS
 10
1005.4470080159
 20
1253.8051328744
 40
0.54
100
AcDbArc
 50
125.251531542
 51
180.0
  0
ARC
  5
30B
100
AcDbEntity
  8
0
100
AcDbCircle
 62
7
  6
CONTINUOUS
 10
1125.3670080159
 20
1256.305132875
 40
0.54
100
AcDbArc
 50
0.0
 51
54.7484684581
  0
ARC
  5
30C
100
AcDbEntity
  8
0
100
AcDbCircle
 62
7
  6
CONTINUOUS
 10
1114.4470080159
 20
1256.305132875
 40
0.54
100
AcDbArc
 50
125.251531542
 51
180.0
  0
ARC
  5
30D
100
AcDbEntity
  8
0
100
AcDbCircle
 62
7
  6
CONTINUOUS
 10
1090.4070080159
 20
1246.0798497081
 40
0.5
100
AcDbArc
 50
0.0
 51
90.0
  0
ARC
  5
30E
100
AcDbEntity
  8
0
100
AcDbCircle
 62
7
  6
CONTINUOUS
 10
1123.1570080159
 20
1253.7298497087
 40
0.25
100
AcDbArc
 50
90.0
 51
180.0
  0
ARC
  5
30F
100
AcDbEntity
  8
0
100
AcDbCircle
 62
7
  6
CONTINUOUS
 10
1116.6570080159
 20
1253.7298497087
 40
0.25
100
AcDbArc
 50
0.0
 51
90.0
  0
ARC
  5
310
100
AcDbEntity
  8
0
100
AcDbCircle
 62
7
  6
CONTINUOUS
 10
1354.8623441719
 20
1098.5798503459
 40
11.0507998184
100
AcDbArc
 50
356.3162775517
 51
3.6837224483
  0
ARC
  5
311
100
AcDbEntity
  8
0
100
AcDbCircle
 62
7
  6
CONTINUOUS
 10
1356.4070080156
 20
1098.5798497081
 40
10.0
100
AcDbArc
 50
18.0819426134
 51
35.251531542
  0
ARC
  5
312
100
AcDbEntity
  8
0
100
AcDbCircle
 62
7
  6
CONTINUOUS
 10
1356.4070080156
 20
1098.5798497081
 40
10.0
100
AcDbArc
 50
324.748468458
 51
341.9180573866
  0
ARC
  5
313
100
AcDbEntity
  8
0
100
AcDbCircle
 62
7
  6
CONTINUOUS
 10
1356.4070080156
 20
1098.5798497081
 40
9.9747631551
100
AcDbArc
 50
7.7067146388
 51
18.0604891642
  0
ARC
  5
314
100
AcDbEntity
  8
0
100
AcDbCircle
 62
7
  6
CONTINUOUS
 10
1356.4070080156
 20
1098.5798497081
 40
9.9747631551
100
AcDbArc
 50
341.9395108358
 51
352.2935745041
  0
ARC
  5
315
100
AcDbEntity
  8
0
100
AcDbCircle
 62
7
  6
CONTINUOUS
 10
1364.1322911819
 20
1093.1198497081
 40
0.54
100
AcDbArc
 50
270.0
 51
324.7484684581
  0
ARC
  5
316
100
AcDbEntity
  8
0
100
AcDbCircle
 62
7
  6
CONTINUOUS
 10
1364.1322911819
 20
1104.0398497081
 40
0.54
100
AcDbArc
 50
35.251531542
 51
90.0
  0
ARC
  5
317
100
AcDbEntity
  8
0
100
AcDbCircle
 62
7
  6
CONTINUOUS
 10
1329.9070080159
 20
1247.0266128215
 40
11.059355122
100
AcDbArc
 50
86.319134448
 51
93.680865552
  0
ARC
  5
318
100
AcDbEntity
  8
0
100
AcDbCircle
 62
7
  6
CONTINUOUS
 10
1329.9070080159
 20
1248.5798497087
 40
10.0
100
AcDbArc
 50
54.748468458
 51
71.9180573866
  0
ARC
  5
319
100
AcDbEntity
  8
0
100
AcDbCircle
 62
7
  6
CONTINUOUS
 10
1329.9070080159
 20
1248.5798497087
 40
10.0
100
AcDbArc
 50
108.0819426134
 51
125.251531542
  0
ARC
  5
31A
100
AcDbEntity
  8
0
100
AcDbCircle
 62
7
  6
CONTINUOUS
 10
1329.9070080159
 20
1248.5798497087
 40
9.9747631551
100
AcDbArc
 50
97.70671452
 51
108.0604891642
  0
ARC
  5
31B
100
AcDbEntity
  8
0
100
AcDbCircle
 62
7
  6
CONTINUOUS
 10
1329.9070080159
 20
1248.5798497087
 40
9.9747631551
100
AcDbArc
 50
71.9395108358
 51
82.2935745393
  0
ARC
  5
31C
100
AcDbEntity
  8
0
100
AcDbCircle
 62
7
  6
CONTINUOUS
 10
1335.3670080159
 20
1256.305132875
 40
0.54
100
AcDbArc
 50
0.0
 51
54.748468458
  0
ARC
  5
31D
100
AcDbEntity
  8
0
100
AcDbCircle
 62
7
  6
CONTINUOUS
 10
1324.4470080159
 20
1256.305132875
 40
0.54
100
AcDbArc
 50
125.251531542
 51
180.0
  0
ARC
  5
31E
100
AcDbEntity
  8
0
100
AcDbCircle
 62
7
  6
CONTINUOUS
 10
1333.1570080159
 20
1253.7298497087
 40
0.25
100
AcDbArc
 50
90.0
 51
180.0
  0
ARC
  5
31F
100
AcDbEntity
  8
0
100
AcDbCircle
 62
7
  6
CONTINUOUS
 10
1326.6570080159
 20
1253.7298497087
 40
0.25
100
AcDbArc
 50
0.0
 51
90.0
  0
SPLINE
  5
320
100
AcDbEntity
  8
0
100
AcDbSpline
 62
7
  6
CONTINUOUS
 70
0
 71
3
 72
12
 73
8
 74
0
 42
0.0000001
 43
0.0000001
 44
0.0000000001
 40
0.0
 40
0.0
 40
0.0
 40
0.0
 40
0.25
 40
0.375
 40
0.5
 40
0.75
 40
1.0
 40
1.0
 40
1.0
 40
1.0
 10
789.5270080159
 20
1253.8798497081
 30
0.0
 10
789.5270080159
 20
1253.9155639938
 30
0.0
 10
789.5794030402
 20
1253.98857499
 30
0.0
 10
789.8215011572
 20
1254.1128725066
 30
0.0
 10
790.166190729
 20
1254.2388412937
 30
0.0
 10
790.7018978912
 20
1254.3588114456
 30
0.0
 10
791.0127223016
 20
1254.3798497081
 30
0.0
 10
791.1270080159
 20
1254.3798497081
 30
0.0
  0
SPLINE
  5
321
100
AcDbEntity
  8
0
100
AcDbSpline
 62
7
  6
CONTINUOUS
 70
0
 71
3
 72
12
 73
8
 74
0
 42
0.0000001
 43
0.0000001
 44
0.0000000001
 40
0.0
 40
0.0
 40
0.0
 40
0.0
 40
0.25
 40
0.375
 40
0.5
 40
0.75
 40
1.0
 40
1.0
 40
1.0
 40
1.0
 10
799.5270080159
 20
1253.8798497081
 30
0.0
 10
799.5270080159
 20
1253.9155639938
 30
0.0
 10
799.4746129916
 20
1253.98857499
 30
0.0
 10
799.2325148746
 20
1254.1128725066
 30
0.0
 10
798.8878253028
 20
1254.2388412937
 30
0.0
 10
798.3521181406
 20
1254.3588114456
 30
0.0
 10
798.0412937302
 20
1254.3798497081
 30
0.0
 10
797.9270080159
 20
1254.3798497081
 30
0.0
  0
SPLINE
  5
322
100
AcDbEntity
  8
0
100
AcDbSpline
 62
7
  6
CONTINUOUS
 70
0
 71
3
 72
12
 73
8
 74
0
 42
0.0000001
 43
0.0000001
 44
0.0000000001
 40
0.0
 40
0.0
 40
0.0
 40
0.0
 40
0.25
 40
0.375
 40
0.5
 40
0.75
 40
1.0
 40
1.0
 40
1.0
 40
1.0
 10
747.5270080159
 20
1253.8798497081
 30
0.0
 10
747.5270080159
 20
1253.9155639938
 30
0.0
 10
747.5794030402
 20
1253.98857499
 30
0.0
 10
747.8215011572
 20
1254.1128725066
 30
0.0
 10
748.166190729
 20
1254.2388412937
 30
0.0
 10
748.7018978912
 20
1254.3588114456
 30
0.0
 10
749.0127223016
 20
1254.3798497081
 30
0.0
 10
749.1270080159
 20
1254.3798497081
 30
0.0
  0
SPLINE
  5
323
100
AcDbEntity
  8
0
100
AcDbSpline
 62
7
  6
CONTINUOUS
 70
0
 71
3
 72
12
 73
8
 74
0
 42
0.0000001
 43
0.0000001
 44
0.0000000001
 40
0.0
 40
0.0
 40
0.0
 40
0.0
 40
0.25
 40
0.375
 40
0.5
 40
0.75
 40
1.0
 40
1.0
 40
1.0
 40
1.0
 10
771.5270080159
 20
1253.8798497081
 30
0.0
 10
771.5270080159
 20
1253.9155639938
 30
0.0
 10
771.4746129916
 20
1253.98857499
 30
0.0
 10
771.2325148746
 20
1254.1128725066
 30
0.0
 10
770.8878253028
 20
1254.2388412937
 30
0.0
 10
770.3521181406
 20
1254.3588114456
 30
0.0
 10
770.0412937302
 20
1254.3798497081
 30
0.0
 10
769.9270080159
 20
1254.3798497081
 30
0.0
  0
SPLINE
  5
324
100
AcDbEntity
  8
0
100
AcDbSpline
 62
7
  6
CONTINUOUS
 70
0
 71
3
 72
12
 73
8
 74
0
 42
0.0000001
 43
0.0000001
 44
0.0000000001
 40
0.0
 40
0.0
 40
0.0
 40
0.0
 40
0.25
 40
0.375
 40
0.5
 40
0.75
 40
1.0
 40
1.0
 40
1.0
 40
1.0
 10
775.5270080159
 20
1253.8798497081
 30
0.0
 10
775.5270080159
 20
1253.9155639938
 30
0.0
 10
775.5794030402
 20
1253.98857499
 30
0.0
 10
775.8215011572
 20
1254.1128725066
 30
0.0
 10
776.166190729
 20
1254.2388412937
 30
0.0
 10
776.7018978912
 20
1254.3588114456
 30
0.0
 10
777.0127223016
 20
1254.3798497081
 30
0.0
 10
777.1270080159
 20
1254.3798497081
 30
0.0
  0
SPLINE
  5
325
100
AcDbEntity
  8
0
100
AcDbSpline
 62
7
  6
CONTINUOUS
 70
0
 71
3
 72
12
 73
8
 74
0
 42
0.0000001
 43
0.0000001
 44
0.0000000001
 40
0.0
 40
0.0
 40
0.0
 40
0.0
 40
0.25
 40
0.375
 40
0.5
 40
0.75
 40
1.0
 40
1.0
 40
1.0
 40
1.0
 10
785.5270080159
 20
1253.8798497081
 30
0.0
 10
785.5270080159
 20
1253.9155639938
 30
0.0
 10
785.4746129916
 20
1253.98857499
 30
0.0
 10
785.2325148746
 20
1254.1128725066
 30
0.0
 10
784.8878253028
 20
1254.2388412937
 30
0.0
 10
784.3521181406
 20
1254.3588114456
 30
0.0
 10
784.0412937302
 20
1254.3798497081
 30
0.0
 10
783.9270080159
 20
1254.3798497081
 30
0.0
  0
SPLINE
  5
326
100
AcDbEntity
  8
0
100
AcDbSpline
 62
7
  6
CONTINUOUS
 70
0
 71
3
 72
13
 73
9
 74
0
 42
0.0000001
 43
0.0000001
 44
0.0000000001
 40
0.0
 40
0.0
 40
0.0
 40
0.0
 40
0.4917151864
 40
0.7565612831
 40
0.8530629413
 40
0.9281159825
 40
0.9795150315
 40
1.0
 40
1.0
 40
1.0
 40
1.0
 10
749.1270073402
 20
1253.8798497081
 30
0.0
 10
749.127005503
 20
1253.9618022392
 30
0.0
 10
749.1275785246
 20
1254.0873247387
 30
0.0
 10
749.126242663
 20
1254.2308393989
 30
0.0
 10
749.1278724432
 20
1254.3019406056
 30
0.0
 10
749.1248255935
 20
1254.3421511987
 30
0.0
 10
749.1310825643
 20
1254.3603739155
 30
0.0
 10
749.1235938545
 20
1254.3798497081
 30
0.0
 10
749.1270080159
 20
1254.3798497081
 30
0.0
  0
SPLINE
  5
327
100
AcDbEntity
  8
0
100
AcDbSpline
 62
7
  6
CONTINUOUS
 70
0
 71
3
 72
13
 73
9
 74
0
 42
0.0000001
 43
0.0000001
 44
0.0000000001
 40
0.0
 40
0.0
 40
0.0
 40
0.0
 40
0.4917151864
 40
0.7565612831
 40
0.8530629413
 40
0.9281159825
 40
0.9795150315
 40
1.0
 40
1.0
 40
1.0
 40
1.0
 10
777.1270073402
 20
1253.8798497081
 30
0.0
 10
777.127005503
 20
1253.9618022392
 30
0.0
 10
777.1275785246
 20
1254.0873247387
 30
0.0
 10
777.126242663
 20
1254.2308393989
 30
0.0
 10
777.1278724432
 20
1254.3019406056
 30
0.0
 10
777.1248255935
 20
1254.3421511987
 30
0.0
 10
777.1310825643
 20
1254.3603739155
 30
0.0
 10
777.1235938545
 20
1254.3798497081
 30
0.0
 10
777.1270080159
 20
1254.3798497081
 30
0.0
  0
SPLINE
  5
328
100
AcDbEntity
  8
0
100
AcDbSpline
 62
7
  6
CONTINUOUS
 70
0
 71
3
 72
13
 73
9
 74
0
 42
0.0000001
 43
0.0000001
 44
0.0000000001
 40
0.0
 40
0.0
 40
0.0
 40
0.0
 40
0.4917151864
 40
0.7565612831
 40
0.8530629413
 40
0.9281159825
 40
0.9795150315
 40
1.0
 40
1.0
 40
1.0
 40
1.0
 10
791.1270073402
 20
1253.8798497081
 30
0.0
 10
791.127005503
 20
1253.9618022392
 30
0.0
 10
791.1275785246
 20
1254.0873247387
 30
0.0
 10
791.126242663
 20
1254.2308393989
 30
0.0
 10
791.1278724432
 20
1254.3019406056
 30
0.0
 10
791.1248255935
 20
1254.3421511987
 30
0.0
 10
791.1310825643
 20
1254.3603739155
 30
0.0
 10
791.1235938545
 20
1254.3798497081
 30
0.0
 10
791.1270080159
 20
1254.3798497081
 30
0.0
  0
ENDSEC
  0
SECTION
  2
OBJECTS
  0
DICTIONARY
  5
C
100
AcDbDictionary
280
0
281
1
  3
ACAD_GROUP
350
D
  3
ACAD_MLINESTYLE
350
17
  3
ACAD_LAYOUT
350
1A
  3
ACAD_PLOTSETTINGS
350
19
  3
ACAD_PLOTSTYLENAME
350
E
  0
DICTIONARY
  5
D
102
{ACAD_REACTORS
330
C
102
}
100
AcDbDictionary
280
0
281
1
  0
ACDBDICTIONARYWDFLT
  5
E
102
{ACAD_REACTORS
330
C
102
}
100
AcDbDictionary
281
1
  3
Normal
350
F
100
AcDbDictionaryWithDefault
340
F
  0
DICTIONARY
  5
17
102
{ACAD_REACTORS
330
C
102
}
100
AcDbDictionary
280
0
281
1
  3
Standard
350
18
  0
DICTIONARY
  5
19
102
{ACAD_REACTORS
330
C
102
}
100
AcDbDictionary
281
1
  0
DICTIONARY
  5
1A
102
{ACAD_REACTORS
330
C
102
}
100
AcDbDictionary
281
1
  3
Model
350
329
  3
Layout1
350
32A
  0
ACDBPLACEHOLDER
  5
F
102
{ACAD_REACTORS
330
E
102
}
  0
MLINESTYLE
  5
18
102
{ACAD_REACTORS
330
17
102
}
100
AcDbMlineStyle
  2
STANDARD
 70
0
  3

 62
256
 51
90.0
 52
90.0
 71
2
 49
0.5
 62
256
  6
BYLAYER
 49
-0.5
 62
256
  6
BYLAYER
  0
LAYOUT
  5
329
102
{ACAD_REACTORS
330
1A
102
}
100
AcDbPlotSettings
  1

  2
none_device
  4

  6

 40
0.0
 41
0.0
 42
0.0
 43
0.0
 44
210.0
 45
297.0
 46
0.0
 47
0.0
 48
0.0
 49
0.0
140
0.0
141
0.0
142
1.0
143
1.0
 70
1024
 72
1
 73
0
 74
0
  7

 75
0
147
1.0
148
0.0
149
0.0
100
AcDbLayout
  1
Model
 70
0
 71
0
 10
0.0
 20
0.0
 11
210.0
 21
297.0
 12
0.0
 22
0.0
 32
0.0
 14
0.0
 24
0.0
 34
0.0
 15
0.0
 25
0.0
 35
0.0
146
0.0
 13
0.0
 23
0.0
 33
0.0
 16
1.0
 26
0.0
 36
0.0
 17
0.0
 27
1.0
 37
0.0
 76
0
330
210
345
0
346
0
  0
LAYOUT
  5
32A
102
{ACAD_REACTORS
330
1A
102
}
100
AcDbPlotSettings
  1

  2
none_device
  4

  6

 40
0.0
 41
0.0
 42
0.0
 43
0.0
 44
210.0
 45
297.0
 46
0.0
 47
0.0
 48
0.0
 49
0.0
140
0.0
141
0.0
142
1.0
143
1.0
 70
0
 72
1
 73
0
 74
0
  7

 75
0
147
1.0
148
0.0
149
0.0
100
AcDbLayout
  1
Layout1
 70
0
 71
1
 10
0.0
 20
0.0
 11
210.0
 21
297.0
 12
0.0
 22
0.0
 32
0.0
 14
0.0
 24
0.0
 34
0.0
 15
0.0
 25
0.0
 35
0.0
146
0.0
 13
0.0
 23
0.0
 33
0.0
 16
1.0
 26
0.0
 36
0.0
 17
0.0
 27
1.0
 37
0.0
 76
0
330
211
345
0
346
0
  0
ENDSEC
  0
EOF
