999
DXF file: C:\Users\sesa63760\Dev\_Creo\CAD\MCADUE0001294_3D-CAD\drw0001_3.dxf
999
Pro/ENGINEER 2019471 by Parametric Technology Corporation
  0
SECTION
  2
HEADER
  9
$ACADVER
  1
AC1024
  9
$DWGCODEPAGE
  3
ANSI_1252
  9
$EXTMAX
 10
379.2188846894
 20
536.3238512036
 30
0.0
  9
$EXTMIN
 10
0.0
 20
0.0
 30
0.0
  9
$LIMMIN
 10
0.0
 20
0.0
  9
$LIMMAX
 10
379.2188846894
 20
536.3238512036
  9
$VIEWCTR
 10
189.6094423447
 20
268.1619256018
  9
$VIEWSIZE
 40
536.3238512036
  9
$CLAYER
  8
0
  9
$LTSCALE
 40
34.9603695599
  9
$CELTYPE
  6
BYLAYER
  9
$DIMSCALE
 40
1.0
  9
$DIMASZ
 40
4.514510532
  9
$DIMEXO
 40
1.0
  9
$DIMDLI
 40
24.1544371505
  9
$DIMEXE
 40
1.0
  9
$DIMCEN
 40
5.7207877462
  9
$DIMLFAC
 40
1.0
  9
$DIMBLK
  1
_FILLED
  9
$DIMALT
 70
0
  9
$DIMALTF
 40
0.0393700787
  9
$DIMTXT
 40
6.3203147448
  9
$DIMTOL
 70
1
  9
$DIMLIM
 70
0
  9
$DIMTFAC
 40
1.0
  9
$DIMTP
 40
0.01
  9
$DIMTM
 40
0.01
  9
$DIMGAP
 40
0.625
  9
$DIMDSEP
 70
46
  9
$AUNITS
 70
0
  9
$PDMODE
 70
3
  9
$PDSIZE
 40
0.3125
  9
$HANDSEED
  5
2FC
  9
$TILEMODE
 70
1
  9
$MEASUREMENT
 70
1
  9
$INSUNITS
 70
4
  0
ENDSEC
  0
SECTION
  2
CLASSES
  0
CLASS
  1
ACDBDICTIONARYWDFLT
  2
AcDbDictionaryWithDefault
  3
AutoCAD 2000
 90
0
 91
1
280
0
281
0
  0
CLASS
  1
ACDBPLACEHOLDER
  2
AcDbPlaceHolder
  3
AutoCAD 2000
 90
0
 91
1
280
0
281
0
  0
CLASS
  1
LAYOUT
  2
AcDbLayout
  3
AutoCAD 2000
 90
0
 91
0
280
0
281
0
  0
ENDSEC
  0
SECTION
  2
TABLES
  0
TABLE
  2
VPORT
  5
8
100
AcDbSymbolTable
 70
2
  0
VPORT
  5
1F4
100
AcDbSymbolTableRecord
100
AcDbViewportTableRecord
  2
*ACTIVE
 70
0
 10
0.0
 20
0.0
 11
1.0
 21
1.0
 12
189.6094423447
 22
268.1619256018
 13
0.0
 23
0.0
 14
1.0
 24
1.0
 15
0.0
 25
0.0
 16
0.0
 26
0.0
 36
1.0
 17
0.0
 27
0.0
 37
0.0
 40
536.3238512036
 41
0.7070707071
 42
50.0
 43
0.0
 44
0.0
 50
0.0
 51
0.0
 71
0
 72
100
 73
1
 74
1
 75
0
 76
0
 77
0
 78
0
  0
ENDTAB
  0
TABLE
  2
LTYPE
  5
5
100
AcDbSymbolTable
 70
6
  0
LTYPE
  5
14
100
AcDbSymbolTableRecord
100
AcDbLinetypeTableRecord
  2
BYBLOCK
 70
0
  3

 72
65
 73
0
 40
0.0
  0
LTYPE
  5
15
100
AcDbSymbolTableRecord
100
AcDbLinetypeTableRecord
  2
BYLAYER
 70
0
  3

 72
65
 73
0
 40
0.0
  0
LTYPE
  5
16
100
AcDbSymbolTableRecord
100
AcDbLinetypeTableRecord
  2
CONTINUOUS
 70
64
  3
Solid line
 72
65
 73
0
 40
0.0
  0
LTYPE
  5
1F5
100
AcDbSymbolTableRecord
100
AcDbLinetypeTableRecord
  2
CENTER
 70
64
  3
____ _ ____ _ ____ _ ____ _ ____ _ ____ _ ____
 72
65
 73
4
 40
0.6
 49
0.375
 74
0
 49
-0.075
 74
0
 49
0.075
 74
0
 49
-0.075
 74
0
  0
LTYPE
  5
1F6
100
AcDbSymbolTableRecord
100
AcDbLinetypeTableRecord
  2
HIDDEN
 70
64
  3
- - - - - - - - - - - - - - - - - - - -
 72
65
 73
2
 40
0.2
 49
0.1
 74
0
 49
-0.1
 74
0
  0
LTYPE
  5
1F7
100
AcDbSymbolTableRecord
100
AcDbLinetypeTableRecord
  2
PHANTOM
 70
64
  3
_____ _ _ _____ _ _ _____ _ _ _____
 72
65
 73
6
 40
0.8
 49
0.45
 74
0
 49
-0.05
 74
0
 49
0.1
 74
0
 49
-0.05
 74
0
 49
0.1
 74
0
 49
-0.05
 74
0
  0
LTYPE
  5
1F8
100
AcDbSymbolTableRecord
100
AcDbLinetypeTableRecord
  2
DOT
 70
64
  3
. . . . . . . . . . . . . . . . . . . .
 72
65
 73
2
 40
0.2
 49
0.1
 74
0
 49
-0.1
 74
0
  0
LTYPE
  5
1F9
100
AcDbSymbolTableRecord
100
AcDbLinetypeTableRecord
  2
DASHED
 70
64
  3
- - - - - - - - - - - - - - - - - - - -
 72
65
 73
2
 40
0.2
 49
0.1
 74
0
 49
-0.1
 74
0
  0
ENDTAB
  0
TABLE
  2
LAYER
  5
2
100
AcDbSymbolTable
 70
36
  0
LAYER
  5
10
100
AcDbSymbolTableRecord
100
AcDbLayerTableRecord
  2
0
 70
0
 62
7
  6
CONTINUOUS
370
-3
390
F
  0
LAYER
  5
1FA
100
AcDbSymbolTableRecord
100
AcDbLayerTableRecord
  2
DEFAULT_1
 70
0
 62
7
  6
CENTER
370
-3
390
F
  0
LAYER
  5
1FB
100
AcDbSymbolTableRecord
100
AcDbLayerTableRecord
  2
DEFAULT_2
 70
0
 62
8
  6
HIDDEN
370
-3
390
F
  0
LAYER
  5
1FC
100
AcDbSymbolTableRecord
100
AcDbLayerTableRecord
  2
DEFAULT_3
 70
0
 62
7
  6
PHANTOM
370
-3
390
F
  0
LAYER
  5
1FD
100
AcDbSymbolTableRecord
100
AcDbLayerTableRecord
  2
00_COMPONENTS
 70
0
 62
7
  6
CONTINUOUS
370
-3
390
F
  0
LAYER
  5
1FE
100
AcDbSymbolTableRecord
100
AcDbLayerTableRecord
  2
01_1_DEFAULT_DATUMS
 70
0
 62
7
  6
CONTINUOUS
370
-3
390
F
  0
LAYER
  5
1FF
100
AcDbSymbolTableRecord
100
AcDbLayerTableRecord
  2
01_PLANES
 70
0
 62
7
  6
CONTINUOUS
370
-3
390
F
  0
LAYER
  5
200
100
AcDbSymbolTableRecord
100
AcDbLayerTableRecord
  2
02_COORD_SYS
 70
0
 62
7
  6
CONTINUOUS
370
-3
390
F
  0
LAYER
  5
201
100
AcDbSymbolTableRecord
100
AcDbLayerTableRecord
  2
03_AXES
 70
0
 62
7
  6
CONTINUOUS
370
-3
390
F
  0
LAYER
  5
202
100
AcDbSymbolTableRecord
100
AcDbLayerTableRecord
  2
04_POINTS
 70
0
 62
7
  6
CONTINUOUS
370
-3
390
F
  0
LAYER
  5
203
100
AcDbSymbolTableRecord
100
AcDbLayerTableRecord
  2
05_CURVES
 70
0
 62
7
  6
CONTINUOUS
370
-3
390
F
  0
LAYER
  5
204
100
AcDbSymbolTableRecord
100
AcDbLayerTableRecord
  2
06_SURFS
 70
0
 62
7
  6
CONTINUOUS
370
-3
390
F
  0
LAYER
  5
205
100
AcDbSymbolTableRecord
100
AcDbLayerTableRecord
  2
07_COSMETICS
 70
0
 62
7
  6
CONTINUOUS
370
-3
390
F
  0
LAYER
  5
206
100
AcDbSymbolTableRecord
100
AcDbLayerTableRecord
  2
10_NOTES
 70
0
 62
7
  6
CONTINUOUS
370
-3
390
F
  0
LAYER
  5
207
100
AcDbSymbolTableRecord
100
AcDbLayerTableRecord
  2
11_NOTES_PUB
 70
0
 62
7
  6
CONTINUOUS
370
-3
390
F
  0
LAYER
  5
208
100
AcDbSymbolTableRecord
100
AcDbLayerTableRecord
  2
13_REF_GTOL
 70
0
 62
7
  6
CONTINUOUS
370
-3
390
F
  0
LAYER
  5
209
100
AcDbSymbolTableRecord
100
AcDbLayerTableRecord
  2
16_MISC
 70
0
 62
7
  6
CONTINUOUS
370
-3
390
F
  0
LAYER
  5
20A
100
AcDbSymbolTableRecord
100
AcDbLayerTableRecord
  2
17_NO_PRINT
 70
0
 62
7
  6
CONTINUOUS
370
-3
390
F
  0
LAYER
  5
20B
100
AcDbSymbolTableRecord
100
AcDbLayerTableRecord
  2
18_DATUM_CAMS_JOINTS
 70
0
 62
7
  6
CONTINUOUS
370
-3
390
F
  0
LAYER
  5
20C
100
AcDbSymbolTableRecord
100
AcDbLayerTableRecord
  2
19_DATUM_FUNCTIONAL
 70
0
 62
7
  6
CONTINUOUS
370
-3
390
F
  0
LAYER
  5
20D
100
AcDbSymbolTableRecord
100
AcDbLayerTableRecord
  2
20_DATUM_KINEMATIC_SCHEME
 70
0
 62
7
  6
CONTINUOUS
370
-3
390
F
  0
ENDTAB
  0
TABLE
  2
STYLE
  5
3
100
AcDbSymbolTable
 70
1
  0
STYLE
  5
11
100
AcDbSymbolTableRecord
100
AcDbTextStyleTableRecord
  2
STANDARD
 70
0
 40
0.0
 41
0.8
 50
0.0
 71
0
 42
0.2
  3
txt
  4

  0
STYLE
  5
20E
100
AcDbSymbolTableRecord
100
AcDbTextStyleTableRecord
  2
TEXTSTYLE_1
 70
0
 40
0.0
 41
0.8
 50
0.0
 71
0
 42
0.2
  3
gdt
  4

  0
ENDTAB
  0
TABLE
  2
VIEW
  5
6
100
AcDbSymbolTable
 70
0
  0
ENDTAB
  0
TABLE
  2
UCS
  5
7
100
AcDbSymbolTable
 70
0
  0
ENDTAB
  0
TABLE
  2
APPID
  5
9
100
AcDbSymbolTable
 70
1
  0
APPID
  5
20F
100
AcDbSymbolTableRecord
100
AcDbRegAppTableRecord
  2
ACAD
 70
0
  0
ENDTAB
  0
TABLE
  2
BLOCK_RECORD
  5
1
100
AcDbSymbolTable
 70
0
  0
BLOCK_RECORD
  5
210
100
AcDbSymbolTableRecord
100
AcDbBlockTableRecord
  2
*Model_Space
  0
BLOCK_RECORD
  5
211
100
AcDbSymbolTableRecord
100
AcDbBlockTableRecord
  2
*Paper_Space
  0
BLOCK_RECORD
  5
212
100
AcDbSymbolTableRecord
100
AcDbBlockTableRecord
  2
_FILLED
  0
ENDTAB
  0
TABLE
  2
DIMSTYLE
  5
A
100
AcDbSymbolTable
 70
1
100
AcDbDimStyleTable
 71
0
  0
DIMSTYLE
105
213
100
AcDbSymbolTableRecord
100
AcDbDimStyleTableRecord
  2
STANDARD
 70
0
  3

  4

 40
1.0
 41
4.514510532
 42
1.0
 43
0.38
 44
1.0
 45
0.0
 46
0.0
 47
0.01
 48
0.01
140
6.3203147448
141
0.09
142
0.0
143
25.4
144
1.0
145
0.0
146
1.0
147
0.625
 71
1
 72
0
 73
0
 74
0
 75
0
 76
0
 77
1
 78
8
 79
2
170
0
171
1
172
0
173
0
174
0
175
0
176
0
177
0
178
0
270
2
179
2
271
2
272
2
273
2
274
2
275
0
280
0
281
0
282
0
283
1
284
8
285
0
286
0
287
3
288
0
340
11
278
46
341
212
342
212
343
212
344
212
  0
ENDTAB
  0
ENDSEC
  0
SECTION
  2
BLOCKS
  0
BLOCK
  5
20
100
AcDbEntity
  8
0
100
AcDbBlockBegin
  2
*Model_Space
 70
0
 10
0.0
 20
0.0
 30
0.0
  3
*Model_Space
  1

  0
ENDBLK
  5
21
100
AcDbEntity
  8
0
100
AcDbBlockEnd
  0
BLOCK
  5
1C
100
AcDbEntity
  8
0
100
AcDbBlockBegin
  2
*Paper_Space
 70
0
 10
0.0
 20
0.0
 30
0.0
  3
*Paper_Space
  1

  0
ENDBLK
  5
1D
100
AcDbEntity
  8
0
100
AcDbBlockEnd
  0
BLOCK
  5
214
100
AcDbEntity
  8
0
100
AcDbBlockBegin
  2
_FILLED
 70
64
 10
0.0
 20
0.0
  3
_FILLED
  1

  0
SOLID
  5
215
100
AcDbEntity
  8
0
  6
BYBLOCK
 62
0
100
AcDbTrace
 10
0.0
 20
0.0
 11
-1.0
 21
0.25
 12
-1.0
 22
-0.25
 13
-1.0
 23
-0.25
  0
ENDBLK
  5
216
100
AcDbEntity
  8
0
  6
BYBLOCK
 62
0
100
AcDbBlockEnd
  0
ENDSEC
  0
SECTION
  2
ENTITIES
  0
LINE
  5
217
100
AcDbEntity
  8
0
100
AcDbLine
 62
7
  6
CONTINUOUS
 10
48.7001826011
 20
362.5385155925
 11
56.5091387254
 21
368.0064055363
  0
LINE
  5
218
100
AcDbEntity
  8
0
100
AcDbLine
 62
7
  6
CONTINUOUS
 10
54.5090003714
 20
365.3851189946
 11
49.2737590374
 21
361.7193635482
  0
LINE
  5
219
100
AcDbEntity
  8
0
100
AcDbLine
 62
7
  6
CONTINUOUS
 10
44.8610834825
 20
339.3748223832
 11
44.8610834826
 21
167.7748223832
  0
LINE
  5
21A
100
AcDbEntity
  8
0
100
AcDbLine
 62
7
  6
CONTINUOUS
 10
47.3356271974
 20
349.6851189946
 11
47.3356271974
 21
359.9172290508
  0
LINE
  5
21B
100
AcDbEntity
  8
0
100
AcDbLine
 62
7
  6
CONTINUOUS
 10
47.3610834826
 20
343.0748223832
 11
47.3610834826
 21
342.5748223832
  0
LINE
  5
21C
100
AcDbEntity
  8
0
100
AcDbLine
 62
7
  6
CONTINUOUS
 10
48.3356271974
 20
349.6851189946
 11
48.3356271974
 21
359.9172290508
  0
LINE
  5
21D
100
AcDbEntity
  8
0
100
AcDbLine
 62
7
  6
CONTINUOUS
 10
49.3610834826
 20
342.5748223832
 11
49.3610834826
 21
344.0748223832
  0
LINE
  5
21E
100
AcDbEntity
  8
0
100
AcDbLine
 62
7
  6
CONTINUOUS
 10
65.3797710247
 20
344.956440374
 11
65.0590585418
 21
344.5748224301
  0
LINE
  5
21F
100
AcDbEntity
  8
0
100
AcDbLine
 62
7
  6
CONTINUOUS
 10
49.197480691
 20
344.0748222805
 11
49.4319418805
 21
344.2799758213
  0
LINE
  5
220
100
AcDbEntity
  8
0
100
AcDbLine
 62
7
  6
CONTINUOUS
 10
50.7489510483
 20
344.4313909257
 11
50.7489510483
 21
344.7748223832
  0
LINE
  5
221
100
AcDbEntity
  8
0
100
AcDbLine
 62
7
  6
CONTINUOUS
 10
56.4908150366
 20
344.7748223832
 11
56.4908150366
 21
344.4313909257
  0
LINE
  5
222
100
AcDbEntity
  8
0
100
AcDbLine
 62
7
  6
CONTINUOUS
 10
56.6416753191
 20
344.7748223832
 11
56.6416753191
 21
344.7243052683
  0
LINE
  5
223
100
AcDbEntity
  8
0
100
AcDbLine
 62
7
  6
CONTINUOUS
 10
60.3610834826
 20
165.3748223832
 11
60.3610834826
 21
165.5748223832
  0
LINE
  5
224
100
AcDbEntity
  8
0
100
AcDbLine
 62
7
  6
CONTINUOUS
 10
73.3610834826
 20
165.5748223832
 11
73.3610834826
 21
165.3748223832
  0
LINE
  5
225
100
AcDbEntity
  8
0
100
AcDbLine
 62
7
  6
CONTINUOUS
 10
56.5926909633
 20
344.0748223832
 11
56.4908150311
 21
344.4313909242
  0
LINE
  5
226
100
AcDbEntity
  8
0
100
AcDbLine
 62
7
  6
CONTINUOUS
 10
56.8339801087
 20
344.6297666088
 11
56.8496784588
 21
344.5748223832
  0
LINE
  5
227
100
AcDbEntity
  8
0
100
AcDbLine
 62
7
  6
CONTINUOUS
 10
56.8754246156
 20
344.4847108344
 11
56.9925356017
 21
344.0748223832
  0
LINE
  5
228
100
AcDbEntity
  8
0
100
AcDbLine
 62
7
  6
CONTINUOUS
 10
61.9843706329
 20
348.5851189946
 11
62.6296136619
 21
345.2656313786
  0
LINE
  5
229
100
AcDbEntity
  8
0
100
AcDbLine
 62
7
  6
CONTINUOUS
 10
64.1020544371
 20
345.5518448717
 11
63.5124456754
 21
348.5851189946
  0
LINE
  5
22A
100
AcDbEntity
  8
0
100
AcDbLine
 62
7
  6
CONTINUOUS
 10
64.3981438413
 20
344.956440374
 11
63.6928001692
 21
348.5851189946
  0
LINE
  5
22B
100
AcDbEntity
  8
0
100
AcDbLine
 62
7
  6
CONTINUOUS
 10
64.6744273527
 20
348.5851189946
 11
65.3797710248
 21
344.956440374
  0
LINE
  5
22C
100
AcDbEntity
  8
0
100
AcDbLine
 62
7
  6
CONTINUOUS
 10
60.6376545961
 20
344.3748223832
 11
60.6905526903
 21
344.0748223832
  0
LINE
  5
22D
100
AcDbEntity
  8
0
100
AcDbLine
 62
7
  6
CONTINUOUS
 10
329.3610834826
 20
165.3748223832
 11
316.3610834826
 21
165.3748223832
  0
LINE
  5
22E
100
AcDbEntity
  8
0
100
AcDbLine
 62
7
  6
CONTINUOUS
 10
73.3610834826
 20
165.3748223832
 11
60.3610834826
 21
165.3748223832
  0
LINE
  5
22F
100
AcDbEntity
  8
0
100
AcDbLine
 62
7
  6
CONTINUOUS
 10
47.0610834826
 20
165.5748223832
 11
342.6610834826
 21
165.5748223832
  0
LINE
  5
230
100
AcDbEntity
  8
0
100
AcDbLine
 62
7
  6
CONTINUOUS
 10
344.8610834826
 20
167.7748223832
 11
44.8610834826
 21
167.7748223832
  0
LWPOLYLINE
  5
231
100
AcDbEntity
  8
0
100
AcDbPolyline
 62
7
  6
CONTINUOUS
 90
4
 70
0
 10
305.7900193093
 20
374.5502944996
 10
305.7821138011
 20
374.5474003651
 10
305.7263540512
 20
374.5277719105
 10
305.5967236316
 20
374.4849225413
  0
LINE
  5
232
100
AcDbEntity
  8
0
100
AcDbLine
 62
7
  6
CONTINUOUS
 10
305.7900341491
 20
374.550293089
 11
305.5967236316
 21
374.4849225413
  0
LINE
  5
233
100
AcDbEntity
  8
0
100
AcDbLine
 62
7
  6
CONTINUOUS
 10
53.3391300121
 20
364.5659669503
 11
52.7655535758
 21
365.3851189946
  0
LINE
  5
234
100
AcDbEntity
  8
0
100
AcDbLine
 62
7
  6
CONTINUOUS
 10
60.4698346698
 20
344.5748223832
 11
60.6376545961
 21
344.3748223832
  0
LINE
  5
235
100
AcDbEntity
  8
0
100
AcDbLine
 62
7
  6
CONTINUOUS
 10
56.7135517619
 20
367.7144734657
 11
56.5091387255
 21
368.0064055363
  0
LINE
  5
236
100
AcDbEntity
  8
0
100
AcDbLine
 62
7
  6
CONTINUOUS
 10
333.9577026328
 20
367.7144734657
 11
334.1621156692
 21
368.0064055363
  0
LINE
  5
237
100
AcDbEntity
  8
0
100
AcDbLine
 62
7
  6
CONTINUOUS
 10
337.905700819
 20
365.3851189946
 11
337.3321243826
 21
364.5659669503
  0
LINE
  5
238
100
AcDbEntity
  8
0
100
AcDbLine
 62
7
  6
CONTINUOUS
 10
44.8610834825
 20
339.3748223832
 11
344.8610834826
 21
339.3748223832
  0
LINE
  5
239
100
AcDbEntity
  8
0
100
AcDbLine
 62
7
  6
CONTINUOUS
 10
341.6610834826
 20
342.5748223832
 11
48.0610834826
 21
342.5748223832
  0
LINE
  5
23A
100
AcDbEntity
  8
0
100
AcDbLine
 62
7
  6
CONTINUOUS
 10
328.8610834826
 20
342.7748223832
 11
338.8610834826
 21
342.7748223832
  0
LINE
  5
23B
100
AcDbEntity
  8
0
100
AcDbLine
 62
7
  6
CONTINUOUS
 10
333.1110834825
 20
343.7748223832
 11
334.6110834826
 21
343.7748223832
  0
LINE
  5
23C
100
AcDbEntity
  8
0
100
AcDbLine
 62
7
  6
CONTINUOUS
 10
49.1610834826
 20
344.0748223832
 11
61.6479864785
 21
344.0748223832
  0
LINE
  5
23D
100
AcDbEntity
  8
0
100
AcDbLine
 62
7
  6
CONTINUOUS
 10
56.906821316
 20
344.3748223832
 11
60.6376545961
 21
344.3748223832
  0
LINE
  5
23E
100
AcDbEntity
  8
0
100
AcDbLine
 62
7
  6
CONTINUOUS
 10
277.4103436055
 20
370.7247169814
 11
277.3356271974
 21
368.5851189946
  0
LINE
  5
23F
100
AcDbEntity
  8
0
100
AcDbLine
 62
7
  6
CONTINUOUS
 10
50.7486314365
 20
344.431397804
 11
56.4908150311
 21
344.4313909242
  0
LINE
  5
240
100
AcDbEntity
  8
0
100
AcDbLine
 62
7
  6
CONTINUOUS
 10
56.8135874499
 20
344.5748223832
 11
60.4698346698
 21
344.5748223832
  0
LINE
  5
241
100
AcDbEntity
  8
0
100
AcDbLine
 62
7
  6
CONTINUOUS
 10
56.6416753191
 20
344.7748223832
 11
50.7489510423
 21
344.7748223832
  0
LINE
  5
242
100
AcDbEntity
  8
0
100
AcDbLine
 62
7
  6
CONTINUOUS
 10
324.3423959404
 20
344.956440374
 11
65.3797710248
 21
344.956440374
  0
LINE
  5
243
100
AcDbEntity
  8
0
100
AcDbLine
 62
7
  6
CONTINUOUS
 10
341.4438739134
 20
348.5851189946
 11
49.2273804813
 21
348.5851189946
  0
LINE
  5
244
100
AcDbEntity
  8
0
100
AcDbLine
 62
7
  6
CONTINUOUS
 10
343.3356271974
 20
349.6851189946
 11
47.3356271974
 21
349.6851189946
  0
LINE
  5
245
100
AcDbEntity
  8
0
100
AcDbLine
 62
7
  6
CONTINUOUS
 10
65.3797710246
 20
345.1472493694
 11
64.3981438413
 21
344.956440374
  0
LINE
  5
246
100
AcDbEntity
  8
0
100
AcDbLine
 62
7
  6
CONTINUOUS
 10
54.5090003714
 20
365.3851189946
 11
336.1622540234
 21
365.3851189946
  0
LINE
  5
247
100
AcDbEntity
  8
0
100
AcDbLine
 62
7
  6
CONTINUOUS
 10
332.326671073
 20
368.5851189946
 11
58.3445833218
 21
368.5851189946
  0
LINE
  5
248
100
AcDbEntity
  8
0
100
AcDbLine
 62
7
  6
CONTINUOUS
 10
325.3240231382
 20
344.9564403712
 11
324.3423959404
 21
345.1472493693
  0
LINE
  5
249
100
AcDbEntity
  8
0
100
AcDbLine
 62
7
  6
CONTINUOUS
 10
281.7146965252
 20
369.4237342785
 11
304.9565667866
 21
369.4237342785
  0
LINE
  5
24A
100
AcDbEntity
  8
0
100
AcDbLine
 62
7
  6
CONTINUOUS
 10
281.7943452039
 20
370.1661861866
 11
304.8769168111
 21
370.1661861866
  0
LINE
  5
24B
100
AcDbEntity
  8
0
100
AcDbLine
 62
7
  6
CONTINUOUS
 10
277.4103436117
 20
370.7247171595
 11
278.7677188843
 21
370.7247171595
  0
LINE
  5
24C
100
AcDbEntity
  8
0
100
AcDbLine
 62
7
  6
CONTINUOUS
 10
307.9035357773
 20
370.7247171595
 11
309.260910783
 21
370.7247171595
  0
LINE
  5
24D
100
AcDbEntity
  8
0
100
AcDbLine
 62
7
  6
CONTINUOUS
 10
309.2609107893
 20
370.7247169814
 11
309.3356271974
 21
368.5851189946
  0
LINE
  5
24E
100
AcDbEntity
  8
0
100
AcDbLine
 62
7
  6
CONTINUOUS
 10
316.3610834826
 20
165.3748223832
 11
316.3610834826
 21
165.5748223832
  0
LINE
  5
24F
100
AcDbEntity
  8
0
100
AcDbLine
 62
7
  6
CONTINUOUS
 10
324.3423959404
 20
344.956440374
 11
325.0477396124
 21
348.5851189946
  0
LINE
  5
250
100
AcDbEntity
  8
0
100
AcDbLine
 62
7
  6
CONTINUOUS
 10
326.0293667959
 20
348.5851189946
 11
325.3240231239
 21
344.956440374
  0
LWPOLYLINE
  5
251
100
AcDbEntity
  8
0
100
AcDbPolyline
 62
7
  6
CONTINUOUS
 90
3
 70
0
 10
305.7900800245
 20
374.5505833848
 10
305.7699094274
 20
374.552220282
 10
305.7052837134
 20
374.5435490943
  0
LWPOLYLINE
  5
252
100
AcDbEntity
  8
0
100
AcDbPolyline
 62
7
  6
CONTINUOUS
 90
3
 70
0
 10
280.9659706813
 20
374.5435490943
 10
280.9017690066
 20
374.5522327105
 10
280.8811743702
 20
374.5505833848
  0
LINE
  5
253
100
AcDbEntity
  8
0
100
AcDbLine
 62
7
  6
CONTINUOUS
 10
281.5550553382
 20
374.3573079231
 11
281.5497914565
 21
374.3583847247
  0
LINE
  5
254
100
AcDbEntity
  8
0
100
AcDbLine
 62
7
  6
CONTINUOUS
 10
281.5537536061
 20
374.3574929527
 11
281.5497914565
 21
374.3583847247
  0
LINE
  5
255
100
AcDbEntity
  8
0
100
AcDbLine
 62
7
  6
CONTINUOUS
 10
328.8610834826
 20
342.5748223832
 11
328.8610834826
 21
342.7748223832
  0
LINE
  5
256
100
AcDbEntity
  8
0
100
AcDbLine
 62
7
  6
CONTINUOUS
 10
329.3610834826
 20
165.5748223832
 11
329.3610834826
 21
165.3748223832
  0
LINE
  5
257
100
AcDbEntity
  8
0
100
AcDbLine
 62
7
  6
CONTINUOUS
 10
285.8828336932
 20
374.56923473
 11
285.8843145777
 21
374.568869044
  0
LINE
  5
258
100
AcDbEntity
  8
0
100
AcDbLine
 62
7
  6
CONTINUOUS
 10
286.0501381511
 20
374.5178899584
 11
285.8838687391
 21
374.5671870016
  0
LINE
  5
259
100
AcDbEntity
  8
0
100
AcDbLine
 62
7
  6
CONTINUOUS
 10
286.0505036228
 20
374.5178815968
 11
285.8965502975
 21
374.5653807825
  0
LINE
  5
25A
100
AcDbEntity
  8
0
100
AcDbLine
 62
7
  6
CONTINUOUS
 10
300.8424968666
 20
374.5738233119
 11
300.8942432446
 21
374.5578582581
  0
LINE
  5
25B
100
AcDbEntity
  8
0
100
AcDbLine
 62
7
  6
CONTINUOUS
 10
295.83707485
 20
374.5746017865
 11
295.8395520443
 21
374.5738233221
  0
LINE
  5
25C
100
AcDbEntity
  8
0
100
AcDbLine
 62
7
  6
CONTINUOUS
 10
285.8963997453
 20
374.5654288969
 11
285.8965502975
 21
374.5653807825
  0
LINE
  5
25D
100
AcDbEntity
  8
0
100
AcDbLine
 62
7
  6
CONTINUOUS
 10
295.83707485
 20
374.5746017865
 11
295.8385845043
 21
374.5741170163
  0
LWPOLYLINE
  5
25E
100
AcDbEntity
  8
0
100
AcDbPolyline
 62
7
  6
CONTINUOUS
 90
4
 70
0
 10
281.0881627175
 20
374.4806613962
 10
280.9931360175
 20
374.5116629626
 10
280.9218001002
 20
374.535725391
 10
280.8849109658
 20
374.5489344126
  0
LINE
  5
25F
100
AcDbEntity
  8
0
100
AcDbLine
 62
7
  6
CONTINUOUS
 10
281.0881627175
 20
374.4806613962
 11
280.8849109658
 21
374.5489344126
  0
LINE
  5
260
100
AcDbEntity
  8
0
100
AcDbLine
 62
7
  6
CONTINUOUS
 10
280.8849109658
 20
374.5489344126
 11
280.8812202258
 21
374.5502930876
  0
LINE
  5
261
100
AcDbEntity
  8
0
100
AcDbLine
 62
7
  6
CONTINUOUS
 10
338.8610834826
 20
342.7748223832
 11
338.8610834826
 21
342.5748223832
  0
LINE
  5
262
100
AcDbEntity
  8
0
100
AcDbLine
 62
7
  6
CONTINUOUS
 10
342.3356271974
 20
349.6851189946
 11
342.3356271974
 21
359.9172290508
  0
LINE
  5
263
100
AcDbEntity
  8
0
100
AcDbLine
 62
7
  6
CONTINUOUS
 10
324.6631084434
 20
344.5748224468
 11
324.3423959404
 21
344.956440374
  0
LINE
  5
264
100
AcDbEntity
  8
0
100
AcDbLine
 62
7
  6
CONTINUOUS
 10
343.3356271974
 20
349.6851189946
 11
343.3356271974
 21
359.9172290508
  0
LINE
  5
265
100
AcDbEntity
  8
0
100
AcDbLine
 62
7
  6
CONTINUOUS
 10
344.8610834826
 20
339.3748223832
 11
344.8610834826
 21
167.7748223832
  0
LINE
  5
266
100
AcDbEntity
  8
0
100
AcDbLine
 62
7
  6
CONTINUOUS
 10
341.3974953574
 20
361.7193635482
 11
336.1622540234
 21
365.3851189946
  0
LINE
  5
267
100
AcDbEntity
  8
0
100
AcDbLine
 62
7
  6
CONTINUOUS
 10
334.1621156693
 20
368.0064055363
 11
341.9710717937
 21
362.5385155925
  0
ARC
  5
268
100
AcDbEntity
  8
0
100
AcDbCircle
 62
7
  6
CONTINUOUS
 10
66.8610834826
 20
185.9998223832
 40
21.625
100
AcDbArc
 50
252.5076754749
 51
287.4923245251
  0
ARC
  5
269
100
AcDbEntity
  8
0
100
AcDbCircle
 62
7
  6
CONTINUOUS
 10
47.0610834826
 20
167.7748223832
 40
2.2
100
AcDbArc
 50
180.0000000001
 51
259.7825756073
  0
ARC
  5
26A
100
AcDbEntity
  8
0
100
AcDbCircle
 62
7
  6
CONTINUOUS
 10
133.4642122079
 20
283.0865760367
 40
104.9708583212
100
AcDbArc
 50
147.2465855863
 51
147.5728136398
  0
ARC
  5
26B
100
AcDbEntity
  8
0
100
AcDbCircle
 62
7
  6
CONTINUOUS
 10
61.0226835832
 20
362.3792342589
 40
6.8442417367
100
AcDbArc
 50
128.5573764611
 51
129.1580347509
  0
CIRCLE
  5
26C
100
AcDbEntity
  8
0
100
AcDbCircle
 62
7
  6
CONTINUOUS
 10
59.8610834826
 20
327.5748223832
 40
5.15
  0
ARC
  5
26D
100
AcDbEntity
  8
0
100
AcDbCircle
 62
7
  6
CONTINUOUS
 10
50.5356271974
 20
359.9172290508
 40
3.2
100
AcDbArc
 50
124.9999999996
 51
180.0
  0
ARC
  5
26E
100
AcDbEntity
  8
0
100
AcDbCircle
 62
7
  6
CONTINUOUS
 10
58.3445833218
 20
365.3851189946
 40
3.2
100
AcDbArc
 50
90.0
 51
125.0000000002
  0
ARC
  5
26F
100
AcDbEntity
  8
0
100
AcDbCircle
 62
7
  6
CONTINUOUS
 10
48.0610834826
 20
339.3748223832
 40
3.2
100
AcDbArc
 50
90.0
 51
180.0
  0
ARC
  5
270
100
AcDbEntity
  8
0
100
AcDbCircle
 62
7
  6
CONTINUOUS
 10
61.6479864785
 20
345.0748223832
 40
2.5
100
AcDbArc
 50
287.746509169
 51
11.0
  0
ARC
  5
271
100
AcDbEntity
  8
0
100
AcDbCircle
 62
7
  6
CONTINUOUS
 10
49.1610834826
 20
341.9548223832
 40
2.12
100
AcDbArc
 50
90.0
 51
148.1092081982
  0
ARC
  5
272
100
AcDbEntity
  8
0
100
AcDbCircle
 62
7
  6
CONTINUOUS
 10
50.4377461733
 20
359.9681826868
 40
2.0896507005
100
AcDbArc
 50
143.1305904431
 51
161.8694095591
  0
ARC
  5
273
100
AcDbEntity
  8
0
100
AcDbCircle
 62
7
  6
CONTINUOUS
 10
50.7489510406
 20
342.7748223832
 40
2.0
100
AcDbArc
 50
90.0000000004
 51
131.1859251657
  0
ARC
  5
274
100
AcDbEntity
  8
0
100
AcDbCircle
 62
7
  6
CONTINUOUS
 10
62.4348894744
 20
344.5748223832
 40
2.0
100
AcDbArc
 50
269.9999999999
 51
11.0
  0
ARC
  5
275
100
AcDbEntity
  8
0
100
AcDbCircle
 62
7
  6
CONTINUOUS
 10
50.7489880264
 20
342.8313219753
 40
1.6000758685
100
AcDbArc
 50
90.012768828
 51
128.9995499935
  0
ARC
  5
276
100
AcDbEntity
  8
0
100
AcDbCircle
 62
7
  6
CONTINUOUS
 10
48.4356271974
 20
349.6851189946
 40
1.1
100
AcDbArc
 50
180.0
 51
300.02568254
  0
ARC
  5
277
100
AcDbEntity
  8
0
100
AcDbCircle
 62
7
  6
CONTINUOUS
 10
61.6479864785
 20
345.0748223832
 40
1.0
100
AcDbArc
 50
270.0
 51
11.0
  0
ARC
  5
278
100
AcDbEntity
  8
0
100
AcDbCircle
 62
7
  6
CONTINUOUS
 10
56.4908150366
 20
344.3748223832
 40
0.4
100
AcDbArc
 50
15.9453959009
 51
90.0
  0
ARC
  5
279
100
AcDbEntity
  8
0
100
AcDbCircle
 62
7
  6
CONTINUOUS
 10
56.6416753191
 20
344.5748223832
 40
0.2
100
AcDbArc
 50
15.9453959009
 51
90.0
  0
ARC
  5
27A
100
AcDbEntity
  8
0
100
AcDbCircle
 62
7
  6
CONTINUOUS
 10
322.8610834826
 20
185.9998223832
 40
21.625
100
AcDbArc
 50
252.5076754749
 51
287.4923245251
  0
ARC
  5
27B
100
AcDbEntity
  8
0
100
AcDbCircle
 62
7
  6
CONTINUOUS
 10
342.6610834826
 20
167.7748223832
 40
2.2
100
AcDbArc
 50
270.0
 51
359.9999999999
  0
ARC
  5
27C
100
AcDbEntity
  8
0
100
AcDbCircle
 62
7
  6
CONTINUOUS
 10
256.2496974829
 20
283.0813187184
 40
104.9806471863
100
AcDbArc
 50
32.4271917017
 51
32.7533678714
  0
ARC
  5
27D
100
AcDbEntity
  8
0
100
AcDbCircle
 62
7
  6
CONTINUOUS
 10
284.6400706867
 20
394.7564588218
 40
20.6523975048
100
AcDbArc
 50
263.5256001936
 51
263.66260788
  0
ARC
  5
27E
100
AcDbEntity
  8
0
100
AcDbCircle
 62
7
  6
CONTINUOUS
 10
298.7120045993
 20
383.4763677994
 40
9.3544674517
100
AcDbArc
 50
252.3818132866
 51
252.9820913827
  0
ARC
  5
27F
100
AcDbEntity
  8
0
100
AcDbCircle
 62
7
  6
CONTINUOUS
 10
283.257570473
 20
382.5411525697
 40
8.3708501173
100
AcDbArc
 50
280.8383497178
 51
281.0051371624
  0
ARC
  5
280
100
AcDbEntity
  8
0
100
AcDbCircle
 62
7
  6
CONTINUOUS
 10
298.3356271974
 20
382.1976189946
 40
8.0125
100
AcDbArc
 50
252.2771421059
 51
287.7229236181
  0
ARC
  5
281
100
AcDbEntity
  8
0
100
AcDbCircle
 62
7
  6
CONTINUOUS
 10
283.3356271974
 20
382.1976189946
 40
8.0125
100
AcDbArc
 50
252.7977724507
 51
287.7229302363
  0
ARC
  5
282
100
AcDbEntity
  8
0
100
AcDbCircle
 62
7
  6
CONTINUOUS
 10
288.3356271974
 20
382.1976189946
 40
8.0125
100
AcDbArc
 50
253.4295051456
 51
287.7228173543
  0
ARC
  5
283
100
AcDbEntity
  8
0
100
AcDbCircle
 62
7
  6
CONTINUOUS
 10
293.3356271974
 20
382.1976189946
 40
8.0125
100
AcDbArc
 50
252.2770898568
 51
287.7229128634
  0
ARC
  5
284
100
AcDbEntity
  8
0
100
AcDbCircle
 62
7
  6
CONTINUOUS
 10
292.7838003329
 20
380.3994550426
 40
6.1424643908
100
AcDbArc
 50
251.4943731701
 51
251.7892637275
  0
ARC
  5
285
100
AcDbEntity
  8
0
100
AcDbCircle
 62
7
  6
CONTINUOUS
 10
298.8754287316
 20
380.3183558129
 40
6.0706113732
100
AcDbArc
 50
287.1560848324
 51
288.4380286541
  0
ARC
  5
286
100
AcDbEntity
  8
0
100
AcDbCircle
 62
7
  6
CONTINUOUS
 10
294.0621697823
 20
379.8680369105
 40
5.5830765185
100
AcDbArc
 50
288.2144127525
 51
288.5364607612
  0
ARC
  5
287
100
AcDbEntity
  8
0
100
AcDbCircle
 62
7
  6
CONTINUOUS
 10
281.4079069135
 20
370.5851189946
 40
4.0
100
AcDbArc
 50
97.565987854
 51
177.9999974478
  0
ARC
  5
288
100
AcDbEntity
  8
0
100
AcDbCircle
 62
7
  6
CONTINUOUS
 10
287.0244666771
 20
377.5409751275
 40
3.1899229296
100
AcDbArc
 50
251.9115783654
 51
253.4850523592
  0
ARC
  5
289
100
AcDbEntity
  8
0
100
AcDbCircle
 62
7
  6
CONTINUOUS
 10
286.0565111731
 20
373.7714991121
 40
0.8341253303
100
AcDbArc
 50
105.8077839126
 51
106.2020505467
  0
ARC
  5
28A
100
AcDbEntity
  8
0
100
AcDbCircle
 62
7
  6
CONTINUOUS
 10
291.0149832398
 20
373.9004318186
 40
0.697989843
100
AcDbArc
 50
105.0114257301
 51
105.2106556004
  0
ARC
  5
28B
100
AcDbEntity
  8
0
100
AcDbCircle
 62
7
  6
CONTINUOUS
 10
285.8356271974
 20
374.3748856967
 40
0.2
100
AcDbArc
 50
72.3102861092
 51
75.9105217289
  0
ARC
  5
28C
100
AcDbEntity
  8
0
100
AcDbCircle
 62
7
  6
CONTINUOUS
 10
285.8356271974
 20
374.3748856967
 40
0.2
100
AcDbArc
 50
76.3475082916
 51
107.7221981833
  0
ARC
  5
28D
100
AcDbEntity
  8
0
100
AcDbCircle
 62
7
  6
CONTINUOUS
 10
290.8356271974
 20
374.3748856967
 40
0.2
100
AcDbArc
 50
72.2770875914
 51
107.7267205523
  0
ARC
  5
28E
100
AcDbEntity
  8
0
100
AcDbCircle
 62
7
  6
CONTINUOUS
 10
295.8356271974
 20
374.3748856967
 40
0.2
100
AcDbArc
 50
72.2749036063
 51
107.7229124086
  0
ARC
  5
28F
100
AcDbEntity
  8
0
100
AcDbCircle
 62
7
  6
CONTINUOUS
 10
295.8341757566
 20
374.3786573134
 40
0.1959656872
100
AcDbArc
 50
89.152594786
 51
107.6541215206
  0
ARC
  5
290
100
AcDbEntity
  8
0
100
AcDbCircle
 62
7
  6
CONTINUOUS
 10
290.8370834018
 20
374.3786926742
 40
0.1959305464
100
AcDbArc
 50
72.3441652197
 51
90.8442460259
  0
ARC
  5
291
100
AcDbEntity
  8
0
100
AcDbCircle
 62
7
  6
CONTINUOUS
 10
290.834003417
 20
374.3793216028
 40
0.1952804438
100
AcDbArc
 50
89.9433505265
 51
107.6582057356
  0
ARC
  5
292
100
AcDbEntity
  8
0
100
AcDbCircle
 62
7
  6
CONTINUOUS
 10
295.8372530999
 20
374.3793266007
 40
0.1952750493
100
AcDbArc
 50
72.345131215
 51
90.0525540642
  0
ARC
  5
293
100
AcDbEntity
  8
0
100
AcDbCircle
 62
7
  6
CONTINUOUS
 10
285.8338970676
 20
374.380603017
 40
0.19402735
100
AcDbArc
 50
101.4912698632
 51
107.7380134178
  0
ARC
  5
294
100
AcDbEntity
  8
0
100
AcDbCircle
 62
7
  6
CONTINUOUS
 10
285.8380810308
 20
374.3842927383
 40
0.190279639
100
AcDbArc
 50
76.396928759
 51
82.6220551687
  0
ARC
  5
295
100
AcDbEntity
  8
0
100
AcDbCircle
 62
7
  6
CONTINUOUS
 10
333.8610834826
 20
331.0560723832
 40
12.7408438324
100
AcDbArc
 50
66.8936731417
 51
86.6252870279
  0
ARC
  5
296
100
AcDbEntity
  8
0
100
AcDbCircle
 62
7
  6
CONTINUOUS
 10
333.8610834826
 20
331.0560723832
 40
12.7408438324
100
AcDbArc
 50
93.3747129725
 51
113.1063268583
  0
ARC
  5
297
100
AcDbEntity
  8
0
100
AcDbCircle
 62
7
  6
CONTINUOUS
 10
299.9824562734
 20
387.4740394334
 40
13.5491575976
100
AcDbArc
 50
252.1913040582
 51
252.3781102937
  0
ARC
  5
298
100
AcDbEntity
  8
0
100
AcDbCircle
 62
7
  6
CONTINUOUS
 10
303.3356271974
 20
382.1976189946
 40
8.0125
100
AcDbArc
 50
252.2771274623
 51
287.2022275492
  0
ARC
  5
299
100
AcDbEntity
  8
0
100
AcDbCircle
 62
7
  6
CONTINUOUS
 10
303.3796993751
 20
382.0607996015
 40
7.8861774492
100
AcDbArc
 50
276.7492484647
 51
277.1404837661
  0
ARC
  5
29A
100
AcDbEntity
  8
0
100
AcDbCircle
 62
7
  6
CONTINUOUS
 10
329.6485708078
 20
362.3792342545
 40
6.8442417423
100
AcDbArc
 50
50.8419652487
 51
51.4426235381
  0
ARC
  5
29B
100
AcDbEntity
  8
0
100
AcDbCircle
 62
7
  6
CONTINUOUS
 10
305.2633474812
 20
370.5851189946
 40
4.0
100
AcDbArc
 50
2.0000025522
 51
82.4340121461
  0
ARC
  5
29C
100
AcDbEntity
  8
0
100
AcDbCircle
 62
7
  6
CONTINUOUS
 10
332.326671073
 20
365.3851189946
 40
3.2
100
AcDbArc
 50
54.9999999998
 51
90.0
  0
ARC
  5
29D
100
AcDbEntity
  8
0
100
AcDbCircle
 62
7
  6
CONTINUOUS
 10
340.1356271974
 20
359.9172290508
 40
3.2
100
AcDbArc
 50
0.0
 51
55.0
  0
ARC
  5
29E
100
AcDbEntity
  8
0
100
AcDbCircle
 62
7
  6
CONTINUOUS
 10
341.6610834826
 20
339.3748223832
 40
3.2
100
AcDbArc
 50
0.0
 51
82.9767192302
  0
ARC
  5
29F
100
AcDbEntity
  8
0
100
AcDbCircle
 62
7
  6
CONTINUOUS
 10
340.2335082215
 20
359.9681826869
 40
2.0896507004
100
AcDbArc
 50
18.1305904391
 51
36.8694095612
  0
ARC
  5
2A0
100
AcDbEntity
  8
0
100
AcDbCircle
 62
7
  6
CONTINUOUS
 10
327.2872774908
 20
344.5748223832
 40
2.0
100
AcDbArc
 50
168.9999999986
 51
270.0
  0
ARC
  5
2A1
100
AcDbEntity
  8
0
100
AcDbCircle
 62
7
  6
CONTINUOUS
 10
342.2356271974
 20
349.6851189946
 40
1.1
100
AcDbArc
 50
239.8337325407
 51
360.0
  0
ARC
  5
2A2
100
AcDbEntity
  8
0
100
AcDbCircle
 62
7
  6
CONTINUOUS
 10
300.8356271974
 20
374.3748856967
 40
0.2
100
AcDbArc
 50
72.2754902647
 51
107.7229124086
  0
ARC
  5
2A3
100
AcDbEntity
  8
0
100
AcDbCircle
 62
7
  6
CONTINUOUS
 10
300.83454379
 20
374.3774237941
 40
0.1972527175
100
AcDbArc
 50
88.4206564724
 51
107.64975212
  0
ARC
  5
2A4
100
AcDbEntity
  8
0
100
AcDbCircle
 62
7
  6
CONTINUOUS
 10
300.8371759316
 20
374.3792542158
 40
0.1953674915
100
AcDbArc
 50
72.3518122272
 51
89.177523006
  0
SPLINE
  5
2A5
100
AcDbEntity
  8
0
100
AcDbSpline
 62
7
  6
CONTINUOUS
 70
0
 71
3
 72
9
 73
5
 74
0
 42
0.0000001
 43
0.0000001
 44
0.0000000001
 40
0.0
 40
0.0
 40
0.0
 40
0.0
 40
0.2436102654
 40
1.0
 40
1.0
 40
1.0
 40
1.0
 10
304.8769348393
 20
370.1661793449
 30
0.0
 10
304.8892239024
 20
370.1067523145
 30
0.0
 10
304.9330559483
 20
369.8614749198
 30
0.0
 10
304.9534983115
 20
369.612129501
 30
0.0
 10
304.9565507867
 20
369.4237342695
 30
0.0
  0
SPLINE
  5
2A6
100
AcDbEntity
  8
0
100
AcDbSpline
 62
7
  6
CONTINUOUS
 70
0
 71
3
 72
9
 73
5
 74
0
 42
0.0000001
 43
0.0000001
 44
0.0000000001
 40
0.0
 40
0.0
 40
0.0
 40
0.0
 40
0.2221543976
 40
1.0
 40
1.0
 40
1.0
 40
1.0
 10
304.6309992524
 20
374.2707958449
 30
0.0
 10
304.6110003515
 20
374.2676930587
 30
0.0
 10
304.5209892249
 20
374.2537651223
 30
0.0
 10
304.4306463611
 20
374.24096977
 30
0.0
 10
304.3599739981
 20
374.2357974846
 30
0.0
  0
SPLINE
  5
2A7
100
AcDbEntity
  8
0
100
AcDbSpline
 62
7
  6
CONTINUOUS
 70
0
 71
3
 72
9
 73
5
 74
0
 42
0.0000001
 43
0.0000001
 44
0.0000000001
 40
0.0
 40
0.0
 40
0.0
 40
0.0
 40
0.2199289246
 40
1.0
 40
1.0
 40
1.0
 40
1.0
 10
305.2171062509
 20
374.3788098764
 30
0.0
 10
305.211116768
 20
374.3781613264
 30
0.0
 10
305.1839899822
 20
374.3741991372
 30
0.0
 10
305.157388027
 20
374.3674439697
 30
0.0
 10
305.1366547731
 20
374.3622727549
 30
0.0
  0
SPLINE
  5
2A8
100
AcDbEntity
  8
0
100
AcDbSpline
 62
7
  6
CONTINUOUS
 70
0
 71
3
 72
9
 73
5
 74
0
 42
0.0000001
 43
0.0000001
 44
0.0000000001
 40
0.0
 40
0.0
 40
0.0
 40
0.0
 40
0.2101736906
 40
1.0
 40
1.0
 40
1.0
 40
1.0
 10
305.1366547731
 20
374.3622727549
 30
0.0
 10
305.1284578439
 20
374.3602283058
 30
0.0
 10
305.0894805054
 20
374.3504147835
 30
0.0
 10
305.0502949745
 20
374.3413624943
 30
0.0
 10
305.0191472574
 20
374.3352206266
 30
0.0
  0
SPLINE
  5
2A9
100
AcDbEntity
  8
0
100
AcDbSpline
 62
7
  6
CONTINUOUS
 70
0
 71
3
 72
9
 73
5
 74
0
 42
0.0000001
 43
0.0000001
 44
0.0000000001
 40
0.0
 40
0.0
 40
0.0
 40
0.0
 40
0.4370559571
 40
1.0
 40
1.0
 40
1.0
 40
1.0
 10
305.0191472574
 20
374.3352206266
 30
0.0
 10
304.962908943
 20
374.3241312654
 30
0.0
 10
304.8332433482
 20
374.3041306347
 30
0.0
 10
304.7035977535
 20
374.2842344318
 30
0.0
 10
304.6309992524
 20
374.2707958449
 30
0.0
  0
SPLINE
  5
2AA
100
AcDbEntity
  8
0
100
AcDbSpline
 62
7
  6
CONTINUOUS
 70
0
 71
3
 72
11
 73
7
 74
0
 42
0.0000001
 43
0.0000001
 44
0.0000000001
 40
0.0
 40
0.0
 40
0.0
 40
0.0
 40
0.2422832541
 40
0.4976241
 40
0.7541595829
 40
1.0
 40
1.0
 40
1.0
 40
1.0
 10
307.9035357949
 20
370.7247170757
 30
0.0
 10
307.890206103
 20
371.1125490468
 30
0.0
 10
307.7471955739
 20
371.9097351443
 30
0.0
 10
307.1864734994
 20
373.0005184492
 30
0.0
 10
306.3168092742
 20
373.874476661
 30
0.0
 10
305.5899481944
 20
374.2521823881
 30
0.0
 10
305.2171061812
 20
374.3788099001
 30
0.0
  0
SPLINE
  5
2AB
100
AcDbEntity
  8
0
100
AcDbSpline
 62
7
  6
CONTINUOUS
 70
0
 71
3
 72
12
 73
8
 74
0
 42
0.0000001
 43
0.0000001
 44
0.0000000001
 40
0.0
 40
0.0
 40
0.0
 40
0.0
 40
0.2442949271
 40
0.3670590665
 40
0.4906888863
 40
0.7416918135
 40
1.0
 40
1.0
 40
1.0
 40
1.0
 10
304.8769145115
 20
370.1661962773
 30
0.0
 10
305.0768914945
 20
370.1506036496
 30
0.0
 10
305.3747856225
 20
370.0638993795
 30
0.0
 10
305.7232982968
 20
369.8598033972
 30
0.0
 10
306.0380992253
 20
369.5968731692
 30
0.0
 10
306.3564134475
 20
369.1763020497
 30
0.0
 10
306.5154425333
 20
368.7861967458
 30
0.0
 10
306.5828950528
 20
368.5851189785
 30
0.0
  0
SPLINE
  5
2AC
100
AcDbEntity
  8
0
100
AcDbSpline
 62
7
  6
CONTINUOUS
 70
0
 71
3
 72
8
 73
4
 74
0
 42
0.0000001
 43
0.0000001
 44
0.0000000001
 40
0.0
 40
0.0
 40
0.0
 40
0.0
 40
1.0
 40
1.0
 40
1.0
 40
1.0
 10
305.2171069529
 20
374.3788119005
 30
0.0
 10
305.1834267123
 20
374.3900827172
 30
0.0
 10
305.1453404584
 20
374.392030647
 30
0.0
 10
305.1106957269
 20
374.3842119198
 30
0.0
  0
LINE
  5
2AD
100
AcDbEntity
  8
0
100
AcDbLine
 62
7
  6
CONTINUOUS
 10
300.8399819812
 20
374.5746010525
 11
300.8419567235
 21
374.573993343
  0
SPLINE
  5
2AE
100
AcDbEntity
  8
0
100
AcDbSpline
 62
7
  6
CONTINUOUS
 70
0
 71
3
 72
10
 73
6
 74
0
 42
0.0000001
 43
0.0000001
 44
0.0000000001
 40
0.0
 40
0.0
 40
0.0
 40
0.0
 40
0.1751291739
 40
0.4732791165
 40
1.0
 40
1.0
 40
1.0
 40
1.0
 10
300.8928854556
 20
374.5582415858
 30
0.0
 10
301.0853421967
 20
374.4988067524
 30
0.0
 10
301.6101878833
 20
374.3526102659
 30
0.0
 10
302.7457053899
 20
374.1553260577
 30
0.0
 10
303.7049066671
 20
374.1580756614
 30
0.0
 10
304.3065174242
 20
374.2292733731
 30
0.0
  0
SPLINE
  5
2AF
100
AcDbEntity
  8
0
100
AcDbSpline
 62
7
  6
CONTINUOUS
 70
0
 71
3
 72
9
 73
5
 74
0
 42
0.0000001
 43
0.0000001
 44
0.0000000001
 40
0.0
 40
0.0
 40
0.0
 40
0.0
 40
0.2572031415
 40
1.0
 40
1.0
 40
1.0
 40
1.0
 10
304.359971812
 20
374.2357848451
 30
0.0
 10
304.3553502365
 20
374.237639717
 30
0.0
 10
304.3369935087
 20
374.243829509
 30
0.0
 10
304.3170511611
 20
374.2454355287
 30
0.0
 10
304.3027742896
 20
374.2437008528
 30
0.0
  0
LINE
  5
2B0
100
AcDbEntity
  8
0
100
AcDbLine
 62
7
  6
CONTINUOUS
 10
290.6727005463
 20
374.5241067937
 11
290.7891808019
 21
374.5613468015
  0
SPLINE
  5
2B1
100
AcDbEntity
  8
0
100
AcDbSpline
 62
7
  6
CONTINUOUS
 70
0
 71
3
 72
9
 73
5
 74
0
 42
0.0000001
 43
0.0000001
 44
0.0000000001
 40
0.0
 40
0.0
 40
0.0
 40
0.0
 40
0.2730644799
 40
1.0
 40
1.0
 40
1.0
 40
1.0
 10
290.7891808019
 20
374.5613468015
 30
0.0
 10
290.7930465328
 20
374.562556334
 30
0.0
 10
290.8072164156
 20
374.5669429859
 30
0.0
 10
290.8214472074
 20
374.5711405269
 30
0.0
 10
290.8318525917
 20
374.5739694839
 30
0.0
  0
SPLINE
  5
2B2
100
AcDbEntity
  8
0
100
AcDbSpline
 62
7
  6
CONTINUOUS
 70
0
 71
3
 72
10
 73
6
 74
0
 42
0.0000001
 43
0.0000001
 44
0.0000000001
 40
0.0
 40
0.0
 40
0.0
 40
0.0
 40
0.5410804178
 40
0.813974773
 40
1.0
 40
1.0
 40
1.0
 40
1.0
 10
287.1967054071
 20
374.2531218226
 30
0.0
 10
287.8233032878
 20
374.1641298344
 30
0.0
 10
288.7870248915
 20
374.1437175871
 30
0.0
 10
289.9441895761
 20
374.3259519614
 30
0.0
 10
290.4646078413
 20
374.4605295626
 30
0.0
 10
290.6727005463
 20
374.5241067937
 30
0.0
  0
SPLINE
  5
2B3
100
AcDbEntity
  8
0
100
AcDbSpline
 62
7
  6
CONTINUOUS
 70
0
 71
3
 72
9
 73
5
 74
0
 42
0.0000001
 43
0.0000001
 44
0.0000000001
 40
0.0
 40
0.0
 40
0.0
 40
0.0
 40
0.4721163616
 40
1.0
 40
1.0
 40
1.0
 40
1.0
 10
286.758246912
 20
374.3273908568
 30
0.0
 10
286.8269005669
 20
374.31371109
 30
0.0
 10
286.9719988513
 20
374.2827461504
 30
0.0
 10
287.1191904312
 20
374.2639830934
 30
0.0
 10
287.1967054071
 20
374.2531218226
 30
0.0
  0
SPLINE
  5
2B4
100
AcDbEntity
  8
0
100
AcDbSpline
 62
7
  6
CONTINUOUS
 70
0
 71
3
 72
9
 73
5
 74
0
 42
0.0000001
 43
0.0000001
 44
0.0000000001
 40
0.0
 40
0.0
 40
0.0
 40
0.0
 40
0.2322449121
 40
1.0
 40
1.0
 40
1.0
 40
1.0
 10
286.3317636504
 20
374.4256228807
 30
0.0
 10
286.3646969022
 20
374.4176650744
 30
0.0
 10
286.5065640115
 20
374.3836674091
 30
0.0
 10
286.6487481061
 20
374.3509471623
 30
0.0
 10
286.758246912
 20
374.3273908568
 30
0.0
  0
SPLINE
  5
2B5
100
AcDbEntity
  8
0
100
AcDbSpline
 62
7
  6
CONTINUOUS
 70
0
 71
3
 72
9
 73
5
 74
0
 42
0.0000001
 43
0.0000001
 44
0.0000000001
 40
0.0
 40
0.0
 40
0.0
 40
0.0
 40
0.2246170167
 40
1.0
 40
1.0
 40
1.0
 40
1.0
 10
286.1176817131
 20
374.4826505329
 30
0.0
 10
286.1335851052
 20
374.4779313075
 30
0.0
 10
286.2045430378
 20
374.4574443383
 30
0.0
 10
286.276111515
 20
374.4391179855
 30
0.0
 10
286.3317636504
 20
374.4256228807
 30
0.0
  0
SPLINE
  5
2B6
100
AcDbEntity
  8
0
100
AcDbSpline
 62
7
  6
CONTINUOUS
 70
0
 71
3
 72
9
 73
5
 74
0
 42
0.0000001
 43
0.0000001
 44
0.0000000001
 40
0.0
 40
0.0
 40
0.0
 40
0.0
 40
0.2246877821
 40
1.0
 40
1.0
 40
1.0
 40
1.0
 10
285.8292862856
 20
374.5740786516
 30
0.0
 10
285.8335755977
 20
374.5729375563
 30
0.0
 10
285.8526178629
 20
374.5676788364
 30
0.0
 10
285.8715011763
 20
374.5618625392
 30
0.0
 10
285.8861021864
 20
374.5572389466
 30
0.0
  0
SPLINE
  5
2B7
100
AcDbEntity
  8
0
100
AcDbSpline
 62
7
  6
CONTINUOUS
 70
0
 71
3
 72
9
 73
5
 74
0
 42
0.0000001
 43
0.0000001
 44
0.0000000001
 40
0.0
 40
0.0
 40
0.0
 40
0.0
 40
0.2295787996
 40
1.0
 40
1.0
 40
1.0
 40
1.0
 10
285.8861021864
 20
374.5572389466
 30
0.0
 10
285.8913911174
 20
374.5555641403
 30
0.0
 10
285.914404463
 20
374.5481925431
 30
0.0
 10
285.937348313
 20
374.5406065163
 30
0.0
 10
285.9550201227
 20
374.5347491882
 30
0.0
  0
LINE
  5
2B8
100
AcDbEntity
  8
0
100
AcDbLine
 62
7
  6
CONTINUOUS
 10
285.9550201227
 20
374.5347491882
 11
286.0340455537
 21
374.5087029934
  0
SPLINE
  5
2B9
100
AcDbEntity
  8
0
100
AcDbSpline
 62
7
  6
CONTINUOUS
 70
0
 71
3
 72
9
 73
5
 74
0
 42
0.0000001
 43
0.0000001
 44
0.0000000001
 40
0.0
 40
0.0
 40
0.0
 40
0.0
 40
0.21206805
 40
1.0
 40
1.0
 40
1.0
 40
1.0
 10
285.8292933447
 20
374.573836873
 30
0.0
 10
285.8316226988
 20
374.5741689341
 30
0.0
 10
285.8427112054
 20
374.5749287778
 30
0.0
 10
285.8538467109
 20
374.5741264943
 30
0.0
 10
285.8625155733
 20
374.5729969888
 30
0.0
  0
SPLINE
  5
2BA
100
AcDbEntity
  8
0
100
AcDbSpline
 62
7
  6
CONTINUOUS
 70
0
 71
3
 72
10
 73
6
 74
0
 42
0.0000001
 43
0.0000001
 44
0.0000000001
 40
0.0
 40
0.0
 40
0.0
 40
0.0
 40
0.4116035403
 40
0.6833858233
 40
1.0
 40
1.0
 40
1.0
 40
1.0
 10
305.5967236316
 20
374.4849225413
 30
0.0
 10
305.5451985086
 20
374.4684673307
 30
0.0
 10
305.4590601627
 20
374.4429963535
 30
0.0
 10
305.3323233778
 20
374.4082578478
 30
0.0
 10
305.2570833495
 20
374.3902875783
 30
0.0
 10
305.2170984527
 20
374.3787855546
 30
0.0
  0
SPLINE
  5
2BB
100
AcDbEntity
  8
0
100
AcDbSpline
 62
7
  6
CONTINUOUS
 70
0
 71
3
 72
11
 73
7
 74
0
 42
0.0000001
 43
0.0000001
 44
0.0000000001
 40
0.0
 40
0.0
 40
0.0
 40
0.0
 40
0.2785908593
 40
0.5333636516
 40
0.7694316215
 40
1.0
 40
1.0
 40
1.0
 40
1.0
 10
305.8196855995
 20
368.5851185215
 30
0.0
 10
305.7873414624
 20
368.7009264275
 30
0.0
 10
305.7089450598
 20
368.9190310961
 30
0.0
 10
305.5209799494
 20
369.1989863603
 30
0.0
 10
305.2604730582
 20
369.3843314
 30
0.0
 10
305.0560802579
 20
369.4236873236
 30
0.0
 10
304.9565669456
 20
369.423715744
 30
0.0
  0
SPLINE
  5
2BC
100
AcDbEntity
  8
0
100
AcDbSpline
 62
7
  6
CONTINUOUS
 70
0
 71
3
 72
11
 73
7
 74
0
 42
0.0000001
 43
0.0000001
 44
0.0000000001
 40
0.0
 40
0.0
 40
0.0
 40
0.0
 40
0.2330708464
 40
0.5573662534
 40
0.8288863991
 40
1.0
 40
1.0
 40
1.0
 40
1.0
 10
295.9742270237
 20
374.5315013805
 30
0.0
 10
296.3276169225
 20
374.4234653025
 30
0.0
 10
297.1907602167
 20
374.2209356684
 30
0.0
 10
298.5106024972
 20
374.1336019652
 30
0.0
 10
299.7243237509
 20
374.2685198899
 30
0.0
 10
300.4069042526
 20
374.4377588051
 30
0.0
 10
300.6661120354
 20
374.5178579248
 30
0.0
  0
LINE
  5
2BD
100
AcDbEntity
  8
0
100
AcDbLine
 62
7
  6
CONTINUOUS
 10
300.7954341711
 20
374.5593713923
 11
300.838640568
 21
374.5741301253
  0
LINE
  5
2BE
100
AcDbEntity
  8
0
100
AcDbLine
 62
7
  6
CONTINUOUS
 10
300.838640568
 20
374.5741301253
 11
300.8399819812
 21
374.5746010525
  0
SPLINE
  5
2BF
100
AcDbEntity
  8
0
100
AcDbSpline
 62
7
  6
CONTINUOUS
 70
0
 71
3
 72
11
 73
7
 74
0
 42
0.0000001
 43
0.0000001
 44
0.0000000001
 40
0.0
 40
0.0
 40
0.0
 40
0.0
 40
0.2305685385
 40
0.4666363882
 40
0.721409053
 40
1.0
 40
1.0
 40
1.0
 40
1.0
 10
281.714696368
 20
369.4237157591
 30
0.0
 10
281.6151823133
 20
369.4236884115
 30
0.0
 10
281.4107876246
 20
369.3843344842
 30
0.0
 10
281.1502774081
 20
369.1989901325
 30
0.0
 10
280.9623101163
 20
368.919033501
 30
0.0
 10
280.8839131345
 20
368.7009273696
 30
0.0
 10
280.8515687535
 20
368.585118648
 30
0.0
  0
SPLINE
  5
2C0
100
AcDbEntity
  8
0
100
AcDbSpline
 62
7
  6
CONTINUOUS
 70
0
 71
3
 72
15
 73
11
 74
0
 42
0.0000001
 43
0.0000001
 44
0.0000000001
 40
0.0
 40
0.0
 40
0.0
 40
0.0
 40
0.2070581756
 40
0.3920123269
 40
0.5518542533
 40
0.6859433666
 40
0.7946954602
 40
0.8801491571
 40
0.9461473517
 40
1.0
 40
1.0
 40
1.0
 40
1.0
 10
279.611830207
 20
368.5851178572
 30
0.0
 10
279.5972196479
 20
368.7510285471
 30
0.0
 10
279.5607002058
 20
369.064459742
 30
0.0
 10
279.4816520505
 20
369.5015904033
 30
0.0
 10
279.3853143127
 20
369.8749904688
 30
0.0
 10
279.2765453834
 20
370.1806404956
 30
0.0
 10
279.1594421422
 20
370.4182724464
 30
0.0
 10
279.0365076161
 20
370.5892077371
 30
0.0
 10
278.9079328063
 20
370.6972485242
 30
0.0
 10
278.8110391025
 20
370.7247174676
 30
0.0
 10
278.7677212874
 20
370.7247182885
 30
0.0
  0
SPLINE
  5
2C1
100
AcDbEntity
  8
0
100
AcDbSpline
 62
7
  6
CONTINUOUS
 70
0
 71
3
 72
9
 73
5
 74
0
 42
0.0000001
 43
0.0000001
 44
0.0000000001
 40
0.0
 40
0.0
 40
0.0
 40
0.0
 40
0.5834956017
 40
1.0
 40
1.0
 40
1.0
 40
1.0
 10
281.4541562047
 20
374.3787855423
 30
0.0
 10
281.3828971713
 20
374.3983644514
 30
0.0
 10
281.2597733191
 20
374.4282347956
 30
0.0
 10
281.1384927793
 20
374.4648663059
 30
0.0
 10
281.0881627175
 20
374.4806613962
 30
0.0
  0
SPLINE
  5
2C2
100
AcDbEntity
  8
0
100
AcDbSpline
 62
7
  6
CONTINUOUS
 70
0
 71
3
 72
8
 73
4
 74
0
 42
0.0000001
 43
0.0000001
 44
0.0000000001
 40
0.0
 40
0.0
 40
0.0
 40
0.0
 40
1.0
 40
1.0
 40
1.0
 40
1.0
 10
281.4541560982
 20
374.3787855025
 30
0.0
 10
281.4877482359
 20
374.3900365169
 30
0.0
 10
281.5257228228
 20
374.3920154915
 30
0.0
 10
281.5602929242
 20
374.3842743593
 30
0.0
  0
SPLINE
  5
2C3
100
AcDbEntity
  8
0
100
AcDbSpline
 62
7
  6
CONTINUOUS
 70
0
 71
3
 72
11
 73
7
 74
0
 42
0.0000001
 43
0.0000001
 44
0.0000000001
 40
0.0
 40
0.0
 40
0.0
 40
0.0
 40
0.1796149611
 40
0.4999311963
 40
0.8202651002
 40
1.0
 40
1.0
 40
1.0
 40
1.0
 10
295.807293639
 20
374.5647090745
 30
0.0
 10
295.521870511
 20
374.4707777229
 30
0.0
 10
294.7108295549
 20
374.2588809461
 30
0.0
 10
293.3360732562
 20
374.1197891236
 30
0.0
 10
291.9610971214
 20
374.2587590243
 30
0.0
 10
291.1498241084
 20
374.47068009
 30
0.0
 10
290.8642008382
 20
374.5646451423
 30
0.0
  0
SPLINE
  5
2C4
100
AcDbEntity
  8
0
100
AcDbSpline
 62
7
  6
CONTINUOUS
 70
0
 71
3
 72
13
 73
9
 74
0
 42
0.0000001
 43
0.0000001
 44
0.0000000001
 40
0.0
 40
0.0
 40
0.0
 40
0.0
 40
0.3399735307
 40
0.6246002839
 40
0.743265637
 40
0.8453563836
 40
0.930820441
 40
1.0
 40
1.0
 40
1.0
 40
1.0
 10
304.8769168111
 20
370.1661861866
 30
0.0
 10
304.8562794951
 20
370.6324283531
 30
0.0
 10
304.8117435428
 20
371.4887040494
 30
0.0
 10
304.7267977511
 20
372.5059702571
 30
0.0
 10
304.6344429589
 20
373.1937090303
 30
0.0
 10
304.5592497575
 20
373.6075518547
 30
0.0
 10
304.4730145827
 20
373.9495259216
 30
0.0
 10
304.4003897829
 20
374.1498486824
 30
0.0
 10
304.3599717581
 20
374.2357845333
 30
0.0
  0
SPLINE
  5
2C5
100
AcDbEntity
  8
0
100
AcDbSpline
 62
7
  6
CONTINUOUS
 70
0
 71
3
 72
15
 73
11
 74
0
 42
0.0000001
 43
0.0000001
 44
0.0000000001
 40
0.0
 40
0.0
 40
0.0
 40
0.0
 40
0.0538526437
 40
0.1198508209
 40
0.2053044996
 40
0.3140565805
 40
0.4481456904
 40
0.6079876242
 40
0.7929417944
 40
1.0
 40
1.0
 40
1.0
 40
1.0
 10
307.9035333738
 20
370.7247182837
 30
0.0
 10
307.8602155577
 20
370.7247175114
 30
0.0
 10
307.763321827
 20
370.6972486671
 30
0.0
 10
307.6347469666
 20
370.589207952
 30
0.0
 10
307.5118124026
 20
370.418272708
 30
0.0
 10
307.3947091245
 20
370.180640774
 30
0.0
 10
307.2859401588
 20
369.8749907311
 30
0.0
 10
307.1896023872
 20
369.5015906132
 30
0.0
 10
307.1105542043
 20
369.0644598635
 30
0.0
 10
307.0740347514
 20
368.7510285968
 30
0.0
 10
307.0594241884
 20
368.5851178657
 30
0.0
  0
SPLINE
  5
2C6
100
AcDbEntity
  8
0
100
AcDbSpline
 62
7
  6
CONTINUOUS
 70
0
 71
3
 72
13
 73
9
 74
0
 42
0.0000001
 43
0.0000001
 44
0.0000000001
 40
0.0
 40
0.0
 40
0.0
 40
0.0
 40
0.0691823748
 40
0.1546491362
 40
0.2567401167
 40
0.3754049118
 40
0.6600298206
 40
1.0
 40
1.0
 40
1.0
 40
1.0
 10
282.3113214831
 20
374.2357753575
 30
0.0
 10
282.2709020799
 20
374.1498358087
 30
0.0
 10
282.1982550358
 20
373.9495140217
 30
0.0
 10
282.1119928047
 20
373.6075370994
 30
0.0
 10
282.0368042901
 20
373.1936895843
 30
0.0
 10
281.9444554474
 20
372.5059527092
 30
0.0
 10
281.8595061865
 20
371.4886939347
 30
0.0
 10
281.8149824215
 20
370.6324240839
 30
0.0
 10
281.7943452039
 20
370.1661861866
 30
0.0
  0
SPLINE
  5
2C7
100
AcDbEntity
  8
0
100
AcDbSpline
 62
7
  6
CONTINUOUS
 70
0
 71
3
 72
10
 73
6
 74
0
 42
0.0000001
 43
0.0000001
 44
0.0000000001
 40
0.0
 40
0.0
 40
0.0
 40
0.0
 40
0.208408021
 40
0.4486733944
 40
1.0
 40
1.0
 40
1.0
 40
1.0
 10
282.3603978755
 20
374.2302654443
 30
0.0
 10
282.5316863597
 20
374.211251688
 30
0.0
 10
282.9013963036
 20
374.1767514065
 30
0.0
 10
283.7288397079
 20
374.1649701097
 30
0.0
 10
284.3838343398
 20
374.2338956348
 30
0.0
 10
284.8316146299
 20
374.3196249332
 30
0.0
  0
SPLINE
  5
2C8
100
AcDbEntity
  8
0
100
AcDbSpline
 62
7
  6
CONTINUOUS
 70
0
 71
3
 72
10
 73
6
 74
0
 42
0.0000001
 43
0.0000001
 44
0.0000000001
 40
0.0
 40
0.0
 40
0.0
 40
0.0
 40
0.6526801422
 40
0.8674921753
 40
1.0
 40
1.0
 40
1.0
 40
1.0
 10
284.8555407123
 20
374.3242417877
 30
0.0
 10
285.0637371456
 20
374.364730439
 30
0.0
 10
285.3383518812
 20
374.4298875871
 30
0.0
 10
285.6509872141
 20
374.5186298119
 30
0.0
 10
285.7586327255
 20
374.5525828865
 30
0.0
 10
285.7997798492
 20
374.5652749927
 30
0.0
  0
LINE
  5
2C9
100
AcDbEntity
  8
0
100
AcDbLine
 62
7
  6
CONTINUOUS
 10
285.7997798492
 20
374.5652749927
 11
285.8237689578
 21
374.5724960708
  0
SPLINE
  5
2CA
100
AcDbEntity
  8
0
100
AcDbSpline
 62
7
  6
CONTINUOUS
 70
0
 71
3
 72
9
 73
5
 74
0
 42
0.0000001
 43
0.0000001
 44
0.0000000001
 40
0.0
 40
0.0
 40
0.0
 40
0.0
 40
0.7427863008
 40
1.0
 40
1.0
 40
1.0
 40
1.0
 10
282.3684810396
 20
374.2437018042
 30
0.0
 10
282.3542131206
 20
374.2454351278
 30
0.0
 10
282.3342821638
 20
374.2438257501
 30
0.0
 10
282.3159394689
 20
374.2376315788
 30
0.0
 10
282.3113214582
 20
374.2357755016
 30
0.0
  0
SPLINE
  5
2CB
100
AcDbEntity
  8
0
100
AcDbSpline
 62
7
  6
CONTINUOUS
 70
0
 71
3
 72
9
 73
5
 74
0
 42
0.0000001
 43
0.0000001
 44
0.0000000001
 40
0.0
 40
0.0
 40
0.0
 40
0.0
 40
0.216669951
 40
1.0
 40
1.0
 40
1.0
 40
1.0
 10
285.8292933447
 20
374.573836873
 30
0.0
 10
285.826823654
 20
374.5739733335
 30
0.0
 10
285.8153985753
 20
374.5741859328
 30
0.0
 10
285.8040072815
 20
374.5725176783
 30
0.0
 10
285.7952432064
 20
374.5707411024
 30
0.0
  0
LINE
  5
2CC
100
AcDbEntity
  8
0
100
AcDbLine
 62
7
  6
CONTINUOUS
 10
281.5497914565
 20
374.3583847247
 11
281.5156814972
 21
374.3669768926
  0
SPLINE
  5
2CD
100
AcDbEntity
  8
0
100
AcDbSpline
 62
7
  6
CONTINUOUS
 70
0
 71
3
 72
9
 73
5
 74
0
 42
0.0000001
 43
0.0000001
 44
0.0000000001
 40
0.0
 40
0.0
 40
0.0
 40
0.0
 40
0.2634241113
 40
1.0
 40
1.0
 40
1.0
 40
1.0
 10
281.5156814972
 20
374.3669768926
 30
0.0
 10
281.5129109596
 20
374.3676499794
 30
0.0
 10
281.5023868714
 20
374.3701761062
 30
0.0
 10
281.4918222807
 20
374.3725443245
 30
0.0
 10
281.4840007279
 20
374.3740868499
 30
0.0
  0
SPLINE
  5
2CE
100
AcDbEntity
  8
0
100
AcDbSpline
 62
7
  6
CONTINUOUS
 70
0
 71
3
 72
8
 73
4
 74
0
 42
0.0000001
 43
0.0000001
 44
0.0000000001
 40
0.0
 40
0.0
 40
0.0
 40
0.0
 40
1.0
 40
1.0
 40
1.0
 40
1.0
 10
281.4840007279
 20
374.3740868499
 30
0.0
 10
281.4741165795
 20
374.3760361496
 30
0.0
 10
281.4641576856
 20
374.3776647275
 30
0.0
 10
281.454148449
 20
374.3788098666
 30
0.0
  0
SPLINE
  5
2CF
100
AcDbEntity
  8
0
100
AcDbSpline
 62
7
  6
CONTINUOUS
 70
0
 71
3
 72
12
 73
8
 74
0
 42
0.0000001
 43
0.0000001
 44
0.0000000001
 40
0.0
 40
0.0
 40
0.0
 40
0.0
 40
0.1938307039
 40
0.3579347685
 40
0.6326986516
 40
0.8498011439
 40
1.0
 40
1.0
 40
1.0
 40
1.0
 10
282.3113192421
 20
374.2357883147
 30
0.0
 10
282.2617674279
 20
374.2379516356
 30
0.0
 10
282.1709208284
 20
374.2513272748
 30
0.0
 10
282.0107790229
 20
374.274576081
 30
0.0
 10
281.8454778392
 20
374.3038693779
 30
0.0
 10
281.6826700522
 20
374.3269338182
 30
0.0
 10
281.5912363385
 20
374.3489942804
 30
0.0
 10
281.5537536061
 20
374.3574929527
 30
0.0
  0
SPLINE
  5
2D0
100
AcDbEntity
  8
0
100
AcDbSpline
 62
7
  6
CONTINUOUS
 70
0
 71
3
 72
13
 73
9
 74
0
 42
0.0000001
 43
0.0000001
 44
0.0000000001
 40
0.0
 40
0.0
 40
0.0
 40
0.0
 40
0.2580810894
 40
0.5088019243
 40
0.632386199
 40
0.7550038637
 40
0.8775045942
 40
1.0
 40
1.0
 40
1.0
 40
1.0
 10
280.0883486753
 20
368.5851189741
 30
0.0
 10
280.1551846299
 20
368.7864287645
 30
0.0
 10
280.3153340794
 20
369.1761190949
 30
0.0
 10
280.6334105491
 20
369.5968974354
 30
0.0
 10
280.9478361842
 20
369.8599293713
 30
0.0
 10
281.2106318997
 20
370.0139249355
 30
0.0
 10
281.4946414316
 20
370.1206199872
 30
0.0
 10
281.6939589531
 20
370.1585677409
 30
0.0
 10
281.7943475056
 20
370.1661963707
 30
0.0
  0
SPLINE
  5
2D1
100
AcDbEntity
  8
0
100
AcDbSpline
 62
7
  6
CONTINUOUS
 70
0
 71
3
 72
11
 73
7
 74
0
 42
0.0000001
 43
0.0000001
 44
0.0000000001
 40
0.0
 40
0.0
 40
0.0
 40
0.0
 40
0.2458414597
 40
0.5023773188
 40
0.7577177802
 40
1.0
 40
1.0
 40
1.0
 40
1.0
 10
281.4541485295
 20
374.378809894
 30
0.0
 10
281.0813049348
 20
374.2521818417
 30
0.0
 10
280.3544419314
 20
373.8744745116
 30
0.0
 10
279.4847778028
 20
373.0005137585
 30
0.0
 10
278.9240581238
 20
371.9097311864
 30
0.0
 10
278.7810484884
 20
371.1125473922
 30
0.0
 10
278.7677188415
 20
370.7247170757
 30
0.0
  0
SPLINE
  5
2D2
100
AcDbEntity
  8
0
100
AcDbSpline
 62
7
  6
CONTINUOUS
 70
0
 71
3
 72
9
 73
5
 74
0
 42
0.0000001
 43
0.0000001
 44
0.0000000001
 40
0.0
 40
0.0
 40
0.0
 40
0.0
 40
0.2436103482
 40
1.0
 40
1.0
 40
1.0
 40
1.0
 10
281.7943284986
 20
370.166179311
 30
0.0
 10
281.7820391273
 20
370.106752292
 30
0.0
 10
281.738205818
 20
369.8614749961
 30
0.0
 10
281.7177621497
 20
369.6121295591
 30
0.0
 10
281.7147087013
 20
369.4237342691
 30
0.0
  0
SPLINE
  5
2D3
100
AcDbEntity
  8
0
100
AcDbSpline
 62
7
  6
CONTINUOUS
 70
0
 71
3
 72
12
 73
8
 74
0
 42
0.0000001
 43
0.0000001
 44
0.0000000001
 40
0.0
 40
0.0
 40
0.0
 40
0.0
 40
0.3760266616
 40
0.6930353681
 40
0.9073835354
 40
0.9678595767
 40
1.0
 40
1.0
 40
1.0
 40
1.0
 10
56.4908146636
 20
344.4313908213
 30
0.0
 10
56.5384265592
 20
344.4447221554
 30
0.0
 10
56.6270057411
 20
344.4671154057
 30
0.0
 10
56.7434927409
 20
344.489974939
 30
0.0
 10
56.8224676868
 20
344.4978039572
 30
0.0
 10
56.8615346614
 20
344.4953829909
 30
0.0
 10
56.8742636204
 20
344.4887743177
 30
0.0
 10
56.8754246156
 20
344.4847108344
 30
0.0
  0
SPLINE
  5
2D4
100
AcDbEntity
  8
0
100
AcDbSpline
 62
7
  6
CONTINUOUS
 70
0
 71
3
 72
13
 73
9
 74
0
 42
0.0000001
 43
0.0000001
 44
0.0000000001
 40
0.0
 40
0.0
 40
0.0
 40
0.0
 40
0.026781072
 40
0.0831175146
 40
0.1716432993
 40
0.2905714066
 40
0.6073373165
 40
1.0
 40
1.0
 40
1.0
 40
1.0
 10
49.4319475059
 20
344.2799807435
 30
0.0
 10
49.4340280541
 20
344.2818015498
 30
0.0
 10
49.4442343295
 20
344.2791222223
 30
0.0
 10
49.4580770496
 20
344.270103971
 30
0.0
 10
49.4803518823
 20
344.2533445319
 30
0.0
 10
49.5207897009
 20
344.2178527915
 30
0.0
 10
49.5821795113
 20
344.1579202166
 30
0.0
 10
49.6324102924
 20
344.1047070776
 30
0.0
 10
49.6597998418
 20
344.0748228411
 30
0.0
  0
SPLINE
  5
2D5
100
AcDbEntity
  8
0
100
AcDbSpline
 62
7
  6
CONTINUOUS
 70
0
 71
3
 72
10
 73
6
 74
0
 42
0.0000001
 43
0.0000001
 44
0.0000000001
 40
0.0
 40
0.0
 40
0.0
 40
0.0
 40
0.6986097243
 40
0.8956023337
 40
1.0
 40
1.0
 40
1.0
 40
1.0
 10
56.7743816657
 20
344.6324643684
 30
0.0
 10
56.7885053724
 20
344.6344427664
 30
0.0
 10
56.8072145806
 20
344.6363244933
 30
0.0
 10
56.8269299516
 20
344.6351157176
 30
0.0
 10
56.8333946228
 20
344.6318158092
 30
0.0
 10
56.8339801087
 20
344.6297666088
 30
0.0
  0
SPLINE
  5
2D6
100
AcDbEntity
  8
0
100
AcDbSpline
 62
7
  6
CONTINUOUS
 70
0
 71
3
 72
9
 73
5
 74
0
 42
0.0000001
 43
0.0000001
 44
0.0000000001
 40
0.0
 40
0.0
 40
0.0
 40
0.0
 40
0.7581190736
 40
1.0
 40
1.0
 40
1.0
 40
1.0
 10
48.3356271973
 20
349.6851189946
 30
0.0
 10
48.3982908646
 20
349.5637034832
 30
0.0
 10
48.4807997842
 20
349.4034371189
 30
0.0
 10
48.5684587719
 20
349.2459476249
 30
0.0
 10
48.5901216566
 20
349.2081179536
 30
0.0
  0
SPLINE
  5
2D7
100
AcDbEntity
  8
0
100
AcDbSpline
 62
7
  6
CONTINUOUS
 70
0
 71
3
 72
9
 73
5
 74
0
 42
0.0000001
 43
0.0000001
 44
0.0000000001
 40
0.0
 40
0.0
 40
0.0
 40
0.0
 40
0.2841085068
 40
1.0
 40
1.0
 40
1.0
 40
1.0
 10
48.5901216566
 20
349.2081179536
 30
0.0
 10
48.6179123501
 20
349.1595873531
 30
0.0
 10
48.7185045114
 20
348.9908666424
 30
0.0
 10
48.8320541004
 20
348.826387101
 30
0.0
 10
48.9339055797
 20
348.7290013671
 30
0.0
  0
SPLINE
  5
2D8
100
AcDbEntity
  8
0
100
AcDbSpline
 62
7
  6
CONTINUOUS
 70
0
 71
3
 72
9
 73
5
 74
0
 42
0.0000001
 43
0.0000001
 44
0.0000000001
 40
0.0
 40
0.0
 40
0.0
 40
0.0
 40
0.290570216
 40
1.0
 40
1.0
 40
1.0
 40
1.0
 10
48.9339055797
 20
348.7290013671
 30
0.0
 10
48.9570707229
 20
348.7068519149
 30
0.0
 10
49.0395979464
 20
348.6348564788
 30
0.0
 10
49.1491477111
 20
348.5852274375
 30
0.0
 10
49.2273988192
 20
348.5852247426
 30
0.0
  0
SPLINE
  5
2D9
100
AcDbEntity
  8
0
100
AcDbSpline
 62
7
  6
CONTINUOUS
 70
0
 71
3
 72
9
 73
5
 74
0
 42
0.0000001
 43
0.0000001
 44
0.0000000001
 40
0.0
 40
0.0
 40
0.0
 40
0.0
 40
0.7578456217
 40
1.0
 40
1.0
 40
1.0
 40
1.0
 10
342.3356271974
 20
349.6851189946
 30
0.0
 10
342.273925859
 20
349.565568067
 30
0.0
 10
342.1927076306
 20
349.4076806153
 30
0.0
 10
342.10651367
 20
349.2524709641
 30
0.0
 10
342.0851965351
 20
349.2151410079
 30
0.0
  0
SPLINE
  5
2DA
100
AcDbEntity
  8
0
100
AcDbSpline
 62
7
  6
CONTINUOUS
 70
0
 71
3
 72
9
 73
5
 74
0
 42
0.0000001
 43
0.0000001
 44
0.0000000001
 40
0.0
 40
0.0
 40
0.0
 40
0.0
 40
0.2842639366
 40
1.0
 40
1.0
 40
1.0
 40
1.0
 10
342.0851965351
 20
349.2151410079
 30
0.0
 10
342.0570894746
 20
349.1659207284
 30
0.0
 10
341.9553636333
 20
348.9949132665
 30
0.0
 10
341.8406324619
 20
348.8281065667
 30
0.0
 10
341.7376279793
 20
348.7293292111
 30
0.0
  0
SPLINE
  5
2DB
100
AcDbEntity
  8
0
100
AcDbSpline
 62
7
  6
CONTINUOUS
 70
0
 71
3
 72
9
 73
5
 74
0
 42
0.0000001
 43
0.0000001
 44
0.0000000001
 40
0.0
 40
0.0
 40
0.0
 40
0.0
 40
0.2903744774
 40
1.0
 40
1.0
 40
1.0
 40
1.0
 10
341.7376279793
 20
348.7293292111
 30
0.0
 10
341.7144798584
 20
348.7071310493
 30
0.0
 10
341.6319699068
 20
348.6348852136
 30
0.0
 10
341.5222286386
 20
348.5851990156
 30
0.0
 10
341.4438508952
 20
348.5851941603
 30
0.0
  0
SPLINE
  5
2DC
100
AcDbEntity
  8
0
100
AcDbSpline
 62
7
  6
CONTINUOUS
 70
0
 71
3
 72
8
 73
4
 74
0
 42
0.0000001
 43
0.0000001
 44
0.0000000001
 40
0.0
 40
0.0
 40
0.0
 40
0.0
 40
1.0
 40
1.0
 40
1.0
 40
1.0
 10
49.2737590374
 20
361.7193635482
 30
0.0
 10
49.0719978837
 20
361.5704872457
 30
0.0
 10
48.9027498486
 20
361.404685685
 30
0.0
 10
48.7660149322
 20
361.221958866
 30
0.0
  0
SPLINE
  5
2DD
100
AcDbEntity
  8
0
100
AcDbSpline
 62
7
  6
CONTINUOUS
 70
0
 71
3
 72
8
 73
4
 74
0
 42
0.0000001
 43
0.0000001
 44
0.0000000001
 40
0.0
 40
0.0
 40
0.0
 40
0.0
 40
1.0
 40
1.0
 40
1.0
 40
1.0
 10
48.4518472051
 20
360.6184482774
 30
0.0
 10
48.3805940839
 20
360.4016337935
 30
0.0
 10
48.3418540813
 20
360.1678940512
 30
0.0
 10
48.3356271974
 20
359.9172290508
 30
0.0
  0
SPLINE
  5
2DE
100
AcDbEntity
  8
0
100
AcDbSpline
 62
7
  6
CONTINUOUS
 70
0
 71
3
 72
8
 73
4
 74
0
 42
0.0000001
 43
0.0000001
 44
0.0000000001
 40
0.0
 40
0.0
 40
0.0
 40
0.0
 40
1.0
 40
1.0
 40
1.0
 40
1.0
 10
342.3356271973
 20
359.9172290508
 30
0.0
 10
342.3294003133
 20
360.1678940512
 30
0.0
 10
342.2906603107
 20
360.4016337935
 30
0.0
 10
342.2194071896
 20
360.6184482775
 30
0.0
  0
SPLINE
  5
2DF
100
AcDbEntity
  8
0
100
AcDbSpline
 62
7
  6
CONTINUOUS
 70
0
 71
3
 72
8
 73
4
 74
0
 42
0.0000001
 43
0.0000001
 44
0.0000000001
 40
0.0
 40
0.0
 40
0.0
 40
0.0
 40
1.0
 40
1.0
 40
1.0
 40
1.0
 10
341.9052394624
 20
361.2219588662
 30
0.0
 10
341.768504546
 20
361.4046856851
 30
0.0
 10
341.599256511
 20
361.5704872458
 30
0.0
 10
341.3974953574
 20
361.7193635482
 30
0.0
  0
SPLINE
  5
2E0
100
AcDbEntity
  8
0
100
AcDbSpline
 62
7
  6
CONTINUOUS
 70
0
 71
3
 72
9
 73
5
 74
0
 42
0.0000001
 43
0.0000001
 44
0.0000000001
 40
0.0
 40
0.0
 40
0.0
 40
0.0
 40
0.2630117649
 40
1.0
 40
1.0
 40
1.0
 40
1.0
 10
333.5407804282
 20
368.0064055362
 30
0.0
 10
333.5076467838
 20
368.0370038922
 30
0.0
 10
333.3796170679
 20
368.1510452368
 30
0.0
 10
333.2426259926
 20
368.255449484
 30
0.0
 10
333.1360772963
 20
368.3234109473
 30
0.0
  0
SPLINE
  5
2E1
100
AcDbEntity
  8
0
100
AcDbSpline
 62
7
  6
CONTINUOUS
 70
0
 71
3
 72
9
 73
5
 74
0
 42
0.0000001
 43
0.0000001
 44
0.0000000001
 40
0.0
 40
0.0
 40
0.0
 40
0.0
 40
0.2708096536
 40
1.0
 40
1.0
 40
1.0
 40
1.0
 10
333.1360772963
 20
368.3234109473
 30
0.0
 10
333.070860305
 20
368.3650092241
 30
0.0
 10
332.8231466264
 20
368.5064655847
 30
0.0
 10
332.5349573607
 20
368.5851189946
 30
0.0
 10
332.326671073
 20
368.5851189946
 30
0.0
  0
SPLINE
  5
2E2
100
AcDbEntity
  8
0
100
AcDbSpline
 62
7
  6
CONTINUOUS
 70
0
 71
3
 72
9
 73
5
 74
0
 42
0.0000001
 43
0.0000001
 44
0.0000000001
 40
0.0
 40
0.0
 40
0.0
 40
0.0
 40
0.2590262309
 40
1.0
 40
1.0
 40
1.0
 40
1.0
 10
336.1622540234
 20
365.3851189946
 30
0.0
 10
336.0170809763
 20
365.5552292671
 30
0.0
 10
335.4565045364
 20
366.2114215613
 30
0.0
 10
334.8807640792
 20
366.8580069055
 30
0.0
 10
334.4145460277
 20
367.2960709456
 30
0.0
  0
SPLINE
  5
2E3
100
AcDbEntity
  8
0
100
AcDbSpline
 62
7
  6
CONTINUOUS
 70
0
 71
3
 72
9
 73
5
 74
0
 42
0.0000001
 43
0.0000001
 44
0.0000000001
 40
0.0
 40
0.0
 40
0.0
 40
0.0
 40
0.2557772812
 40
1.0
 40
1.0
 40
1.0
 40
1.0
 10
334.4145460277
 20
367.2960709456
 30
0.0
 10
334.3778085772
 20
367.3305898921
 30
0.0
 10
334.2331599732
 20
367.4644525984
 30
0.0
 10
334.0841838431
 20
367.5936926004
 30
0.0
 10
333.9704462333
 20
367.6863085741
 30
0.0
  0
SPLINE
  5
2E4
100
AcDbEntity
  8
0
100
AcDbSpline
 62
7
  6
CONTINUOUS
 70
0
 71
3
 72
8
 73
4
 74
0
 42
0.0000001
 43
0.0000001
 44
0.0000000001
 40
0.0
 40
0.0
 40
0.0
 40
0.0
 40
1.0
 40
1.0
 40
1.0
 40
1.0
 10
333.914573234
 20
367.7313243441
 30
0.0
 10
333.7935958723
 20
367.8277441586
 30
0.0
 10
333.6691761175
 20
367.9201104052
 30
0.0
 10
333.5407804282
 20
368.0064055362
 30
0.0
  0
SPLINE
  5
2E5
100
AcDbEntity
  8
0
100
AcDbSpline
 62
7
  6
CONTINUOUS
 70
0
 71
3
 72
8
 73
4
 74
0
 42
0.0000001
 43
0.0000001
 44
0.0000000001
 40
0.0
 40
0.0
 40
0.0
 40
0.0
 40
1.0
 40
1.0
 40
1.0
 40
1.0
 10
57.1304739664
 20
368.0064055362
 30
0.0
 10
57.0020782772
 20
367.9201104052
 30
0.0
 10
56.8776585223
 20
367.8277441585
 30
0.0
 10
56.7566811607
 20
367.7313243441
 30
0.0
  0
SPLINE
  5
2E6
100
AcDbEntity
  8
0
100
AcDbSpline
 62
7
  6
CONTINUOUS
 70
0
 71
3
 72
9
 73
5
 74
0
 42
0.0000001
 43
0.0000001
 44
0.0000000001
 40
0.0
 40
0.0
 40
0.0
 40
0.0
 40
0.2441293276
 40
1.0
 40
1.0
 40
1.0
 40
1.0
 10
56.7008081614
 20
367.6863085741
 30
0.0
 10
56.6634981335
 20
367.6559272028
 30
0.0
 10
56.511954031
 20
367.5299031397
 30
0.0
 10
56.3652756541
 20
367.398082063
 30
0.0
 10
56.256708367
 20
367.2960709455
 30
0.0
  0
SPLINE
  5
2E7
100
AcDbEntity
  8
0
100
AcDbSpline
 62
7
  6
CONTINUOUS
 70
0
 71
3
 72
9
 73
5
 74
0
 42
0.0000001
 43
0.0000001
 44
0.0000000001
 40
0.0
 40
0.0
 40
0.0
 40
0.0
 40
0.2375367244
 40
1.0
 40
1.0
 40
1.0
 40
1.0
 10
56.256708367
 20
367.2960709455
 30
0.0
 10
56.1072229149
 20
367.1556126324
 30
0.0
 10
55.4960435241
 20
366.5449016531
 30
0.0
 10
54.9364088091
 20
365.8859458855
 30
0.0
 10
54.5090003714
 20
365.3851189946
 30
0.0
  0
SPLINE
  5
2E8
100
AcDbEntity
  8
0
100
AcDbSpline
 62
7
  6
CONTINUOUS
 70
0
 71
3
 72
9
 73
5
 74
0
 42
0.0000001
 43
0.0000001
 44
0.0000000001
 40
0.0
 40
0.0
 40
0.0
 40
0.0
 40
0.2366266786
 40
1.0
 40
1.0
 40
1.0
 40
1.0
 10
58.3445833218
 20
368.5851189946
 30
0.0
 10
58.2769317746
 20
368.5851189946
 30
0.0
 10
57.9907340884
 20
368.5615724116
 30
0.0
 10
57.7191813474
 20
368.4407769824
 30
0.0
 10
57.5351770984
 20
368.3234109473
 30
0.0
  0
SPLINE
  5
2E9
100
AcDbEntity
  8
0
100
AcDbSpline
 62
7
  6
CONTINUOUS
 70
0
 71
3
 72
9
 73
5
 74
0
 42
0.0000001
 43
0.0000001
 44
0.0000000001
 40
0.0
 40
0.0
 40
0.0
 40
0.0
 40
0.2373824085
 40
1.0
 40
1.0
 40
1.0
 40
1.0
 10
57.5351770984
 20
368.3234109473
 30
0.0
 10
57.5008552851
 20
368.3015189792
 30
0.0
 10
57.3587950576
 20
368.2053402193
 30
0.0
 10
57.2265544008
 20
368.09513418
 30
0.0
 10
57.1304739664
 20
368.0064055362
 30
0.0
  0
LINE
  5
2EA
100
AcDbEntity
  8
0
100
AcDbLine
 62
7
  6
CONTINUOUS
 10
65.0590743184
 20
344.574809401
 11
64.9549522554
 21
344.4502260145
  0
SPLINE
  5
2EB
100
AcDbEntity
  8
0
100
AcDbSpline
 62
7
  6
CONTINUOUS
 70
0
 71
3
 72
9
 73
5
 74
0
 42
0.0000001
 43
0.0000001
 44
0.0000000001
 40
0.0
 40
0.0
 40
0.0
 40
0.0
 40
0.2596861376
 40
1.0
 40
1.0
 40
1.0
 40
1.0
 10
64.9549522554
 20
344.4502260145
 30
0.0
 10
64.8758366009
 20
344.3556888999
 30
0.0
 10
64.5703334405
 20
343.9925372424
 30
0.0
 10
64.2548604535
 20
343.6363560365
 30
0.0
 10
64.0020804539
 20
343.3922130755
 30
0.0
  0
SPLINE
  5
2EC
100
AcDbEntity
  8
0
100
AcDbSpline
 62
7
  6
CONTINUOUS
 70
0
 71
3
 72
9
 73
5
 74
0
 42
0.0000001
 43
0.0000001
 44
0.0000000001
 40
0.0
 40
0.0
 40
0.0
 40
0.0
 40
0.5485384179
 40
1.0
 40
1.0
 40
1.0
 40
1.0
 10
64.0020804539
 20
343.3922130755
 30
0.0
 10
63.7652682694
 20
343.1634923381
 30
0.0
 10
63.3050462862
 20
342.768762509
 30
0.0
 10
62.7058554375
 20
342.5748223832
 30
0.0
 10
62.4348894743
 20
342.5748223832
 30
0.0
  0
SPLINE
  5
2ED
100
AcDbEntity
  8
0
100
AcDbSpline
 62
7
  6
CONTINUOUS
 70
0
 71
3
 72
8
 73
4
 74
0
 42
0.0000001
 43
0.0000001
 44
0.0000000001
 40
0.0
 40
0.0
 40
0.0
 40
0.0
 40
1.0
 40
1.0
 40
1.0
 40
1.0
 10
44.8610834826
 20
167.7748223832
 30
0.0
 10
44.969180459
 20
167.6050240497
 30
0.0
 10
45.0772653199
 20
167.4352055689
 30
0.0
 10
45.1874680766
 20
167.2667663134
 30
0.0
  0
SPLINE
  5
2EE
100
AcDbEntity
  8
0
100
AcDbSpline
 62
7
  6
CONTINUOUS
 70
0
 71
3
 72
9
 73
5
 74
0
 42
0.0000001
 43
0.0000001
 44
0.0000000001
 40
0.0
 40
0.0
 40
0.0
 40
0.0
 40
0.2677337108
 40
1.0
 40
1.0
 40
1.0
 40
1.0
 10
45.1874680766
 20
167.2667663134
 30
0.0
 10
45.2511100887
 20
167.1694927654
 30
0.0
 10
45.4915969581
 20
166.8082758324
 30
0.0
 10
45.7481856079
 20
166.455697696
 30
0.0
 10
45.9608916409
 20
166.2194005758
 30
0.0
  0
SPLINE
  5
2EF
100
AcDbEntity
  8
0
100
AcDbSpline
 62
7
  6
CONTINUOUS
 70
0
 71
3
 72
9
 73
5
 74
0
 42
0.0000001
 43
0.0000001
 44
0.0000000001
 40
0.0
 40
0.0
 40
0.0
 40
0.0
 40
0.3000098342
 40
1.0
 40
1.0
 40
1.0
 40
1.0
 10
45.9608916409
 20
166.2194005758
 30
0.0
 10
46.0473775589
 20
166.1233225612
 30
0.0
 10
46.3434273441
 20
165.8183811589
 30
0.0
 10
46.7594670117
 20
165.5748223832
 30
0.0
 10
47.0610834825
 20
165.5748223832
 30
0.0
  0
SPLINE
  5
2F0
100
AcDbEntity
  8
0
100
AcDbSpline
 62
7
  6
CONTINUOUS
 70
0
 71
3
 72
9
 73
5
 74
0
 42
0.0000001
 43
0.0000001
 44
0.0000000001
 40
0.0
 40
0.0
 40
0.0
 40
0.0
 40
0.2138286201
 40
1.0
 40
1.0
 40
1.0
 40
1.0
 10
342.6610834826
 20
165.5748223832
 30
0.0
 10
342.7536825387
 20
165.5748223832
 30
0.0
 10
343.1888516036
 20
165.6477029079
 30
0.0
 10
343.5330817524
 20
165.9659678087
 30
0.0
 10
343.7608906551
 20
166.218973285
 30
0.0
  0
SPLINE
  5
2F1
100
AcDbEntity
  8
0
100
AcDbSpline
 62
7
  6
CONTINUOUS
 70
0
 71
3
 72
9
 73
5
 74
0
 42
0.0000001
 43
0.0000001
 44
0.0000000001
 40
0.0
 40
0.0
 40
0.0
 40
0.0
 40
0.2297864927
 40
1.0
 40
1.0
 40
1.0
 40
1.0
 10
343.7608906551
 20
166.218973285
 30
0.0
 10
343.8276901497
 20
166.2931610702
 30
0.0
 10
344.10680079
 20
166.626485094
 30
0.0
 10
344.3514745906
 20
166.986718729
 30
0.0
 10
344.5346744975
 20
167.2667291806
 30
0.0
  0
SPLINE
  5
2F2
100
AcDbEntity
  8
0
100
AcDbSpline
 62
7
  6
CONTINUOUS
 70
0
 71
3
 72
8
 73
4
 74
0
 42
0.0000001
 43
0.0000001
 44
0.0000000001
 40
0.0
 40
0.0
 40
0.0
 40
0.0
 40
1.0
 40
1.0
 40
1.0
 40
1.0
 10
344.5346744975
 20
167.2667291806
 30
0.0
 10
344.6448856923
 20
167.4351806115
 30
0.0
 10
344.7529785536
 20
167.605011558
 30
0.0
 10
344.8610834825
 20
167.7748223832
 30
0.0
  0
SPLINE
  5
2F3
100
AcDbEntity
  8
0
100
AcDbSpline
 62
7
  6
CONTINUOUS
 70
0
 71
3
 72
9
 73
5
 74
0
 42
0.0000001
 43
0.0000001
 44
0.0000000001
 40
0.0
 40
0.0
 40
0.0
 40
0.0
 40
0.5771668371
 40
1.0
 40
1.0
 40
1.0
 40
1.0
 10
344.5391789701
 20
339.878358627
 30
0.0
 10
344.1604187089
 20
340.4659035252
 30
0.0
 10
343.5068274356
 20
341.4639331176
 30
0.0
 10
342.573351877
 20
342.3464425887
 30
0.0
 10
342.0863812336
 20
342.504967528
 30
0.0
  0
SPLINE
  5
2F4
100
AcDbEntity
  8
0
100
AcDbSpline
 62
7
  6
CONTINUOUS
 70
0
 71
3
 72
8
 73
4
 74
0
 42
0.0000001
 43
0.0000001
 44
0.0000000001
 40
0.0
 40
0.0
 40
0.0
 40
0.0
 40
1.0
 40
1.0
 40
1.0
 40
1.0
 10
342.0863812336
 20
342.504967528
 30
0.0
 10
341.9497719003
 20
342.549438353
 30
0.0
 10
341.8047489419
 20
342.5748223832
 30
0.0
 10
341.6610834826
 20
342.5748223832
 30
0.0
  0
SPLINE
  5
2F5
100
AcDbEntity
  8
0
100
AcDbSpline
 62
7
  6
CONTINUOUS
 70
0
 71
3
 72
8
 73
4
 74
0
 42
0.0000001
 43
0.0000001
 44
0.0000000001
 40
0.0
 40
0.0
 40
0.0
 40
0.0
 40
1.0
 40
1.0
 40
1.0
 40
1.0
 10
48.0610834826
 20
342.5748223832
 30
0.0
 10
47.917436706
 20
342.5748223832
 30
0.0
 10
47.7724327643
 20
342.5494457943
 30
0.0
 10
47.6358395061
 20
342.504985945
 30
0.0
  0
SPLINE
  5
2F6
100
AcDbEntity
  8
0
100
AcDbSpline
 62
7
  6
CONTINUOUS
 70
0
 71
3
 72
9
 73
5
 74
0
 42
0.0000001
 43
0.0000001
 44
0.0000000001
 40
0.0
 40
0.0
 40
0.0
 40
0.0
 40
0.4228290527
 40
1.0
 40
1.0
 40
1.0
 40
1.0
 10
47.6358395061
 20
342.504985945
 30
0.0
 10
47.1488654607
 20
342.3464803721
 30
0.0
 10
46.2153678867
 20
341.463975032
 30
0.0
 10
45.5617744911
 20
340.4659429324
 30
0.0
 10
45.1830093597
 20
339.8783916475
 30
0.0
  0
SPLINE
  5
2F7
100
AcDbEntity
  8
0
100
AcDbSpline
 62
7
  6
CONTINUOUS
 70
0
 71
3
 72
9
 73
5
 74
0
 42
0.0000001
 43
0.0000001
 44
0.0000000001
 40
0.0
 40
0.0
 40
0.0
 40
0.0
 40
0.4514447078
 40
1.0
 40
1.0
 40
1.0
 40
1.0
 10
327.2872774907
 20
342.5748223832
 30
0.0
 10
327.0162295803
 20
342.5748223832
 30
0.0
 10
326.4168422945
 20
342.7688918435
 30
0.0
 10
325.9565185714
 20
343.1638144041
 30
0.0
 10
325.7196412656
 20
343.39264334
 30
0.0
  0
SPLINE
  5
2F8
100
AcDbEntity
  8
0
100
AcDbSpline
 62
7
  6
CONTINUOUS
 70
0
 71
3
 72
9
 73
5
 74
0
 42
0.0000001
 43
0.0000001
 44
0.0000000001
 40
0.0
 40
0.0
 40
0.0
 40
0.0
 40
0.2378160141
 40
1.0
 40
1.0
 40
1.0
 40
1.0
 10
325.7196412656
 20
343.39264334
 30
0.0
 10
325.6384724473
 20
343.471054289
 30
0.0
 10
325.3059746201
 20
343.8099317014
 30
0.0
 10
324.9993702698
 20
344.1728182324
 30
0.0
 10
324.7672374817
 20
344.450198815
 30
0.0
  0
LINE
  5
2F9
100
AcDbEntity
  8
0
100
AcDbLine
 62
7
  6
CONTINUOUS
 10
324.7672374817
 20
344.450198815
 11
324.663092652
 21
344.5748094065
  0
ENDSEC
  0
SECTION
  2
OBJECTS
  0
DICTIONARY
  5
C
100
AcDbDictionary
280
0
281
1
  3
ACAD_GROUP
350
D
  3
ACAD_MLINESTYLE
350
17
  3
ACAD_LAYOUT
350
1A
  3
ACAD_PLOTSETTINGS
350
19
  3
ACAD_PLOTSTYLENAME
350
E
  0
DICTIONARY
  5
D
102
{ACAD_REACTORS
330
C
102
}
100
AcDbDictionary
280
0
281
1
  0
ACDBDICTIONARYWDFLT
  5
E
102
{ACAD_REACTORS
330
C
102
}
100
AcDbDictionary
281
1
  3
Normal
350
F
100
AcDbDictionaryWithDefault
340
F
  0
DICTIONARY
  5
17
102
{ACAD_REACTORS
330
C
102
}
100
AcDbDictionary
280
0
281
1
  3
Standard
350
18
  0
DICTIONARY
  5
19
102
{ACAD_REACTORS
330
C
102
}
100
AcDbDictionary
281
1
  0
DICTIONARY
  5
1A
102
{ACAD_REACTORS
330
C
102
}
100
AcDbDictionary
281
1
  3
Model
350
2FA
  3
Layout1
350
2FB
  0
ACDBPLACEHOLDER
  5
F
102
{ACAD_REACTORS
330
E
102
}
  0
MLINESTYLE
  5
18
102
{ACAD_REACTORS
330
17
102
}
100
AcDbMlineStyle
  2
STANDARD
 70
0
  3

 62
256
 51
90.0
 52
90.0
 71
2
 49
0.5
 62
256
  6
BYLAYER
 49
-0.5
 62
256
  6
BYLAYER
  0
LAYOUT
  5
2FA
102
{ACAD_REACTORS
330
1A
102
}
100
AcDbPlotSettings
  1

  2
none_device
  4

  6

 40
0.0
 41
0.0
 42
0.0
 43
0.0
 44
210.0
 45
297.0
 46
0.0
 47
0.0
 48
0.0
 49
0.0
140
0.0
141
0.0
142
1.0
143
1.0
 70
1024
 72
1
 73
0
 74
0
  7

 75
0
147
1.0
148
0.0
149
0.0
100
AcDbLayout
  1
Model
 70
0
 71
0
 10
0.0
 20
0.0
 11
210.0
 21
297.0
 12
0.0
 22
0.0
 32
0.0
 14
0.0
 24
0.0
 34
0.0
 15
0.0
 25
0.0
 35
0.0
146
0.0
 13
0.0
 23
0.0
 33
0.0
 16
1.0
 26
0.0
 36
0.0
 17
0.0
 27
1.0
 37
0.0
 76
0
330
210
345
0
346
0
  0
LAYOUT
  5
2FB
102
{ACAD_REACTORS
330
1A
102
}
100
AcDbPlotSettings
  1

  2
none_device
  4

  6

 40
0.0
 41
0.0
 42
0.0
 43
0.0
 44
210.0
 45
297.0
 46
0.0
 47
0.0
 48
0.0
 49
0.0
140
0.0
141
0.0
142
1.0
143
1.0
 70
0
 72
1
 73
0
 74
0
  7

 75
0
147
1.0
148
0.0
149
0.0
100
AcDbLayout
  1
Layout1
 70
0
 71
1
 10
0.0
 20
0.0
 11
210.0
 21
297.0
 12
0.0
 22
0.0
 32
0.0
 14
0.0
 24
0.0
 34
0.0
 15
0.0
 25
0.0
 35
0.0
146
0.0
 13
0.0
 23
0.0
 33
0.0
 16
1.0
 26
0.0
 36
0.0
 17
0.0
 27
1.0
 37
0.0
 76
0
330
211
345
0
346
0
  0
ENDSEC
  0
EOF
