999
DXF file: C:\Users\sesa63760\Dev\_Creo\CAD\MCADPD0005421_3D-CAD\drw0001_4.dxf
999
Pro/ENGINEER 2019471 by Parametric Technology Corporation
  0
SECTION
  2
HEADER
  9
$ACADVER
  1
AC1024
  9
$DWGCODEPAGE
  3
ANSI_1252
  9
$EXTMAX
 10
47.9322318008
 20
67.7898706897
 30
0.0
  9
$EXTMIN
 10
0.0
 20
0.0
 30
0.0
  9
$LIMMIN
 10
0.0
 20
0.0
  9
$LIMMAX
 10
47.9322318008
 20
67.7898706897
  9
$VIEWCTR
 10
23.9661159004
 20
33.8949353448
  9
$VIEWSIZE
 40
67.7898706897
  9
$CLAYER
  8
0
  9
$LTSCALE
 40
4.4188952746
  9
$CELTYPE
  6
BYLAYER
  9
$DIMSCALE
 40
1.0
  9
$DIMASZ
 40
0.5706218072
  9
$DIMEXO
 40
1.0
  9
$DIMDLI
 40
3.053054917
  9
$DIMEXE
 40
1.0
  9
$DIMCEN
 40
0.723091954
  9
$DIMLFAC
 40
1.0
  9
$DIMBLK
  1
_FILLED
  9
$DIMALT
 70
0
  9
$DIMALTF
 40
0.0393700787
  9
$DIMTXT
 40
0.79887053
  9
$DIMTOL
 70
1
  9
$DIMLIM
 70
0
  9
$DIMTFAC
 40
1.0
  9
$DIMTP
 40
0.01
  9
$DIMTM
 40
0.01
  9
$DIMGAP
 40
0.625
  9
$DIMDSEP
 70
46
  9
$AUNITS
 70
0
  9
$PDMODE
 70
3
  9
$PDSIZE
 40
0.3125
  9
$HANDSEED
  5
35D
  9
$TILEMODE
 70
1
  9
$MEASUREMENT
 70
1
  9
$INSUNITS
 70
4
  0
ENDSEC
  0
SECTION
  2
CLASSES
  0
CLASS
  1
ACDBDICTIONARYWDFLT
  2
AcDbDictionaryWithDefault
  3
AutoCAD 2000
 90
0
 91
1
280
0
281
0
  0
CLASS
  1
ACDBPLACEHOLDER
  2
AcDbPlaceHolder
  3
AutoCAD 2000
 90
0
 91
1
280
0
281
0
  0
CLASS
  1
LAYOUT
  2
AcDbLayout
  3
AutoCAD 2000
 90
0
 91
0
280
0
281
0
  0
ENDSEC
  0
SECTION
  2
TABLES
  0
TABLE
  2
VPORT
  5
8
100
AcDbSymbolTable
 70
2
  0
VPORT
  5
1F4
100
AcDbSymbolTableRecord
100
AcDbViewportTableRecord
  2
*ACTIVE
 70
0
 10
0.0
 20
0.0
 11
1.0
 21
1.0
 12
23.9661159004
 22
33.8949353448
 13
0.0
 23
0.0
 14
1.0
 24
1.0
 15
0.0
 25
0.0
 16
0.0
 26
0.0
 36
1.0
 17
0.0
 27
0.0
 37
0.0
 40
67.7898706897
 41
0.7070707071
 42
50.0
 43
0.0
 44
0.0
 50
0.0
 51
0.0
 71
0
 72
100
 73
1
 74
1
 75
0
 76
0
 77
0
 78
0
  0
ENDTAB
  0
TABLE
  2
LTYPE
  5
5
100
AcDbSymbolTable
 70
6
  0
LTYPE
  5
14
100
AcDbSymbolTableRecord
100
AcDbLinetypeTableRecord
  2
BYBLOCK
 70
0
  3

 72
65
 73
0
 40
0.0
  0
LTYPE
  5
15
100
AcDbSymbolTableRecord
100
AcDbLinetypeTableRecord
  2
BYLAYER
 70
0
  3

 72
65
 73
0
 40
0.0
  0
LTYPE
  5
16
100
AcDbSymbolTableRecord
100
AcDbLinetypeTableRecord
  2
CONTINUOUS
 70
64
  3
Solid line
 72
65
 73
0
 40
0.0
  0
LTYPE
  5
1F5
100
AcDbSymbolTableRecord
100
AcDbLinetypeTableRecord
  2
CENTER
 70
64
  3
____ _ ____ _ ____ _ ____ _ ____ _ ____ _ ____
 72
65
 73
4
 40
0.6
 49
0.375
 74
0
 49
-0.075
 74
0
 49
0.075
 74
0
 49
-0.075
 74
0
  0
LTYPE
  5
1F6
100
AcDbSymbolTableRecord
100
AcDbLinetypeTableRecord
  2
HIDDEN
 70
64
  3
- - - - - - - - - - - - - - - - - - - -
 72
65
 73
2
 40
0.2
 49
0.1
 74
0
 49
-0.1
 74
0
  0
LTYPE
  5
1F7
100
AcDbSymbolTableRecord
100
AcDbLinetypeTableRecord
  2
PHANTOM
 70
64
  3
_____ _ _ _____ _ _ _____ _ _ _____
 72
65
 73
6
 40
0.8
 49
0.45
 74
0
 49
-0.05
 74
0
 49
0.1
 74
0
 49
-0.05
 74
0
 49
0.1
 74
0
 49
-0.05
 74
0
  0
LTYPE
  5
1F8
100
AcDbSymbolTableRecord
100
AcDbLinetypeTableRecord
  2
DOT
 70
64
  3
. . . . . . . . . . . . . . . . . . . .
 72
65
 73
2
 40
0.2
 49
0.1
 74
0
 49
-0.1
 74
0
  0
LTYPE
  5
1F9
100
AcDbSymbolTableRecord
100
AcDbLinetypeTableRecord
  2
DASHED
 70
64
  3
- - - - - - - - - - - - - - - - - - - -
 72
65
 73
2
 40
0.2
 49
0.1
 74
0
 49
-0.1
 74
0
  0
ENDTAB
  0
TABLE
  2
LAYER
  5
2
100
AcDbSymbolTable
 70
36
  0
LAYER
  5
10
100
AcDbSymbolTableRecord
100
AcDbLayerTableRecord
  2
0
 70
0
 62
7
  6
CONTINUOUS
370
-3
390
F
  0
LAYER
  5
1FA
100
AcDbSymbolTableRecord
100
AcDbLayerTableRecord
  2
DEFAULT_1
 70
0
 62
7
  6
CENTER
370
-3
390
F
  0
LAYER
  5
1FB
100
AcDbSymbolTableRecord
100
AcDbLayerTableRecord
  2
DEFAULT_2
 70
0
 62
7
  6
HIDDEN
370
-3
390
F
  0
LAYER
  5
1FC
100
AcDbSymbolTableRecord
100
AcDbLayerTableRecord
  2
DEFAULT_3
 70
0
 62
7
  6
PHANTOM
370
-3
390
F
  0
LAYER
  5
1FD
100
AcDbSymbolTableRecord
100
AcDbLayerTableRecord
  2
00_COMPONENTS
 70
0
 62
7
  6
CONTINUOUS
370
-3
390
F
  0
LAYER
  5
1FE
100
AcDbSymbolTableRecord
100
AcDbLayerTableRecord
  2
01_1_DEFAULT_DATUMS
 70
0
 62
7
  6
CONTINUOUS
370
-3
390
F
  0
LAYER
  5
1FF
100
AcDbSymbolTableRecord
100
AcDbLayerTableRecord
  2
01_PLANES
 70
0
 62
7
  6
CONTINUOUS
370
-3
390
F
  0
LAYER
  5
200
100
AcDbSymbolTableRecord
100
AcDbLayerTableRecord
  2
02_COORD_SYS
 70
0
 62
7
  6
CONTINUOUS
370
-3
390
F
  0
LAYER
  5
201
100
AcDbSymbolTableRecord
100
AcDbLayerTableRecord
  2
03_AXES
 70
0
 62
7
  6
CONTINUOUS
370
-3
390
F
  0
LAYER
  5
202
100
AcDbSymbolTableRecord
100
AcDbLayerTableRecord
  2
04_POINTS
 70
0
 62
7
  6
CONTINUOUS
370
-3
390
F
  0
LAYER
  5
203
100
AcDbSymbolTableRecord
100
AcDbLayerTableRecord
  2
05_CURVES
 70
0
 62
7
  6
CONTINUOUS
370
-3
390
F
  0
LAYER
  5
204
100
AcDbSymbolTableRecord
100
AcDbLayerTableRecord
  2
06_SURFS
 70
0
 62
7
  6
CONTINUOUS
370
-3
390
F
  0
LAYER
  5
205
100
AcDbSymbolTableRecord
100
AcDbLayerTableRecord
  2
07_COSMETICS
 70
0
 62
7
  6
CONTINUOUS
370
-3
390
F
  0
LAYER
  5
206
100
AcDbSymbolTableRecord
100
AcDbLayerTableRecord
  2
10_NOTES
 70
0
 62
7
  6
CONTINUOUS
370
-3
390
F
  0
LAYER
  5
207
100
AcDbSymbolTableRecord
100
AcDbLayerTableRecord
  2
11_NOTES_PUB
 70
0
 62
7
  6
CONTINUOUS
370
-3
390
F
  0
LAYER
  5
208
100
AcDbSymbolTableRecord
100
AcDbLayerTableRecord
  2
13_REF_GTOL
 70
0
 62
7
  6
CONTINUOUS
370
-3
390
F
  0
LAYER
  5
209
100
AcDbSymbolTableRecord
100
AcDbLayerTableRecord
  2
16_MISC
 70
0
 62
7
  6
CONTINUOUS
370
-3
390
F
  0
LAYER
  5
20A
100
AcDbSymbolTableRecord
100
AcDbLayerTableRecord
  2
17_NO_PRINT
 70
0
 62
7
  6
CONTINUOUS
370
-3
390
F
  0
LAYER
  5
20B
100
AcDbSymbolTableRecord
100
AcDbLayerTableRecord
  2
18_DATUM_CAMS_JOINTS
 70
0
 62
7
  6
CONTINUOUS
370
-3
390
F
  0
LAYER
  5
20C
100
AcDbSymbolTableRecord
100
AcDbLayerTableRecord
  2
19_DATUM_FUNCTIONAL
 70
0
 62
7
  6
CONTINUOUS
370
-3
390
F
  0
LAYER
  5
20D
100
AcDbSymbolTableRecord
100
AcDbLayerTableRecord
  2
20_DATUM_KINEMATIC_SCHEME
 70
0
 62
7
  6
CONTINUOUS
370
-3
390
F
  0
ENDTAB
  0
TABLE
  2
STYLE
  5
3
100
AcDbSymbolTable
 70
1
  0
STYLE
  5
11
100
AcDbSymbolTableRecord
100
AcDbTextStyleTableRecord
  2
STANDARD
 70
0
 40
0.0
 41
1.0
 50
0.0
 71
0
 42
0.2
  3
ARIAL.TTF
  4

  0
STYLE
  5
20E
100
AcDbSymbolTableRecord
100
AcDbTextStyleTableRecord
  2
TEXTSTYLE_1
 70
0
 40
0.0
 41
0.8
 50
0.0
 71
0
 42
0.2
  3
gdt
  4

  0
ENDTAB
  0
TABLE
  2
VIEW
  5
6
100
AcDbSymbolTable
 70
0
  0
ENDTAB
  0
TABLE
  2
UCS
  5
7
100
AcDbSymbolTable
 70
0
  0
ENDTAB
  0
TABLE
  2
APPID
  5
9
100
AcDbSymbolTable
 70
1
  0
APPID
  5
20F
100
AcDbSymbolTableRecord
100
AcDbRegAppTableRecord
  2
ACAD
 70
0
  0
ENDTAB
  0
TABLE
  2
BLOCK_RECORD
  5
1
100
AcDbSymbolTable
 70
0
  0
BLOCK_RECORD
  5
210
100
AcDbSymbolTableRecord
100
AcDbBlockTableRecord
  2
*Model_Space
  0
BLOCK_RECORD
  5
211
100
AcDbSymbolTableRecord
100
AcDbBlockTableRecord
  2
*Paper_Space
  0
BLOCK_RECORD
  5
212
100
AcDbSymbolTableRecord
100
AcDbBlockTableRecord
  2
_FILLED
  0
ENDTAB
  0
TABLE
  2
DIMSTYLE
  5
A
100
AcDbSymbolTable
 70
1
100
AcDbDimStyleTable
 71
0
  0
DIMSTYLE
105
213
100
AcDbSymbolTableRecord
100
AcDbDimStyleTableRecord
  2
STANDARD
 70
0
  3

  4

 40
1.0
 41
0.5706218072
 42
1.0
 43
0.38
 44
1.0
 45
0.0
 46
0.0
 47
0.01
 48
0.01
140
0.79887053
141
0.09
142
0.0
143
25.4
144
1.0
145
0.0
146
1.0
147
0.625
 71
1
 72
0
 73
0
 74
0
 75
0
 76
0
 77
1
 78
8
 79
2
170
0
171
1
172
0
173
0
174
0
175
0
176
0
177
0
178
0
270
2
179
2
271
2
272
2
273
2
274
2
275
0
280
0
281
0
282
0
283
1
284
8
285
0
286
0
287
3
288
0
340
11
278
46
341
212
342
212
343
212
344
212
  0
ENDTAB
  0
ENDSEC
  0
SECTION
  2
BLOCKS
  0
BLOCK
  5
20
100
AcDbEntity
  8
0
100
AcDbBlockBegin
  2
*Model_Space
 70
0
 10
0.0
 20
0.0
 30
0.0
  3
*Model_Space
  1

  0
ENDBLK
  5
21
100
AcDbEntity
  8
0
100
AcDbBlockEnd
  0
BLOCK
  5
1C
100
AcDbEntity
  8
0
100
AcDbBlockBegin
  2
*Paper_Space
 70
0
 10
0.0
 20
0.0
 30
0.0
  3
*Paper_Space
  1

  0
ENDBLK
  5
1D
100
AcDbEntity
  8
0
100
AcDbBlockEnd
  0
BLOCK
  5
214
100
AcDbEntity
  8
0
100
AcDbBlockBegin
  2
_FILLED
 70
64
 10
0.0
 20
0.0
  3
_FILLED
  1

  0
SOLID
  5
215
100
AcDbEntity
  8
0
  6
BYBLOCK
 62
0
100
AcDbTrace
 10
0.0
 20
0.0
 11
-1.0
 21
0.25
 12
-1.0
 22
-0.25
 13
-1.0
 23
-0.25
  0
ENDBLK
  5
216
100
AcDbEntity
  8
0
  6
BYBLOCK
 62
0
100
AcDbBlockEnd
  0
ENDSEC
  0
SECTION
  2
ENTITIES
  0
LINE
  5
217
100
AcDbEntity
  8
0
100
AcDbLine
 62
7
  6
BYLAYER
 10
5.3384219349
 20
42.9422267711
 11
5.3384219349
 21
38.9422267711
  0
LINE
  5
218
100
AcDbEntity
  8
0
100
AcDbLine
 62
7
  6
BYLAYER
 10
5.3384219349
 20
30.0922267711
 11
5.3384219349
 21
26.0922267711
  0
LINE
  5
219
100
AcDbEntity
  8
0
100
AcDbLine
 62
7
  6
BYLAYER
 10
5.7084219349
 20
44.4172267711
 11
5.7084219349
 21
42.9422267711
  0
LINE
  5
21A
100
AcDbEntity
  8
0
100
AcDbLine
 62
7
  6
BYLAYER
 10
5.7084219349
 20
38.9422267711
 11
5.7084219349
 21
30.4172267711
  0
LINE
  5
21B
100
AcDbEntity
  8
0
100
AcDbLine
 62
7
  6
BYLAYER
 10
5.7884219349
 20
19.3172267711
 11
5.7884219349
 21
31.8672267711
  0
LINE
  5
21C
100
AcDbEntity
  8
0
100
AcDbLine
 62
7
  6
BYLAYER
 10
5.8084219349
 20
48.7172267711
 11
5.8084219349
 21
42.9422267711
  0
LINE
  5
21D
100
AcDbEntity
  8
0
100
AcDbLine
 62
7
  6
BYLAYER
 10
5.8084219349
 20
38.9422267711
 11
5.8084219349
 21
31.8672267711
  0
LINE
  5
21E
100
AcDbEntity
  8
0
100
AcDbLine
 62
7
  6
BYLAYER
 10
5.8084219349
 20
19.3136733805
 11
5.8084219349
 21
19.1672267711
  0
LINE
  5
21F
100
AcDbEntity
  8
0
100
AcDbLine
 62
7
  6
BYLAYER
 10
5.8384219349
 20
50.4172267711
 11
5.8384219349
 21
48.7172267711
  0
LINE
  5
220
100
AcDbEntity
  8
0
100
AcDbLine
 62
7
  6
BYLAYER
 10
6.4884219349
 20
31.8672267711
 11
6.4884219349
 21
21.8672267711
  0
LINE
  5
221
100
AcDbEntity
  8
0
100
AcDbLine
 62
7
  6
BYLAYER
 10
7.3384219349
 20
19.1672267711
 11
7.3384219349
 21
19.3136733805
  0
LINE
  5
222
100
AcDbEntity
  8
0
100
AcDbLine
 62
7
  6
BYLAYER
 10
7.3384219349
 20
31.8672267711
 11
7.3384219349
 21
38.9422267711
  0
LINE
  5
223
100
AcDbEntity
  8
0
100
AcDbLine
 62
7
  6
BYLAYER
 10
7.3384219349
 20
42.9422267711
 11
7.3384219349
 21
48.7172267711
  0
LINE
  5
224
100
AcDbEntity
  8
0
100
AcDbLine
 62
7
  6
BYLAYER
 10
7.4084219349
 20
21.8672267711
 11
7.4084219349
 21
31.8672267711
  0
LINE
  5
225
100
AcDbEntity
  8
0
100
AcDbLine
 62
7
  6
BYLAYER
 10
7.4384219349
 20
48.7172267711
 11
7.4384219349
 21
45.5122267711
  0
LINE
  5
226
100
AcDbEntity
  8
0
100
AcDbLine
 62
7
  6
BYLAYER
 10
7.4384219349
 20
43.300802347
 11
7.4384219349
 21
42.9836511953
  0
LINE
  5
227
100
AcDbEntity
  8
0
100
AcDbLine
 62
7
  6
BYLAYER
 10
7.4384219349
 20
38.900802347
 11
7.4384219349
 21
38.5836511953
  0
LINE
  5
228
100
AcDbEntity
  8
0
100
AcDbLine
 62
7
  6
BYLAYER
 10
7.5884219349
 20
16.8672267711
 11
7.5884219349
 21
26.3672267711
  0
LINE
  5
229
100
AcDbEntity
  8
0
100
AcDbLine
 62
7
  6
BYLAYER
 10
10.6255560379
 20
46.7316461551
 11
10.7907396307
 21
47.3481197162
  0
LINE
  5
22A
100
AcDbEntity
  8
0
100
AcDbLine
 62
7
  6
BYLAYER
 10
11.1357939907
 20
46.7622267711
 11
11.9440843676
 21
48.1622267712
  0
LINE
  5
22B
100
AcDbEntity
  8
0
100
AcDbLine
 62
7
  6
BYLAYER
 10
20.4384219349
 20
16.8072267711
 11
26.4384219349
 21
16.8072267711
  0
LINE
  5
22C
100
AcDbEntity
  8
0
100
AcDbLine
 62
7
  6
BYLAYER
 10
8.2984219349
 20
19.3172267711
 11
8.2984219349
 21
26.3672267711
  0
LINE
  5
22D
100
AcDbEntity
  8
0
100
AcDbLine
 62
7
  6
BYLAYER
 10
8.4384219349
 20
45.5122267711
 11
8.4384219349
 21
47.3924190902
  0
LINE
  5
22E
100
AcDbEntity
  8
0
100
AcDbLine
 62
7
  6
BYLAYER
 10
8.5884219349
 20
16.8833900535
 11
8.5884219349
 21
21.6672267711
  0
LINE
  5
22F
100
AcDbEntity
  8
0
100
AcDbLine
 62
7
  6
BYLAYER
 10
8.7784219349
 20
21.6672267711
 11
8.7784219349
 21
26.3672267711
  0
LINE
  5
230
100
AcDbEntity
  8
0
100
AcDbLine
 62
7
  6
BYLAYER
 10
8.9384219349
 20
49.0172267711
 11
8.9384219349
 21
50.4172267711
  0
LINE
  5
231
100
AcDbEntity
  8
0
100
AcDbLine
 62
7
  6
BYLAYER
 10
9.0884219349
 20
50.2672267711
 11
9.0884219349
 21
50.3672267711
  0
LINE
  5
232
100
AcDbEntity
  8
0
100
AcDbLine
 62
7
  6
BYLAYER
 10
9.3784219349
 20
26.3672267711
 11
9.3784219349
 21
21.6672267711
  0
LINE
  5
233
100
AcDbEntity
  8
0
100
AcDbLine
 62
7
  6
BYLAYER
 10
35.3384219349
 20
16.8672267711
 11
26.4384219349
 21
16.8672267711
  0
LINE
  5
234
100
AcDbEntity
  8
0
100
AcDbLine
 62
7
  6
BYLAYER
 10
20.4384219349
 20
16.8672267711
 11
7.5884219349
 21
16.8672267711
  0
LINE
  5
235
100
AcDbEntity
  8
0
100
AcDbLine
 62
7
  6
BYLAYER
 10
8.5884219349
 20
16.8833900535
 11
9.5384219349
 21
16.8833900535
  0
LINE
  5
236
100
AcDbEntity
  8
0
100
AcDbLine
 62
7
  6
BYLAYER
 10
20.4384219349
 20
17.3072267711
 11
26.4384219349
 21
17.3072267711
  0
LINE
  5
237
100
AcDbEntity
  8
0
100
AcDbLine
 62
7
  6
BYLAYER
 10
7.5884219349
 20
17.6672267711
 11
8.5884219349
 21
17.6672267711
  0
LINE
  5
238
100
AcDbEntity
  8
0
100
AcDbLine
 62
7
  6
BYLAYER
 10
9.5384219349
 20
17.6672267711
 11
20.4384219349
 21
17.6672267711
  0
LINE
  5
239
100
AcDbEntity
  8
0
100
AcDbLine
 62
7
  6
BYLAYER
 10
26.4384219349
 20
17.6672267711
 11
35.3384219349
 21
17.6672267711
  0
LINE
  5
23A
100
AcDbEntity
  8
0
100
AcDbLine
 62
7
  6
BYLAYER
 10
9.5036393262
 20
48.1166913287
 11
9.5036393262
 21
50.2672267711
  0
LINE
  5
23B
100
AcDbEntity
  8
0
100
AcDbLine
 62
7
  6
BYLAYER
 10
9.5384219349
 20
16.8833900535
 11
9.5384219349
 21
21.6672267711
  0
LINE
  5
23C
100
AcDbEntity
  8
0
100
AcDbLine
 62
7
  6
BYLAYER
 10
9.5884219349
 20
50.2672267711
 11
9.5884219349
 21
50.3672267711
  0
LINE
  5
23D
100
AcDbEntity
  8
0
100
AcDbLine
 62
7
  6
BYLAYER
 10
9.6584219349
 20
19.9672267711
 11
9.6584219349
 21
18.9672267711
  0
LINE
  5
23E
100
AcDbEntity
  8
0
100
AcDbLine
 62
7
  6
BYLAYER
 10
9.7384219349
 20
48.037430874
 11
9.7384219349
 21
50.2672267711
  0
LINE
  5
23F
100
AcDbEntity
  8
0
100
AcDbLine
 62
7
  6
BYLAYER
 10
9.8784219349
 20
19.2530839283
 11
9.8784219349
 21
26.3672267711
  0
LINE
  5
240
100
AcDbEntity
  8
0
100
AcDbLine
 62
7
  6
BYLAYER
 10
10.1384219349
 20
48.037430874
 11
10.1384219349
 21
50.4172267711
  0
LINE
  5
241
100
AcDbEntity
  8
0
100
AcDbLine
 62
7
  6
BYLAYER
 10
10.2580820474
 20
46.6572267711
 11
10.2580820474
 21
48.069694496
  0
LINE
  5
242
100
AcDbEntity
  8
0
100
AcDbLine
 62
7
  6
BYLAYER
 10
10.3732045436
 20
48.1166913287
 11
10.3732045436
 21
50.4172267711
  0
LINE
  5
243
100
AcDbEntity
  8
0
100
AcDbLine
 62
7
  6
BYLAYER
 10
10.5884219349
 20
18.9727915713
 11
10.5884219349
 21
26.3672267711
  0
LINE
  5
244
100
AcDbEntity
  8
0
100
AcDbLine
 62
7
  6
BYLAYER
 10
10.9384219349
 20
49.0172267711
 11
10.9384219349
 21
50.4172267711
  0
LINE
  5
245
100
AcDbEntity
  8
0
100
AcDbLine
 62
7
  6
BYLAYER
 10
33.3584219349
 20
18.9672267711
 11
32.3084219349
 21
18.9672267711
  0
LINE
  5
246
100
AcDbEntity
  8
0
100
AcDbLine
 62
7
  6
BYLAYER
 10
10.5426328501
 20
18.9672267711
 11
9.5384219349
 21
18.9672267711
  0
LINE
  5
247
100
AcDbEntity
  8
0
100
AcDbLine
 62
7
  6
BYLAYER
 10
35.3384219349
 20
19.0672267711
 11
34.3384219349
 21
19.0672267711
  0
LINE
  5
248
100
AcDbEntity
  8
0
100
AcDbLine
 62
7
  6
BYLAYER
 10
8.5884219349
 20
19.0672267711
 11
7.5884219349
 21
19.0672267711
  0
LINE
  5
249
100
AcDbEntity
  8
0
100
AcDbLine
 62
7
  6
BYLAYER
 10
37.0684219349
 20
19.1672267711
 11
35.5384219349
 21
19.1672267711
  0
LINE
  5
24A
100
AcDbEntity
  8
0
100
AcDbLine
 62
7
  6
BYLAYER
 10
7.3384219349
 20
19.1672267711
 11
5.8084219349
 21
19.1672267711
  0
LINE
  5
24B
100
AcDbEntity
  8
0
100
AcDbLine
 62
7
  6
BYLAYER
 10
9.6584219349
 20
19.2530839283
 11
9.8784219349
 21
19.2530839283
  0
LINE
  5
24C
100
AcDbEntity
  8
0
100
AcDbLine
 62
7
  6
BYLAYER
 10
37.0884219349
 20
19.3172267711
 11
34.3384219349
 21
19.3172267711
  0
LINE
  5
24D
100
AcDbEntity
  8
0
100
AcDbLine
 62
7
  6
BYLAYER
 10
5.7884219349
 20
19.3172267711
 11
8.5884219349
 21
19.3172267711
  0
LINE
  5
24E
100
AcDbEntity
  8
0
100
AcDbLine
 62
7
  6
BYLAYER
 10
5.7884219349
 20
19.5672267711
 11
7.5884219349
 21
19.5672267711
  0
LINE
  5
24F
100
AcDbEntity
  8
0
100
AcDbLine
 62
7
  6
BYLAYER
 10
35.3384219349
 20
19.5672267711
 11
37.0884219349
 21
19.5672267711
  0
LINE
  5
250
100
AcDbEntity
  8
0
100
AcDbLine
 62
7
  6
BYLAYER
 10
9.6584219349
 20
19.6172267711
 11
9.5384219349
 21
19.6172267711
  0
LINE
  5
251
100
AcDbEntity
  8
0
100
AcDbLine
 62
7
  6
BYLAYER
 10
7.5884219349
 20
19.9172267711
 11
8.2984219349
 21
19.9172267711
  0
LINE
  5
252
100
AcDbEntity
  8
0
100
AcDbLine
 62
7
  6
BYLAYER
 10
34.3384219349
 20
19.9172267711
 11
35.3384219349
 21
19.9172267711
  0
LINE
  5
253
100
AcDbEntity
  8
0
100
AcDbLine
 62
7
  6
BYLAYER
 10
10.5884219349
 20
19.9672267711
 11
9.8784219349
 21
19.9672267711
  0
LINE
  5
254
100
AcDbEntity
  8
0
100
AcDbLine
 62
7
  6
BYLAYER
 10
8.2984219349
 20
19.9672267711
 11
7.5884219349
 21
19.9672267711
  0
LINE
  5
255
100
AcDbEntity
  8
0
100
AcDbLine
 62
7
  6
BYLAYER
 10
9.5384219349
 20
19.9672267711
 11
9.6584219349
 21
19.9672267711
  0
LINE
  5
256
100
AcDbEntity
  8
0
100
AcDbLine
 62
7
  6
BYLAYER
 10
32.3084219349
 20
19.9672267711
 11
33.3584219349
 21
19.9672267711
  0
LINE
  5
257
100
AcDbEntity
  8
0
100
AcDbLine
 62
7
  6
BYLAYER
 10
11.1884219349
 20
50.4172267711
 11
11.1884219349
 21
50.5672267711
  0
LINE
  5
258
100
AcDbEntity
  8
0
100
AcDbLine
 62
7
  6
BYLAYER
 10
11.7384219349
 20
49.2172267711
 11
11.7384219349
 21
49.0172267711
  0
LINE
  5
259
100
AcDbEntity
  8
0
100
AcDbLine
 62
7
  6
BYLAYER
 10
12.1884219349
 20
50.5672267711
 11
12.1884219349
 21
50.4172267711
  0
LINE
  5
25A
100
AcDbEntity
  8
0
100
AcDbLine
 62
7
  6
BYLAYER
 10
8.2984219349
 20
20.3672267711
 11
7.5884219349
 21
20.3672267711
  0
LINE
  5
25B
100
AcDbEntity
  8
0
100
AcDbLine
 62
7
  6
BYLAYER
 10
35.3384219349
 20
20.5172267711
 11
39.7384219349
 21
20.5172267711
  0
LINE
  5
25C
100
AcDbEntity
  8
0
100
AcDbLine
 62
7
  6
BYLAYER
 10
34.3384219349
 20
20.7172267711
 11
33.3584219349
 21
20.7172267711
  0
LINE
  5
25D
100
AcDbEntity
  8
0
100
AcDbLine
 62
7
  6
BYLAYER
 10
32.3084219349
 20
20.7172267711
 11
26.4384219349
 21
20.7172267711
  0
LINE
  5
25E
100
AcDbEntity
  8
0
100
AcDbLine
 62
7
  6
BYLAYER
 10
20.4384219349
 20
20.7172267711
 11
10.5884219349
 21
20.7172267711
  0
LINE
  5
25F
100
AcDbEntity
  8
0
100
AcDbLine
 62
7
  6
BYLAYER
 10
9.5384219349
 20
20.7172267711
 11
8.5884219349
 21
20.7172267711
  0
LINE
  5
260
100
AcDbEntity
  8
0
100
AcDbLine
 62
7
  6
BYLAYER
 10
39.8384219349
 20
20.8442253426
 11
39.7384219349
 21
20.8442253426
  0
LINE
  5
261
100
AcDbEntity
  8
0
100
AcDbLine
 62
7
  6
BYLAYER
 10
35.3384219349
 20
21.1172267711
 11
38.7384219349
 21
21.1172267711
  0
LINE
  5
262
100
AcDbEntity
  8
0
100
AcDbLine
 62
7
  6
BYLAYER
 10
39.8384219349
 20
21.2047267711
 11
39.9384219349
 21
21.2047267711
  0
LINE
  5
263
100
AcDbEntity
  8
0
100
AcDbLine
 62
7
  6
BYLAYER
 10
34.3384219349
 20
21.2172267711
 11
33.3584219349
 21
21.2172267711
  0
LINE
  5
264
100
AcDbEntity
  8
0
100
AcDbLine
 62
7
  6
BYLAYER
 10
9.5384219349
 20
21.2172267711
 11
8.5884219349
 21
21.2172267711
  0
LINE
  5
265
100
AcDbEntity
  8
0
100
AcDbLine
 62
7
  6
BYLAYER
 10
10.5884219349
 20
21.2172267711
 11
32.3084219349
 21
21.2172267711
  0
LINE
  5
266
100
AcDbEntity
  8
0
100
AcDbLine
 62
7
  6
BYLAYER
 10
39.7384219349
 20
21.2941313118
 11
39.8384219349
 21
21.2941313118
  0
LINE
  5
267
100
AcDbEntity
  8
0
100
AcDbLine
 62
7
  6
BYLAYER
 10
8.5884219349
 20
21.4172267711
 11
9.5384219349
 21
21.4172267711
  0
LINE
  5
268
100
AcDbEntity
  8
0
100
AcDbLine
 62
7
  6
BYLAYER
 10
20.1497489142
 20
21.4172267711
 11
32.3084219349
 21
21.4172267711
  0
LINE
  5
269
100
AcDbEntity
  8
0
100
AcDbLine
 62
7
  6
BYLAYER
 10
33.3584219349
 20
21.4172267711
 11
34.3384219349
 21
21.4172267711
  0
LINE
  5
26A
100
AcDbEntity
  8
0
100
AcDbLine
 62
7
  6
BYLAYER
 10
34.3384219349
 20
21.4672267711
 11
33.3584219349
 21
21.4672267711
  0
LINE
  5
26B
100
AcDbEntity
  8
0
100
AcDbLine
 62
7
  6
BYLAYER
 10
32.3084219349
 20
21.4672267711
 11
20.1497488539
 21
21.4672267728
  0
LINE
  5
26C
100
AcDbEntity
  8
0
100
AcDbLine
 62
7
  6
BYLAYER
 10
9.5384219349
 20
21.4672267711
 11
8.5884219349
 21
21.4672267711
  0
LINE
  5
26D
100
AcDbEntity
  8
0
100
AcDbLine
 62
7
  6
BYLAYER
 10
20.1475237511
 20
21.5172267711
 11
10.5884219349
 21
21.5172267711
  0
LINE
  5
26E
100
AcDbEntity
  8
0
100
AcDbLine
 62
7
  6
BYLAYER
 10
7.5884219349
 20
21.6172267711
 11
5.7884219349
 21
21.6172267711
  0
LINE
  5
26F
100
AcDbEntity
  8
0
100
AcDbLine
 62
7
  6
BYLAYER
 10
10.5884219349
 20
21.6172267711
 11
20.0255506042
 21
21.6172267711
  0
LINE
  5
270
100
AcDbEntity
  8
0
100
AcDbLine
 62
7
  6
BYLAYER
 10
8.5884219349
 20
21.6672267711
 11
9.5384219349
 21
21.6672267711
  0
LINE
  5
271
100
AcDbEntity
  8
0
100
AcDbLine
 62
7
  6
BYLAYER
 10
10.5884219349
 20
21.6672267711
 11
32.3084219349
 21
21.6672267711
  0
LINE
  5
272
100
AcDbEntity
  8
0
100
AcDbLine
 62
7
  6
BYLAYER
 10
33.3584219349
 20
21.6672267711
 11
34.3384219349
 21
21.6672267711
  0
LINE
  5
273
100
AcDbEntity
  8
0
100
AcDbLine
 62
7
  6
BYLAYER
 10
5.7884219349
 20
21.8672267711
 11
7.5884219349
 21
21.8672267711
  0
LINE
  5
274
100
AcDbEntity
  8
0
100
AcDbLine
 62
7
  6
BYLAYER
 10
13.7384219349
 20
48.7172267711
 11
13.7384219349
 21
49.2172267711
  0
LINE
  5
275
100
AcDbEntity
  8
0
100
AcDbLine
 62
7
  6
BYLAYER
 10
13.9340775402
 20
48.7172267711
 11
13.9340775402
 21
48.4122267711
  0
LINE
  5
276
100
AcDbEntity
  8
0
100
AcDbLine
 62
7
  6
BYLAYER
 10
39.8384219349
 20
22.7865840892
 11
39.7384219349
 21
22.7865840892
  0
LINE
  5
277
100
AcDbEntity
  8
0
100
AcDbLine
 62
7
  6
BYLAYER
 10
39.8384219349
 20
23.0297267711
 11
39.9384219349
 21
23.0297267711
  0
LINE
  5
278
100
AcDbEntity
  8
0
100
AcDbLine
 62
7
  6
BYLAYER
 10
39.7384219349
 20
23.760044714
 11
39.8384219349
 21
23.760044714
  0
LINE
  5
279
100
AcDbEntity
  8
0
100
AcDbLine
 62
7
  6
BYLAYER
 10
9.7370725438
 20
46.6004296765
 11
9.5353998429
 21
47.1545208683
  0
LINE
  5
27A
100
AcDbEntity
  8
0
100
AcDbLine
 62
7
  6
BYLAYER
 10
35.3384219349
 20
25.6672267711
 11
38.2384219349
 21
25.6672267711
  0
LINE
  5
27B
100
AcDbEntity
  8
0
100
AcDbLine
 62
7
  6
BYLAYER
 10
37.0684219349
 20
25.7172267711
 11
35.5384219349
 21
25.7172267711
  0
LINE
  5
27C
100
AcDbEntity
  8
0
100
AcDbLine
 62
7
  6
BYLAYER
 10
35.5384219349
 20
26.0172267711
 11
37.0684219349
 21
26.0172267711
  0
LINE
  5
27D
100
AcDbEntity
  8
0
100
AcDbLine
 62
7
  6
BYLAYER
 10
37.0884219349
 20
26.055902049
 11
38.2384219349
 21
26.055902049
  0
LINE
  5
27E
100
AcDbEntity
  8
0
100
AcDbLine
 62
7
  6
BYLAYER
 10
35.5384219349
 20
26.0750839219
 11
37.0684219349
 21
26.0750839219
  0
LINE
  5
27F
100
AcDbEntity
  8
0
100
AcDbLine
 62
7
  6
BYLAYER
 10
5.3384219349
 20
26.0922267711
 11
5.7884219349
 21
26.0922267711
  0
LINE
  5
280
100
AcDbEntity
  8
0
100
AcDbLine
 62
7
  6
BYLAYER
 10
35.5384219349
 20
26.0922267711
 11
37.5384219349
 21
26.0922267711
  0
LINE
  5
281
100
AcDbEntity
  8
0
100
AcDbLine
 62
7
  6
BYLAYER
 10
38.2384219349
 20
26.1916279844
 11
37.5384219349
 21
26.1916279844
  0
LINE
  5
282
100
AcDbEntity
  8
0
100
AcDbLine
 62
7
  6
BYLAYER
 10
7.5884219349
 20
26.3672267711
 11
10.5884219349
 21
26.3672267711
  0
LINE
  5
283
100
AcDbEntity
  8
0
100
AcDbLine
 62
7
  6
BYLAYER
 10
19.0384219349
 20
47.9122267711
 11
19.0384219349
 21
43.5122267711
  0
LINE
  5
284
100
AcDbEntity
  8
0
100
AcDbLine
 62
7
  6
BYLAYER
 10
39.2298432911
 20
27.6172267711
 11
38.2384219349
 21
27.6172267711
  0
LINE
  5
285
100
AcDbEntity
  8
0
100
AcDbLine
 62
7
  6
BYLAYER
 10
37.6184219349
 20
28.1484676511
 11
38.7184219349
 21
28.1484676511
  0
LINE
  5
286
100
AcDbEntity
  8
0
100
AcDbLine
 62
7
  6
BYLAYER
 10
37.6184219349
 20
28.3975391816
 11
38.7184219349
 21
28.3975391816
  0
LINE
  5
287
100
AcDbEntity
  8
0
100
AcDbLine
 62
7
  6
BYLAYER
 10
20.1497489142
 20
21.4172267711
 11
20.1497488539
 21
21.4672267728
  0
LINE
  5
288
100
AcDbEntity
  8
0
100
AcDbLine
 62
7
  6
BYLAYER
 10
20.4384219349
 20
21.2172267711
 11
20.4384219349
 21
16.80726593
  0
LINE
  5
289
100
AcDbEntity
  8
0
100
AcDbLine
 62
7
  6
BYLAYER
 10
39.7384219349
 20
28.9172267711
 11
38.8884219349
 21
28.9172267711
  0
LINE
  5
28A
100
AcDbEntity
  8
0
100
AcDbLine
 62
7
  6
BYLAYER
 10
38.7184219349
 20
29.4675318024
 11
39.7184219349
 21
29.4675318024
  0
LINE
  5
28B
100
AcDbEntity
  8
0
100
AcDbLine
 62
7
  6
BYLAYER
 10
37.5384219349
 20
30.0922267711
 11
35.5384219349
 21
30.0922267711
  0
LINE
  5
28C
100
AcDbEntity
  8
0
100
AcDbLine
 62
7
  6
BYLAYER
 10
5.7884219349
 20
30.0922267711
 11
5.3384219349
 21
30.0922267711
  0
LINE
  5
28D
100
AcDbEntity
  8
0
100
AcDbLine
 62
7
  6
BYLAYER
 10
39.8384219349
 20
30.1038014048
 11
39.7184219349
 21
30.1038014048
  0
LINE
  5
28E
100
AcDbEntity
  8
0
100
AcDbLine
 62
7
  6
BYLAYER
 10
37.0684219349
 20
30.1593696204
 11
35.5384219349
 21
30.1593696204
  0
LINE
  5
28F
100
AcDbEntity
  8
0
100
AcDbLine
 62
7
  6
BYLAYER
 10
37.0684219349
 20
30.2172267711
 11
35.5384219349
 21
30.2172267711
  0
LINE
  5
290
100
AcDbEntity
  8
0
100
AcDbLine
 62
7
  6
BYLAYER
 10
5.7884219349
 20
30.4172267711
 11
5.7084219349
 21
30.4172267711
  0
LINE
  5
291
100
AcDbEntity
  8
0
100
AcDbLine
 62
7
  6
BYLAYER
 10
39.8384219349
 20
31.1590668353
 11
39.7184219349
 21
31.1590080427
  0
LINE
  5
292
100
AcDbEntity
  8
0
100
AcDbLine
 62
7
  6
BYLAYER
 10
35.5384219349
 20
30.5172267711
 11
37.0684219349
 21
30.5172267711
  0
LINE
  5
293
100
AcDbEntity
  8
0
100
AcDbLine
 62
7
  6
BYLAYER
 10
39.7184219349
 20
31.2731651613
 11
39.8384219349
 21
31.2731651613
  0
LINE
  5
294
100
AcDbEntity
  8
0
100
AcDbLine
 62
7
  6
BYLAYER
 10
40.4384219349
 20
31.436412657
 11
42.7555792224
 21
31.436412657
  0
LINE
  5
295
100
AcDbEntity
  8
0
100
AcDbLine
 62
7
  6
BYLAYER
 10
35.3384219349
 20
31.8672267711
 11
5.7884219349
 21
31.8672267711
  0
LINE
  5
296
100
AcDbEntity
  8
0
100
AcDbLine
 62
7
  6
BYLAYER
 10
5.7084219349
 20
31.9172267711
 11
5.8084219349
 21
31.9172267711
  0
LINE
  5
297
100
AcDbEntity
  8
0
100
AcDbLine
 62
7
  6
BYLAYER
 10
23.8384219349
 20
43.5122267711
 11
23.8384219349
 21
47.9122267711
  0
LINE
  5
298
100
AcDbEntity
  8
0
100
AcDbLine
 62
7
  6
BYLAYER
 10
26.4384219349
 20
16.80726593
 11
26.4384219349
 21
21.2172267711
  0
LINE
  5
299
100
AcDbEntity
  8
0
100
AcDbLine
 62
7
  6
BYLAYER
 10
37.3684219349
 20
33.9360569623
 11
37.2184219349
 21
33.9360569623
  0
LINE
  5
29A
100
AcDbEntity
  8
0
100
AcDbLine
 62
7
  6
BYLAYER
 10
37.0684219349
 20
34.2675545485
 11
37.2184219349
 21
34.2675545485
  0
LINE
  5
29B
100
AcDbEntity
  8
0
100
AcDbLine
 62
7
  6
BYLAYER
 10
43.6384219349
 20
35.1305935629
 11
40.4384219349
 21
35.1305935629
  0
LINE
  5
29C
100
AcDbEntity
  8
0
100
AcDbLine
 62
7
  6
BYLAYER
 10
43.6384219349
 20
35.5907809912
 11
40.4384219349
 21
35.5907809912
  0
LINE
  5
29D
100
AcDbEntity
  8
0
100
AcDbLine
 62
7
  6
BYLAYER
 10
33.139771326
 20
46.6004296767
 11
33.3414440268
 21
47.1545208682
  0
LINE
  5
29E
100
AcDbEntity
  8
0
100
AcDbLine
 62
7
  6
BYLAYER
 10
40.1184219349
 20
35.6772267711
 11
39.7184219349
 21
35.6772267711
  0
LINE
  5
29F
100
AcDbEntity
  8
0
100
AcDbLine
 62
7
  6
BYLAYER
 10
21.9771472823
 20
36.0122267711
 11
20.8996965874
 21
36.0122267711
  0
LINE
  5
2A0
100
AcDbEntity
  8
0
100
AcDbLine
 62
7
  6
BYLAYER
 10
37.2184219349
 20
36.1722267711
 11
37.0684219349
 21
36.1722267711
  0
LINE
  5
2A1
100
AcDbEntity
  8
0
100
AcDbLine
 62
7
  6
BYLAYER
 10
20.8996965874
 20
37.0122267711
 11
21.9771472823
 21
37.0122267711
  0
LINE
  5
2A2
100
AcDbEntity
  8
0
100
AcDbLine
 62
7
  6
BYLAYER
 10
28.9427663286
 20
48.4122267711
 11
28.9427663286
 21
48.7172267711
  0
LINE
  5
2A3
100
AcDbEntity
  8
0
100
AcDbLine
 62
7
  6
BYLAYER
 10
29.1384219349
 20
48.7172267711
 11
29.1384219349
 21
49.2172267711
  0
LINE
  5
2A4
100
AcDbEntity
  8
0
100
AcDbLine
 62
7
  6
BYLAYER
 10
37.0684219349
 20
38.5172267711
 11
35.5384219349
 21
38.5172267711
  0
LINE
  5
2A5
100
AcDbEntity
  8
0
100
AcDbLine
 62
7
  6
BYLAYER
 10
7.3384219349
 20
38.5172267711
 11
5.8084219349
 21
38.5172267711
  0
LINE
  5
2A6
100
AcDbEntity
  8
0
100
AcDbLine
 62
7
  6
BYLAYER
 10
35.5384219349
 20
38.6822267711
 11
35.3632765894
 21
38.6822267711
  0
LINE
  5
2A7
100
AcDbEntity
  8
0
100
AcDbLine
 62
7
  6
BYLAYER
 10
7.3384219349
 20
38.7672267711
 11
7.4384219349
 21
38.7672267711
  0
LINE
  5
2A8
100
AcDbEntity
  8
0
100
AcDbLine
 62
7
  6
BYLAYER
 10
35.4384219349
 20
38.7672267711
 11
35.5384219349
 21
38.7672267711
  0
LINE
  5
2A9
100
AcDbEntity
  8
0
100
AcDbLine
 62
7
  6
BYLAYER
 10
5.8084219349
 20
38.8172267711
 11
7.3384219349
 21
38.8172267711
  0
LINE
  5
2AA
100
AcDbEntity
  8
0
100
AcDbLine
 62
7
  6
BYLAYER
 10
35.5384219349
 20
38.8172267711
 11
37.0684219349
 21
38.8172267711
  0
LINE
  5
2AB
100
AcDbEntity
  8
0
100
AcDbLine
 62
7
  6
BYLAYER
 10
5.8084219349
 20
38.8750839219
 11
7.3384219349
 21
38.8750839219
  0
LINE
  5
2AC
100
AcDbEntity
  8
0
100
AcDbLine
 62
7
  6
BYLAYER
 10
35.5384219349
 20
38.8750839219
 11
37.0684219349
 21
38.8750839219
  0
LINE
  5
2AD
100
AcDbEntity
  8
0
100
AcDbLine
 62
7
  6
BYLAYER
 10
5.3384219349
 20
38.9422267711
 11
7.3384219349
 21
38.9422267711
  0
LINE
  5
2AE
100
AcDbEntity
  8
0
100
AcDbLine
 62
7
  6
BYLAYER
 10
35.5384219349
 20
38.9422267711
 11
37.5384219349
 21
38.9422267711
  0
LINE
  5
2AF
100
AcDbEntity
  8
0
100
AcDbLine
 62
7
  6
BYLAYER
 10
30.6884219349
 20
50.4172267711
 11
30.6884219349
 21
50.5672267711
  0
LINE
  5
2B0
100
AcDbEntity
  8
0
100
AcDbLine
 62
7
  6
BYLAYER
 10
31.1384219349
 20
49.0172267711
 11
31.1384219349
 21
49.2172267711
  0
LINE
  5
2B1
100
AcDbEntity
  8
0
100
AcDbLine
 62
7
  6
BYLAYER
 10
39.7184219349
 20
39.0674655963
 11
37.6184219349
 21
39.0674655963
  0
LINE
  5
2B2
100
AcDbEntity
  8
0
100
AcDbLine
 62
7
  6
BYLAYER
 10
40.1184219349
 20
39.6772267711
 11
39.7184219349
 21
39.6772267711
  0
LINE
  5
2B3
100
AcDbEntity
  8
0
100
AcDbLine
 62
7
  6
BYLAYER
 10
31.6884219349
 20
50.5672267711
 11
31.6884219349
 21
50.4172267711
  0
LINE
  5
2B4
100
AcDbEntity
  8
0
100
AcDbLine
 62
7
  6
BYLAYER
 10
31.9384219349
 20
50.4172267711
 11
31.9384219349
 21
49.0172267711
  0
LINE
  5
2B5
100
AcDbEntity
  8
0
100
AcDbLine
 62
7
  6
BYLAYER
 10
32.3084219349
 20
18.9672267711
 11
32.3084219349
 21
21.6672267711
  0
LINE
  5
2B6
100
AcDbEntity
  8
0
100
AcDbLine
 62
7
  6
BYLAYER
 10
32.5036393262
 20
48.1166913287
 11
32.5036393262
 21
50.4172267711
  0
LINE
  5
2B7
100
AcDbEntity
  8
0
100
AcDbLine
 62
7
  6
BYLAYER
 10
32.6187618224
 20
48.069694496
 11
32.6187618224
 21
46.6572267711
  0
LINE
  5
2B8
100
AcDbEntity
  8
0
100
AcDbLine
 62
7
  6
BYLAYER
 10
32.7384219349
 20
48.037430874
 11
32.7384219349
 21
50.4172267711
  0
LINE
  5
2B9
100
AcDbEntity
  8
0
100
AcDbLine
 62
7
  6
BYLAYER
 10
33.1384219349
 20
48.037430874
 11
33.1384219349
 21
50.2672267711
  0
LINE
  5
2BA
100
AcDbEntity
  8
0
100
AcDbLine
 62
7
  6
BYLAYER
 10
33.2884219349
 20
50.2672267711
 11
33.2884219349
 21
50.3672267711
  0
LINE
  5
2BB
100
AcDbEntity
  8
0
100
AcDbLine
 62
7
  6
BYLAYER
 10
20.5384219349
 20
42.0122267711
 11
22.3384219349
 21
42.0122267711
  0
LINE
  5
2BC
100
AcDbEntity
  8
0
100
AcDbLine
 62
7
  6
BYLAYER
 10
37.6184219349
 20
42.0785865408
 11
39.7184219349
 21
42.0785865408
  0
LINE
  5
2BD
100
AcDbEntity
  8
0
100
AcDbLine
 62
7
  6
BYLAYER
 10
39.7184219349
 20
42.1502858996
 11
37.5384219349
 21
42.1502858996
  0
LINE
  5
2BE
100
AcDbEntity
  8
0
100
AcDbLine
 62
7
  6
BYLAYER
 10
33.3584219349
 20
18.9672267711
 11
33.3584219349
 21
21.6672267711
  0
LINE
  5
2BF
100
AcDbEntity
  8
0
100
AcDbLine
 62
7
  6
BYLAYER
 10
33.3732045436
 20
48.1166913287
 11
33.3732045436
 21
50.2672267711
  0
LINE
  5
2C0
100
AcDbEntity
  8
0
100
AcDbLine
 62
7
  6
BYLAYER
 10
33.7884219349
 20
50.2672267711
 11
33.7884219349
 21
50.3672267711
  0
LINE
  5
2C1
100
AcDbEntity
  8
0
100
AcDbLine
 62
7
  6
BYLAYER
 10
33.9384219349
 20
49.0172267711
 11
33.9384219349
 21
50.4172267711
  0
LINE
  5
2C2
100
AcDbEntity
  8
0
100
AcDbLine
 62
7
  6
BYLAYER
 10
34.3384219349
 20
19.0672267711
 11
34.3384219349
 21
21.6672267711
  0
LINE
  5
2C3
100
AcDbEntity
  8
0
100
AcDbLine
 62
7
  6
BYLAYER
 10
34.4384219349
 20
47.3924190902
 11
34.4384219349
 21
45.7172267711
  0
LINE
  5
2C4
100
AcDbEntity
  8
0
100
AcDbLine
 62
7
  6
BYLAYER
 10
37.6184219349
 20
29.4094052185
 11
37.5384219349
 21
29.3676302248
  0
LINE
  5
2C5
100
AcDbEntity
  8
0
100
AcDbLine
 62
7
  6
BYLAYER
 10
37.5384219349
 20
28.8557477369
 11
37.6184219349
 21
28.8975227307
  0
LINE
  5
2C6
100
AcDbEntity
  8
0
100
AcDbLine
 62
7
  6
BYLAYER
 10
37.5384219349
 20
42.9422267711
 11
35.5384219349
 21
42.9422267711
  0
LINE
  5
2C7
100
AcDbEntity
  8
0
100
AcDbLine
 62
7
  6
BYLAYER
 10
7.3384219349
 20
42.9422267711
 11
5.3384219349
 21
42.9422267711
  0
LINE
  5
2C8
100
AcDbEntity
  8
0
100
AcDbLine
 62
7
  6
BYLAYER
 10
37.0684219349
 20
42.9593696204
 11
35.5384219349
 21
42.9593696204
  0
LINE
  5
2C9
100
AcDbEntity
  8
0
100
AcDbLine
 62
7
  6
BYLAYER
 10
7.3384219349
 20
42.9593696204
 11
5.8084219349
 21
42.9593696204
  0
LINE
  5
2CA
100
AcDbEntity
  8
0
100
AcDbLine
 62
7
  6
BYLAYER
 10
37.0684219349
 20
43.0172267711
 11
35.5384219349
 21
43.0172267711
  0
LINE
  5
2CB
100
AcDbEntity
  8
0
100
AcDbLine
 62
7
  6
BYLAYER
 10
7.3384219349
 20
43.0172267711
 11
5.8084219349
 21
43.0172267711
  0
LINE
  5
2CC
100
AcDbEntity
  8
0
100
AcDbLine
 62
7
  6
BYLAYER
 10
5.8084219349
 20
43.3172267711
 11
7.3384219349
 21
43.3172267711
  0
LINE
  5
2CD
100
AcDbEntity
  8
0
100
AcDbLine
 62
7
  6
BYLAYER
 10
35.5384219349
 20
43.3172267711
 11
37.0684219349
 21
43.3172267711
  0
LINE
  5
2CE
100
AcDbEntity
  8
0
100
AcDbLine
 62
7
  6
BYLAYER
 10
35.3384219349
 20
31.8672267711
 11
35.3384219349
 21
25.6672267711
  0
LINE
  5
2CF
100
AcDbEntity
  8
0
100
AcDbLine
 62
7
  6
BYLAYER
 10
35.3384219349
 20
16.8672267711
 11
35.3384219349
 21
21.1172267711
  0
LINE
  5
2D0
100
AcDbEntity
  8
0
100
AcDbLine
 62
7
  6
BYLAYER
 10
35.4384219349
 20
38.6822267711
 11
35.4384219349
 21
38.900802347
  0
LINE
  5
2D1
100
AcDbEntity
  8
0
100
AcDbLine
 62
7
  6
BYLAYER
 10
35.4384219349
 20
42.9836511953
 11
35.4384219349
 21
43.300802347
  0
LINE
  5
2D2
100
AcDbEntity
  8
0
100
AcDbLine
 62
7
  6
BYLAYER
 10
35.4384219349
 20
45.5122267711
 11
35.4384219349
 21
48.7172267711
  0
LINE
  5
2D3
100
AcDbEntity
  8
0
100
AcDbLine
 62
7
  6
BYLAYER
 10
35.5384219349
 20
48.7172267711
 11
35.5384219349
 21
42.9422267711
  0
LINE
  5
2D4
100
AcDbEntity
  8
0
100
AcDbLine
 62
7
  6
BYLAYER
 10
35.5384219349
 20
38.9422267711
 11
35.5384219349
 21
30.0922267711
  0
LINE
  5
2D5
100
AcDbEntity
  8
0
100
AcDbLine
 62
7
  6
BYLAYER
 10
35.5384219349
 20
19.3136733805
 11
35.5384219349
 21
19.1672267711
  0
LINE
  5
2D6
100
AcDbEntity
  8
0
100
AcDbLine
 62
7
  6
BYLAYER
 10
35.5384219349
 20
25.6672267711
 11
35.5384219349
 21
26.0922267711
  0
LINE
  5
2D7
100
AcDbEntity
  8
0
100
AcDbLine
 62
7
  6
BYLAYER
 10
5.7084219349
 20
44.4172267711
 11
5.8084219349
 21
44.4172267711
  0
LINE
  5
2D8
100
AcDbEntity
  8
0
100
AcDbLine
 62
7
  6
BYLAYER
 10
35.5384219349
 20
45.5122267711
 11
33.9061133885
 21
45.5122267711
  0
LINE
  5
2D9
100
AcDbEntity
  8
0
100
AcDbLine
 62
7
  6
BYLAYER
 10
8.9707304812
 20
45.5122267711
 11
7.3384219349
 21
45.5122267711
  0
LINE
  5
2DA
100
AcDbEntity
  8
0
100
AcDbLine
 62
7
  6
BYLAYER
 10
38.7384219349
 20
45.7172267711
 11
37.0684219349
 21
45.7172267711
  0
LINE
  5
2DB
100
AcDbEntity
  8
0
100
AcDbLine
 62
7
  6
BYLAYER
 10
7.4384219349
 20
45.7172267711
 11
7.3384219349
 21
45.7172267711
  0
LINE
  5
2DC
100
AcDbEntity
  8
0
100
AcDbLine
 62
7
  6
BYLAYER
 10
34.4384219349
 20
45.7172267711
 11
35.5384219349
 21
45.7172267711
  0
LINE
  5
2DD
100
AcDbEntity
  8
0
100
AcDbLine
 62
7
  6
BYLAYER
 10
32.086104239
 20
47.3481197162
 11
32.2512878319
 21
46.7316461551
  0
LINE
  5
2DE
100
AcDbEntity
  8
0
100
AcDbLine
 62
7
  6
BYLAYER
 10
37.0684219349
 20
19.1672267711
 11
37.0684219349
 21
19.3136733805
  0
LINE
  5
2DF
100
AcDbEntity
  8
0
100
AcDbLine
 62
7
  6
BYLAYER
 10
37.0684219349
 20
25.6672267711
 11
37.0684219349
 21
26.0922267711
  0
LINE
  5
2E0
100
AcDbEntity
  8
0
100
AcDbLine
 62
7
  6
BYLAYER
 10
37.0684219349
 20
30.0922267711
 11
37.0684219349
 21
38.9422267711
  0
LINE
  5
2E1
100
AcDbEntity
  8
0
100
AcDbLine
 62
7
  6
BYLAYER
 10
37.0684219349
 20
42.9422267711
 11
37.0684219349
 21
48.7172267711
  0
LINE
  5
2E2
100
AcDbEntity
  8
0
100
AcDbLine
 62
7
  6
BYLAYER
 10
37.0884219349
 20
26.0922267711
 11
37.0884219349
 21
25.6672267711
  0
LINE
  5
2E3
100
AcDbEntity
  8
0
100
AcDbLine
 62
7
  6
BYLAYER
 10
37.0884219349
 20
19.3172267711
 11
37.0884219349
 21
20.5172267711
  0
LINE
  5
2E4
100
AcDbEntity
  8
0
100
AcDbLine
 62
7
  6
BYLAYER
 10
37.2184219349
 20
33.9360569623
 11
37.2184219349
 21
38.9422267711
  0
LINE
  5
2E5
100
AcDbEntity
  8
0
100
AcDbLine
 62
7
  6
BYLAYER
 10
37.3684219349
 20
33.9360569623
 11
37.3684219349
 21
38.9422267711
  0
LINE
  5
2E6
100
AcDbEntity
  8
0
100
AcDbLine
 62
7
  6
BYLAYER
 10
37.5384219349
 20
26.0922267711
 11
37.5384219349
 21
30.0922267711
  0
LINE
  5
2E7
100
AcDbEntity
  8
0
100
AcDbLine
 62
7
  6
BYLAYER
 10
37.5384219349
 20
38.9422267711
 11
37.5384219349
 21
42.9422267711
  0
LINE
  5
2E8
100
AcDbEntity
  8
0
100
AcDbLine
 62
7
  6
BYLAYER
 10
37.6184219349
 20
28.1485279165
 11
37.6184219349
 21
42.0813719493
  0
LINE
  5
2E9
100
AcDbEntity
  8
0
100
AcDbLine
 62
7
  6
BYLAYER
 10
38.2384219349
 20
27.6172267711
 11
38.2384219349
 21
25.6672267711
  0
LINE
  5
2EA
100
AcDbEntity
  8
0
100
AcDbLine
 62
7
  6
BYLAYER
 10
7.3384219349
 20
45.9672267711
 11
7.4384219349
 21
45.9672267711
  0
LINE
  5
2EB
100
AcDbEntity
  8
0
100
AcDbLine
 62
7
  6
BYLAYER
 10
35.4384219349
 20
45.9672267711
 11
35.5384219349
 21
45.9672267711
  0
LINE
  5
2EC
100
AcDbEntity
  8
0
100
AcDbLine
 62
7
  6
BYLAYER
 10
37.0684219349
 20
45.9672267711
 11
38.7384219349
 21
45.9672267711
  0
LINE
  5
2ED
100
AcDbEntity
  8
0
100
AcDbLine
 62
7
  6
BYLAYER
 10
8.4384219349
 20
46.13229479
 11
7.4384219349
 21
46.13229479
  0
LINE
  5
2EE
100
AcDbEntity
  8
0
100
AcDbLine
 62
7
  6
BYLAYER
 10
7.4384219349
 20
46.6572267711
 11
8.4384219349
 21
46.6572267711
  0
LINE
  5
2EF
100
AcDbEntity
  8
0
100
AcDbLine
 62
7
  6
BYLAYER
 10
9.716400092
 20
46.6572267711
 11
10.2580820474
 21
46.6572267711
  0
LINE
  5
2F0
100
AcDbEntity
  8
0
100
AcDbLine
 62
7
  6
BYLAYER
 10
32.6187618224
 20
46.6572267711
 11
33.1604437778
 21
46.6572267711
  0
LINE
  5
2F1
100
AcDbEntity
  8
0
100
AcDbLine
 62
7
  6
BYLAYER
 10
34.4384219349
 20
46.6572267711
 11
35.4384219349
 21
46.6572267711
  0
LINE
  5
2F2
100
AcDbEntity
  8
0
100
AcDbLine
 62
7
  6
BYLAYER
 10
30.9327595021
 20
48.1622267712
 11
31.741049879
 21
46.7622267711
  0
LINE
  5
2F3
100
AcDbEntity
  8
0
100
AcDbLine
 62
7
  6
BYLAYER
 10
38.6384219349
 20
28.1484676511
 11
38.6384219349
 21
27.6172267711
  0
LINE
  5
2F4
100
AcDbEntity
  8
0
100
AcDbLine
 62
7
  6
BYLAYER
 10
38.7184219349
 20
28.1485279581
 11
38.7184219349
 21
29.4675318024
  0
LINE
  5
2F5
100
AcDbEntity
  8
0
100
AcDbLine
 62
7
  6
BYLAYER
 10
38.7384219349
 20
27.6172267711
 11
38.7384219349
 21
21.1172267711
  0
LINE
  5
2F6
100
AcDbEntity
  8
0
100
AcDbLine
 62
7
  6
BYLAYER
 10
38.7384219349
 20
45.7172267711
 11
38.7384219349
 21
50.4172267711
  0
LINE
  5
2F7
100
AcDbEntity
  8
0
100
AcDbLine
 62
7
  6
BYLAYER
 10
38.8884219349
 20
27.6172267711
 11
38.8884219349
 21
28.9172267711
  0
LINE
  5
2F8
100
AcDbEntity
  8
0
100
AcDbLine
 62
7
  6
BYLAYER
 10
39.2298432911
 20
28.9172267711
 11
39.2298432911
 21
27.6172267711
  0
LINE
  5
2F9
100
AcDbEntity
  8
0
100
AcDbLine
 62
7
  6
BYLAYER
 10
39.7184219349
 20
29.4675318024
 11
39.7184219349
 21
42.1502858996
  0
LINE
  5
2FA
100
AcDbEntity
  8
0
100
AcDbLine
 62
7
  6
BYLAYER
 10
39.7384219349
 20
28.9172267711
 11
39.7384219349
 21
20.5172267711
  0
LINE
  5
2FB
100
AcDbEntity
  8
0
100
AcDbLine
 62
7
  6
BYLAYER
 10
39.8384219349
 20
20.8444191988
 11
39.8384219349
 21
31.490441341
  0
LINE
  5
2FC
100
AcDbEntity
  8
0
100
AcDbLine
 62
7
  6
BYLAYER
 10
39.9384219349
 20
21.2047267711
 11
39.9384219349
 21
23.0297267711
  0
LINE
  5
2FD
100
AcDbEntity
  8
0
100
AcDbLine
 62
7
  6
BYLAYER
 10
40.1184219349
 20
35.6772267711
 11
40.1184219349
 21
39.6772267711
  0
LINE
  5
2FE
100
AcDbEntity
  8
0
100
AcDbLine
 62
7
  6
BYLAYER
 10
43.7798432911
 20
32.3058578567
 11
42.8970005786
 21
31.4905126838
  0
LINE
  5
2FF
100
AcDbEntity
  8
0
100
AcDbLine
 62
7
  6
BYLAYER
 10
37.0684219349
 20
48.2172267711
 11
35.5384219349
 21
48.2172267711
  0
LINE
  5
300
100
AcDbEntity
  8
0
100
AcDbLine
 62
7
  6
BYLAYER
 10
7.3384219349
 20
48.2172267711
 11
5.8084219349
 21
48.2172267711
  0
LINE
  5
301
100
AcDbEntity
  8
0
100
AcDbLine
 62
7
  6
BYLAYER
 10
30.4997468003
 20
48.4122267711
 11
24.3384219349
 21
48.4122267711
  0
LINE
  5
302
100
AcDbEntity
  8
0
100
AcDbLine
 62
7
  6
BYLAYER
 10
18.5384219349
 20
48.4122267711
 11
12.3770970695
 21
48.4122267711
  0
LINE
  5
303
100
AcDbEntity
  8
0
100
AcDbLine
 62
7
  6
BYLAYER
 10
38.7384219349
 20
48.4672267711
 11
37.0684219349
 21
48.4672267711
  0
LINE
  5
304
100
AcDbEntity
  8
0
100
AcDbLine
 62
7
  6
BYLAYER
 10
35.5384219349
 20
48.4672267711
 11
35.4384219349
 21
48.4672267711
  0
LINE
  5
305
100
AcDbEntity
  8
0
100
AcDbLine
 62
7
  6
BYLAYER
 10
7.4384219349
 20
48.4672267711
 11
7.3384219349
 21
48.4672267711
  0
LINE
  5
306
100
AcDbEntity
  8
0
100
AcDbLine
 62
7
  6
BYLAYER
 10
5.8084219349
 20
48.7172267711
 11
7.4384219349
 21
48.7172267711
  0
LINE
  5
307
100
AcDbEntity
  8
0
100
AcDbLine
 62
7
  6
BYLAYER
 10
11.9132637007
 20
48.7172267711
 11
14.6449831219
 21
48.7172267711
  0
LINE
  5
308
100
AcDbEntity
  8
0
100
AcDbLine
 62
7
  6
BYLAYER
 10
28.2318607479
 20
48.7172267711
 11
30.9635801691
 21
48.7172267711
  0
LINE
  5
309
100
AcDbEntity
  8
0
100
AcDbLine
 62
7
  6
BYLAYER
 10
35.4384219349
 20
48.7172267711
 11
38.7384219349
 21
48.7172267711
  0
LINE
  5
30A
100
AcDbEntity
  8
0
100
AcDbLine
 62
7
  6
BYLAYER
 10
11.7384219349
 20
49.2172267711
 11
15.8362339209
 21
49.2172267711
  0
LINE
  5
30B
100
AcDbEntity
  8
0
100
AcDbLine
 62
7
  6
BYLAYER
 10
27.0406099488
 20
49.2172267711
 11
31.1384219349
 21
49.2172267711
  0
LINE
  5
30C
100
AcDbEntity
  8
0
100
AcDbLine
 62
7
  6
BYLAYER
 10
32.8401434095
 20
46.4444532561
 11
32.4280645272
 21
46.5548694598
  0
LINE
  5
30D
100
AcDbEntity
  8
0
100
AcDbLine
 62
7
  6
BYLAYER
 10
40.4384219349
 20
35.1305935629
 11
40.4384219349
 21
31.436412657
  0
LINE
  5
30E
100
AcDbEntity
  8
0
100
AcDbLine
 62
7
  6
BYLAYER
 10
10.0367004602
 20
46.4444532561
 11
10.4487793426
 21
46.5548694598
  0
LINE
  5
30F
100
AcDbEntity
  8
0
100
AcDbLine
 62
7
  6
BYLAYER
 10
10.1384219349
 20
49.4672267711
 11
9.7384219349
 21
49.4672267711
  0
LINE
  5
310
100
AcDbEntity
  8
0
100
AcDbLine
 62
7
  6
BYLAYER
 10
32.7384219349
 20
49.4672267711
 11
33.1384219349
 21
49.4672267711
  0
LINE
  5
311
100
AcDbEntity
  8
0
100
AcDbLine
 62
7
  6
BYLAYER
 10
17.7303226913
 20
50.0122267711
 11
25.1465211784
 21
50.0122267711
  0
LINE
  5
312
100
AcDbEntity
  8
0
100
AcDbLine
 62
7
  6
BYLAYER
 10
33.9384219349
 20
50.2672267711
 11
33.1384287982
 21
50.2672267711
  0
LINE
  5
313
100
AcDbEntity
  8
0
100
AcDbLine
 62
7
  6
BYLAYER
 10
9.7384150715
 20
50.2672267711
 11
8.9384219349
 21
50.2672267711
  0
LINE
  5
314
100
AcDbEntity
  8
0
100
AcDbLine
 62
7
  6
BYLAYER
 10
10.1384219349
 20
50.3672267711
 11
9.0884219349
 21
50.3672267711
  0
LINE
  5
315
100
AcDbEntity
  8
0
100
AcDbLine
 62
7
  6
BYLAYER
 10
32.7384219349
 20
50.3672267711
 11
33.7884219349
 21
50.3672267711
  0
LINE
  5
316
100
AcDbEntity
  8
0
100
AcDbLine
 62
7
  6
BYLAYER
 10
32.7384150715
 20
50.4172267711
 11
10.1384287982
 21
50.4172267711
  0
LINE
  5
317
100
AcDbEntity
  8
0
100
AcDbLine
 62
7
  6
BYLAYER
 10
5.8384219349
 20
50.4172267711
 11
8.9384219349
 21
50.4172267711
  0
LINE
  5
318
100
AcDbEntity
  8
0
100
AcDbLine
 62
7
  6
BYLAYER
 10
33.9384219349
 20
50.4172267711
 11
38.7384219349
 21
50.4172267711
  0
LINE
  5
319
100
AcDbEntity
  8
0
100
AcDbLine
 62
7
  6
BYLAYER
 10
31.6884219349
 20
50.5672267711
 11
11.1884219349
 21
50.5672267711
  0
LINE
  5
31A
100
AcDbEntity
  8
0
100
AcDbLine
 62
7
  6
BYLAYER
 10
43.6384219349
 20
35.1305935629
 11
43.6384219349
 21
35.5907809912
  0
LINE
  5
31B
100
AcDbEntity
  8
0
100
AcDbLine
 62
7
  6
BYLAYER
 10
43.8384219349
 20
32.4364668752
 11
43.8384219349
 21
35.4060719459
  0
ARC
  5
31C
100
AcDbEntity
  8
0
100
AcDbCircle
 62
7
  6
BYLAYER
 10
19.5988980427
 20
21.4677583589
 40
0.5508511104
100
AcDbArc
 50
359.946281235
 51
5.1523083956
  0
ARC
  5
31D
100
AcDbEntity
  8
0
100
AcDbCircle
 62
7
  6
BYLAYER
 10
20.0150474285
 20
21.4698296878
 40
0.1476996562
100
AcDbArc
 50
73.5433694327
 51
78.7282166756
  0
ARC
  5
31E
100
AcDbEntity
  8
0
100
AcDbCircle
 62
7
  6
BYLAYER
 10
8.9707304812
 20
48.0122267711
 40
2.5
100
AcDbArc
 50
270.0
 51
329.9999999998
  0
ARC
  5
31F
100
AcDbEntity
  8
0
100
AcDbCircle
 62
7
  6
BYLAYER
 10
9.9384219349
 20
49.0172267711
 40
1.8
100
AcDbArc
 50
232.4281306801
 51
251.8688709301
  0
ARC
  5
320
100
AcDbEntity
  8
0
100
AcDbCircle
 62
7
  6
BYLAYER
 10
9.9384219349
 20
49.0172267711
 40
1.8
100
AcDbArc
 50
302.2463448605
 51
360.0
  0
ARC
  5
321
100
AcDbEntity
  8
0
100
AcDbCircle
 62
7
  6
BYLAYER
 10
20.5384219349
 20
43.5122267711
 40
1.5
100
AcDbArc
 50
180.0
 51
270.0
  0
ARC
  5
322
100
AcDbEntity
  8
0
100
AcDbCircle
 62
7
  6
BYLAYER
 10
9.9384219349
 20
49.0172267711
 40
1.0
100
AcDbArc
 50
180.0
 51
360.0
  0
ARC
  5
323
100
AcDbEntity
  8
0
100
AcDbCircle
 62
7
  6
BYLAYER
 10
13.9340775402
 20
48.2172267711
 40
0.5
100
AcDbArc
 50
90.0
 51
159.9738625874
  0
ARC
  5
324
100
AcDbEntity
  8
0
100
AcDbCircle
 62
7
  6
BYLAYER
 10
12.3770970695
 20
47.9122267711
 40
0.5
100
AcDbArc
 50
90.0
 51
149.9999999961
  0
ARC
  5
325
100
AcDbEntity
  8
0
100
AcDbCircle
 62
7
  6
BYLAYER
 10
18.5384219349
 20
47.9122267711
 40
0.5
100
AcDbArc
 50
0.0
 51
90.0
  0
ARC
  5
326
100
AcDbEntity
  8
0
100
AcDbCircle
 62
7
  6
BYLAYER
 10
11.9132637007
 20
48.4672267711
 40
0.25
100
AcDbArc
 50
90.0
 51
164.4373032351
  0
ARC
  5
327
100
AcDbEntity
  8
0
100
AcDbCircle
 62
7
  6
BYLAYER
 10
9.9719956989
 20
46.6859347126
 40
0.25
100
AcDbArc
 50
200.0000000171
 51
285.0
  0
ARC
  5
328
100
AcDbEntity
  8
0
100
AcDbCircle
 62
7
  6
BYLAYER
 10
8.6884219349
 20
47.3924190902
 40
0.25
100
AcDbArc
 50
52.4281306814
 51
180.0
  0
ARC
  5
329
100
AcDbEntity
  8
0
100
AcDbCircle
 62
7
  6
BYLAYER
 10
9.3004766877
 20
47.0690158324
 40
0.25
100
AcDbArc
 50
19.9999999977
 51
71.8688709292
  0
ARC
  5
32A
100
AcDbEntity
  8
0
100
AcDbCircle
 62
7
  6
BYLAYER
 10
11.0322210873
 20
47.2834149549
 40
0.25
100
AcDbArc
 50
122.2463448511
 51
164.9999999979
  0
ARC
  5
32B
100
AcDbEntity
  8
0
100
AcDbCircle
 62
7
  6
BYLAYER
 10
10.3840745813
 20
46.7963509164
 40
0.25
100
AcDbArc
 50
284.9999999996
 51
345.0
  0
ARC
  5
32C
100
AcDbEntity
  8
0
100
AcDbCircle
 62
7
  6
BYLAYER
 10
7.3384219349
 20
38.7422267711
 40
0.2
100
AcDbArc
 50
270.0
 51
90.0
  0
ARC
  5
32D
100
AcDbEntity
  8
0
100
AcDbCircle
 62
7
  6
BYLAYER
 10
7.3384219349
 20
43.1422267711
 40
0.2
100
AcDbArc
 50
270.0
 51
90.0
  0
ARC
  5
32E
100
AcDbEntity
  8
0
100
AcDbCircle
 62
7
  6
BYLAYER
 10
35.5384219349
 20
30.2922267711
 40
0.2
100
AcDbArc
 50
90.0
 51
270.0
  0
ARC
  5
32F
100
AcDbEntity
  8
0
100
AcDbCircle
 62
7
  6
BYLAYER
 10
35.5384219349
 20
25.8922267711
 40
0.2
100
AcDbArc
 50
90.0
 51
270.0
  0
ARC
  5
330
100
AcDbEntity
  8
0
100
AcDbCircle
 62
7
  6
BYLAYER
 10
21.4384219349
 20
36.5122267711
 40
14.0
100
AcDbArc
 50
58.4610478527
 51
74.6411144192
  0
ARC
  5
331
100
AcDbEntity
  8
0
100
AcDbCircle
 62
7
  6
BYLAYER
 10
21.4384219349
 20
36.5122267711
 40
14.0
100
AcDbArc
 50
105.3588855808
 51
121.5389521473
  0
ARC
  5
332
100
AcDbEntity
  8
0
100
AcDbCircle
 62
7
  6
BYLAYER
 10
21.4384219349
 20
36.5122267711
 40
13.65
100
AcDbArc
 50
80.9096857306
 51
99.0883740173
  0
ARC
  5
333
100
AcDbEntity
  8
0
100
AcDbCircle
 62
7
  6
BYLAYER
 10
21.4384219349
 20
36.5122267711
 40
5.6249992848
100
AcDbArc
 50
82.3962218481
 51
97.4006453112
  0
CIRCLE
  5
334
100
AcDbEntity
  8
0
100
AcDbCircle
 62
7
  6
BYLAYER
 10
21.4384219349
 20
36.5122267711
 40
3.975
  0
CIRCLE
  5
335
100
AcDbEntity
  8
0
100
AcDbCircle
 62
7
  6
BYLAYER
 10
21.4384219349
 20
36.5122267711
 40
3.3
  0
CIRCLE
  5
336
100
AcDbEntity
  8
0
100
AcDbCircle
 62
7
  6
BYLAYER
 10
21.4384219349
 20
36.5122267711
 40
1.0
  0
CIRCLE
  5
337
100
AcDbEntity
  8
0
100
AcDbCircle
 62
7
  6
BYLAYER
 10
21.4384219349
 20
36.5122267711
 40
0.8
  0
CIRCLE
  5
338
100
AcDbEntity
  8
0
100
AcDbCircle
 62
7
  6
BYLAYER
 10
21.4384219349
 20
36.5122267711
 40
0.485
  0
ARC
  5
339
100
AcDbEntity
  8
0
100
AcDbCircle
 62
7
  6
BYLAYER
 10
22.3384219349
 20
43.5122267711
 40
1.5
100
AcDbArc
 50
270.0
 51
360.0
  0
ARC
  5
33A
100
AcDbEntity
  8
0
100
AcDbCircle
 62
7
  6
BYLAYER
 10
24.3384219349
 20
47.9122267711
 40
0.5
100
AcDbArc
 50
90.0
 51
180.0
  0
ARC
  5
33B
100
AcDbEntity
  8
0
100
AcDbCircle
 62
7
  6
BYLAYER
 10
35.5384219349
 20
38.7422267711
 40
0.2
100
AcDbArc
 50
90.0
 51
270.0
  0
ARC
  5
33C
100
AcDbEntity
  8
0
100
AcDbCircle
 62
7
  6
BYLAYER
 10
33.9061133885
 20
48.0122267711
 40
2.5
100
AcDbArc
 50
210.0000000009
 51
270.0000000009
  0
ARC
  5
33D
100
AcDbEntity
  8
0
100
AcDbCircle
 62
7
  6
BYLAYER
 10
32.9384219349
 20
49.0172267711
 40
1.8
100
AcDbArc
 50
288.1311290697
 51
307.5718693197
  0
ARC
  5
33E
100
AcDbEntity
  8
0
100
AcDbCircle
 62
7
  6
BYLAYER
 10
32.9384219349
 20
49.0172267711
 40
1.8
100
AcDbArc
 50
180.0
 51
237.7536551415
  0
ARC
  5
33F
100
AcDbEntity
  8
0
100
AcDbCircle
 62
7
  6
BYLAYER
 10
32.9384219349
 20
49.0172267711
 40
1.0
100
AcDbArc
 50
180.0
 51
360.0
  0
ARC
  5
340
100
AcDbEntity
  8
0
100
AcDbCircle
 62
7
  6
BYLAYER
 10
28.9427663296
 20
48.2172267711
 40
0.5
100
AcDbArc
 50
20.0269291047
 51
90.0
  0
ARC
  5
341
100
AcDbEntity
  8
0
100
AcDbCircle
 62
7
  6
BYLAYER
 10
30.4997468003
 20
47.9122267711
 40
0.5
100
AcDbArc
 50
30.0000000029
 51
90.0
  0
ARC
  5
342
100
AcDbEntity
  8
0
100
AcDbCircle
 62
7
  6
BYLAYER
 10
33.576367182
 20
47.0690158324
 40
0.25
100
AcDbArc
 50
108.1311290723
 51
160.0000000068
  0
ARC
  5
343
100
AcDbEntity
  8
0
100
AcDbCircle
 62
7
  6
BYLAYER
 10
34.1884219349
 20
47.3924190902
 40
0.25
100
AcDbArc
 50
0.0
 51
127.5718693194
  0
ARC
  5
344
100
AcDbEntity
  8
0
100
AcDbCircle
 62
7
  6
BYLAYER
 10
32.9048481708
 20
46.6859347126
 40
0.25
100
AcDbArc
 50
255.0
 51
339.9999999832
  0
ARC
  5
345
100
AcDbEntity
  8
0
100
AcDbCircle
 62
7
  6
BYLAYER
 10
30.9635801691
 20
48.4672267711
 40
0.25
100
AcDbArc
 50
15.5626967649
 51
90.0
  0
ARC
  5
346
100
AcDbEntity
  8
0
100
AcDbCircle
 62
7
  6
BYLAYER
 10
31.8446227825
 20
47.2834149549
 40
0.25
100
AcDbArc
 50
15.0000000021
 51
57.7536551489
  0
ARC
  5
347
100
AcDbEntity
  8
0
100
AcDbCircle
 62
7
  6
BYLAYER
 10
32.4927692885
 20
46.7963509164
 40
0.25
100
AcDbArc
 50
195.0
 51
254.9999999998
  0
ARC
  5
348
100
AcDbEntity
  8
0
100
AcDbCircle
 62
7
  6
BYLAYER
 10
35.5384219349
 20
43.1422267711
 40
0.2
100
AcDbArc
 50
90.0
 51
270.0
  0
SPLINE
  5
349
100
AcDbEntity
  8
0
100
AcDbSpline
 62
7
  6
BYLAYER
 70
0
 71
3
 72
21
 73
17
 74
0
 42
0.0000001
 43
0.0000001
 44
0.0000000001
 40
0.0
 40
0.0
 40
0.0
 40
0.0
 40
0.0010820234
 40
0.0042089305
 40
0.0093947356
 40
0.0166343591
 40
0.0372452937
 40
0.0659784867
 40
0.102768073
 40
0.1475475865
 40
0.2002403146
 40
0.260692465
 40
0.4041166084
 40
0.5763019677
 40
0.7756520944
 40
1.0
 40
1.0
 40
1.0
 40
1.0
 10
37.6184219349
 20
42.0813719493
 30
0.0
 10
37.6184219349
 20
42.0814000713
 30
0.0
 10
37.6182533961
 20
42.081386459
 30
0.0
 10
37.6180669764
 20
42.0814352615
 30
0.0
 10
37.6176313557
 20
42.0814410491
 30
0.0
 10
37.6167927605
 20
42.0814850492
 30
0.0
 10
37.61530828
 20
42.0815172095
 30
0.0
 10
37.613076988
 20
42.0815655946
 30
0.0
 10
37.6102078804
 20
42.0816089996
 30
0.0
 10
37.6067196355
 20
42.0816541063
 30
0.0
 10
37.6026150598
 20
42.0816979521
 30
0.0
 10
37.5959472036
 20
42.0817593004
 30
0.0
 10
37.5861734684
 20
42.0818311521
 30
0.0
 10
37.5727898362
 20
42.081909445
 30
0.0
 10
37.5573028796
 20
42.0819825243
 30
0.0
 10
37.5462909763
 20
42.0820249991
 30
0.0
 10
37.5404601708
 20
42.082045546
 30
0.0
  0
SPLINE
  5
34A
100
AcDbEntity
  8
0
100
AcDbSpline
 62
7
  6
BYLAYER
 70
0
 71
3
 72
9
 73
5
 74
0
 42
0.0000001
 43
0.0000001
 44
0.0000000001
 40
0.0
 40
0.0
 40
0.0
 40
0.0
 40
0.4904046611
 40
1.0
 40
1.0
 40
1.0
 40
1.0
 10
39.7002299593
 20
31.4971322244
 30
0.0
 10
39.8196538296
 20
31.4765384363
 30
0.0
 10
40.0652792679
 20
31.4462782209
 30
0.0
 10
40.3124931369
 20
31.436412657
 30
0.0
 10
40.4384219349
 20
31.436412657
 30
0.0
  0
SPLINE
  5
34B
100
AcDbEntity
  8
0
100
AcDbSpline
 62
7
  6
BYLAYER
 70
0
 71
3
 72
11
 73
7
 74
0
 42
0.0000001
 43
0.0000001
 44
0.0000000001
 40
0.0
 40
0.0
 40
0.0
 40
0.0
 40
0.2407771769
 40
0.4870263669
 40
0.7408707268
 40
1.0
 40
1.0
 40
1.0
 40
1.0
 10
43.8384219349
 20
35.4060719459
 30
0.0
 10
43.8384219349
 20
35.4301758859
 30
0.0
 10
43.8276961062
 20
35.4795175617
 30
0.0
 10
43.782599036
 20
35.5408757431
 30
0.0
 10
43.7162160879
 20
35.5814095016
 30
0.0
 10
43.6643630832
 20
35.5907809912
 30
0.0
 10
43.6384219349
 20
35.5907809912
 30
0.0
  0
SPLINE
  5
34C
100
AcDbEntity
  8
0
100
AcDbSpline
 62
7
  6
BYLAYER
 70
0
 71
3
 72
9
 73
5
 74
0
 42
0.0000001
 43
0.0000001
 44
0.0000000001
 40
0.0
 40
0.0
 40
0.0
 40
0.0
 40
0.4948944479
 40
1.0
 40
1.0
 40
1.0
 40
1.0
 10
42.8970005786
 20
31.4905126838
 30
0.0
 10
42.8783300022
 20
31.4732695622
 30
0.0
 10
42.8333205277
 20
31.4457246235
 30
0.0
 10
42.7815184756
 20
31.436412657
 30
0.0
 10
42.7555792223
 20
31.436412657
 30
0.0
  0
SPLINE
  5
34D
100
AcDbEntity
  8
0
100
AcDbSpline
 62
7
  6
BYLAYER
 70
0
 71
3
 72
9
 73
5
 74
0
 42
0.0000001
 43
0.0000001
 44
0.0000000001
 40
0.0
 40
0.0
 40
0.0
 40
0.0
 40
0.4943359245
 40
1.0
 40
1.0
 40
1.0
 40
1.0
 10
43.8384219349
 20
32.4364668752
 30
0.0
 10
43.8384219349
 20
32.4123648054
 30
0.0
 10
43.8277527025
 20
32.3630699917
 30
0.0
 10
43.7979551941
 20
32.3225850182
 30
0.0
 10
43.7798432911
 20
32.3058578567
 30
0.0
  0
SPLINE
  5
34E
100
AcDbEntity
  8
0
100
AcDbSpline
 62
7
  6
BYLAYER
 70
0
 71
3
 72
9
 73
5
 74
0
 42
0.0000001
 43
0.0000001
 44
0.0000000001
 40
0.0
 40
0.0
 40
0.0
 40
0.0
 40
0.2431366757
 40
1.0
 40
1.0
 40
1.0
 40
1.0
 10
39.9717529524
 20
35.6762629596
 30
0.0
 10
39.9746167885
 20
35.6749050134
 30
0.0
 10
39.9864457745
 20
35.6694262182
 30
0.0
 10
39.9984644763
 20
35.6643598136
 30
0.0
 10
40.0076391982
 20
35.6607309865
 30
0.0
  0
SPLINE
  5
34F
100
AcDbEntity
  8
0
100
AcDbSpline
 62
7
  6
BYLAYER
 70
0
 71
3
 72
11
 73
7
 74
0
 42
0.0000001
 43
0.0000001
 44
0.0000000001
 40
0.0
 40
0.0
 40
0.0
 40
0.0
 40
0.2195984569
 40
0.4646434701
 40
0.7279508556
 40
1.0
 40
1.0
 40
1.0
 40
1.0
 10
40.0076391982
 20
35.6607309865
 30
0.0
 10
40.0374973938
 20
35.6489213391
 30
0.0
 10
40.1024710707
 20
35.6284202113
 30
0.0
 10
40.2068655674
 20
35.6069705738
 30
0.0
 10
40.3203339077
 20
35.5937683748
 30
0.0
 10
40.3986439188
 20
35.5907809912
 30
0.0
 10
40.4384219349
 20
35.5907809912
 30
0.0
  0
SPLINE
  5
350
100
AcDbEntity
  8
0
100
AcDbSpline
 62
7
  6
BYLAYER
 70
0
 71
3
 72
11
 73
7
 74
0
 42
0.0000001
 43
0.0000001
 44
0.0000000001
 40
0.0
 40
0.0
 40
0.0
 40
0.0
 40
0.2591292732
 40
0.5129736331
 40
0.7592228231
 40
1.0
 40
1.0
 40
1.0
 40
1.0
 10
43.6384219349
 20
35.1305935629
 30
0.0
 10
43.6643630832
 20
35.1305935629
 30
0.0
 10
43.7162160879
 20
35.1212220734
 30
0.0
 10
43.782599036
 20
35.0806883148
 30
0.0
 10
43.8276961062
 20
35.0193301334
 30
0.0
 10
43.8384219349
 20
34.9699884576
 30
0.0
 10
43.8384219349
 20
34.9458845176
 30
0.0
  0
SPLINE
  5
351
100
AcDbEntity
  8
0
100
AcDbSpline
 62
7
  6
BYLAYER
 70
0
 71
3
 72
9
 73
5
 74
0
 42
0.0000001
 43
0.0000001
 44
0.0000000001
 40
0.0
 40
0.0
 40
0.0
 40
0.0
 40
0.5092109665
 40
1.0
 40
1.0
 40
1.0
 40
1.0
 10
40.4384219349
 20
35.1305935629
 30
0.0
 10
40.314919168
 20
35.1305935629
 30
0.0
 10
40.0722884352
 20
35.1400937109
 30
0.0
 10
39.8311581564
 20
35.1692060084
 30
0.0
 10
39.7137810321
 20
35.1890020691
 30
0.0
  0
SPLINE
  5
352
100
AcDbEntity
  8
0
100
AcDbSpline
 62
7
  6
BYLAYER
 70
0
 71
3
 72
9
 73
5
 74
0
 42
0.0000001
 43
0.0000001
 44
0.0000000001
 40
0.0
 40
0.0
 40
0.0
 40
0.0
 40
0.255776982
 40
1.0
 40
1.0
 40
1.0
 40
1.0
 10
20.0568891895
 20
21.6114787452
 30
0.0
 10
20.061127156
 20
21.6102294147
 30
0.0
 10
20.0774743105
 20
21.6046298623
 30
0.0
 10
20.092899547
 20
21.5962794546
 30
0.0
 10
20.1032618266
 20
21.5886708123
 30
0.0
  0
SPLINE
  5
353
100
AcDbEntity
  8
0
100
AcDbSpline
 62
7
  6
BYLAYER
 70
0
 71
3
 72
10
 73
6
 74
0
 42
0.0000001
 43
0.0000001
 44
0.0000000001
 40
0.0
 40
0.0
 40
0.0
 40
0.0
 40
0.4909896705
 40
0.7421951922
 40
1.0
 40
1.0
 40
1.0
 40
1.0
 10
20.1032618266
 20
21.5886708123
 30
0.0
 10
20.1146444387
 20
21.5803129774
 30
0.0
 10
20.1301691204
 20
21.5647937152
 30
0.0
 10
20.1434743246
 20
21.5390726512
 30
0.0
 10
20.1468542187
 20
21.5246094146
 30
0.0
 10
20.1475237511
 20
21.5172248947
 30
0.0
  0
SPLINE
  5
354
100
AcDbEntity
  8
0
100
AcDbSpline
 62
7
  6
BYLAYER
 70
0
 71
3
 72
9
 73
5
 74
0
 42
0.0000001
 43
0.0000001
 44
0.0000000001
 40
0.0
 40
0.0
 40
0.0
 40
0.0
 40
0.2519695223
 40
1.0
 40
1.0
 40
1.0
 40
1.0
 10
20.0189285408
 20
21.6172267711
 30
0.0
 10
20.0210401797
 20
21.6172267711
 30
0.0
 10
20.029420048
 20
21.6169946455
 30
0.0
 10
20.0377685744
 20
21.6159020557
 30
0.0
 10
20.0439172749
 20
21.6146803709
 30
0.0
  0
SPLINE
  5
355
100
AcDbEntity
  8
0
100
AcDbSpline
 62
7
  6
BYLAYER
 70
0
 71
3
 72
9
 73
5
 74
0
 42
0.0000001
 43
0.0000001
 44
0.0000000001
 40
0.0
 40
0.0
 40
0.0
 40
0.0
 40
0.2435525056
 40
1.0
 40
1.0
 40
1.0
 40
1.0
 10
10.5426257594
 20
18.9672267711
 30
0.0
 10
10.5463758993
 20
18.9672267534
 30
0.0
 10
10.561772256
 20
18.9677148221
 30
0.0
 10
10.5770870324
 20
18.970112411
 30
0.0
 10
10.588421881
 20
18.9727930921
 30
0.0
  0
SPLINE
  5
356
100
AcDbEntity
  8
0
100
AcDbSpline
 62
7
  6
BYLAYER
 70
0
 71
3
 72
16
 73
12
 74
0
 42
0.0000001
 43
0.0000001
 44
0.0000000001
 40
0.0
 40
0.0
 40
0.0
 40
0.0
 40
0.1806417157
 40
0.3548413671
 40
0.5150461053
 40
0.6565193642
 40
0.7757576313
 40
0.8712570735
 40
0.9102886217
 40
0.9440940934
 40
1.0
 40
1.0
 40
1.0
 40
1.0
 10
20.1497489109
 20
21.4172268198
 30
0.0
 10
20.1497489109
 20
21.4039176598
 30
0.0
 10
20.1506834967
 20
21.3777658928
 30
0.0
 10
20.1546647083
 20
21.339994633
 30
0.0
 10
20.1610632909
 20
21.305484124
 30
0.0
 10
20.1693713326
 20
21.2755486378
 30
0.0
 10
20.1791716398
 20
21.2511475258
 30
0.0
 10
20.188706569
 20
21.2349017136
 30
0.0
 10
20.197023328
 20
21.2256194652
 30
0.0
 10
20.2044048743
 20
21.2196661678
 30
0.0
 10
20.2110158492
 20
21.2172267711
 30
0.0
 10
20.215134835
 20
21.2172267711
 30
0.0
  0
ELLIPSE
  5
357
100
AcDbEntity
  8
0
100
AcDbEllipse
 62
7
  6
BYLAYER
 10
37.3684219349
 20
33.9307647567
 30
0.0
 11
0.25
 21
0.0
 31
0.0
 40
0.0211688225
 41
0.0
 42
1.5707963268
  0
ELLIPSE
  5
358
100
AcDbEntity
  8
0
100
AcDbEllipse
 62
7
  6
BYLAYER
 10
21.4384219349
 20
47.5321134064
 30
0.0
 11
15.0
 21
0.0
 31
0.0
 40
0.0874886635
 41
-2.4118649974
 42
-2.3813221085
  0
ELLIPSE
  5
359
100
AcDbEntity
  8
0
100
AcDbEllipse
 62
7
  6
BYLAYER
 10
21.4384219349
 20
47.5321134064
 30
0.0
 11
15.0
 21
0.0
 31
0.0
 40
0.0874886635
 41
-0.7602705451
 42
-0.7297276562
  0
ELLIPSE
  5
35A
100
AcDbEntity
  8
0
100
AcDbEllipse
 62
7
  6
BYLAYER
 10
39.3384219349
 20
21.1172267711
 30
0.0
 11
-0.0
 21
0.6
 31
0.0
 40
1.0
 41
1.5707963268
 42
3.1415926536
  0
ENDSEC
  0
SECTION
  2
OBJECTS
  0
DICTIONARY
  5
C
100
AcDbDictionary
280
0
281
1
  3
ACAD_GROUP
350
D
  3
ACAD_MLINESTYLE
350
17
  3
ACAD_LAYOUT
350
1A
  3
ACAD_PLOTSETTINGS
350
19
  3
ACAD_PLOTSTYLENAME
350
E
  0
DICTIONARY
  5
D
102
{ACAD_REACTORS
330
C
102
}
100
AcDbDictionary
280
0
281
1
  0
ACDBDICTIONARYWDFLT
  5
E
102
{ACAD_REACTORS
330
C
102
}
100
AcDbDictionary
281
1
  3
Normal
350
F
100
AcDbDictionaryWithDefault
340
F
  0
DICTIONARY
  5
17
102
{ACAD_REACTORS
330
C
102
}
100
AcDbDictionary
280
0
281
1
  3
Standard
350
18
  0
DICTIONARY
  5
19
102
{ACAD_REACTORS
330
C
102
}
100
AcDbDictionary
281
1
  0
DICTIONARY
  5
1A
102
{ACAD_REACTORS
330
C
102
}
100
AcDbDictionary
281
1
  3
Model
350
35B
  3
Layout1
350
35C
  0
ACDBPLACEHOLDER
  5
F
102
{ACAD_REACTORS
330
E
102
}
  0
MLINESTYLE
  5
18
102
{ACAD_REACTORS
330
17
102
}
100
AcDbMlineStyle
  2
STANDARD
 70
0
  3

 62
256
 51
90.0
 52
90.0
 71
2
 49
0.5
 62
256
  6
BYLAYER
 49
-0.5
 62
256
  6
BYLAYER
  0
LAYOUT
  5
35B
102
{ACAD_REACTORS
330
1A
102
}
100
AcDbPlotSettings
  1

  2
none_device
  4

  6

 40
0.0
 41
0.0
 42
0.0
 43
0.0
 44
210.0
 45
297.0
 46
0.0
 47
0.0
 48
0.0
 49
0.0
140
0.0
141
0.0
142
1.0
143
1.0
 70
1024
 72
1
 73
0
 74
0
  7

 75
0
147
1.0
148
0.0
149
0.0
100
AcDbLayout
  1
Model
 70
0
 71
0
 10
0.0
 20
0.0
 11
210.0
 21
297.0
 12
0.0
 22
0.0
 32
0.0
 14
0.0
 24
0.0
 34
0.0
 15
0.0
 25
0.0
 35
0.0
146
0.0
 13
0.0
 23
0.0
 33
0.0
 16
1.0
 26
0.0
 36
0.0
 17
0.0
 27
1.0
 37
0.0
 76
0
330
210
345
0
346
0
  0
LAYOUT
  5
35C
102
{ACAD_REACTORS
330
1A
102
}
100
AcDbPlotSettings
  1

  2
none_device
  4

  6

 40
0.0
 41
0.0
 42
0.0
 43
0.0
 44
210.0
 45
297.0
 46
0.0
 47
0.0
 48
0.0
 49
0.0
140
0.0
141
0.0
142
1.0
143
1.0
 70
0
 72
1
 73
0
 74
0
  7

 75
0
147
1.0
148
0.0
149
0.0
100
AcDbLayout
  1
Layout1
 70
0
 71
1
 10
0.0
 20
0.0
 11
210.0
 21
297.0
 12
0.0
 22
0.0
 32
0.0
 14
0.0
 24
0.0
 34
0.0
 15
0.0
 25
0.0
 35
0.0
146
0.0
 13
0.0
 23
0.0
 33
0.0
 16
1.0
 26
0.0
 36
0.0
 17
0.0
 27
1.0
 37
0.0
 76
0
330
211
345
0
346
0
  0
ENDSEC
  0
EOF
