999
DXF file: C:\Users\sesa63760\Dev\_Creo\CAD\MCADPD0004352_3D-CAD\drw0001_5.dxf
999
Pro/ENGINEER 2019471 by Parametric Technology Corporation
  0
SECTION
  2
HEADER
  9
$ACADVER
  1
AC1024
  9
$DWGCODEPAGE
  3
ANSI_1252
  9
$EXTMAX
 10
108.3615897537
 20
153.254248366
 30
0.0
  9
$EXTMIN
 10
0.0
 20
0.0
 30
0.0
  9
$LIMMIN
 10
0.0
 20
0.0
  9
$LIMMAX
 10
108.3615897537
 20
153.254248366
  9
$VIEWCTR
 10
54.1807948769
 20
76.627124183
  9
$VIEWSIZE
 40
153.254248366
  9
$CLAYER
  8
0
  9
$LTSCALE
 40
9.9899065602
  9
$CELTYPE
  6
BYLAYER
  9
$DIMSCALE
 40
1.0
  9
$DIMASZ
 40
1.2900189256
  9
$DIMEXO
 40
1.0
  9
$DIMDLI
 40
6.9021172597
  9
$DIMEXE
 40
1.0
  9
$DIMCEN
 40
1.6347119826
  9
$DIMLFAC
 40
1.0
  9
$DIMBLK
  1
_FILLED
  9
$DIMALT
 70
0
  9
$DIMALTF
 40
0.0393700787
  9
$DIMTXT
 40
1.8060264959
  9
$DIMTOL
 70
1
  9
$DIMLIM
 70
0
  9
$DIMTFAC
 40
1.0
  9
$DIMTP
 40
0.01
  9
$DIMTM
 40
0.01
  9
$DIMGAP
 40
0.625
  9
$DIMDSEP
 70
46
  9
$AUNITS
 70
0
  9
$PDMODE
 70
3
  9
$PDSIZE
 40
0.3125
  9
$HANDSEED
  5
24A
  9
$TILEMODE
 70
1
  9
$MEASUREMENT
 70
1
  9
$INSUNITS
 70
4
  0
ENDSEC
  0
SECTION
  2
CLASSES
  0
CLASS
  1
ACDBDICTIONARYWDFLT
  2
AcDbDictionaryWithDefault
  3
AutoCAD 2000
 90
0
 91
1
280
0
281
0
  0
CLASS
  1
ACDBPLACEHOLDER
  2
AcDbPlaceHolder
  3
AutoCAD 2000
 90
0
 91
1
280
0
281
0
  0
CLASS
  1
LAYOUT
  2
AcDbLayout
  3
AutoCAD 2000
 90
0
 91
0
280
0
281
0
  0
ENDSEC
  0
SECTION
  2
TABLES
  0
TABLE
  2
VPORT
  5
8
100
AcDbSymbolTable
 70
2
  0
VPORT
  5
1F4
100
AcDbSymbolTableRecord
100
AcDbViewportTableRecord
  2
*ACTIVE
 70
0
 10
0.0
 20
0.0
 11
1.0
 21
1.0
 12
54.1807948769
 22
76.627124183
 13
0.0
 23
0.0
 14
1.0
 24
1.0
 15
0.0
 25
0.0
 16
0.0
 26
0.0
 36
1.0
 17
0.0
 27
0.0
 37
0.0
 40
153.254248366
 41
0.7070707071
 42
50.0
 43
0.0
 44
0.0
 50
0.0
 51
0.0
 71
0
 72
100
 73
1
 74
1
 75
0
 76
0
 77
0
 78
0
  0
ENDTAB
  0
TABLE
  2
LTYPE
  5
5
100
AcDbSymbolTable
 70
6
  0
LTYPE
  5
14
100
AcDbSymbolTableRecord
100
AcDbLinetypeTableRecord
  2
BYBLOCK
 70
0
  3

 72
65
 73
0
 40
0.0
  0
LTYPE
  5
15
100
AcDbSymbolTableRecord
100
AcDbLinetypeTableRecord
  2
BYLAYER
 70
0
  3

 72
65
 73
0
 40
0.0
  0
LTYPE
  5
16
100
AcDbSymbolTableRecord
100
AcDbLinetypeTableRecord
  2
CONTINUOUS
 70
64
  3
Solid line
 72
65
 73
0
 40
0.0
  0
LTYPE
  5
1F5
100
AcDbSymbolTableRecord
100
AcDbLinetypeTableRecord
  2
CENTER
 70
64
  3
____ _ ____ _ ____ _ ____ _ ____ _ ____ _ ____
 72
65
 73
4
 40
0.6
 49
0.375
 74
0
 49
-0.075
 74
0
 49
0.075
 74
0
 49
-0.075
 74
0
  0
LTYPE
  5
1F6
100
AcDbSymbolTableRecord
100
AcDbLinetypeTableRecord
  2
HIDDEN
 70
64
  3
- - - - - - - - - - - - - - - - - - - -
 72
65
 73
2
 40
0.2
 49
0.1
 74
0
 49
-0.1
 74
0
  0
LTYPE
  5
1F7
100
AcDbSymbolTableRecord
100
AcDbLinetypeTableRecord
  2
PHANTOM
 70
64
  3
_____ _ _ _____ _ _ _____ _ _ _____
 72
65
 73
6
 40
0.8
 49
0.45
 74
0
 49
-0.05
 74
0
 49
0.1
 74
0
 49
-0.05
 74
0
 49
0.1
 74
0
 49
-0.05
 74
0
  0
LTYPE
  5
1F8
100
AcDbSymbolTableRecord
100
AcDbLinetypeTableRecord
  2
DOT
 70
64
  3
. . . . . . . . . . . . . . . . . . . .
 72
65
 73
2
 40
0.2
 49
0.1
 74
0
 49
-0.1
 74
0
  0
LTYPE
  5
1F9
100
AcDbSymbolTableRecord
100
AcDbLinetypeTableRecord
  2
DASHED
 70
64
  3
- - - - - - - - - - - - - - - - - - - -
 72
65
 73
2
 40
0.2
 49
0.1
 74
0
 49
-0.1
 74
0
  0
ENDTAB
  0
TABLE
  2
LAYER
  5
2
100
AcDbSymbolTable
 70
36
  0
LAYER
  5
10
100
AcDbSymbolTableRecord
100
AcDbLayerTableRecord
  2
0
 70
0
 62
7
  6
CONTINUOUS
370
-3
390
F
  0
LAYER
  5
1FA
100
AcDbSymbolTableRecord
100
AcDbLayerTableRecord
  2
DEFAULT_1
 70
0
 62
7
  6
CENTER
370
-3
390
F
  0
LAYER
  5
1FB
100
AcDbSymbolTableRecord
100
AcDbLayerTableRecord
  2
DEFAULT_2
 70
0
 62
7
  6
HIDDEN
370
-3
390
F
  0
LAYER
  5
1FC
100
AcDbSymbolTableRecord
100
AcDbLayerTableRecord
  2
DEFAULT_3
 70
0
 62
7
  6
PHANTOM
370
-3
390
F
  0
LAYER
  5
1FD
100
AcDbSymbolTableRecord
100
AcDbLayerTableRecord
  2
00_COMPONENTS
 70
0
 62
7
  6
CONTINUOUS
370
-3
390
F
  0
LAYER
  5
1FE
100
AcDbSymbolTableRecord
100
AcDbLayerTableRecord
  2
01_1_DEFAULT_DATUMS
 70
0
 62
7
  6
CONTINUOUS
370
-3
390
F
  0
LAYER
  5
1FF
100
AcDbSymbolTableRecord
100
AcDbLayerTableRecord
  2
01_PLANES
 70
0
 62
7
  6
CONTINUOUS
370
-3
390
F
  0
LAYER
  5
200
100
AcDbSymbolTableRecord
100
AcDbLayerTableRecord
  2
02_COORD_SYS
 70
0
 62
7
  6
CONTINUOUS
370
-3
390
F
  0
LAYER
  5
201
100
AcDbSymbolTableRecord
100
AcDbLayerTableRecord
  2
03_AXES
 70
0
 62
7
  6
CONTINUOUS
370
-3
390
F
  0
LAYER
  5
202
100
AcDbSymbolTableRecord
100
AcDbLayerTableRecord
  2
04_POINTS
 70
0
 62
7
  6
CONTINUOUS
370
-3
390
F
  0
LAYER
  5
203
100
AcDbSymbolTableRecord
100
AcDbLayerTableRecord
  2
05_CURVES
 70
0
 62
7
  6
CONTINUOUS
370
-3
390
F
  0
LAYER
  5
204
100
AcDbSymbolTableRecord
100
AcDbLayerTableRecord
  2
06_SURFS
 70
0
 62
7
  6
CONTINUOUS
370
-3
390
F
  0
LAYER
  5
205
100
AcDbSymbolTableRecord
100
AcDbLayerTableRecord
  2
07_COSMETICS
 70
0
 62
7
  6
CONTINUOUS
370
-3
390
F
  0
LAYER
  5
206
100
AcDbSymbolTableRecord
100
AcDbLayerTableRecord
  2
10_NOTES
 70
0
 62
7
  6
CONTINUOUS
370
-3
390
F
  0
LAYER
  5
207
100
AcDbSymbolTableRecord
100
AcDbLayerTableRecord
  2
11_NOTES_PUB
 70
0
 62
7
  6
CONTINUOUS
370
-3
390
F
  0
LAYER
  5
208
100
AcDbSymbolTableRecord
100
AcDbLayerTableRecord
  2
13_REF_GTOL
 70
0
 62
7
  6
CONTINUOUS
370
-3
390
F
  0
LAYER
  5
209
100
AcDbSymbolTableRecord
100
AcDbLayerTableRecord
  2
16_MISC
 70
0
 62
7
  6
CONTINUOUS
370
-3
390
F
  0
LAYER
  5
20A
100
AcDbSymbolTableRecord
100
AcDbLayerTableRecord
  2
17_NO_PRINT
 70
0
 62
7
  6
CONTINUOUS
370
-3
390
F
  0
LAYER
  5
20B
100
AcDbSymbolTableRecord
100
AcDbLayerTableRecord
  2
18_DATUM_CAMS_JOINTS
 70
0
 62
7
  6
CONTINUOUS
370
-3
390
F
  0
LAYER
  5
20C
100
AcDbSymbolTableRecord
100
AcDbLayerTableRecord
  2
19_DATUM_FUNCTIONAL
 70
0
 62
7
  6
CONTINUOUS
370
-3
390
F
  0
LAYER
  5
20D
100
AcDbSymbolTableRecord
100
AcDbLayerTableRecord
  2
20_DATUM_KINEMATIC_SCHEME
 70
0
 62
7
  6
CONTINUOUS
370
-3
390
F
  0
ENDTAB
  0
TABLE
  2
STYLE
  5
3
100
AcDbSymbolTable
 70
1
  0
STYLE
  5
11
100
AcDbSymbolTableRecord
100
AcDbTextStyleTableRecord
  2
STANDARD
 70
0
 40
0.0
 41
1.0
 50
0.0
 71
0
 42
0.2
  3
ARIAL.TTF
  4

  0
STYLE
  5
20E
100
AcDbSymbolTableRecord
100
AcDbTextStyleTableRecord
  2
TEXTSTYLE_1
 70
0
 40
0.0
 41
0.8
 50
0.0
 71
0
 42
0.2
  3
gdt
  4

  0
ENDTAB
  0
TABLE
  2
VIEW
  5
6
100
AcDbSymbolTable
 70
0
  0
ENDTAB
  0
TABLE
  2
UCS
  5
7
100
AcDbSymbolTable
 70
0
  0
ENDTAB
  0
TABLE
  2
APPID
  5
9
100
AcDbSymbolTable
 70
1
  0
APPID
  5
20F
100
AcDbSymbolTableRecord
100
AcDbRegAppTableRecord
  2
ACAD
 70
0
  0
ENDTAB
  0
TABLE
  2
BLOCK_RECORD
  5
1
100
AcDbSymbolTable
 70
0
  0
BLOCK_RECORD
  5
210
100
AcDbSymbolTableRecord
100
AcDbBlockTableRecord
  2
*Model_Space
  0
BLOCK_RECORD
  5
211
100
AcDbSymbolTableRecord
100
AcDbBlockTableRecord
  2
*Paper_Space
  0
BLOCK_RECORD
  5
212
100
AcDbSymbolTableRecord
100
AcDbBlockTableRecord
  2
_FILLED
  0
ENDTAB
  0
TABLE
  2
DIMSTYLE
  5
A
100
AcDbSymbolTable
 70
1
100
AcDbDimStyleTable
 71
0
  0
DIMSTYLE
105
213
100
AcDbSymbolTableRecord
100
AcDbDimStyleTableRecord
  2
STANDARD
 70
0
  3

  4

 40
1.0
 41
1.2900189256
 42
1.0
 43
0.38
 44
1.0
 45
0.0
 46
0.0
 47
0.01
 48
0.01
140
1.8060264959
141
0.09
142
0.0
143
25.4
144
1.0
145
0.0
146
1.0
147
0.625
 71
1
 72
0
 73
0
 74
0
 75
0
 76
0
 77
1
 78
8
 79
2
170
0
171
1
172
0
173
0
174
0
175
0
176
0
177
0
178
0
270
2
179
2
271
2
272
2
273
2
274
2
275
0
280
0
281
0
282
0
283
1
284
8
285
0
286
0
287
3
288
0
340
11
278
46
341
212
342
212
343
212
344
212
  0
ENDTAB
  0
ENDSEC
  0
SECTION
  2
BLOCKS
  0
BLOCK
  5
20
100
AcDbEntity
  8
0
100
AcDbBlockBegin
  2
*Model_Space
 70
0
 10
0.0
 20
0.0
 30
0.0
  3
*Model_Space
  1

  0
ENDBLK
  5
21
100
AcDbEntity
  8
0
100
AcDbBlockEnd
  0
BLOCK
  5
1C
100
AcDbEntity
  8
0
100
AcDbBlockBegin
  2
*Paper_Space
 70
0
 10
0.0
 20
0.0
 30
0.0
  3
*Paper_Space
  1

  0
ENDBLK
  5
1D
100
AcDbEntity
  8
0
100
AcDbBlockEnd
  0
BLOCK
  5
214
100
AcDbEntity
  8
0
100
AcDbBlockBegin
  2
_FILLED
 70
64
 10
0.0
 20
0.0
  3
_FILLED
  1

  0
SOLID
  5
215
100
AcDbEntity
  8
0
  6
BYBLOCK
 62
0
100
AcDbTrace
 10
0.0
 20
0.0
 11
-1.0
 21
0.25
 12
-1.0
 22
-0.25
 13
-1.0
 23
-0.25
  0
ENDBLK
  5
216
100
AcDbEntity
  8
0
  6
BYBLOCK
 62
0
100
AcDbBlockEnd
  0
ENDSEC
  0
SECTION
  2
ENTITIES
  0
LINE
  5
217
100
AcDbEntity
  8
0
100
AcDbLine
 62
7
  6
BYLAYER
 10
12.6314484716
 20
111.6647058824
 11
12.6314484716
 21
115.5647058824
  0
LINE
  5
218
100
AcDbEntity
  8
0
100
AcDbLine
 62
7
  6
BYLAYER
 10
16.7314484716
 20
85.7647058824
 11
16.7314484716
 21
111.6647058824
  0
LINE
  5
219
100
AcDbEntity
  8
0
100
AcDbLine
 62
7
  6
BYLAYER
 10
98.7314484716
 20
37.7647058824
 11
80.1814484716
 21
37.7647058824
  0
LINE
  5
21A
100
AcDbEntity
  8
0
100
AcDbLine
 62
7
  6
BYLAYER
 10
19.0314484716
 20
37.7647058824
 11
44.2314484716
 21
37.7647058824
  0
LINE
  5
21B
100
AcDbEntity
  8
0
100
AcDbLine
 62
7
  6
BYLAYER
 10
18.9314484716
 20
111.6647058824
 11
18.9314484716
 21
75.7647058824
  0
LINE
  5
21C
100
AcDbEntity
  8
0
100
AcDbLine
 62
7
  6
BYLAYER
 10
19.0314484716
 20
37.7647058824
 11
19.0314484716
 21
45.4647058824
  0
LINE
  5
21D
100
AcDbEntity
  8
0
100
AcDbLine
 62
7
  6
BYLAYER
 10
20.5814484716
 20
114.5485841461
 11
20.5814484716
 21
115.8647058824
  0
LINE
  5
21E
100
AcDbEntity
  8
0
100
AcDbLine
 62
7
  6
BYLAYER
 10
78.1314484716
 20
41.9647058824
 11
78.7314484716
 21
41.9647058824
  0
LINE
  5
21F
100
AcDbEntity
  8
0
100
AcDbLine
 62
7
  6
BYLAYER
 10
41.5314484716
 20
41.9647058824
 11
45.4314484716
 21
41.3147058824
  0
LINE
  5
220
100
AcDbEntity
  8
0
100
AcDbLine
 62
7
  6
BYLAYER
 10
22.9314484716
 20
45.9647058824
 11
22.9314484716
 21
75.2647058824
  0
LINE
  5
221
100
AcDbEntity
  8
0
100
AcDbLine
 62
7
  6
BYLAYER
 10
78.7314484716
 20
43.2647058824
 11
41.5314484716
 21
43.2647058824
  0
LINE
  5
222
100
AcDbEntity
  8
0
100
AcDbLine
 62
7
  6
BYLAYER
 10
19.5314484716
 20
45.9647058824
 11
40.9314484716
 21
45.9647058824
  0
LINE
  5
223
100
AcDbEntity
  8
0
100
AcDbLine
 62
7
  6
BYLAYER
 10
50.5814484716
 20
46.5647058824
 11
79.7314484716
 21
46.5647058824
  0
LINE
  5
224
100
AcDbEntity
  8
0
100
AcDbLine
 62
7
  6
BYLAYER
 10
79.7314484716
 20
46.8647058824
 11
98.2314484716
 21
46.8647058824
  0
LINE
  5
225
100
AcDbEntity
  8
0
100
AcDbLine
 62
7
  6
BYLAYER
 10
38.9314484716
 20
87.2647058824
 11
38.9314484716
 21
75.2647058824
  0
LINE
  5
226
100
AcDbEntity
  8
0
100
AcDbLine
 62
7
  6
BYLAYER
 10
40.9314484716
 20
75.2647058824
 11
40.9314484716
 21
45.9647058824
  0
LINE
  5
227
100
AcDbEntity
  8
0
100
AcDbLine
 62
7
  6
BYLAYER
 10
41.5314484716
 20
43.2647058824
 11
41.5314484716
 21
37.7647058824
  0
LINE
  5
228
100
AcDbEntity
  8
0
100
AcDbLine
 62
7
  6
BYLAYER
 10
45.4314484716
 20
41.3147058824
 11
45.4314484716
 21
38.9647058824
  0
LINE
  5
229
100
AcDbEntity
  8
0
100
AcDbLine
 62
7
  6
BYLAYER
 10
46.4314484716
 20
93.7647058824
 11
46.4314484716
 21
114.5485841461
  0
LINE
  5
22A
100
AcDbEntity
  8
0
100
AcDbLine
 62
7
  6
BYLAYER
 10
50.5814484716
 20
91.5647058824
 11
50.5814484716
 21
46.5647058824
  0
LINE
  5
22B
100
AcDbEntity
  8
0
100
AcDbLine
 62
7
  6
BYLAYER
 10
19.4314484716
 20
75.2647058824
 11
40.9314484716
 21
75.2647058824
  0
LINE
  5
22C
100
AcDbEntity
  8
0
100
AcDbLine
 62
7
  6
BYLAYER
 10
80.1814484716
 20
37.7647058824
 11
77.6074702864
 21
41.4407276971
  0
LINE
  5
22D
100
AcDbEntity
  8
0
100
AcDbLine
 62
7
  6
BYLAYER
 10
18.9314484716
 20
87.2647058824
 11
38.9314484716
 21
87.2647058824
  0
LINE
  5
22E
100
AcDbEntity
  8
0
100
AcDbLine
 62
7
  6
BYLAYER
 10
45.4314484716
 20
38.9647058824
 11
44.2314484716
 21
37.7647058824
  0
LINE
  5
22F
100
AcDbEntity
  8
0
100
AcDbLine
 62
7
  6
BYLAYER
 10
46.4314484716
 20
93.7647058824
 11
48.3814484716
 21
93.7647058824
  0
LINE
  5
230
100
AcDbEntity
  8
0
100
AcDbLine
 62
7
  6
BYLAYER
 10
78.7314484716
 20
41.9647058824
 11
78.7314484716
 21
43.2647058824
  0
LINE
  5
231
100
AcDbEntity
  8
0
100
AcDbLine
 62
7
  6
BYLAYER
 10
79.7314484716
 20
46.5647058824
 11
79.7314484716
 21
46.8647058824
  0
LINE
  5
232
100
AcDbEntity
  8
0
100
AcDbLine
 62
7
  6
BYLAYER
 10
18.9314484716
 20
111.6647058824
 11
12.6314484716
 21
111.6647058824
  0
LINE
  5
233
100
AcDbEntity
  8
0
100
AcDbLine
 62
7
  6
BYLAYER
 10
46.4314484716
 20
112.0251644996
 11
12.6314484716
 21
112.0251644996
  0
LINE
  5
234
100
AcDbEntity
  8
0
100
AcDbLine
 62
7
  6
BYLAYER
 10
46.4314484716
 20
113.0106298517
 11
12.6314484716
 21
113.0106298517
  0
LINE
  5
235
100
AcDbEntity
  8
0
100
AcDbLine
 62
7
  6
BYLAYER
 10
12.6314484716
 20
114.5485841461
 11
46.4314484716
 21
114.5485841461
  0
LINE
  5
236
100
AcDbEntity
  8
0
100
AcDbLine
 62
7
  6
BYLAYER
 10
20.5814484716
 20
115.7147058824
 11
12.6716408505
 21
115.7147058824
  0
LINE
  5
237
100
AcDbEntity
  8
0
100
AcDbLine
 62
7
  6
BYLAYER
 10
12.9314484716
 20
115.8647058824
 11
20.5814484716
 21
115.8647058824
  0
LINE
  5
238
100
AcDbEntity
  8
0
100
AcDbLine
 62
7
  6
BYLAYER
 10
98.7314484716
 20
46.3647058824
 11
98.7314484716
 21
37.7647058824
  0
LINE
  5
239
100
AcDbEntity
  8
0
100
AcDbLine
 62
7
  6
BYLAYER
 10
77.6074702864
 20
41.4407276971
 11
78.1314484716
 21
41.9647058824
  0
ARC
  5
23A
100
AcDbEntity
  8
0
100
AcDbCircle
 62
7
  6
BYLAYER
 10
48.3814484716
 20
91.5647058824
 40
2.2
100
AcDbArc
 50
0.0
 51
90.0
  0
ARC
  5
23B
100
AcDbEntity
  8
0
100
AcDbCircle
 62
7
  6
BYLAYER
 10
18.7314484716
 20
85.7647058824
 40
2.0
100
AcDbArc
 50
180.0
 51
275.7391704773
  0
ARC
  5
23C
100
AcDbEntity
  8
0
100
AcDbCircle
 62
7
  6
BYLAYER
 10
98.2314484716
 20
46.3647058824
 40
0.5
100
AcDbArc
 50
0.0
 51
90.0
  0
ARC
  5
23D
100
AcDbEntity
  8
0
100
AcDbCircle
 62
7
  6
BYLAYER
 10
19.5314484716
 20
45.4647058824
 40
0.5
100
AcDbArc
 50
90.0
 51
180.0
  0
ARC
  5
23E
100
AcDbEntity
  8
0
100
AcDbCircle
 62
7
  6
BYLAYER
 10
19.4314484716
 20
75.7647058824
 40
0.5
100
AcDbArc
 50
180.0
 51
270.0
  0
ARC
  5
23F
100
AcDbEntity
  8
0
100
AcDbCircle
 62
7
  6
BYLAYER
 10
12.9314484716
 20
115.5647058824
 40
0.3
100
AcDbArc
 50
90.0
 51
180.0
  0
SPLINE
  5
240
100
AcDbEntity
  8
0
100
AcDbSpline
 62
7
  6
BYLAYER
 70
0
 71
3
 72
20
 73
16
 74
0
 42
0.0000001
 43
0.0000001
 44
0.0000000001
 40
0.0
 40
0.0
 40
0.0
 40
0.0
 40
0.0116949073
 40
0.0196780757
 40
0.0295098249
 40
0.055188944
 40
0.0892086015
 40
0.1315281195
 40
0.1818356005
 40
0.239740039
 40
0.3047546159
 40
0.453891268
 40
0.6238169534
 40
0.8082514126
 40
1.0
 40
1.0
 40
1.0
 40
1.0
 10
22.0316243687
 20
114.0941232007
 30
0.0
 10
22.031611608
 20
114.0782009018
 30
0.0
 10
22.046008395
 20
114.0522500191
 30
0.0
 10
22.0759727298
 20
114.02595967
 30
0.0
 10
22.1257811658
 20
113.9933204088
 30
0.0
 10
22.2126380178
 20
113.9548578886
 30
0.0
 10
22.344640388
 20
113.9113295708
 30
0.0
 10
22.5117429967
 20
113.8684030521
 30
0.0
 10
22.7123880502
 20
113.826430719
 30
0.0
 10
22.9448098495
 20
113.7861690675
 30
0.0
 10
23.3114169374
 20
113.7330699414
 30
0.0
 10
23.8314535806
 20
113.6767581061
 30
0.0
 10
24.5152394058
 20
113.6268479804
 30
0.0
 10
25.2581959092
 20
113.5954785339
 30
0.0
 10
25.7703878913
 20
113.5883547913
 30
0.0
 10
26.0314484716
 20
113.5883547913
 30
0.0
  0
SPLINE
  5
241
100
AcDbEntity
  8
0
100
AcDbSpline
 62
7
  6
BYLAYER
 70
0
 71
3
 72
20
 73
16
 74
0
 42
0.0000001
 43
0.0000001
 44
0.0000000001
 40
0.0
 40
0.0
 40
0.0
 40
0.0
 40
0.0116949073
 40
0.0196780757
 40
0.0295098249
 40
0.055188944
 40
0.0892086015
 40
0.1315281195
 40
0.1818356005
 40
0.239740039
 40
0.3047546159
 40
0.453891268
 40
0.6238169534
 40
0.8082514126
 40
1.0
 40
1.0
 40
1.0
 40
1.0
 10
34.2316243687
 20
114.0941232007
 30
0.0
 10
34.231611608
 20
114.0782009018
 30
0.0
 10
34.246008395
 20
114.0522500191
 30
0.0
 10
34.2759727298
 20
114.02595967
 30
0.0
 10
34.3257811658
 20
113.9933204088
 30
0.0
 10
34.4126380178
 20
113.9548578886
 30
0.0
 10
34.544640388
 20
113.9113295708
 30
0.0
 10
34.7117429967
 20
113.8684030521
 30
0.0
 10
34.9123880502
 20
113.826430719
 30
0.0
 10
35.1448098495
 20
113.7861690675
 30
0.0
 10
35.5114169374
 20
113.7330699414
 30
0.0
 10
36.0314535806
 20
113.6767581061
 30
0.0
 10
36.7152394058
 20
113.6268479804
 30
0.0
 10
37.4581959092
 20
113.5954785339
 30
0.0
 10
37.9703878913
 20
113.5883547913
 30
0.0
 10
38.2314484716
 20
113.5883547913
 30
0.0
  0
SPLINE
  5
242
100
AcDbEntity
  8
0
100
AcDbSpline
 62
7
  6
BYLAYER
 70
0
 71
3
 72
20
 73
16
 74
0
 42
0.0000001
 43
0.0000001
 44
0.0000000001
 40
0.0
 40
0.0
 40
0.0
 40
0.0
 40
0.1917540215
 40
0.3761810911
 40
0.5461072451
 40
0.6952376142
 40
0.7602474045
 40
0.8181537136
 40
0.8684728177
 40
0.9107999385
 40
0.9448131669
 40
0.9704863278
 40
0.9803165921
 40
0.9882999127
 40
1.0
 40
1.0
 40
1.0
 40
1.0
 10
26.0314484716
 20
113.5883547913
 30
0.0
 10
26.2925150625
 20
113.5883547913
 30
0.0
 10
26.8047017779
 20
113.5954738664
 30
0.0
 10
27.5476519647
 20
113.6268519297
 30
0.0
 10
28.2314163996
 20
113.6767552927
 30
0.0
 10
28.751436706
 20
113.733060206
 30
0.0
 10
29.1180282179
 20
113.7861659477
 30
0.0
 10
29.3504602545
 20
113.82643004
 30
0.0
 10
29.5511346773
 20
113.8683958015
 30
0.0
 10
29.7182575108
 20
113.9113108208
 30
0.0
 10
29.8502502529
 20
113.9548479184
 30
0.0
 10
29.9370820667
 20
113.9933180184
 30
0.0
 10
29.9868780611
 20
114.0259580936
 30
0.0
 10
30.0168400973
 20
114.0522576732
 30
0.0
 10
30.0312620299
 20
114.0781939323
 30
0.0
 10
30.0312717233
 20
114.094123201
 30
0.0
  0
SPLINE
  5
243
100
AcDbEntity
  8
0
100
AcDbSpline
 62
7
  6
BYLAYER
 70
0
 71
3
 72
20
 73
16
 74
0
 42
0.0000001
 43
0.0000001
 44
0.0000000001
 40
0.0
 40
0.0
 40
0.0
 40
0.0
 40
0.1917540215
 40
0.3761810911
 40
0.5461072451
 40
0.6952376142
 40
0.7602474045
 40
0.8181537136
 40
0.8684728177
 40
0.9107999385
 40
0.9448131669
 40
0.9704863278
 40
0.9803165921
 40
0.9882999127
 40
1.0
 40
1.0
 40
1.0
 40
1.0
 10
38.2314484716
 20
113.5883547913
 30
0.0
 10
38.4925150625
 20
113.5883547913
 30
0.0
 10
39.0047017779
 20
113.5954738664
 30
0.0
 10
39.7476519647
 20
113.6268519297
 30
0.0
 10
40.4314163996
 20
113.6767552927
 30
0.0
 10
40.951436706
 20
113.733060206
 30
0.0
 10
41.3180282179
 20
113.7861659477
 30
0.0
 10
41.5504602545
 20
113.82643004
 30
0.0
 10
41.7511346773
 20
113.8683958015
 30
0.0
 10
41.9182575108
 20
113.9113108208
 30
0.0
 10
42.0502502529
 20
113.9548479184
 30
0.0
 10
42.1370820667
 20
113.9933180184
 30
0.0
 10
42.1868780611
 20
114.0259580936
 30
0.0
 10
42.2168400973
 20
114.0522576732
 30
0.0
 10
42.2312620299
 20
114.0781939323
 30
0.0
 10
42.2312717233
 20
114.094123201
 30
0.0
  0
SPLINE
  5
244
100
AcDbEntity
  8
0
100
AcDbSpline
 62
7
  6
BYLAYER
 70
0
 71
3
 72
21
 73
17
 74
0
 42
0.0000001
 43
0.0000001
 44
0.0000000001
 40
0.0
 40
0.0
 40
0.0
 40
0.0
 40
0.0054014438
 40
0.0116667155
 40
0.0194277977
 40
0.0290163251
 40
0.0542162303
 40
0.0878260059
 40
0.1298368537
 40
0.1799461944
 40
0.2377636692
 40
0.302794519
 40
0.4522198149
 40
0.6226427955
 40
0.8076575835
 40
1.0
 40
1.0
 40
1.0
 40
1.0
 10
42.2312717233
 20
114.094123201
 30
0.0
 10
42.231276178
 20
114.1014436806
 30
0.0
 10
42.2274438196
 20
114.1173766777
 30
0.0
 10
42.2116891934
 20
114.1389966546
 30
0.0
 10
42.1869208862
 20
114.1595731855
 30
0.0
 10
42.1370744025
 20
114.1888857304
 30
0.0
 10
42.0500574873
 20
114.2221483387
 30
0.0
 10
41.9180650694
 20
114.2576705432
 30
0.0
 10
41.750838116
 20
114.2909896023
 30
0.0
 10
41.5499782091
 20
114.3219964095
 30
0.0
 10
41.3172577543
 20
114.3503446621
 30
0.0
 10
40.94996156
 20
114.3861019747
 30
0.0
 10
40.4294344961
 20
114.4213767364
 30
0.0
 10
39.7457886072
 20
114.4506828698
 30
0.0
 10
39.003560726
 20
114.468243687
 30
0.0
 10
38.4921267358
 20
114.4721371014
 30
0.0
 10
38.2314484716
 20
114.4721371014
 30
0.0
  0
SPLINE
  5
245
100
AcDbEntity
  8
0
100
AcDbSpline
 62
7
  6
BYLAYER
 70
0
 71
3
 72
21
 73
17
 74
0
 42
0.0000001
 43
0.0000001
 44
0.0000000001
 40
0.0
 40
0.0
 40
0.0
 40
0.0
 40
0.1923477047
 40
0.3773552894
 40
0.547779559
 40
0.6971995483
 40
0.7622256048
 40
0.8200447328
 40
0.8701655517
 40
0.9121838645
 40
0.9457867918
 40
0.9709803303
 40
0.980567364
 40
0.9883288771
 40
0.9945969414
 40
1.0
 40
1.0
 40
1.0
 40
1.0
 10
26.0314484716
 20
114.4721371014
 30
0.0
 10
25.7707645846
 20
114.4721371014
 30
0.0
 10
25.2593361727
 20
114.4682466325
 30
0.0
 10
24.5171136811
 20
114.4506797763
 30
0.0
 10
23.8334869226
 20
114.4213787913
 30
0.0
 10
23.312974608
 20
114.3861073925
 30
0.0
 10
22.9456923664
 20
114.3503472259
 30
0.0
 10
22.7129623726
 20
114.3219955657
 30
0.0
 10
22.512074832
 20
114.2909944516
 30
0.0
 10
22.3448296381
 20
114.2576865247
 30
0.0
 10
22.2128483141
 20
114.2221540999
 30
0.0
 10
22.1258549141
 20
114.1888883156
 30
0.0
 10
22.0760207478
 20
114.1595746927
 30
0.0
 10
22.0512548767
 20
114.1389926226
 30
0.0
 10
22.0354865852
 20
114.1173779902
 30
0.0
 10
22.0316302373
 20
114.1014458243
 30
0.0
 10
22.0316243687
 20
114.0941232007
 30
0.0
  0
SPLINE
  5
246
100
AcDbEntity
  8
0
100
AcDbSpline
 62
7
  6
BYLAYER
 70
0
 71
3
 72
21
 73
17
 74
0
 42
0.0000001
 43
0.0000001
 44
0.0000000001
 40
0.0
 40
0.0
 40
0.0
 40
0.0
 40
0.0054014438
 40
0.0116667155
 40
0.0194277977
 40
0.0290163251
 40
0.0542162303
 40
0.0878260059
 40
0.1298368537
 40
0.1799461944
 40
0.2377636692
 40
0.302794519
 40
0.4522198149
 40
0.6226427955
 40
0.8076575835
 40
1.0
 40
1.0
 40
1.0
 40
1.0
 10
30.0312717233
 20
114.094123201
 30
0.0
 10
30.031276178
 20
114.1014436806
 30
0.0
 10
30.0274438196
 20
114.1173766777
 30
0.0
 10
30.0116891934
 20
114.1389966546
 30
0.0
 10
29.9869208862
 20
114.1595731855
 30
0.0
 10
29.9370744025
 20
114.1888857304
 30
0.0
 10
29.8500574873
 20
114.2221483387
 30
0.0
 10
29.7180650694
 20
114.2576705432
 30
0.0
 10
29.550838116
 20
114.2909896023
 30
0.0
 10
29.3499782091
 20
114.3219964095
 30
0.0
 10
29.1172577543
 20
114.3503446621
 30
0.0
 10
28.74996156
 20
114.3861019747
 30
0.0
 10
28.2294344961
 20
114.4213767364
 30
0.0
 10
27.5457886072
 20
114.4506828698
 30
0.0
 10
26.803560726
 20
114.468243687
 30
0.0
 10
26.2921267358
 20
114.4721371014
 30
0.0
 10
26.0314484716
 20
114.4721371014
 30
0.0
  0
SPLINE
  5
247
100
AcDbEntity
  8
0
100
AcDbSpline
 62
7
  6
BYLAYER
 70
0
 71
3
 72
21
 73
17
 74
0
 42
0.0000001
 43
0.0000001
 44
0.0000000001
 40
0.0
 40
0.0
 40
0.0
 40
0.0
 40
0.1923477047
 40
0.3773552894
 40
0.547779559
 40
0.6971995483
 40
0.7622256048
 40
0.8200447328
 40
0.8701655517
 40
0.9121838645
 40
0.9457867918
 40
0.9709803303
 40
0.980567364
 40
0.9883288771
 40
0.9945969414
 40
1.0
 40
1.0
 40
1.0
 40
1.0
 10
38.2314484716
 20
114.4721371014
 30
0.0
 10
37.9707645846
 20
114.4721371014
 30
0.0
 10
37.4593361727
 20
114.4682466325
 30
0.0
 10
36.7171136811
 20
114.4506797763
 30
0.0
 10
36.0334869226
 20
114.4213787913
 30
0.0
 10
35.512974608
 20
114.3861073925
 30
0.0
 10
35.1456923664
 20
114.3503472259
 30
0.0
 10
34.9129623726
 20
114.3219955657
 30
0.0
 10
34.712074832
 20
114.2909944516
 30
0.0
 10
34.5448296381
 20
114.2576865247
 30
0.0
 10
34.4128483141
 20
114.2221540999
 30
0.0
 10
34.3258549141
 20
114.1888883156
 30
0.0
 10
34.2760207478
 20
114.1595746927
 30
0.0
 10
34.2512548767
 20
114.1389926226
 30
0.0
 10
34.2354865852
 20
114.1173779902
 30
0.0
 10
34.2316302373
 20
114.1014458243
 30
0.0
 10
34.2316243687
 20
114.0941232007
 30
0.0
  0
ENDSEC
  0
SECTION
  2
OBJECTS
  0
DICTIONARY
  5
C
100
AcDbDictionary
280
0
281
1
  3
ACAD_GROUP
350
D
  3
ACAD_MLINESTYLE
350
17
  3
ACAD_LAYOUT
350
1A
  3
ACAD_PLOTSETTINGS
350
19
  3
ACAD_PLOTSTYLENAME
350
E
  0
DICTIONARY
  5
D
102
{ACAD_REACTORS
330
C
102
}
100
AcDbDictionary
280
0
281
1
  0
ACDBDICTIONARYWDFLT
  5
E
102
{ACAD_REACTORS
330
C
102
}
100
AcDbDictionary
281
1
  3
Normal
350
F
100
AcDbDictionaryWithDefault
340
F
  0
DICTIONARY
  5
17
102
{ACAD_REACTORS
330
C
102
}
100
AcDbDictionary
280
0
281
1
  3
Standard
350
18
  0
DICTIONARY
  5
19
102
{ACAD_REACTORS
330
C
102
}
100
AcDbDictionary
281
1
  0
DICTIONARY
  5
1A
102
{ACAD_REACTORS
330
C
102
}
100
AcDbDictionary
281
1
  3
Model
350
248
  3
Layout1
350
249
  0
ACDBPLACEHOLDER
  5
F
102
{ACAD_REACTORS
330
E
102
}
  0
MLINESTYLE
  5
18
102
{ACAD_REACTORS
330
17
102
}
100
AcDbMlineStyle
  2
STANDARD
 70
0
  3

 62
256
 51
90.0
 52
90.0
 71
2
 49
0.5
 62
256
  6
BYLAYER
 49
-0.5
 62
256
  6
BYLAYER
  0
LAYOUT
  5
248
102
{ACAD_REACTORS
330
1A
102
}
100
AcDbPlotSettings
  1

  2
none_device
  4

  6

 40
0.0
 41
0.0
 42
0.0
 43
0.0
 44
210.0
 45
297.0
 46
0.0
 47
0.0
 48
0.0
 49
0.0
140
0.0
141
0.0
142
1.0
143
1.0
 70
1024
 72
1
 73
0
 74
0
  7

 75
0
147
1.0
148
0.0
149
0.0
100
AcDbLayout
  1
Model
 70
0
 71
0
 10
0.0
 20
0.0
 11
210.0
 21
297.0
 12
0.0
 22
0.0
 32
0.0
 14
0.0
 24
0.0
 34
0.0
 15
0.0
 25
0.0
 35
0.0
146
0.0
 13
0.0
 23
0.0
 33
0.0
 16
1.0
 26
0.0
 36
0.0
 17
0.0
 27
1.0
 37
0.0
 76
0
330
210
345
0
346
0
  0
LAYOUT
  5
249
102
{ACAD_REACTORS
330
1A
102
}
100
AcDbPlotSettings
  1

  2
none_device
  4

  6

 40
0.0
 41
0.0
 42
0.0
 43
0.0
 44
210.0
 45
297.0
 46
0.0
 47
0.0
 48
0.0
 49
0.0
140
0.0
141
0.0
142
1.0
143
1.0
 70
0
 72
1
 73
0
 74
0
  7

 75
0
147
1.0
148
0.0
149
0.0
100
AcDbLayout
  1
Layout1
 70
0
 71
1
 10
0.0
 20
0.0
 11
210.0
 21
297.0
 12
0.0
 22
0.0
 32
0.0
 14
0.0
 24
0.0
 34
0.0
 15
0.0
 25
0.0
 35
0.0
146
0.0
 13
0.0
 23
0.0
 33
0.0
 16
1.0
 26
0.0
 36
0.0
 17
0.0
 27
1.0
 37
0.0
 76
0
330
211
345
0
346
0
  0
ENDSEC
  0
EOF
