999
DXF file: C:\Users\sesa63760\Dev\_Creo\CAD\MCADPD0003872_3D-CAD\drw0001_1.dxf
999
Pro/ENGINEER 2019471 by Parametric Technology Corporation
  0
SECTION
  2
HEADER
  9
$ACADVER
  1
AC1024
  9
$DWGCODEPAGE
  3
ANSI_1252
  9
$EXTMAX
 10
124.6212566737
 20
176.2500630099
 30
0.0
  9
$EXTMIN
 10
0.0
 20
0.0
 30
0.0
  9
$LIMMIN
 10
0.0
 20
0.0
  9
$LIMMAX
 10
124.6212566737
 20
176.2500630099
  9
$VIEWCTR
 10
62.3106283368
 20
88.125031505
  9
$VIEWSIZE
 40
176.2500630099
  9
$CLAYER
  8
0
  9
$LTSCALE
 40
11.4888929962
  9
$CELTYPE
  6
BYLAYER
  9
$DIMSCALE
 40
1.0
  9
$DIMASZ
 40
1.483586389
  9
$DIMEXO
 40
1.0
  9
$DIMDLI
 40
7.9377806156
  9
$DIMEXE
 40
1.0
  9
$DIMCEN
 40
1.8800006721
  9
$DIMLFAC
 40
1.0
  9
$DIMBLK
  1
_FILLED
  9
$DIMALT
 70
0
  9
$DIMALTF
 40
0.0393700787
  9
$DIMTXT
 40
2.0770209446
  9
$DIMTOL
 70
1
  9
$DIMLIM
 70
0
  9
$DIMTFAC
 40
1.0
  9
$DIMTP
 40
0.01
  9
$DIMTM
 40
0.01
  9
$DIMGAP
 40
0.625
  9
$DIMDSEP
 70
46
  9
$AUNITS
 70
0
  9
$PDMODE
 70
3
  9
$PDSIZE
 40
0.3125
  9
$HANDSEED
  5
26D
  9
$TILEMODE
 70
1
  9
$MEASUREMENT
 70
1
  9
$INSUNITS
 70
4
  0
ENDSEC
  0
SECTION
  2
CLASSES
  0
CLASS
  1
ACDBDICTIONARYWDFLT
  2
AcDbDictionaryWithDefault
  3
AutoCAD 2000
 90
0
 91
1
280
0
281
0
  0
CLASS
  1
ACDBPLACEHOLDER
  2
AcDbPlaceHolder
  3
AutoCAD 2000
 90
0
 91
1
280
0
281
0
  0
CLASS
  1
LAYOUT
  2
AcDbLayout
  3
AutoCAD 2000
 90
0
 91
0
280
0
281
0
  0
ENDSEC
  0
SECTION
  2
TABLES
  0
TABLE
  2
VPORT
  5
8
100
AcDbSymbolTable
 70
2
  0
VPORT
  5
1F4
100
AcDbSymbolTableRecord
100
AcDbViewportTableRecord
  2
*ACTIVE
 70
0
 10
0.0
 20
0.0
 11
1.0
 21
1.0
 12
62.3106283368
 22
88.125031505
 13
0.0
 23
0.0
 14
1.0
 24
1.0
 15
0.0
 25
0.0
 16
0.0
 26
0.0
 36
1.0
 17
0.0
 27
0.0
 37
0.0
 40
176.2500630099
 41
0.7070707071
 42
50.0
 43
0.0
 44
0.0
 50
0.0
 51
0.0
 71
0
 72
100
 73
1
 74
1
 75
0
 76
0
 77
0
 78
0
  0
ENDTAB
  0
TABLE
  2
LTYPE
  5
5
100
AcDbSymbolTable
 70
6
  0
LTYPE
  5
14
100
AcDbSymbolTableRecord
100
AcDbLinetypeTableRecord
  2
BYBLOCK
 70
0
  3

 72
65
 73
0
 40
0.0
  0
LTYPE
  5
15
100
AcDbSymbolTableRecord
100
AcDbLinetypeTableRecord
  2
BYLAYER
 70
0
  3

 72
65
 73
0
 40
0.0
  0
LTYPE
  5
16
100
AcDbSymbolTableRecord
100
AcDbLinetypeTableRecord
  2
CONTINUOUS
 70
64
  3
Solid line
 72
65
 73
0
 40
0.0
  0
LTYPE
  5
1F5
100
AcDbSymbolTableRecord
100
AcDbLinetypeTableRecord
  2
CENTER
 70
64
  3
____ _ ____ _ ____ _ ____ _ ____ _ ____ _ ____
 72
65
 73
4
 40
0.6
 49
0.375
 74
0
 49
-0.075
 74
0
 49
0.075
 74
0
 49
-0.075
 74
0
  0
LTYPE
  5
1F6
100
AcDbSymbolTableRecord
100
AcDbLinetypeTableRecord
  2
HIDDEN
 70
64
  3
- - - - - - - - - - - - - - - - - - - -
 72
65
 73
2
 40
0.2
 49
0.1
 74
0
 49
-0.1
 74
0
  0
LTYPE
  5
1F7
100
AcDbSymbolTableRecord
100
AcDbLinetypeTableRecord
  2
PHANTOM
 70
64
  3
_____ _ _ _____ _ _ _____ _ _ _____
 72
65
 73
6
 40
0.8
 49
0.45
 74
0
 49
-0.05
 74
0
 49
0.1
 74
0
 49
-0.05
 74
0
 49
0.1
 74
0
 49
-0.05
 74
0
  0
LTYPE
  5
1F8
100
AcDbSymbolTableRecord
100
AcDbLinetypeTableRecord
  2
DOT
 70
64
  3
. . . . . . . . . . . . . . . . . . . .
 72
65
 73
2
 40
0.2
 49
0.1
 74
0
 49
-0.1
 74
0
  0
LTYPE
  5
1F9
100
AcDbSymbolTableRecord
100
AcDbLinetypeTableRecord
  2
DASHED
 70
64
  3
- - - - - - - - - - - - - - - - - - - -
 72
65
 73
2
 40
0.2
 49
0.1
 74
0
 49
-0.1
 74
0
  0
ENDTAB
  0
TABLE
  2
LAYER
  5
2
100
AcDbSymbolTable
 70
36
  0
LAYER
  5
10
100
AcDbSymbolTableRecord
100
AcDbLayerTableRecord
  2
0
 70
0
 62
7
  6
CONTINUOUS
370
-3
390
F
  0
LAYER
  5
1FA
100
AcDbSymbolTableRecord
100
AcDbLayerTableRecord
  2
DEFAULT_1
 70
0
 62
7
  6
CENTER
370
-3
390
F
  0
LAYER
  5
1FB
100
AcDbSymbolTableRecord
100
AcDbLayerTableRecord
  2
DEFAULT_2
 70
0
 62
7
  6
HIDDEN
370
-3
390
F
  0
LAYER
  5
1FC
100
AcDbSymbolTableRecord
100
AcDbLayerTableRecord
  2
DEFAULT_3
 70
0
 62
7
  6
PHANTOM
370
-3
390
F
  0
LAYER
  5
1FD
100
AcDbSymbolTableRecord
100
AcDbLayerTableRecord
  2
00_COMPONENTS
 70
0
 62
7
  6
CONTINUOUS
370
-3
390
F
  0
LAYER
  5
1FE
100
AcDbSymbolTableRecord
100
AcDbLayerTableRecord
  2
01_1_DEFAULT_DATUMS
 70
0
 62
7
  6
CONTINUOUS
370
-3
390
F
  0
LAYER
  5
1FF
100
AcDbSymbolTableRecord
100
AcDbLayerTableRecord
  2
01_PLANES
 70
0
 62
7
  6
CONTINUOUS
370
-3
390
F
  0
LAYER
  5
200
100
AcDbSymbolTableRecord
100
AcDbLayerTableRecord
  2
02_COORD_SYS
 70
0
 62
7
  6
CONTINUOUS
370
-3
390
F
  0
LAYER
  5
201
100
AcDbSymbolTableRecord
100
AcDbLayerTableRecord
  2
03_AXES
 70
0
 62
7
  6
CONTINUOUS
370
-3
390
F
  0
LAYER
  5
202
100
AcDbSymbolTableRecord
100
AcDbLayerTableRecord
  2
04_POINTS
 70
0
 62
7
  6
CONTINUOUS
370
-3
390
F
  0
LAYER
  5
203
100
AcDbSymbolTableRecord
100
AcDbLayerTableRecord
  2
05_CURVES
 70
0
 62
7
  6
CONTINUOUS
370
-3
390
F
  0
LAYER
  5
204
100
AcDbSymbolTableRecord
100
AcDbLayerTableRecord
  2
06_SURFS
 70
0
 62
7
  6
CONTINUOUS
370
-3
390
F
  0
LAYER
  5
205
100
AcDbSymbolTableRecord
100
AcDbLayerTableRecord
  2
07_COSMETICS
 70
0
 62
7
  6
CONTINUOUS
370
-3
390
F
  0
LAYER
  5
206
100
AcDbSymbolTableRecord
100
AcDbLayerTableRecord
  2
10_NOTES
 70
0
 62
7
  6
CONTINUOUS
370
-3
390
F
  0
LAYER
  5
207
100
AcDbSymbolTableRecord
100
AcDbLayerTableRecord
  2
11_NOTES_PUB
 70
0
 62
7
  6
CONTINUOUS
370
-3
390
F
  0
LAYER
  5
208
100
AcDbSymbolTableRecord
100
AcDbLayerTableRecord
  2
13_REF_GTOL
 70
0
 62
7
  6
CONTINUOUS
370
-3
390
F
  0
LAYER
  5
209
100
AcDbSymbolTableRecord
100
AcDbLayerTableRecord
  2
16_MISC
 70
0
 62
7
  6
CONTINUOUS
370
-3
390
F
  0
LAYER
  5
20A
100
AcDbSymbolTableRecord
100
AcDbLayerTableRecord
  2
17_NO_PRINT
 70
0
 62
7
  6
CONTINUOUS
370
-3
390
F
  0
LAYER
  5
20B
100
AcDbSymbolTableRecord
100
AcDbLayerTableRecord
  2
18_DATUM_CAMS_JOINTS
 70
0
 62
7
  6
CONTINUOUS
370
-3
390
F
  0
LAYER
  5
20C
100
AcDbSymbolTableRecord
100
AcDbLayerTableRecord
  2
19_DATUM_FUNCTIONAL
 70
0
 62
7
  6
CONTINUOUS
370
-3
390
F
  0
LAYER
  5
20D
100
AcDbSymbolTableRecord
100
AcDbLayerTableRecord
  2
20_DATUM_KINEMATIC_SCHEME
 70
0
 62
7
  6
CONTINUOUS
370
-3
390
F
  0
ENDTAB
  0
TABLE
  2
STYLE
  5
3
100
AcDbSymbolTable
 70
1
  0
STYLE
  5
11
100
AcDbSymbolTableRecord
100
AcDbTextStyleTableRecord
  2
STANDARD
 70
0
 40
0.0
 41
1.0
 50
0.0
 71
0
 42
0.2
  3
ARIAL.TTF
  4

  0
STYLE
  5
20E
100
AcDbSymbolTableRecord
100
AcDbTextStyleTableRecord
  2
TEXTSTYLE_1
 70
0
 40
0.0
 41
0.8
 50
0.0
 71
0
 42
0.2
  3
gdt
  4

  0
ENDTAB
  0
TABLE
  2
VIEW
  5
6
100
AcDbSymbolTable
 70
0
  0
ENDTAB
  0
TABLE
  2
UCS
  5
7
100
AcDbSymbolTable
 70
0
  0
ENDTAB
  0
TABLE
  2
APPID
  5
9
100
AcDbSymbolTable
 70
1
  0
APPID
  5
20F
100
AcDbSymbolTableRecord
100
AcDbRegAppTableRecord
  2
ACAD
 70
0
  0
ENDTAB
  0
TABLE
  2
BLOCK_RECORD
  5
1
100
AcDbSymbolTable
 70
0
  0
BLOCK_RECORD
  5
210
100
AcDbSymbolTableRecord
100
AcDbBlockTableRecord
  2
*Model_Space
  0
BLOCK_RECORD
  5
211
100
AcDbSymbolTableRecord
100
AcDbBlockTableRecord
  2
*Paper_Space
  0
BLOCK_RECORD
  5
212
100
AcDbSymbolTableRecord
100
AcDbBlockTableRecord
  2
_FILLED
  0
ENDTAB
  0
TABLE
  2
DIMSTYLE
  5
A
100
AcDbSymbolTable
 70
1
100
AcDbDimStyleTable
 71
0
  0
DIMSTYLE
105
213
100
AcDbSymbolTableRecord
100
AcDbDimStyleTableRecord
  2
STANDARD
 70
0
  3

  4

 40
1.0
 41
1.483586389
 42
1.0
 43
0.38
 44
1.0
 45
0.0
 46
0.0
 47
0.01
 48
0.01
140
2.0770209446
141
0.09
142
0.0
143
25.4
144
1.0
145
0.0
146
1.0
147
0.625
 71
1
 72
0
 73
0
 74
0
 75
0
 76
0
 77
1
 78
8
 79
2
170
0
171
1
172
0
173
0
174
0
175
0
176
0
177
0
178
0
270
2
179
2
271
2
272
2
273
2
274
2
275
0
280
0
281
0
282
0
283
1
284
8
285
0
286
0
287
3
288
0
340
11
278
46
341
212
342
212
343
212
344
212
  0
ENDTAB
  0
ENDSEC
  0
SECTION
  2
BLOCKS
  0
BLOCK
  5
20
100
AcDbEntity
  8
0
100
AcDbBlockBegin
  2
*Model_Space
 70
0
 10
0.0
 20
0.0
 30
0.0
  3
*Model_Space
  1

  0
ENDBLK
  5
21
100
AcDbEntity
  8
0
100
AcDbBlockEnd
  0
BLOCK
  5
1C
100
AcDbEntity
  8
0
100
AcDbBlockBegin
  2
*Paper_Space
 70
0
 10
0.0
 20
0.0
 30
0.0
  3
*Paper_Space
  1

  0
ENDBLK
  5
1D
100
AcDbEntity
  8
0
100
AcDbBlockEnd
  0
BLOCK
  5
214
100
AcDbEntity
  8
0
100
AcDbBlockBegin
  2
_FILLED
 70
64
 10
0.0
 20
0.0
  3
_FILLED
  1

  0
SOLID
  5
215
100
AcDbEntity
  8
0
  6
BYBLOCK
 62
0
100
AcDbTrace
 10
0.0
 20
0.0
 11
-1.0
 21
0.25
 12
-1.0
 22
-0.25
 13
-1.0
 23
-0.25
  0
ENDBLK
  5
216
100
AcDbEntity
  8
0
  6
BYBLOCK
 62
0
100
AcDbBlockEnd
  0
ENDSEC
  0
SECTION
  2
ENTITIES
  0
LINE
  5
217
100
AcDbEntity
  8
0
100
AcDbLine
 62
7
  6
BYLAYER
 10
18.9388479884
 20
82.4501165659
 11
14.9503276597
 21
69.383696722
  0
LINE
  5
218
100
AcDbEntity
  8
0
100
AcDbLine
 62
7
  6
BYLAYER
 10
22.7719533445
 20
93.8470012281
 11
25.6669938287
 21
102.8578555723
  0
LWPOLYLINE
  5
219
100
AcDbEntity
  8
0
100
AcDbPolyline
 62
7
  6
BYLAYER
 90
4
 70
0
 10
22.7718977863
 20
93.846828297
 10
21.843955523
 20
91.000682891
 10
20.513501185
 20
87.0390306944
 10
19.0959065743
 20
82.9306577087
  0
LINE
  5
21A
100
AcDbEntity
  8
0
100
AcDbLine
 62
7
  6
BYLAYER
 10
18.9388479884
 20
82.4501165659
 11
19.0959729177
 21
82.9305303478
  0
LINE
  5
21B
100
AcDbEntity
  8
0
100
AcDbLine
 62
7
  6
BYLAYER
 10
29.6729240361
 20
64.1826020005
 11
34.5118004158
 21
89.7768627214
  0
LINE
  5
21C
100
AcDbEntity
  8
0
100
AcDbLine
 62
7
  6
BYLAYER
 10
34.2999440581
 20
89.8397057892
 11
27.1100138531
 21
64.9239480625
  0
LWPOLYLINE
  5
21D
100
AcDbEntity
  8
0
100
AcDbPolyline
 62
7
  6
BYLAYER
 90
4
 70
0
 10
45.9772855466
 20
108.0075985213
 10
47.8832482452
 20
109.5397475855
 10
62.9230265456
 20
119.3053610459
 10
76.7446726094
 20
126.9860743675
  0
LINE
  5
21E
100
AcDbEntity
  8
0
100
AcDbLine
 62
7
  6
BYLAYER
 10
85.7191812216
 20
132.9874950361
 11
85.7195678154
 21
132.9877073453
  0
LWPOLYLINE
  5
21F
100
AcDbEntity
  8
0
100
AcDbPolyline
 62
7
  6
BYLAYER
 90
4
 70
0
 10
85.7195678154
 20
132.9877073453
 10
82.7764755835
 20
131.3962341508
 10
78.7409046624
 20
129.3005030623
 10
74.503262278
 20
127.2183258872
  0
LWPOLYLINE
  5
220
100
AcDbEntity
  8
0
100
AcDbPolyline
 62
7
  6
BYLAYER
 90
5
 70
0
 10
74.504045871
 20
127.2186986169
 10
67.2436223
 20
123.5119010764
 10
52.6623952046
 20
114.5812501094
 10
45.3088149389
 20
109.2699487236
 10
42.8156398202
 20
107.1236828481
  0
LINE
  5
221
100
AcDbEntity
  8
0
100
AcDbLine
 62
7
  6
BYLAYER
 10
74.5032624096
 20
127.2183259498
 11
74.504045871
 21
127.2186986169
  0
LINE
  5
222
100
AcDbEntity
  8
0
100
AcDbLine
 62
7
  6
BYLAYER
 10
34.2999831286
 20
89.8397021909
 11
34.3350233681
 21
89.8789226886
  0
LINE
  5
223
100
AcDbEntity
  8
0
100
AcDbLine
 62
7
  6
BYLAYER
 10
84.6246312058
 20
124.9350694895
 11
81.6577199167
 21
123.222132683
  0
LINE
  5
224
100
AcDbEntity
  8
0
100
AcDbLine
 62
7
  6
BYLAYER
 10
92.2643657939
 20
117.0985213652
 11
95.231277083
 21
118.8114581717
  0
LINE
  5
225
100
AcDbEntity
  8
0
100
AcDbLine
 62
7
  6
BYLAYER
 10
62.8434855481
 20
59.699311072
 11
56.9920766863
 21
84.7728350288
  0
LWPOLYLINE
  5
226
100
AcDbEntity
  8
0
100
AcDbPolyline
 62
7
  6
BYLAYER
 90
4
 70
0
 10
100.8930033977
 20
103.581911332
 10
104.2695986129
 20
106.5661341422
 10
107.7905406984
 20
109.7524233727
 10
110.9927417204
 20
112.4262402306
  0
LINE
  5
227
100
AcDbEntity
  8
0
100
AcDbLine
 62
7
  6
BYLAYER
 10
100.8930035291
 20
103.5819114426
 11
100.8928777932
 21
103.5818055523
  0
LINE
  5
228
100
AcDbEntity
  8
0
100
AcDbLine
 62
7
  6
BYLAYER
 10
110.9927417204
 20
112.4262402306
 11
110.9903137477
 21
112.4243583342
  0
LINE
  5
229
100
AcDbEntity
  8
0
100
AcDbLine
 62
7
  6
BYLAYER
 10
92.244877491
 20
117.05593078
 11
92.2643657939
 21
117.0985213652
  0
LWPOLYLINE
  5
22A
100
AcDbEntity
  8
0
100
AcDbPolyline
 62
7
  6
BYLAYER
 90
4
 70
0
 10
110.9919257812
 20
112.4255762721
 10
111.5783605976
 20
113.0938109878
 10
111.9952160139
 20
114.3585166555
 10
112.0993764525
 20
116.1665461078
  0
LINE
  5
22B
100
AcDbEntity
  8
0
100
AcDbLine
 62
7
  6
BYLAYER
 10
87.4593195071
 20
82.2037326049
 11
91.3726312133
 21
69.383696722
  0
LWPOLYLINE
  5
22C
100
AcDbEntity
  8
0
100
AcDbPolyline
 62
7
  6
BYLAYER
 90
18
 70
0
 10
87.5142884533
 20
81.9924711658
 10
87.4717414344
 20
82.1546928838
 10
87.4085100656
 20
82.4043199043
 10
87.3821557761
 20
82.5184556333
 10
87.371713137
 20
82.5699607207
 10
87.3655809389
 20
82.6053748516
 10
87.3605323138
 20
82.6404356568
 10
87.3557985522
 20
82.682433054
 10
87.3514599263
 20
82.7364271584
 10
87.3481032343
 20
82.8095114895
 10
87.347151791
 20
82.9101425995
 10
87.3510158031
 20
83.0430421139
 10
87.3626675855
 20
83.2102973045
 10
87.3854285322
 20
83.4138245173
 10
87.4225114519
 20
83.6519421511
 10
87.4777250912
 20
83.926482536
 10
87.5552423665
 20
84.2397490912
 10
87.6581825688
 20
84.5895590574
  0
LINE
  5
22D
100
AcDbEntity
  8
0
100
AcDbLine
 62
7
  6
BYLAYER
 10
87.6375642167
 20
81.4822219687
 11
87.5149509499
 21
81.9903002463
  0
LINE
  5
22E
100
AcDbEntity
  8
0
100
AcDbLine
 62
7
  6
BYLAYER
 10
87.6581825688
 20
84.5895590574
 11
87.7247805578
 21
84.7875451929
  0
LINE
  5
22F
100
AcDbEntity
  8
0
100
AcDbLine
 62
7
  6
BYLAYER
 10
87.6884779348
 20
84.6856246089
 11
87.715067238
 21
84.7625007187
  0
LINE
  5
230
100
AcDbEntity
  8
0
100
AcDbLine
 62
7
  6
BYLAYER
 10
87.6874165341
 20
84.6871514468
 11
87.7143426887
 21
84.7635394166
  0
LINE
  5
231
100
AcDbEntity
  8
0
100
AcDbLine
 62
7
  6
BYLAYER
 10
87.6856403798
 20
84.6866060401
 11
87.749576785
 21
84.8514788924
  0
LWPOLYLINE
  5
232
100
AcDbEntity
  8
0
100
AcDbPolyline
 62
7
  6
BYLAYER
 90
48
 70
0
 10
87.749576785
 20
84.8514788924
 10
87.8728174795
 20
85.1582992279
 10
88.0149119403
 20
85.501208653
 10
88.1637131612
 20
85.8510505184
 10
88.3258375139
 20
86.2232835433
 10
88.5061752408
 20
86.6277428048
 10
88.6946727342
 20
87.0407578277
 10
88.8895146219
 20
87.4580992131
 10
89.0901146128
 20
87.8783729142
 10
89.2960779329
 20
88.300634915
 10
89.5071413077
 20
88.7242407292
 10
89.7231355904
 20
89.1487537054
 10
89.9439620238
 20
89.5738876912
 10
90.1695780044
 20
89.999448476
 10
90.4000055038
 20
90.4252646445
 10
90.6353011738
 20
90.8512014048
 10
90.8755467714
 20
91.2771681106
 10
91.1208455259
 20
91.7031101262
 10
91.3713183082
 20
92.1290008764
 10
91.627100321
 20
92.5548353602
 10
91.8882209992
 20
92.9804358796
 10
92.154024791
 20
93.4045573767
 10
92.4244953507
 20
93.8270426499
 10
92.6997292845
 20
94.2478678119
 10
92.9798260487
 20
94.6669832788
 10
93.2648926893
 20
95.0843483073
 10
93.5550435627
 20
95.4999303074
 10
93.8504009496
 20
95.9137052245
 10
94.1510959302
 20
96.3256582074
 10
94.4572695143
 20
96.7357845189
 10
94.7690740185
 20
97.1440906475
 10
95.0866457094
 20
97.5505547352
 10
95.4100457667
 20
97.9550335805
 10
95.739336386
 20
98.3573745703
 10
96.0745847506
 20
98.7574279677
 10
96.4158882289
 20
99.1550756207
 10
96.7633557799
 20
99.5502063171
 10
97.1171015534
 20
99.9427077368
 10
97.4772543368
 20
100.3324764764
 10
97.8439598721
 20
100.7194192191
 10
98.2173392073
 20
101.1034087664
 10
98.5974540601
 20
101.4842478167
 10
98.9843719346
 20
101.8617352625
 10
99.3781760017
 20
102.2356748389
 10
99.7789620384
 20
102.6058707213
 10
100.1868143778
 20
102.9721046216
 10
100.6018570407
 20
103.3341815064
 10
100.8928777932
 20
103.5818055523
  0
LINE
  5
233
100
AcDbEntity
  8
0
100
AcDbLine
 62
7
  6
BYLAYER
 10
82.6329760548
 20
123.7851937158
 11
82.6468575128
 21
123.7775358643
  0
LINE
  5
234
100
AcDbEntity
  8
0
100
AcDbLine
 62
7
  6
BYLAYER
 10
84.6246312058
 20
124.9350694895
 11
95.231277083
 21
118.8114581717
  0
LINE
  5
235
100
AcDbEntity
  8
0
100
AcDbLine
 62
7
  6
BYLAYER
 10
112.099376109
 20
116.1666684564
 11
112.0993757595
 21
116.1625909555
  0
LWPOLYLINE
  5
236
100
AcDbEntity
  8
0
100
AcDbPolyline
 62
7
  6
BYLAYER
 90
4
 70
0
 10
88.3479049914
 20
133.5071934731
 10
87.5453471152
 20
133.5154625348
 10
85.6835126148
 20
132.967662955
 10
85.7191686406
 20
132.9874851509
  0
LINE
  5
237
100
AcDbEntity
  8
0
100
AcDbLine
 62
7
  6
BYLAYER
 10
88.3480059851
 20
133.5071842386
 11
88.3479049914
 21
133.5071934731
  0
LWPOLYLINE
  5
238
100
AcDbEntity
  8
0
100
AcDbPolyline
 62
7
  6
BYLAYER
 90
4
 70
0
 10
112.0993757595
 20
116.1625909555
 10
112.0520694106
 20
117.2613582534
 10
111.9729213295
 20
118.0145951443
 10
111.5859738261
 20
119.7577956254
  0
LWPOLYLINE
  5
239
100
AcDbEntity
  8
0
100
AcDbPolyline
 62
7
  6
BYLAYER
 90
3
 70
0
 10
103.0931626441
 20
129.1175422427
 10
96.2716285351
 20
132.0031498547
 10
88.3480065232
 20
133.5071841891
  0
LINE
  5
23A
100
AcDbEntity
  8
0
100
AcDbLine
 62
7
  6
BYLAYER
 10
103.0931626441
 20
129.1175422427
 11
103.0929885417
 21
129.1176427694
  0
LWPOLYLINE
  5
23B
100
AcDbEntity
  8
0
100
AcDbPolyline
 62
7
  6
BYLAYER
 90
3
 70
0
 10
111.5878674037
 20
119.7525316455
 10
108.4595020922
 20
124.8708384021
 10
103.0929885417
 20
129.1176427694
  0
LINE
  5
23C
100
AcDbEntity
  8
0
100
AcDbLine
 62
7
  6
BYLAYER
 10
111.5878674037
 20
119.7525316455
 11
111.5859744506
 21
119.757793902
  0
ARC
  5
23D
100
AcDbEntity
  8
0
100
AcDbCircle
 62
7
  6
BYLAYER
 10
1252.3738669207
 20
-1860.0189226735
 40
2297.6979792716
100
AcDbArc
 50
120.0412808064
 51
120.3922855532
  0
ARC
  5
23E
100
AcDbEntity
  8
0
100
AcDbCircle
 62
7
  6
BYLAYER
 10
-108.4712590248
 20
-219.1074611782
 40
392.5571732642
100
AcDbArc
 50
58.0679642713
 51
59.0775316084
  0
ARC
  5
23F
100
AcDbEntity
  8
0
100
AcDbCircle
 62
7
  6
BYLAYER
 10
-92.138647722
 20
-190.7116605236
 40
359.7963682989
100
AcDbArc
 50
60.9382801143
 51
62.005562577
  0
ARC
  5
240
100
AcDbEntity
  8
0
100
AcDbCircle
 62
7
  6
BYLAYER
 10
183.910633878
 20
-36.8914739738
 40
179.1714666675
100
AcDbArc
 50
120.3958119196
 51
120.7710720729
  0
ARC
  5
241
100
AcDbEntity
  8
0
100
AcDbCircle
 62
7
  6
BYLAYER
 10
28.9431195572
 20
65.3938414906
 40
1.4140915225
100
AcDbArc
 50
298.9287765267
 51
301.0709272855
  0
SPLINE
  5
242
100
AcDbEntity
  8
0
100
AcDbSpline
 62
7
  6
BYLAYER
 70
0
 71
3
 72
11
 73
7
 74
0
 42
0.0000001
 43
0.0000001
 44
0.0000000001
 40
0.0
 40
0.0
 40
0.0
 40
0.0
 40
0.241458978
 40
0.4868790891
 40
0.7392236002
 40
1.0
 40
1.0
 40
1.0
 40
1.0
 10
34.1229706669
 20
49.7204742773
 30
0.0
 10
34.2400036598
 20
49.7880628265
 30
0.0
 10
34.461520531
 20
49.9512086804
 30
0.0
 10
34.7354486465
 20
50.265472619
 30
0.0
 10
34.9412442114
 20
50.6403494265
 30
0.0
 10
35.0250870106
 20
50.9175278894
 30
0.0
 10
35.0531845468
 20
51.0607579901
 30
0.0
  0
SPLINE
  5
243
100
AcDbEntity
  8
0
100
AcDbSpline
 62
7
  6
BYLAYER
 70
0
 71
3
 72
17
 73
13
 74
0
 42
0.0000001
 43
0.0000001
 44
0.0000000001
 40
0.0
 40
0.0
 40
0.0
 40
0.0
 40
0.0438606755
 40
0.0876056539
 40
0.1818552875
 40
0.2356287121
 40
0.2943385517
 40
0.4254934405
 40
0.5705040979
 40
0.7208575731
 40
0.8669487253
 40
1.0
 40
1.0
 40
1.0
 40
1.0
 10
27.1100252554
 20
64.9239469815
 30
0.0
 10
27.0974591526
 20
64.8803372124
 30
0.0
 10
27.0834777334
 20
64.7894775386
 30
0.0
 10
27.1064763518
 20
64.6005074801
 30
0.0
 10
27.2109295177
 20
64.4219292023
 30
0.0
 10
27.3664067575
 20
64.2745242274
 30
0.0
 10
27.575245338
 20
64.1314044896
 30
0.0
 10
27.8988125645
 20
63.9976969801
 30
0.0
 10
28.3346152972
 20
63.9144243377
 30
0.0
 10
28.7939005797
 20
63.9099823146
 30
0.0
 10
29.2342712226
 20
63.9846029594
 30
0.0
 10
29.5066660086
 20
64.0895784889
 30
0.0
 10
29.627146765
 20
64.156197918
 30
0.0
  0
SPLINE
  5
244
100
AcDbEntity
  8
0
100
AcDbSpline
 62
7
  6
BYLAYER
 70
0
 71
3
 72
15
 73
11
 74
0
 42
0.0000001
 43
0.0000001
 44
0.0000000001
 40
0.0
 40
0.0
 40
0.0
 40
0.0
 40
0.1271353409
 40
0.2601635587
 40
0.3961359189
 40
0.5306058125
 40
0.6593507701
 40
0.7798485357
 40
0.892340955
 40
1.0
 40
1.0
 40
1.0
 40
1.0
 10
35.0531845468
 20
51.0607579901
 30
0.0
 10
35.0957542107
 20
51.2777612599
 30
0.0
 10
35.1155754385
 20
51.7372865147
 30
0.0
 10
34.9523037733
 20
52.4149484043
 30
0.0
 10
34.6137192371
 20
53.0385466965
 30
0.0
 10
34.1362385443
 20
53.5526085306
 30
0.0
 10
33.5683228426
 20
53.9171773448
 30
0.0
 10
32.9592014067
 20
54.1064173938
 30
0.0
 10
32.3567303405
 20
54.1051971098
 30
0.0
 10
31.9876488946
 20
53.9724544809
 30
0.0
 10
31.8254960759
 20
53.8787869557
 30
0.0
  0
SPLINE
  5
245
100
AcDbEntity
  8
0
100
AcDbSpline
 62
7
  6
BYLAYER
 70
0
 71
3
 72
15
 73
11
 74
0
 42
0.0000001
 43
0.0000001
 44
0.0000000001
 40
0.0
 40
0.0
 40
0.0
 40
0.0
 40
0.1118117903
 40
0.2221965579
 40
0.3342946521
 40
0.4510134487
 40
0.5746954426
 40
0.7069388746
 40
0.8486459988
 40
1.0
 40
1.0
 40
1.0
 40
1.0
 10
14.950370774
 20
69.3836923573
 30
0.0
 10
14.6856152764
 20
68.5162445557
 30
0.0
 10
14.3257021354
 20
66.735285741
 30
0.0
 10
14.3524465053
 20
64.0045917239
 30
0.0
 10
14.9520432383
 20
61.2996518179
 30
0.0
 10
16.1096138627
 20
58.6670786357
 30
0.0
 10
17.8007324364
 20
56.1451641204
 30
0.0
 10
19.9959255615
 20
53.7668071355
 30
0.0
 10
22.6613489927
 20
51.562939881
 30
0.0
 10
24.6626296817
 20
50.2697912105
 30
0.0
 10
25.7258505526
 20
49.6559542414
 30
0.0
  0
SPLINE
  5
246
100
AcDbEntity
  8
0
100
AcDbSpline
 62
7
  6
BYLAYER
 70
0
 71
3
 72
15
 73
11
 74
0
 42
0.0000001
 43
0.0000001
 44
0.0000000001
 40
0.0
 40
0.0
 40
0.0
 40
0.0
 40
0.134419092
 40
0.2685047932
 40
0.4009597753
 40
0.5305812717
 40
0.6562326944
 40
0.7769288102
 40
0.8917620169
 40
1.0
 40
1.0
 40
1.0
 40
1.0
 10
25.6669788709
 20
102.8576389056
 30
0.0
 10
28.2935074288
 20
103.3936346223
 30
0.0
 10
33.5217799934
 20
104.5562464855
 30
0.0
 10
41.2617810719
 20
106.5709353861
 30
0.0
 10
48.8283868782
 20
108.8502167066
 30
0.0
 10
56.1420618793
 20
111.3661749155
 30
0.0
 10
63.1286878144
 20
114.0929689636
 30
0.0
 10
69.7266309856
 20
116.9877756781
 30
0.0
 10
75.8818492744
 20
120.0110932234
 30
0.0
 10
79.7876016752
 20
122.1442295505
 30
0.0
 10
81.6577220564
 20
123.2221702812
 30
0.0
  0
SPLINE
  5
247
100
AcDbEntity
  8
0
100
AcDbSpline
 62
7
  6
BYLAYER
 70
0
 71
3
 72
27
 73
23
 74
0
 42
0.0000001
 43
0.0000001
 44
0.0000000001
 40
0.0
 40
0.0
 40
0.0
 40
0.0
 40
0.0639077777
 40
0.132103037
 40
0.2037393669
 40
0.2777594096
 40
0.3529815527
 40
0.428160481
 40
0.5020537861
 40
0.5734851617
 40
0.6414117658
 40
0.7049995136
 40
0.7637125313
 40
0.7912066349
 40
0.817475723
 40
0.8665828111
 40
0.8897530738
 40
0.9122212847
 40
0.9342180946
 40
0.9560005555
 40
0.977838896
 40
1.0
 40
1.0
 40
1.0
 40
1.0
 10
25.7258505526
 20
49.6559542414
 30
0.0
 10
27.226650688
 20
48.7894864813
 30
0.0
 10
30.4576976261
 20
47.2161913544
 30
0.0
 10
35.6837948278
 20
45.3928267173
 30
0.0
 10
41.3384598151
 20
44.0631119478
 30
0.0
 10
47.282690505
 20
43.2599887457
 30
0.0
 10
53.3712438054
 20
43.0027536258
 30
0.0
 10
59.4546278527
 20
43.297810188
 30
0.0
 10
65.3836093307
 20
44.1379075927
 30
0.0
 10
71.012966247
 20
45.5025242112
 30
0.0
 10
76.2058768952
 20
47.3589664716
 30
0.0
 10
80.8357396211
 20
49.6628607901
 30
0.0
 10
84.2050614758
 20
51.9617826336
 30
0.0
 10
86.4933023541
 20
53.9842482074
 30
0.0
 10
88.4113141031
 20
56.0128281485
 30
0.0
 10
89.963062017
 20
58.2187172021
 30
0.0
 10
91.0472574642
 20
60.5540646481
 30
0.0
 10
91.6071828166
 20
62.3060269209
 30
0.0
 10
91.9247554162
 20
64.0796240206
 30
0.0
 10
91.9969819341
 20
65.8631739304
 30
0.0
 10
91.8236733522
 20
67.6438748385
 30
0.0
 10
91.5480149638
 20
68.8089320406
 30
0.0
 10
91.3725933986
 20
69.3836929155
 30
0.0
  0
SPLINE
  5
248
100
AcDbEntity
  8
0
100
AcDbSpline
 62
7
  6
BYLAYER
 70
0
 71
3
 72
11
 73
7
 74
0
 42
0.0000001
 43
0.0000001
 44
0.0000000001
 40
0.0
 40
0.0
 40
0.0
 40
0.0
 40
0.2492998457
 40
0.4990423104
 40
0.7491746534
 40
1.0
 40
1.0
 40
1.0
 40
1.0
 10
89.9279541444
 20
121.9335247425
 30
0.0
 10
90.3708476335
 20
121.6778258521
 30
0.0
 10
91.2548268425
 20
121.1614918808
 30
0.0
 10
92.5807105453
 20
120.3843907227
 30
0.0
 10
93.9074976592
 20
119.6026346493
 30
0.0
 10
94.7899838202
 20
119.0760472355
 30
0.0
 10
95.231277083
 20
118.8114581717
 30
0.0
  0
SPLINE
  5
249
100
AcDbEntity
  8
0
100
AcDbSpline
 62
7
  6
BYLAYER
 70
0
 71
3
 72
11
 73
7
 74
0
 42
0.0000001
 43
0.0000001
 44
0.0000000001
 40
0.0
 40
0.0
 40
0.0
 40
0.0
 40
0.2491572946
 40
0.4990224238
 40
0.7492868029
 40
1.0
 40
1.0
 40
1.0
 40
1.0
 10
84.6246312058
 20
124.9350694895
 30
0.0
 10
85.0671365406
 20
124.689435694
 30
0.0
 10
85.9523214937
 20
124.1955124913
 30
0.0
 10
87.27718312
 20
123.4463203944
 30
0.0
 10
88.6030464437
 20
122.692503605
 30
0.0
 10
89.4869108167
 20
122.188155466
 30
0.0
 10
89.9279541444
 20
121.9335247425
 30
0.0
  0
SPLINE
  5
24A
100
AcDbEntity
  8
0
100
AcDbSpline
 62
7
  6
BYLAYER
 70
0
 71
3
 72
11
 73
7
 74
0
 42
0.0000001
 43
0.0000001
 44
0.0000000001
 40
0.0
 40
0.0
 40
0.0
 40
0.0
 40
0.2761636781
 40
0.5333681436
 40
0.7733596588
 40
1.0
 40
1.0
 40
1.0
 40
1.0
 10
102.0920737437
 20
129.0179799618
 30
0.0
 10
103.0129178051
 20
128.4862714582
 30
0.0
 10
104.7288883641
 20
127.3439357549
 30
0.0
 10
106.9427702152
 20
125.3335458657
 30
0.0
 10
108.6589388157
 20
123.117957266
 30
0.0
 10
109.459317162
 20
121.4913467638
 30
0.0
 10
109.7533064722
 20
120.6697133259
 30
0.0
  0
SPLINE
  5
24B
100
AcDbEntity
  8
0
100
AcDbSpline
 62
7
  6
BYLAYER
 70
0
 71
3
 72
8
 73
4
 74
0
 42
0.0000001
 43
0.0000001
 44
0.0000000001
 40
0.0
 40
0.0
 40
0.0
 40
0.0
 40
1.0
 40
1.0
 40
1.0
 40
1.0
 10
93.2551184365
 20
117.6529921378
 30
0.0
 10
93.9137240058
 20
118.0393418476
 30
0.0
 10
94.5724394569
 20
118.4255043188
 30
0.0
 10
95.231277083
 20
118.8114581717
 30
0.0
  0
SPLINE
  5
24C
100
AcDbEntity
  8
0
100
AcDbSpline
 62
7
  6
BYLAYER
 70
0
 71
3
 72
14
 73
10
 74
0
 42
0.0000001
 43
0.0000001
 44
0.0000000001
 40
0.0
 40
0.0
 40
0.0
 40
0.0
 40
0.1254912119
 40
0.2565854484
 40
0.3895236117
 40
0.5213232638
 40
0.7722754107
 40
0.8892843724
 40
1.0
 40
1.0
 40
1.0
 40
1.0
 10
102.5528020235
 20
108.0067702638
 30
0.0
 10
102.5528020357
 20
107.8029694723
 30
0.0
 10
102.5392126552
 20
107.3861410236
 30
0.0
 10
102.4753358451
 20
106.7562416106
 30
0.0
 10
102.3566623167
 20
106.1233351059
 30
0.0
 10
102.1222490694
 20
105.3186660257
 30
0.0
 10
101.7706716069
 20
104.5758877924
 30
0.0
 10
101.2961987969
 20
103.9572138181
 30
0.0
 10
101.0305316252
 20
103.6977381163
 30
0.0
 10
100.8930035291
 20
103.5819114426
 30
0.0
  0
SPLINE
  5
24D
100
AcDbEntity
  8
0
100
AcDbSpline
 62
7
  6
BYLAYER
 70
0
 71
3
 72
14
 73
10
 74
0
 42
0.0000001
 43
0.0000001
 44
0.0000000001
 40
0.0
 40
0.0
 40
0.0
 40
0.0
 40
0.2439946842
 40
0.3673676821
 40
0.4910735874
 40
0.6152830302
 40
0.7406725544
 40
0.868401564
 40
1.0
 40
1.0
 40
1.0
 40
1.0
 10
83.3881310624
 20
69.0689277224
 30
0.0
 10
84.1683422145
 20
69.8631555402
 30
0.0
 10
85.2525172254
 20
71.157474443
 30
0.0
 10
86.4166193134
 20
73.0763526648
 30
0.0
 10
87.1248843722
 20
74.6201657233
 30
0.0
 10
87.6326676782
 20
76.251412345
 30
0.0
 10
87.9107638716
 20
77.9567632189
 30
0.0
 10
87.9328055699
 20
79.718522597
 30
0.0
 10
87.7659237797
 20
80.8955219323
 30
0.0
 10
87.637530536
 20
81.4821147814
 30
0.0
  0
SPLINE
  5
24E
100
AcDbEntity
  8
0
100
AcDbSpline
 62
7
  6
BYLAYER
 70
0
 71
3
 72
11
 73
7
 74
0
 42
0.0000001
 43
0.0000001
 44
0.0000000001
 40
0.0
 40
0.0
 40
0.0
 40
0.0
 40
0.3594512035
 40
0.4952951298
 40
0.6485750729
 40
1.0
 40
1.0
 40
1.0
 40
1.0
 10
88.3478573683
 20
133.5066741867
 30
0.0
 10
88.2962247726
 20
133.5110906656
 30
0.0
 10
88.2329172291
 20
133.447231329
 30
0.0
 10
88.1837041636
 20
133.3710001403
 30
0.0
 10
88.1390875612
 20
133.2892203356
 30
0.0
 10
88.1105768896
 20
133.2224307327
 30
0.0
 10
88.0922430319
 20
133.1752003237
 30
0.0
  0
SPLINE
  5
24F
100
AcDbEntity
  8
0
100
AcDbSpline
 62
7
  6
BYLAYER
 70
0
 71
3
 72
9
 73
5
 74
0
 42
0.0000001
 43
0.0000001
 44
0.0000000001
 40
0.0
 40
0.0
 40
0.0
 40
0.0
 40
0.4733968838
 40
1.0
 40
1.0
 40
1.0
 40
1.0
 10
85.7195639026
 20
132.9877053933
 30
0.0
 10
86.0548538883
 20
133.1717459814
 30
0.0
 10
86.8631036126
 20
133.3862673181
 30
0.0
 10
87.6816631183
 20
133.2867455656
 30
0.0
 10
88.0922474599
 20
133.1751991156
 30
0.0
  0
SPLINE
  5
250
100
AcDbEntity
  8
0
100
AcDbSpline
 62
7
  6
BYLAYER
 70
0
 71
3
 72
15
 73
11
 74
0
 42
0.0000001
 43
0.0000001
 44
0.0000000001
 40
0.0
 40
0.0
 40
0.0
 40
0.0
 40
0.1122747414
 40
0.2305076944
 40
0.3537102634
 40
0.4807343536
 40
0.6102762146
 40
0.7409443635
 40
0.8713320918
 40
1.0
 40
1.0
 40
1.0
 40
1.0
 10
29.6729274259
 20
64.1826141133
 30
0.0
 10
30.7981224575
 20
63.5867862933
 30
0.0
 10
33.176113597
 20
62.4888175624
 30
0.0
 10
36.964761695
 20
61.1563219582
 30
0.0
 10
41.0157586687
 20
60.1126653919
 30
0.0
 10
45.2630768492
 20
59.374568744
 30
0.0
 10
49.6383249666
 20
58.9540657978
 30
0.0
 10
54.0707932716
 20
58.8577549326
 30
0.0
 10
58.4881751349
 20
59.0874198655
 30
0.0
 10
61.4057247078
 20
59.4589573386
 30
0.0
 10
62.8448002939
 20
59.6999544949
 30
0.0
  0
SPLINE
  5
251
100
AcDbEntity
  8
0
100
AcDbSpline
 62
7
  6
BYLAYER
 70
0
 71
3
 72
11
 73
7
 74
0
 42
0.0000001
 43
0.0000001
 44
0.0000000001
 40
0.0
 40
0.0
 40
0.0
 40
0.0
 40
0.2253504083
 40
0.4612304399
 40
0.7168918034
 40
1.0
 40
1.0
 40
1.0
 40
1.0
 10
74.504045871
 20
127.2186986169
 30
0.0
 10
74.662169003
 20
127.2938624873
 30
0.0
 10
75.0123698683
 20
127.39616937
 30
0.0
 10
75.5750426055
 20
127.3961787077
 30
0.0
 10
76.1653489588
 20
127.259191552
 30
0.0
 10
76.5504537479
 20
127.0893155138
 30
0.0
 10
76.7446715314
 20
126.9860769946
 30
0.0
  0
SPLINE
  5
252
100
AcDbEntity
  8
0
100
AcDbSpline
 62
7
  6
BYLAYER
 70
0
 71
3
 72
16
 73
12
 74
0
 42
0.0000001
 43
0.0000001
 44
0.0000000001
 40
0.0
 40
0.0
 40
0.0
 40
0.0
 40
0.1267836053
 40
0.2597852734
 40
0.3275438698
 40
0.3952694745
 40
0.5280279811
 40
0.6547735995
 40
0.7744418087
 40
0.8885501522
 40
1.0
 40
1.0
 40
1.0
 40
1.0
 10
30.9583446415
 20
52.5749346424
 30
0.0
 10
30.9164979296
 20
52.3561446723
 30
0.0
 10
30.8930154096
 20
51.8944210208
 30
0.0
 10
31.0064699279
 20
51.3242370164
 30
0.0
 10
31.1813099738
 20
50.8849340677
 30
0.0
 10
31.409074525
 20
50.4711766047
 30
0.0
 10
31.7821022913
 20
50.0239488316
 30
0.0
 10
32.3412097109
 20
49.644666889
 30
0.0
 10
32.9582437878
 20
49.4597486266
 30
0.0
 10
33.5749519312
 20
49.479339869
 30
0.0
 10
33.9534022776
 20
49.6225456409
 30
0.0
 10
34.1229706669
 20
49.7204742773
 30
0.0
  0
SPLINE
  5
253
100
AcDbEntity
  8
0
100
AcDbSpline
 62
7
  6
BYLAYER
 70
0
 71
3
 72
13
 73
9
 74
0
 42
0.0000001
 43
0.0000001
 44
0.0000000001
 40
0.0
 40
0.0
 40
0.0
 40
0.0
 40
0.1054283377
 40
0.2232555361
 40
0.3507703571
 40
0.4847322698
 40
0.7558502636
 40
1.0
 40
1.0
 40
1.0
 40
1.0
 10
109.7531046158
 20
120.6695806564
 30
0.0
 10
109.8847205398
 20
120.5198580006
 30
0.0
 10
110.1381824138
 20
120.1804796005
 30
0.0
 10
110.4755317894
 20
119.6084332957
 30
0.0
 10
110.7844950786
 20
118.9602592424
 30
0.0
 10
111.1477105665
 20
118.0200961367
 30
0.0
 10
111.4690967192
 20
116.8318461766
 30
0.0
 10
111.5983537974
 20
115.8610276788
 30
0.0
 10
111.6112284077
 20
115.3995594256
 30
0.0
  0
SPLINE
  5
254
100
AcDbEntity
  8
0
100
AcDbSpline
 62
7
  6
BYLAYER
 70
0
 71
3
 72
9
 73
5
 74
0
 42
0.0000001
 43
0.0000001
 44
0.0000000001
 40
0.0
 40
0.0
 40
0.0
 40
0.0
 40
0.2511266281
 40
1.0
 40
1.0
 40
1.0
 40
1.0
 10
99.1573370229
 20
114.0464097064
 30
0.0
 10
100.0451133636
 20
114.5995197928
 30
0.0
 10
103.5732290743
 20
116.8132834477
 30
0.0
 10
107.0917392127
 20
119.0428095
 30
0.0
 10
109.7531046158
 20
120.6695806564
 30
0.0
  0
SPLINE
  5
255
100
AcDbEntity
  8
0
100
AcDbSpline
 62
7
  6
BYLAYER
 70
0
 71
3
 72
15
 73
11
 74
0
 42
0.0000001
 43
0.0000001
 44
0.0000000001
 40
0.0
 40
0.0
 40
0.0
 40
0.0
 40
0.1304373301
 40
0.2617057842
 40
0.3924000933
 40
0.5212859646
 40
0.6472734297
 40
0.7694968679
 40
0.8872368524
 40
1.0
 40
1.0
 40
1.0
 40
1.0
 10
92.2643636507
 20
117.0985614361
 30
0.0
 10
90.4454940547
 20
116.0467211393
 30
0.0
 10
86.8430121011
 20
113.8539689546
 30
0.0
 10
81.6057828325
 20
110.3102777091
 30
0.0
 10
76.584346907
 20
106.5071905239
 30
0.0
 10
71.8521898154
 20
102.4789262648
 30
0.0
 10
67.4795434734
 20
98.2565487297
 30
0.0
 10
63.5162978914
 20
93.8864402025
 30
0.0
 10
60.008433527
 20
89.4106864288
 30
0.0
 10
57.9403297591
 20
86.3217333334
 30
0.0
 10
56.9919226036
 20
84.7725833478
 30
0.0
  0
SPLINE
  5
256
100
AcDbEntity
  8
0
100
AcDbSpline
 62
7
  6
BYLAYER
 70
0
 71
3
 72
13
 73
9
 74
0
 42
0.0000001
 43
0.0000001
 44
0.0000000001
 40
0.0
 40
0.0
 40
0.0
 40
0.0
 40
0.2653310982
 40
0.5248177974
 40
0.6502330523
 40
0.7716552514
 40
0.8884405628
 40
1.0
 40
1.0
 40
1.0
 40
1.0
 10
56.9919352314
 20
84.7725419353
 30
0.0
 10
54.9325256123
 20
84.7186948553
 30
0.0
 10
50.848996575
 20
84.8539169125
 30
0.0
 10
45.8456422593
 20
85.6252792349
 30
0.0
 10
42.0351654286
 20
86.6027916015
 30
0.0
 10
39.3528539972
 20
87.4917460831
 30
0.0
 10
36.8429537201
 20
88.5352701072
 30
0.0
 10
35.2636177797
 20
89.346450277
 30
0.0
 10
34.511910343
 20
89.77680791
 30
0.0
  0
SPLINE
  5
257
100
AcDbEntity
  8
0
100
AcDbSpline
 62
7
  6
BYLAYER
 70
0
 71
3
 72
13
 73
9
 74
0
 42
0.0000001
 43
0.0000001
 44
0.0000000001
 40
0.0
 40
0.0
 40
0.0
 40
0.0
 40
0.2772565078
 40
0.57279286
 40
0.705077919
 40
0.818038132
 40
0.9128307109
 40
1.0
 40
1.0
 40
1.0
 40
1.0
 10
34.511910343
 20
89.77680791
 30
0.0
 10
34.4910657229
 20
89.7648229929
 30
0.0
 10
34.4412753328
 20
89.7521659224
 30
0.0
 10
34.3790932161
 20
89.7572378588
 30
0.0
 10
34.3352121671
 20
89.7749010673
 30
0.0
 10
34.3113648546
 20
89.7930106812
 30
0.0
 10
34.2976309346
 20
89.8156962429
 30
0.0
 10
34.2978398043
 20
89.8324449275
 30
0.0
 10
34.2999428238
 20
89.8397060819
 30
0.0
  0
SPLINE
  5
258
100
AcDbEntity
  8
0
100
AcDbSpline
 62
7
  6
BYLAYER
 70
0
 71
3
 72
16
 73
12
 74
0
 42
0.0000001
 43
0.0000001
 44
0.0000000001
 40
0.0
 40
0.0
 40
0.0
 40
0.0
 40
0.1493551269
 40
0.2905517349
 40
0.4236130764
 40
0.4872751015
 40
0.5491298917
 40
0.6678761968
 40
0.7813152669
 40
0.8913157653
 40
1.0
 40
1.0
 40
1.0
 40
1.0
 10
34.3350233681
 20
89.8789226886
 30
0.0
 10
33.6270718579
 20
90.2910986123
 30
0.0
 10
32.2836905742
 20
91.1536355857
 30
0.0
 10
30.45998978
 20
92.5997174626
 30
0.0
 10
29.1422189901
 20
93.9100705675
 30
0.0
 10
28.2366548017
 20
95.0028616679
 30
0.0
 10
27.4523634856
 20
96.0900653751
 30
0.0
 10
26.6482430011
 20
97.495482591
 30
0.0
 10
25.9808805301
 20
99.2587876751
 30
0.0
 10
25.6340433121
 20
101.0562942988
 30
0.0
 10
25.6203547938
 20
102.2633113483
 30
0.0
 10
25.6669744074
 20
102.8576073605
 30
0.0
  0
SPLINE
  5
259
100
AcDbEntity
  8
0
100
AcDbSpline
 62
7
  6
BYLAYER
 70
0
 71
3
 72
14
 73
10
 74
0
 42
0.0000001
 43
0.0000001
 44
0.0000000001
 40
0.0
 40
0.0
 40
0.0
 40
0.0
 40
0.2009986405
 40
0.3200523819
 40
0.4485105387
 40
0.583831629
 40
0.7230237167
 40
0.8628925412
 40
1.0
 40
1.0
 40
1.0
 40
1.0
 10
77.7336674107
 20
64.7813669525
 30
0.0
 10
76.8162029228
 20
64.2516482243
 30
0.0
 10
75.313794357
 20
63.4781039542
 30
0.0
 10
73.1442487447
 20
62.5378855415
 30
0.0
 10
71.2567646623
 20
61.822132027
 30
0.0
 10
69.2365408829
 20
61.1641251022
 30
0.0
 10
67.1310892291
 20
60.5805712309
 30
0.0
 10
64.9927859897
 20
60.0887210375
 30
0.0
 10
63.5576378649
 20
59.818834781
 30
0.0
 10
62.8449163165
 20
59.6994293709
 30
0.0
  0
SPLINE
  5
25A
100
AcDbEntity
  8
0
100
AcDbSpline
 62
7
  6
BYLAYER
 70
0
 71
3
 72
15
 73
11
 74
0
 42
0.0000001
 43
0.0000001
 44
0.0000000001
 40
0.0
 40
0.0
 40
0.0
 40
0.0
 40
0.1758689998
 40
0.335279547
 40
0.4768909307
 40
0.6017176438
 40
0.7127093239
 40
0.8137251145
 40
0.9084959029
 40
1.0
 40
1.0
 40
1.0
 40
1.0
 10
62.8463287676
 20
59.6997261424
 30
0.0
 10
64.0070121712
 20
63.4318603745
 30
0.0
 10
66.4936638369
 20
70.4656317643
 30
0.0
 10
70.8010124778
 20
80.1603807296
 30
0.0
 10
75.3158024956
 20
88.4894738633
 30
0.0
 10
79.9034569359
 20
95.5231146303
 30
0.0
 10
84.5229803697
 20
101.4258503292
 30
0.0
 10
89.209332117
 20
106.3919846252
 30
0.0
 10
94.0348543665
 20
110.5883505515
 30
0.0
 10
97.4313324059
 20
112.9710907107
 30
0.0
 10
99.1573127085
 20
114.0464250659
 30
0.0
  0
SPLINE
  5
25B
100
AcDbEntity
  8
0
100
AcDbSpline
 62
7
  6
BYLAYER
 70
0
 71
3
 72
14
 73
10
 74
0
 42
0.0000001
 43
0.0000001
 44
0.0000000001
 40
0.0
 40
0.0
 40
0.0
 40
0.0
 40
0.1066257339
 40
0.2202189712
 40
0.4675184918
 40
0.5993767937
 40
0.7338291722
 40
0.8683422813
 40
1.0
 40
1.0
 40
1.0
 40
1.0
 10
99.1573127085
 20
114.0464250659
 30
0.0
 10
99.37387066
 20
113.9114845241
 30
0.0
 10
99.8004085877
 20
113.5985669837
 30
0.0
 10
100.6140256805
 20
112.8278491021
 30
0.0
 10
101.3263666537
 20
111.8741531378
 30
0.0
 10
101.9017704326
 20
110.7862843411
 30
0.0
 10
102.253200034
 20
109.8911618413
 30
0.0
 10
102.490195404
 20
108.9595443635
 30
0.0
 10
102.5528054728
 20
108.3218348112
 30
0.0
 10
102.5528054598
 20
108.0067729842
 30
0.0
  0
SPLINE
  5
25C
100
AcDbEntity
  8
0
100
AcDbSpline
 62
7
  6
BYLAYER
 70
0
 71
3
 72
23
 73
19
 74
0
 42
0.0000001
 43
0.0000001
 44
0.0000000001
 40
0.0
 40
0.0
 40
0.0
 40
0.0
 40
0.0349844637
 40
0.0697631693
 40
0.104316732
 40
0.1386317092
 40
0.2064852031
 40
0.2732730265
 40
0.4033857634
 40
0.5288799752
 40
0.5899719538
 40
0.6500377602
 40
0.7092218255
 40
0.767741506
 40
0.8258481216
 40
0.8838058454
 40
0.9418094185
 40
1.0
 40
1.0
 40
1.0
 40
1.0
 10
62.845532536
 20
59.6999473369
 30
0.0
 10
62.7335075557
 20
60.490929558
 30
0.0
 10
62.541452372
 20
62.0729325676
 30
0.0
 10
62.3594112444
 20
64.4488088947
 30
0.0
 10
62.2822088612
 20
66.8151303647
 30
0.0
 10
62.3137938006
 20
69.93779758
 30
0.0
 10
62.6010181328
 20
73.7905361777
 30
0.0
 10
63.5540674634
 20
79.7663416891
 30
0.0
 10
65.5947736717
 20
86.8748958667
 30
0.0
 10
68.6689632569
 20
93.4552307336
 30
0.0
 10
71.6359193042
 20
98.2483083063
 30
0.0
 10
74.0668029005
 20
101.577517056
 30
0.0
 10
76.7001826623
 20
104.6714814457
 30
0.0
 10
79.5132775689
 20
107.540154138
 30
0.0
 10
82.4885903969
 20
110.1975727087
 30
0.0
 10
85.6078109456
 20
112.664838606
 30
0.0
 10
88.8590766794
 20
114.9578677021
 30
0.0
 10
91.1036474201
 20
116.3752840653
 30
0.0
 10
92.2448772275
 20
117.0559310888
 30
0.0
  0
SPLINE
  5
25D
100
AcDbEntity
  8
0
100
AcDbSpline
 62
7
  6
BYLAYER
 70
0
 71
3
 72
11
 73
7
 74
0
 42
0.0000001
 43
0.0000001
 44
0.0000000001
 40
0.0
 40
0.0
 40
0.0
 40
0.0
 40
0.2289863814
 40
0.4704284659
 40
0.7285843671
 40
1.0
 40
1.0
 40
1.0
 40
1.0
 10
103.0929885346
 20
129.1176427571
 30
0.0
 10
103.0235239795
 20
129.1577417794
 30
0.0
 10
102.8639576293
 20
129.2127978575
 30
0.0
 10
102.6052936769
 20
129.2152378299
 30
0.0
 10
102.3417600263
 20
129.1461613266
 30
0.0
 10
102.1737602253
 20
129.065247136
 30
0.0
 10
102.091473952
 20
129.0176324894
 30
0.0
  0
SPLINE
  5
25E
100
AcDbEntity
  8
0
100
AcDbSpline
 62
7
  6
BYLAYER
 70
0
 71
3
 72
15
 73
11
 74
0
 42
0.0000001
 43
0.0000001
 44
0.0000000001
 40
0.0
 40
0.0
 40
0.0
 40
0.0
 40
0.0985920279
 40
0.2113900258
 40
0.3369728022
 40
0.4716969334
 40
0.6106617048
 40
0.7484057407
 40
0.8797076914
 40
1.0
 40
1.0
 40
1.0
 40
1.0
 10
34.8350310289
 20
50.3531907277
 30
0.0
 10
34.6994800744
 20
50.3688562272
 30
0.0
 10
34.4142145137
 20
50.4522175219
 30
0.0
 10
34.0079622338
 20
50.6872401754
 30
0.0
 10
33.6144230893
 20
51.0255150735
 30
0.0
 10
33.2554123255
 20
51.4482184277
 30
0.0
 10
32.9508532936
 20
51.9315200345
 30
0.0
 10
32.7179061886
 20
52.4480669711
 30
0.0
 10
32.570090879
 20
52.9682660117
 30
0.0
 10
32.5317581054
 20
53.3168531447
 30
0.0
 10
32.5317581054
 20
53.4833399069
 30
0.0
  0
SPLINE
  5
25F
100
AcDbEntity
  8
0
100
AcDbSpline
 62
7
  6
BYLAYER
 70
0
 71
3
 72
13
 73
9
 74
0
 42
0.0000001
 43
0.0000001
 44
0.0000000001
 40
0.0
 40
0.0
 40
0.0
 40
0.0
 40
0.1117353411
 40
0.2286070818
 40
0.3505742481
 40
0.4775574405
 40
0.7400300864
 40
1.0
 40
1.0
 40
1.0
 40
1.0
 10
111.5859848836
 20
119.7577976537
 30
0.0
 10
111.5581325638
 20
119.8348672629
 30
0.0
 10
111.4841437656
 20
119.9869248189
 30
0.0
 10
111.3257325878
 20
120.1914744263
 30
0.0
 10
111.1224628331
 20
120.3692714086
 30
0.0
 10
110.7962698586
 20
120.5582384162
 30
0.0
 10
110.3303374744
 20
120.6903883684
 30
0.0
 10
109.9428365758
 20
120.6909858444
 30
0.0
 10
109.7533736885
 20
120.6696094356
 30
0.0
  0
SPLINE
  5
260
100
AcDbEntity
  8
0
100
AcDbSpline
 62
7
  6
BYLAYER
 70
0
 71
3
 72
11
 73
7
 74
0
 42
0.0000001
 43
0.0000001
 44
0.0000000001
 40
0.0
 40
0.0
 40
0.0
 40
0.0
 40
0.2123029509
 40
0.4452661219
 40
0.7073394253
 40
1.0
 40
1.0
 40
1.0
 40
1.0
 10
112.099168117
 20
116.162591437
 30
0.0
 10
112.098910523
 20
116.0960323558
 30
0.0
 10
112.0779444299
 20
115.9557083178
 30
0.0
 10
111.9823072386
 20
115.7526075939
 30
0.0
 10
111.8235981146
 20
115.5607654417
 30
0.0
 10
111.6873057196
 20
115.4508509176
 30
0.0
 10
111.6112283928
 20
115.3995596442
 30
0.0
  0
SPLINE
  5
261
100
AcDbEntity
  8
0
100
AcDbSpline
 62
7
  6
BYLAYER
 70
0
 71
3
 72
15
 73
11
 74
0
 42
0.0000001
 43
0.0000001
 44
0.0000000001
 40
0.0
 40
0.0
 40
0.0
 40
0.0
 40
0.149319483
 40
0.2894180708
 40
0.4206716792
 40
0.5441033588
 40
0.6613248088
 40
0.7745695746
 40
0.8865075605
 40
1.0
 40
1.0
 40
1.0
 40
1.0
 10
27.2818908307
 20
65.5791477075
 30
0.0
 10
26.4339681883
 20
66.12548565
 30
0.0
 10
24.8417085478
 20
67.2678335134
 30
0.0
 10
22.7361692585
 20
69.1868359959
 30
0.0
 10
21.015312689
 20
71.2359807456
 30
0.0
 10
19.7031424227
 20
73.3911429261
 30
0.0
 10
18.8204912228
 20
75.6267061545
 30
0.0
 10
18.3841152554
 20
77.9130131481
 30
0.0
 10
18.4029737101
 20
80.2151347673
 30
0.0
 10
18.7150302345
 20
81.7168619258
 30
0.0
 10
18.9389168404
 20
82.4501137733
 30
0.0
  0
SPLINE
  5
262
100
AcDbEntity
  8
0
100
AcDbSpline
 62
7
  6
BYLAYER
 70
0
 71
3
 72
9
 73
5
 74
0
 42
0.0000001
 43
0.0000001
 44
0.0000000001
 40
0.0
 40
0.0
 40
0.0
 40
0.0
 40
0.2652616941
 40
1.0
 40
1.0
 40
1.0
 40
1.0
 10
32.5317581054
 20
53.4833399069
 30
0.0
 10
32.5317581054
 20
53.5302093413
 30
0.0
 10
32.5373823019
 20
53.706754898
 30
0.0
 10
32.5662876166
 20
53.8833194734
 30
0.0
 10
32.6049245395
 20
54.0072585947
 30
0.0
  0
SPLINE
  5
263
100
AcDbEntity
  8
0
100
AcDbSpline
 62
7
  6
BYLAYER
 70
0
 71
3
 72
10
 73
6
 74
0
 42
0.0000001
 43
0.0000001
 44
0.0000000001
 40
0.0
 40
0.0
 40
0.0
 40
0.0
 40
0.2379019236
 40
0.4817801212
 40
1.0
 40
1.0
 40
1.0
 40
1.0
 10
31.8254960759
 20
53.8787869557
 30
0.0
 10
31.7150597727
 20
53.8149934595
 30
0.0
 10
31.5061237923
 20
53.6581720925
 30
0.0
 10
31.1607923974
 20
53.2434545987
 30
0.0
 10
31.0105344556
 20
52.8478021469
 30
0.0
 10
30.9583446415
 20
52.5749346424
 30
0.0
  0
SPLINE
  5
264
100
AcDbEntity
  8
0
100
AcDbSpline
 62
7
  6
BYLAYER
 70
0
 71
3
 72
11
 73
7
 74
0
 42
0.0000001
 43
0.0000001
 44
0.0000000001
 40
0.0
 40
0.0
 40
0.0
 40
0.0
 40
0.2979485384
 40
0.5617191211
 40
0.7941050865
 40
1.0
 40
1.0
 40
1.0
 40
1.0
 10
83.3875495719
 20
69.0689902947
 30
0.0
 10
83.7191090279
 20
70.6443416595
 30
0.0
 10
84.3964309965
 20
73.6036218158
 30
0.0
 10
85.4921689771
 20
77.7527510899
 30
0.0
 10
86.5741434588
 20
81.3890203039
 30
0.0
 10
87.3180616877
 20
83.6377720719
 30
0.0
 10
87.6874165341
 20
84.6871514468
 30
0.0
  0
SPLINE
  5
265
100
AcDbEntity
  8
0
100
AcDbSpline
 62
7
  6
BYLAYER
 70
0
 71
3
 72
15
 73
11
 74
0
 42
0.0000001
 43
0.0000001
 44
0.0000000001
 40
0.0
 40
0.0
 40
0.0
 40
0.0
 40
0.1857109431
 40
0.3541679684
 40
0.5054584419
 40
0.6377345857
 40
0.7514983755
 40
0.8480172132
 40
0.9294165563
 40
1.0
 40
1.0
 40
1.0
 40
1.0
 10
111.611228407
 20
115.3995594251
 30
0.0
 10
111.6083724486
 20
115.2070276119
 30
0.0
 10
111.6110739389
 20
114.839774856
 30
0.0
 10
111.589967697
 20
114.3158350676
 30
0.0
 10
111.5442992863
 20
113.8491626348
 30
0.0
 10
111.4811811347
 20
113.4417400922
 30
0.0
 10
111.3965446148
 20
113.0961551185
 30
0.0
 10
111.2895414194
 20
112.812264586
 30
0.0
 10
111.1603951599
 20
112.5876142804
 30
0.0
 10
111.0507690048
 20
112.4713803219
 30
0.0
 10
110.9930647075
 20
112.426368111
 30
0.0
  0
SPLINE
  5
266
100
AcDbEntity
  8
0
100
AcDbSpline
 62
7
  6
BYLAYER
 70
0
 71
3
 72
10
 73
6
 74
0
 42
0.0000001
 43
0.0000001
 44
0.0000000001
 40
0.0
 40
0.0
 40
0.0
 40
0.0
 40
0.2455714221
 40
0.495248327
 40
1.0
 40
1.0
 40
1.0
 40
1.0
 10
102.5528021634
 20
108.0067703622
 30
0.0
 10
103.3032231133
 20
108.6008540812
 30
0.0
 10
104.7972497468
 20
109.8234187309
 30
0.0
 10
107.7811255883
 20
112.330254006
 30
0.0
 10
110.0471411173
 20
114.2063389035
 30
0.0
 10
111.611228407
 20
115.3995594251
 30
0.0
  0
SPLINE
  5
267
100
AcDbEntity
  8
0
100
AcDbSpline
 62
7
  6
BYLAYER
 70
0
 71
3
 72
9
 73
5
 74
0
 42
0.0000001
 43
0.0000001
 44
0.0000000001
 40
0.0
 40
0.0
 40
0.0
 40
0.0
 40
0.4786990991
 40
1.0
 40
1.0
 40
1.0
 40
1.0
 10
83.3874909063
 20
69.070363815
 30
0.0
 10
82.5921204907
 20
68.2608277355
 30
0.0
 10
80.7927623312
 20
66.702448756
 30
0.0
 10
78.8036213424
 20
65.4004253788
 30
0.0
 10
77.733289895
 20
64.7825269164
 30
0.0
  0
SPLINE
  5
268
100
AcDbEntity
  8
0
100
AcDbSpline
 62
7
  6
BYLAYER
 70
0
 71
3
 72
15
 73
11
 74
0
 42
0.0000001
 43
0.0000001
 44
0.0000000001
 40
0.0
 40
0.0
 40
0.0
 40
0.0
 40
0.1575630312
 40
0.3023956782
 40
0.4352856706
 40
0.558385132
 40
0.6744022833
 40
0.7857453917
 40
0.8940238188
 40
1.0
 40
1.0
 40
1.0
 40
1.0
 10
77.733830169
 20
64.7828642082
 30
0.0
 10
78.4000063204
 20
67.3595507127
 30
0.0
 10
79.8437078943
 20
72.2639261377
 30
0.0
 10
82.3864070706
 20
79.1681034431
 30
0.0
 10
85.1455741013
 20
85.3563810804
 30
0.0
 10
88.101335585
 20
90.907600562
 30
0.0
 10
91.2766008971
 20
95.910994904
 30
0.0
 10
94.7114202282
 20
100.4307911104
 30
0.0
 10
98.4367153853
 20
104.4876584484
 30
0.0
 10
101.149319417
 20
106.8956788074
 30
0.0
 10
102.5528020235
 20
108.0067702638
 30
0.0
  0
SPLINE
  5
269
100
AcDbEntity
  8
0
100
AcDbSpline
 62
7
  6
BYLAYER
 70
0
 71
3
 72
9
 73
5
 74
0
 42
0.0000001
 43
0.0000001
 44
0.0000000001
 40
0.0
 40
0.0
 40
0.0
 40
0.0
 40
0.2533271156
 40
1.0
 40
1.0
 40
1.0
 40
1.0
 10
76.7446410923
 20
126.9860911205
 30
0.0
 10
77.7124167339
 20
127.4909011177
 30
0.0
 10
81.5218001998
 20
129.5044852603
 30
0.0
 10
85.292228772
 20
131.5911334332
 30
0.0
 10
88.0924069026
 20
133.1752893177
 30
0.0
  0
SPLINE
  5
26A
100
AcDbEntity
  8
0
100
AcDbSpline
 62
7
  6
BYLAYER
 70
0
 71
3
 72
10
 73
6
 74
0
 42
0.0000001
 43
0.0000001
 44
0.0000000001
 40
0.0
 40
0.0
 40
0.0
 40
0.0
 40
0.522800503
 40
0.7681703704
 40
1.0
 40
1.0
 40
1.0
 40
1.0
 10
88.0923704469
 20
133.1751956292
 30
0.0
 10
90.6429087035
 20
132.9398701716
 30
0.0
 10
94.3772155746
 20
132.2552961729
 30
0.0
 10
99.0019732776
 20
130.6175448219
 30
0.0
 10
101.108228175
 20
129.5857178434
 30
0.0
 10
102.0919096609
 20
129.0178851387
 30
0.0
  0
ENDSEC
  0
SECTION
  2
OBJECTS
  0
DICTIONARY
  5
C
100
AcDbDictionary
280
0
281
1
  3
ACAD_GROUP
350
D
  3
ACAD_MLINESTYLE
350
17
  3
ACAD_LAYOUT
350
1A
  3
ACAD_PLOTSETTINGS
350
19
  3
ACAD_PLOTSTYLENAME
350
E
  0
DICTIONARY
  5
D
102
{ACAD_REACTORS
330
C
102
}
100
AcDbDictionary
280
0
281
1
  0
ACDBDICTIONARYWDFLT
  5
E
102
{ACAD_REACTORS
330
C
102
}
100
AcDbDictionary
281
1
  3
Normal
350
F
100
AcDbDictionaryWithDefault
340
F
  0
DICTIONARY
  5
17
102
{ACAD_REACTORS
330
C
102
}
100
AcDbDictionary
280
0
281
1
  3
Standard
350
18
  0
DICTIONARY
  5
19
102
{ACAD_REACTORS
330
C
102
}
100
AcDbDictionary
281
1
  0
DICTIONARY
  5
1A
102
{ACAD_REACTORS
330
C
102
}
100
AcDbDictionary
281
1
  3
Model
350
26B
  3
Layout1
350
26C
  0
ACDBPLACEHOLDER
  5
F
102
{ACAD_REACTORS
330
E
102
}
  0
MLINESTYLE
  5
18
102
{ACAD_REACTORS
330
17
102
}
100
AcDbMlineStyle
  2
STANDARD
 70
0
  3

 62
256
 51
90.0
 52
90.0
 71
2
 49
0.5
 62
256
  6
BYLAYER
 49
-0.5
 62
256
  6
BYLAYER
  0
LAYOUT
  5
26B
102
{ACAD_REACTORS
330
1A
102
}
100
AcDbPlotSettings
  1

  2
none_device
  4

  6

 40
0.0
 41
0.0
 42
0.0
 43
0.0
 44
210.0
 45
297.0
 46
0.0
 47
0.0
 48
0.0
 49
0.0
140
0.0
141
0.0
142
1.0
143
1.0
 70
1024
 72
1
 73
0
 74
0
  7

 75
0
147
1.0
148
0.0
149
0.0
100
AcDbLayout
  1
Model
 70
0
 71
0
 10
0.0
 20
0.0
 11
210.0
 21
297.0
 12
0.0
 22
0.0
 32
0.0
 14
0.0
 24
0.0
 34
0.0
 15
0.0
 25
0.0
 35
0.0
146
0.0
 13
0.0
 23
0.0
 33
0.0
 16
1.0
 26
0.0
 36
0.0
 17
0.0
 27
1.0
 37
0.0
 76
0
330
210
345
0
346
0
  0
LAYOUT
  5
26C
102
{ACAD_REACTORS
330
1A
102
}
100
AcDbPlotSettings
  1

  2
none_device
  4

  6

 40
0.0
 41
0.0
 42
0.0
 43
0.0
 44
210.0
 45
297.0
 46
0.0
 47
0.0
 48
0.0
 49
0.0
140
0.0
141
0.0
142
1.0
143
1.0
 70
0
 72
1
 73
0
 74
0
  7

 75
0
147
1.0
148
0.0
149
0.0
100
AcDbLayout
  1
Layout1
 70
0
 71
1
 10
0.0
 20
0.0
 11
210.0
 21
297.0
 12
0.0
 22
0.0
 32
0.0
 14
0.0
 24
0.0
 34
0.0
 15
0.0
 25
0.0
 35
0.0
146
0.0
 13
0.0
 23
0.0
 33
0.0
 16
1.0
 26
0.0
 36
0.0
 17
0.0
 27
1.0
 37
0.0
 76
0
330
211
345
0
346
0
  0
ENDSEC
  0
EOF
