999
DXF file: C:\Users\sesa63760\Dev\_Creo\CAD\MCADID0000867_3D-CAD\drw0001_2.dxf
999
Pro/ENGINEER 2019471 by Parametric Technology Corporation
  0
SECTION
  2
HEADER
  9
$ACADVER
  1
AC1024
  9
$DWGCODEPAGE
  3
ANSI_1252
  9
$EXTMAX
 10
308.975273575
 20
436.9793154847
 30
0.0
  9
$EXTMIN
 10
0.0
 20
0.0
 30
0.0
  9
$LIMMIN
 10
0.0
 20
0.0
  9
$LIMMAX
 10
308.975273575
 20
436.9793154847
  9
$VIEWCTR
 10
154.4876367875
 20
218.4896577423
  9
$VIEWSIZE
 40
436.9793154847
  9
$CLAYER
  8
0
  9
$LTSCALE
 40
28.484577602
  9
$CELTYPE
  6
BYLAYER
  9
$DIMSCALE
 40
1.0
  9
$DIMASZ
 40
3.6782770664
  9
$DIMEXO
 40
1.0
  9
$DIMDLI
 40
19.6802536159
  9
$DIMEXE
 40
1.0
  9
$DIMCEN
 40
4.6611126985
  9
$DIMLFAC
 40
1.0
  9
$DIMBLK
  1
_FILLED
  9
$DIMALT
 70
0
  9
$DIMALTF
 40
0.0393700787
  9
$DIMTXT
 40
5.1495878929
  9
$DIMTOL
 70
1
  9
$DIMLIM
 70
0
  9
$DIMTFAC
 40
1.0
  9
$DIMTP
 40
0.01
  9
$DIMTM
 40
0.01
  9
$DIMGAP
 40
0.625
  9
$DIMDSEP
 70
46
  9
$AUNITS
 70
0
  9
$PDMODE
 70
3
  9
$PDSIZE
 40
0.3125
  9
$HANDSEED
  5
781
  9
$TILEMODE
 70
1
  9
$MEASUREMENT
 70
1
  9
$INSUNITS
 70
4
  0
ENDSEC
  0
SECTION
  2
CLASSES
  0
CLASS
  1
ACDBDICTIONARYWDFLT
  2
AcDbDictionaryWithDefault
  3
AutoCAD 2000
 90
0
 91
1
280
0
281
0
  0
CLASS
  1
ACDBPLACEHOLDER
  2
AcDbPlaceHolder
  3
AutoCAD 2000
 90
0
 91
1
280
0
281
0
  0
CLASS
  1
LAYOUT
  2
AcDbLayout
  3
AutoCAD 2000
 90
0
 91
0
280
0
281
0
  0
ENDSEC
  0
SECTION
  2
TABLES
  0
TABLE
  2
VPORT
  5
8
100
AcDbSymbolTable
 70
2
  0
VPORT
  5
1F4
100
AcDbSymbolTableRecord
100
AcDbViewportTableRecord
  2
*ACTIVE
 70
0
 10
0.0
 20
0.0
 11
1.0
 21
1.0
 12
154.4876367875
 22
218.4896577423
 13
0.0
 23
0.0
 14
1.0
 24
1.0
 15
0.0
 25
0.0
 16
0.0
 26
0.0
 36
1.0
 17
0.0
 27
0.0
 37
0.0
 40
436.9793154847
 41
0.7070707071
 42
50.0
 43
0.0
 44
0.0
 50
0.0
 51
0.0
 71
0
 72
100
 73
1
 74
1
 75
0
 76
0
 77
0
 78
0
  0
ENDTAB
  0
TABLE
  2
LTYPE
  5
5
100
AcDbSymbolTable
 70
6
  0
LTYPE
  5
14
100
AcDbSymbolTableRecord
100
AcDbLinetypeTableRecord
  2
BYBLOCK
 70
0
  3

 72
65
 73
0
 40
0.0
  0
LTYPE
  5
15
100
AcDbSymbolTableRecord
100
AcDbLinetypeTableRecord
  2
BYLAYER
 70
0
  3

 72
65
 73
0
 40
0.0
  0
LTYPE
  5
16
100
AcDbSymbolTableRecord
100
AcDbLinetypeTableRecord
  2
CONTINUOUS
 70
64
  3
Solid line
 72
65
 73
0
 40
0.0
  0
LTYPE
  5
1F5
100
AcDbSymbolTableRecord
100
AcDbLinetypeTableRecord
  2
CENTER
 70
64
  3
____ _ ____ _ ____ _ ____ _ ____ _ ____ _ ____
 72
65
 73
4
 40
0.6
 49
0.375
 74
0
 49
-0.075
 74
0
 49
0.075
 74
0
 49
-0.075
 74
0
  0
LTYPE
  5
1F6
100
AcDbSymbolTableRecord
100
AcDbLinetypeTableRecord
  2
HIDDEN
 70
64
  3
- - - - - - - - - - - - - - - - - - - -
 72
65
 73
2
 40
0.2
 49
0.1
 74
0
 49
-0.1
 74
0
  0
LTYPE
  5
1F7
100
AcDbSymbolTableRecord
100
AcDbLinetypeTableRecord
  2
PHANTOM
 70
64
  3
_____ _ _ _____ _ _ _____ _ _ _____
 72
65
 73
6
 40
0.8
 49
0.45
 74
0
 49
-0.05
 74
0
 49
0.1
 74
0
 49
-0.05
 74
0
 49
0.1
 74
0
 49
-0.05
 74
0
  0
LTYPE
  5
1F8
100
AcDbSymbolTableRecord
100
AcDbLinetypeTableRecord
  2
DOT
 70
64
  3
. . . . . . . . . . . . . . . . . . . .
 72
65
 73
2
 40
0.2
 49
0.1
 74
0
 49
-0.1
 74
0
  0
LTYPE
  5
1F9
100
AcDbSymbolTableRecord
100
AcDbLinetypeTableRecord
  2
DASHED
 70
64
  3
- - - - - - - - - - - - - - - - - - - -
 72
65
 73
2
 40
0.2
 49
0.1
 74
0
 49
-0.1
 74
0
  0
ENDTAB
  0
TABLE
  2
LAYER
  5
2
100
AcDbSymbolTable
 70
36
  0
LAYER
  5
10
100
AcDbSymbolTableRecord
100
AcDbLayerTableRecord
  2
0
 70
0
 62
7
  6
CONTINUOUS
370
-3
390
F
  0
LAYER
  5
1FA
100
AcDbSymbolTableRecord
100
AcDbLayerTableRecord
  2
DEFAULT_1
 70
0
 62
7
  6
CENTER
370
-3
390
F
  0
LAYER
  5
1FB
100
AcDbSymbolTableRecord
100
AcDbLayerTableRecord
  2
DEFAULT_2
 70
0
 62
8
  6
HIDDEN
370
-3
390
F
  0
LAYER
  5
1FC
100
AcDbSymbolTableRecord
100
AcDbLayerTableRecord
  2
DEFAULT_3
 70
0
 62
7
  6
PHANTOM
370
-3
390
F
  0
LAYER
  5
1FD
100
AcDbSymbolTableRecord
100
AcDbLayerTableRecord
  2
00_COMPONENTS
 70
0
 62
7
  6
CONTINUOUS
370
-3
390
F
  0
LAYER
  5
1FE
100
AcDbSymbolTableRecord
100
AcDbLayerTableRecord
  2
01_1_DEFAULT_DATUMS
 70
0
 62
7
  6
CONTINUOUS
370
-3
390
F
  0
LAYER
  5
1FF
100
AcDbSymbolTableRecord
100
AcDbLayerTableRecord
  2
01_PLANES
 70
0
 62
7
  6
CONTINUOUS
370
-3
390
F
  0
LAYER
  5
200
100
AcDbSymbolTableRecord
100
AcDbLayerTableRecord
  2
02_COORD_SYS
 70
0
 62
7
  6
CONTINUOUS
370
-3
390
F
  0
LAYER
  5
201
100
AcDbSymbolTableRecord
100
AcDbLayerTableRecord
  2
03_AXES
 70
0
 62
7
  6
CONTINUOUS
370
-3
390
F
  0
LAYER
  5
202
100
AcDbSymbolTableRecord
100
AcDbLayerTableRecord
  2
04_POINTS
 70
0
 62
7
  6
CONTINUOUS
370
-3
390
F
  0
LAYER
  5
203
100
AcDbSymbolTableRecord
100
AcDbLayerTableRecord
  2
05_CURVES
 70
0
 62
7
  6
CONTINUOUS
370
-3
390
F
  0
LAYER
  5
204
100
AcDbSymbolTableRecord
100
AcDbLayerTableRecord
  2
06_SURFS
 70
0
 62
7
  6
CONTINUOUS
370
-3
390
F
  0
LAYER
  5
205
100
AcDbSymbolTableRecord
100
AcDbLayerTableRecord
  2
07_COSMETICS
 70
0
 62
7
  6
CONTINUOUS
370
-3
390
F
  0
LAYER
  5
206
100
AcDbSymbolTableRecord
100
AcDbLayerTableRecord
  2
10_NOTES
 70
0
 62
7
  6
CONTINUOUS
370
-3
390
F
  0
LAYER
  5
207
100
AcDbSymbolTableRecord
100
AcDbLayerTableRecord
  2
11_NOTES_PUB
 70
0
 62
7
  6
CONTINUOUS
370
-3
390
F
  0
LAYER
  5
208
100
AcDbSymbolTableRecord
100
AcDbLayerTableRecord
  2
13_REF_GTOL
 70
0
 62
7
  6
CONTINUOUS
370
-3
390
F
  0
LAYER
  5
209
100
AcDbSymbolTableRecord
100
AcDbLayerTableRecord
  2
16_MISC
 70
0
 62
7
  6
CONTINUOUS
370
-3
390
F
  0
LAYER
  5
20A
100
AcDbSymbolTableRecord
100
AcDbLayerTableRecord
  2
17_NO_PRINT
 70
0
 62
7
  6
CONTINUOUS
370
-3
390
F
  0
LAYER
  5
20B
100
AcDbSymbolTableRecord
100
AcDbLayerTableRecord
  2
18_DATUM_CAMS_JOINTS
 70
0
 62
7
  6
CONTINUOUS
370
-3
390
F
  0
LAYER
  5
20C
100
AcDbSymbolTableRecord
100
AcDbLayerTableRecord
  2
19_DATUM_FUNCTIONAL
 70
0
 62
7
  6
CONTINUOUS
370
-3
390
F
  0
LAYER
  5
20D
100
AcDbSymbolTableRecord
100
AcDbLayerTableRecord
  2
20_DATUM_KINEMATIC_SCHEME
 70
0
 62
7
  6
CONTINUOUS
370
-3
390
F
  0
ENDTAB
  0
TABLE
  2
STYLE
  5
3
100
AcDbSymbolTable
 70
1
  0
STYLE
  5
11
100
AcDbSymbolTableRecord
100
AcDbTextStyleTableRecord
  2
STANDARD
 70
0
 40
0.0
 41
0.8
 50
0.0
 71
0
 42
0.2
  3
txt
  4

  0
STYLE
  5
20E
100
AcDbSymbolTableRecord
100
AcDbTextStyleTableRecord
  2
TEXTSTYLE_1
 70
0
 40
0.0
 41
0.8
 50
0.0
 71
0
 42
0.2
  3
gdt
  4

  0
ENDTAB
  0
TABLE
  2
VIEW
  5
6
100
AcDbSymbolTable
 70
0
  0
ENDTAB
  0
TABLE
  2
UCS
  5
7
100
AcDbSymbolTable
 70
0
  0
ENDTAB
  0
TABLE
  2
APPID
  5
9
100
AcDbSymbolTable
 70
1
  0
APPID
  5
20F
100
AcDbSymbolTableRecord
100
AcDbRegAppTableRecord
  2
ACAD
 70
0
  0
ENDTAB
  0
TABLE
  2
BLOCK_RECORD
  5
1
100
AcDbSymbolTable
 70
0
  0
BLOCK_RECORD
  5
210
100
AcDbSymbolTableRecord
100
AcDbBlockTableRecord
  2
*Model_Space
  0
BLOCK_RECORD
  5
211
100
AcDbSymbolTableRecord
100
AcDbBlockTableRecord
  2
*Paper_Space
  0
BLOCK_RECORD
  5
212
100
AcDbSymbolTableRecord
100
AcDbBlockTableRecord
  2
_FILLED
  0
ENDTAB
  0
TABLE
  2
DIMSTYLE
  5
A
100
AcDbSymbolTable
 70
1
100
AcDbDimStyleTable
 71
0
  0
DIMSTYLE
105
213
100
AcDbSymbolTableRecord
100
AcDbDimStyleTableRecord
  2
STANDARD
 70
0
  3

  4

 40
1.0
 41
3.6782770664
 42
1.0
 43
0.38
 44
1.0
 45
0.0
 46
0.0
 47
0.01
 48
0.01
140
5.1495878929
141
0.09
142
0.0
143
25.4
144
1.0
145
0.0
146
1.0
147
0.625
 71
1
 72
0
 73
0
 74
0
 75
0
 76
0
 77
1
 78
8
 79
2
170
0
171
1
172
0
173
0
174
0
175
0
176
0
177
0
178
0
270
2
179
2
271
2
272
2
273
2
274
2
275
0
280
0
281
0
282
0
283
1
284
8
285
0
286
0
287
3
288
0
340
11
278
46
341
212
342
212
343
212
344
212
  0
ENDTAB
  0
ENDSEC
  0
SECTION
  2
BLOCKS
  0
BLOCK
  5
20
100
AcDbEntity
  8
0
100
AcDbBlockBegin
  2
*Model_Space
 70
0
 10
0.0
 20
0.0
 30
0.0
  3
*Model_Space
  1

  0
ENDBLK
  5
21
100
AcDbEntity
  8
0
100
AcDbBlockEnd
  0
BLOCK
  5
1C
100
AcDbEntity
  8
0
100
AcDbBlockBegin
  2
*Paper_Space
 70
0
 10
0.0
 20
0.0
 30
0.0
  3
*Paper_Space
  1

  0
ENDBLK
  5
1D
100
AcDbEntity
  8
0
100
AcDbBlockEnd
  0
BLOCK
  5
214
100
AcDbEntity
  8
0
100
AcDbBlockBegin
  2
_FILLED
 70
64
 10
0.0
 20
0.0
  3
_FILLED
  1

  0
SOLID
  5
215
100
AcDbEntity
  8
0
  6
BYBLOCK
 62
0
100
AcDbTrace
 10
0.0
 20
0.0
 11
-1.0
 21
0.25
 12
-1.0
 22
-0.25
 13
-1.0
 23
-0.25
  0
ENDBLK
  5
216
100
AcDbEntity
  8
0
  6
BYBLOCK
 62
0
100
AcDbBlockEnd
  0
ENDSEC
  0
SECTION
  2
ENTITIES
  0
LINE
  5
217
100
AcDbEntity
  8
0
100
AcDbLine
 62
7
  6
CONTINUOUS
 10
39.1270668465
 20
296.4872939852
 11
39.1621292928
 21
296.5223564315
  0
LINE
  5
218
100
AcDbEntity
  8
0
100
AcDbLine
 62
7
  6
CONTINUOUS
 10
38.8764574415
 20
295.6867607326
 11
38.8334291842
 21
295.6437324753
  0
LINE
  5
219
100
AcDbEntity
  8
0
100
AcDbLine
 62
7
  6
CONTINUOUS
 10
71.5486397217
 20
127.5157972624
 11
74.291261989
 21
124.7731749951
  0
LINE
  5
21A
100
AcDbEntity
  8
0
100
AcDbLine
 62
7
  6
CONTINUOUS
 10
33.8770668465
 20
286.6873701376
 11
33.8770668465
 21
297.8873700359
  0
LINE
  5
21B
100
AcDbEntity
  8
0
100
AcDbLine
 62
7
  6
CONTINUOUS
 10
34.1770668465
 20
286.6873701376
 11
34.1770668465
 21
267.6873701376
  0
LINE
  5
21C
100
AcDbEntity
  8
0
100
AcDbLine
 62
7
  6
CONTINUOUS
 10
34.1770668465
 20
296.1873701376
 11
34.1770668465
 21
298.1873701376
  0
LINE
  5
21D
100
AcDbEntity
  8
0
100
AcDbLine
 62
7
  6
CONTINUOUS
 10
34.3770668465
 20
124.1873701376
 11
34.3770668465
 21
122.1873701376
  0
LINE
  5
21E
100
AcDbEntity
  8
0
100
AcDbLine
 62
7
  6
CONTINUOUS
 10
34.3770668465
 20
124.6873701376
 11
34.3770668465
 21
308.1747861122
  0
LINE
  5
21F
100
AcDbEntity
  8
0
100
AcDbLine
 62
7
  6
CONTINUOUS
 10
35.8770668465
 20
124.6873701376
 11
35.8770668464
 21
308.2249109017
  0
LINE
  5
220
100
AcDbEntity
  8
0
100
AcDbLine
 62
7
  6
CONTINUOUS
 10
38.1770668465
 20
124.1873701376
 11
38.1770668465
 21
124.6873701376
  0
LINE
  5
221
100
AcDbEntity
  8
0
100
AcDbLine
 62
7
  6
CONTINUOUS
 10
38.8334291842
 20
299.7310077999
 11
38.8334291842
 21
295.6437324753
  0
LINE
  5
222
100
AcDbEntity
  8
0
100
AcDbLine
 62
7
  6
CONTINUOUS
 10
39.1270668465
 20
296.4872939853
 11
39.1270668465
 21
299.6873701376
  0
LINE
  5
223
100
AcDbEntity
  8
0
100
AcDbLine
 62
7
  6
CONTINUOUS
 10
39.1621292928
 20
299.6873701376
 11
39.1621292928
 21
296.5223564315
  0
LINE
  5
224
100
AcDbEntity
  8
0
100
AcDbLine
 62
7
  6
CONTINUOUS
 10
39.3943695834
 20
211.6873701376
 11
39.3943695834
 21
145.7043682648
  0
LINE
  5
225
100
AcDbEntity
  8
0
100
AcDbLine
 62
7
  6
CONTINUOUS
 10
39.6620531404
 20
296.0224325839
 11
39.6620531404
 21
299.6873701376
  0
LINE
  5
226
100
AcDbEntity
  8
0
100
AcDbLine
 62
7
  6
CONTINUOUS
 10
40.3943695892
 20
210.6873701376
 11
40.3942172786
 21
145.7043682648
  0
LINE
  5
227
100
AcDbEntity
  8
0
100
AcDbLine
 62
7
  6
CONTINUOUS
 10
41.3940649845
 20
143.7046728745
 11
41.3940649845
 21
144.7045205697
  0
LINE
  5
228
100
AcDbEntity
  8
0
100
AcDbLine
 62
7
  6
CONTINUOUS
 10
41.9270668465
 20
199.1873701376
 11
41.9270668465
 21
200.1873701376
  0
LINE
  5
229
100
AcDbEntity
  8
0
100
AcDbLine
 62
7
  6
CONTINUOUS
 10
42.3770668465
 20
122.1873701376
 11
42.3770668465
 21
124.1873701376
  0
LINE
  5
22A
100
AcDbEntity
  8
0
100
AcDbLine
 62
7
  6
CONTINUOUS
 10
43.4270668465
 20
144.7458467348
 11
43.4270668465
 21
200.1873701376
  0
LINE
  5
22B
100
AcDbEntity
  8
0
100
AcDbLine
 62
7
  6
CONTINUOUS
 10
38.8770668465
 20
299.6873701376
 11
38.8764574415
 21
295.6867607326
  0
LINE
  5
22C
100
AcDbEntity
  8
0
100
AcDbLine
 62
7
  6
CONTINUOUS
 10
40.4358481695
 20
145.7459991557
 11
40.4556344604
 21
210.6873701376
  0
LINE
  5
22D
100
AcDbEntity
  8
0
100
AcDbLine
 62
7
  6
CONTINUOUS
 10
37.385794379
 20
124.1873701376
 11
37.3945219114
 21
124.6873701376
  0
LINE
  5
22E
100
AcDbEntity
  8
0
100
AcDbLine
 62
7
  6
CONTINUOUS
 10
73.4307645071
 20
130.2250699463
 11
73.6517133956
 21
130.0778455207
  0
LINE
  5
22F
100
AcDbEntity
  8
0
100
AcDbLine
 62
7
  6
CONTINUOUS
 10
80.4168669731
 20
130.347570011
 11
80.1024202974
 21
130.6620166867
  0
LINE
  5
230
100
AcDbEntity
  8
0
100
AcDbLine
 62
7
  6
CONTINUOUS
 10
35.877066885
 20
308.2249109055
 11
35.7777346647
 21
309.2199652306
  0
LINE
  5
231
100
AcDbEntity
  8
0
100
AcDbLine
 62
7
  6
CONTINUOUS
 10
51.6566385415
 20
204.1697320474
 11
51.5345186464
 21
210.6873701376
  0
LINE
  5
232
100
AcDbEntity
  8
0
100
AcDbLine
 62
7
  6
CONTINUOUS
 10
51.8938379147
 20
202.6873701376
 11
51.964560008
 21
144.7458467348
  0
LINE
  5
233
100
AcDbEntity
  8
0
100
AcDbLine
 62
7
  6
CONTINUOUS
 10
49.1276762515
 20
295.6867607326
 11
49.1270668465
 21
299.6873701376
  0
LINE
  5
234
100
AcDbEntity
  8
0
100
AcDbLine
 62
7
  6
CONTINUOUS
 10
44.2270668465
 20
144.7458467348
 11
44.2270668465
 21
200.1873701376
  0
LINE
  5
235
100
AcDbEntity
  8
0
100
AcDbLine
 62
7
  6
CONTINUOUS
 10
47.2270668465
 20
144.7458467348
 11
47.2270668465
 21
200.1873701376
  0
LINE
  5
236
100
AcDbEntity
  8
0
100
AcDbLine
 62
7
  6
CONTINUOUS
 10
48.0270668465
 20
144.7458467348
 11
48.0270668465
 21
200.1873701376
  0
LINE
  5
237
100
AcDbEntity
  8
0
100
AcDbLine
 62
7
  6
CONTINUOUS
 10
48.3420805526
 20
299.6873701376
 11
48.3420805526
 21
296.0224325839
  0
LINE
  5
238
100
AcDbEntity
  8
0
100
AcDbLine
 62
7
  6
CONTINUOUS
 10
48.8420044002
 20
296.5223564315
 11
48.8420044002
 21
299.6873701376
  0
LINE
  5
239
100
AcDbEntity
  8
0
100
AcDbLine
 62
7
  6
CONTINUOUS
 10
49.1707045088
 20
295.6437324753
 11
49.1707045088
 21
299.7310077999
  0
LINE
  5
23A
100
AcDbEntity
  8
0
100
AcDbLine
 62
7
  6
CONTINUOUS
 10
50.3337931876
 20
235.6873701376
 11
50.333793186
 21
210.6873701376
  0
LINE
  5
23B
100
AcDbEntity
  8
0
100
AcDbLine
 62
7
  6
CONTINUOUS
 10
50.3337931871
 20
144.7045205697
 11
50.3337931876
 21
124.6873701376
  0
LINE
  5
23C
100
AcDbEntity
  8
0
100
AcDbLine
 62
7
  6
CONTINUOUS
 10
51.0270668465
 20
144.7458467348
 11
51.0270668465
 21
200.1873701376
  0
LINE
  5
23D
100
AcDbEntity
  8
0
100
AcDbLine
 62
7
  6
CONTINUOUS
 10
51.8270668465
 20
144.7458467348
 11
51.8270668465
 21
200.1873701376
  0
LINE
  5
23E
100
AcDbEntity
  8
0
100
AcDbLine
 62
7
  6
CONTINUOUS
 10
52.3289212881
 20
124.6873701376
 11
52.3289212561
 21
143.6559601685
  0
LINE
  5
23F
100
AcDbEntity
  8
0
100
AcDbLine
 62
7
  6
CONTINUOUS
 10
52.3289212881
 20
211.6873701376
 11
52.3289212881
 21
235.7198450599
  0
LINE
  5
240
100
AcDbEntity
  8
0
100
AcDbLine
 62
7
  6
CONTINUOUS
 10
53.6672864107
 20
292.6873701376
 11
53.6672864107
 21
237.5279723958
  0
LINE
  5
241
100
AcDbEntity
  8
0
100
AcDbLine
 62
7
  6
CONTINUOUS
 10
53.7022498166
 20
292.9873701376
 11
53.7022498166
 21
292.6873701376
  0
LINE
  5
242
100
AcDbEntity
  8
0
100
AcDbLine
 62
7
  6
CONTINUOUS
 10
53.8120178824
 20
292.6873701376
 11
53.8120178824
 21
124.6873701376
  0
LINE
  5
243
100
AcDbEntity
  8
0
100
AcDbLine
 62
7
  6
CONTINUOUS
 10
46.8424709208
 20
144.7458467348
 11
47.2270668465
 21
155.7592330762
  0
LINE
  5
244
100
AcDbEntity
  8
0
100
AcDbLine
 62
7
  6
CONTINUOUS
 10
48.0270668465
 20
178.6682357025
 11
48.7174982674
 21
198.439604744
  0
LINE
  5
245
100
AcDbEntity
  8
0
100
AcDbLine
 62
7
  6
CONTINUOUS
 10
98.2856644298
 20
130.1819985497
 11
98.1275235056
 21
130.2873701376
  0
LINE
  5
246
100
AcDbEntity
  8
0
100
AcDbLine
 62
7
  6
CONTINUOUS
 10
76.7064297523
 20
146.4268063182
 11
76.3533608943
 21
146.7798751761
  0
LINE
  5
247
100
AcDbEntity
  8
0
100
AcDbLine
 62
7
  6
CONTINUOUS
 10
75.8695718883
 20
147.263664189
 11
75.5165030305
 21
147.6167330468
  0
LINE
  5
248
100
AcDbEntity
  8
0
100
AcDbLine
 62
7
  6
CONTINUOUS
 10
79.059023747
 20
149.4855380288
 11
79.412092605
 21
149.1324691708
  0
LINE
  5
249
100
AcDbEntity
  8
0
100
AcDbLine
 62
7
  6
CONTINUOUS
 10
55.9344933404
 20
292.6873701376
 11
55.9292568209
 21
292.9873701376
  0
LINE
  5
24A
100
AcDbEntity
  8
0
100
AcDbLine
 62
7
  6
CONTINUOUS
 10
60.2740819635
 20
292.9873701376
 11
60.2793184829
 21
292.6873701376
  0
LINE
  5
24B
100
AcDbEntity
  8
0
100
AcDbLine
 62
7
  6
CONTINUOUS
 10
54.8095819326
 20
124.6873701376
 11
54.8095819326
 21
292.6873701376
  0
LINE
  5
24C
100
AcDbEntity
  8
0
100
AcDbLine
 62
7
  6
CONTINUOUS
 10
55.3770668465
 20
247.6873701376
 11
55.3770668465
 21
289.6873701376
  0
LINE
  5
24D
100
AcDbEntity
  8
0
100
AcDbLine
 62
7
  6
CONTINUOUS
 10
56.3770668465
 20
288.6873701376
 11
56.3770668465
 21
248.6873701376
  0
LINE
  5
24E
100
AcDbEntity
  8
0
100
AcDbLine
 62
7
  6
CONTINUOUS
 10
56.8770668465
 20
249.1873701376
 11
56.8770668465
 21
288.1873701376
  0
LINE
  5
24F
100
AcDbEntity
  8
0
100
AcDbLine
 62
7
  6
CONTINUOUS
 10
55.8769145185
 20
124.6873701376
 11
57.3955051672
 21
211.6873701376
  0
LINE
  5
250
100
AcDbEntity
  8
0
100
AcDbLine
 62
7
  6
CONTINUOUS
 10
56.8770668465
 20
124.6873701376
 11
58.3782024303
 21
210.6873701376
  0
LINE
  5
251
100
AcDbEntity
  8
0
100
AcDbLine
 62
7
  6
CONTINUOUS
 10
191.8772191746
 20
124.6873701376
 11
190.8773714794
 21
124.6699177312
  0
LINE
  5
252
100
AcDbEntity
  8
0
100
AcDbLine
 62
7
  6
CONTINUOUS
 10
34.3770668465
 20
122.1873701376
 11
75.3770668465
 21
122.1873701376
  0
LINE
  5
253
100
AcDbEntity
  8
0
100
AcDbLine
 62
7
  6
CONTINUOUS
 10
75.4445945416
 20
122.1873701376
 11
279.3770668465
 21
122.1873701376
  0
LINE
  5
254
100
AcDbEntity
  8
0
100
AcDbLine
 62
7
  6
CONTINUOUS
 10
191.8772191746
 20
123.6873701376
 11
259.0844053843
 21
123.6873701376
  0
LINE
  5
255
100
AcDbEntity
  8
0
100
AcDbLine
 62
7
  6
CONTINUOUS
 10
34.3770668465
 20
124.1873701376
 11
191.0127553896
 21
124.1873701376
  0
LINE
  5
256
100
AcDbEntity
  8
0
100
AcDbLine
 62
7
  6
CONTINUOUS
 10
259.8802978934
 20
124.1873701376
 11
279.3770668465
 21
124.1873701376
  0
LINE
  5
257
100
AcDbEntity
  8
0
100
AcDbLine
 62
7
  6
CONTINUOUS
 10
34.3770668465
 20
124.6873701376
 11
56.8770668465
 21
124.6873701376
  0
LINE
  5
258
100
AcDbEntity
  8
0
100
AcDbLine
 62
7
  6
CONTINUOUS
 10
191.8772191746
 20
124.6873701376
 11
279.3770668465
 21
124.6873701376
  0
LINE
  5
259
100
AcDbEntity
  8
0
100
AcDbLine
 62
7
  6
CONTINUOUS
 10
190.8770668465
 20
124.7731565752
 11
56.8770668465
 21
124.7731565752
  0
LINE
  5
25A
100
AcDbEntity
  8
0
100
AcDbLine
 62
7
  6
CONTINUOUS
 10
52.1742228645
 20
144.6935108895
 11
51.964560008
 21
144.7458467348
  0
LINE
  5
25B
100
AcDbEntity
  8
0
100
AcDbLine
 62
7
  6
CONTINUOUS
 10
119.3372667199
 20
130.2873701376
 11
119.4270668465
 21
130.227533801
  0
LINE
  5
25C
100
AcDbEntity
  8
0
100
AcDbLine
 62
7
  6
CONTINUOUS
 10
79.2107869659
 20
128.8625376536
 11
79.2691286932
 21
128.6873701376
  0
LINE
  5
25D
100
AcDbEntity
  8
0
100
AcDbLine
 62
7
  6
CONTINUOUS
 10
79.3770668465
 20
130.6620166867
 11
79.3353163153
 21
130.7873701376
  0
LINE
  5
25E
100
AcDbEntity
  8
0
100
AcDbLine
 62
7
  6
CONTINUOUS
 10
66.7670999375
 20
292.9873701376
 11
66.7723364569
 21
292.6873701376
  0
LINE
  5
25F
100
AcDbEntity
  8
0
100
AcDbLine
 62
7
  6
CONTINUOUS
 10
64.3635543414
 20
292.9873701376
 11
64.3678510265
 21
292.6873701376
  0
LINE
  5
260
100
AcDbEntity
  8
0
100
AcDbLine
 62
7
  6
CONTINUOUS
 10
64.36317983
 20
292.9873648019
 11
64.3674584265
 21
292.687364536
  0
LINE
  5
261
100
AcDbEntity
  8
0
100
AcDbLine
 62
7
  6
CONTINUOUS
 10
71.5770668465
 20
311.9153084563
 11
71.5770668465
 21
311.8324972194
  0
LINE
  5
262
100
AcDbEntity
  8
0
100
AcDbLine
 62
7
  6
CONTINUOUS
 10
73.6517133956
 20
130.6620166867
 11
73.6517133956
 21
130.0778455207
  0
LINE
  5
263
100
AcDbEntity
  8
0
100
AcDbLine
 62
7
  6
CONTINUOUS
 10
73.8270668465
 20
129.6873701376
 11
73.8270668465
 21
141.5736841149
  0
LINE
  5
264
100
AcDbEntity
  8
0
100
AcDbLine
 62
7
  6
CONTINUOUS
 10
74.3770668465
 20
124.1873701376
 11
74.3770668465
 21
122.1873701376
  0
LINE
  5
265
100
AcDbEntity
  8
0
100
AcDbLine
 62
7
  6
CONTINUOUS
 10
74.3770668465
 20
128.6873701376
 11
74.3770668465
 21
129.6873701376
  0
LINE
  5
266
100
AcDbEntity
  8
0
100
AcDbLine
 62
7
  6
CONTINUOUS
 10
74.5516174958
 20
129.6873701376
 11
74.5516174958
 21
129.361852421
  0
LINE
  5
267
100
AcDbEntity
  8
0
100
AcDbLine
 62
7
  6
CONTINUOUS
 10
74.6270668465
 20
164.4826867413
 11
74.6270668465
 21
129.6873701376
  0
LINE
  5
268
100
AcDbEntity
  8
0
100
AcDbLine
 62
7
  6
CONTINUOUS
 10
67.9817972361
 20
292.6873701376
 11
67.9870337555
 21
292.9873701376
  0
LINE
  5
269
100
AcDbEntity
  8
0
100
AcDbLine
 62
7
  6
CONTINUOUS
 10
70.4468871062
 20
292.6873701376
 11
70.4521236257
 21
292.9873701376
  0
LINE
  5
26A
100
AcDbEntity
  8
0
100
AcDbLine
 62
7
  6
CONTINUOUS
 10
66.0815138093
 20
128.6873701376
 11
68.9450169076
 21
210.6873701376
  0
LINE
  5
26B
100
AcDbEntity
  8
0
100
AcDbLine
 62
7
  6
CONTINUOUS
 10
56.9264372256
 20
127.5157972623
 11
190.8276964674
 21
127.5157972623
  0
LINE
  5
26C
100
AcDbEntity
  8
0
100
AcDbLine
 62
7
  6
CONTINUOUS
 10
56.9468871062
 20
128.6873701376
 11
190.8072465868
 21
128.6873701376
  0
LINE
  5
26D
100
AcDbEntity
  8
0
100
AcDbLine
 62
7
  6
CONTINUOUS
 10
74.5433467271
 20
128.8625376536
 11
79.2107869659
 21
128.8625376536
  0
LINE
  5
26E
100
AcDbEntity
  8
0
100
AcDbLine
 62
7
  6
CONTINUOUS
 10
120.5433467271
 20
128.8625376536
 11
125.2107869659
 21
128.8625376536
  0
LINE
  5
26F
100
AcDbEntity
  8
0
100
AcDbLine
 62
7
  6
CONTINUOUS
 10
157.5433467271
 20
128.8625376536
 11
162.2107869659
 21
128.8625376536
  0
LINE
  5
270
100
AcDbEntity
  8
0
100
AcDbLine
 62
7
  6
CONTINUOUS
 10
162.2025161972
 20
129.361852421
 11
157.5516174958
 21
129.361852421
  0
LINE
  5
271
100
AcDbEntity
  8
0
100
AcDbLine
 62
7
  6
CONTINUOUS
 10
125.2025161972
 20
129.361852421
 11
120.5516174958
 21
129.361852421
  0
LINE
  5
272
100
AcDbEntity
  8
0
100
AcDbLine
 62
7
  6
CONTINUOUS
 10
79.2025161972
 20
129.361852421
 11
74.5516174958
 21
129.361852421
  0
LINE
  5
273
100
AcDbEntity
  8
0
100
AcDbLine
 62
7
  6
CONTINUOUS
 10
184.8270668465
 20
129.6873701376
 11
184.0270668465
 21
129.6873701376
  0
LINE
  5
274
100
AcDbEntity
  8
0
100
AcDbLine
 62
7
  6
CONTINUOUS
 10
181.0270668465
 20
129.6873701376
 11
180.2270668465
 21
129.6873701376
  0
LINE
  5
275
100
AcDbEntity
  8
0
100
AcDbLine
 62
7
  6
CONTINUOUS
 10
177.2270668465
 20
129.6873701376
 11
176.4270668465
 21
129.6873701376
  0
LINE
  5
276
100
AcDbEntity
  8
0
100
AcDbLine
 62
7
  6
CONTINUOUS
 10
173.4270668465
 20
129.6873701376
 11
172.6270668465
 21
129.6873701376
  0
LINE
  5
277
100
AcDbEntity
  8
0
100
AcDbLine
 62
7
  6
CONTINUOUS
 10
169.6270668465
 20
129.6873701376
 11
168.8270668465
 21
129.6873701376
  0
LINE
  5
278
100
AcDbEntity
  8
0
100
AcDbLine
 62
7
  6
CONTINUOUS
 10
165.8270668465
 20
129.6873701376
 11
165.0270668465
 21
129.6873701376
  0
LINE
  5
279
100
AcDbEntity
  8
0
100
AcDbLine
 62
7
  6
CONTINUOUS
 10
162.0270668465
 20
129.6873701376
 11
161.2270668465
 21
129.6873701376
  0
LINE
  5
27A
100
AcDbEntity
  8
0
100
AcDbLine
 62
7
  6
CONTINUOUS
 10
158.2270668465
 20
129.6873701376
 11
157.4270668465
 21
129.6873701376
  0
LINE
  5
27B
100
AcDbEntity
  8
0
100
AcDbLine
 62
7
  6
CONTINUOUS
 10
154.4270668465
 20
129.6873701376
 11
153.6270668465
 21
129.6873701376
  0
LINE
  5
27C
100
AcDbEntity
  8
0
100
AcDbLine
 62
7
  6
CONTINUOUS
 10
150.6270668465
 20
129.6873701376
 11
149.8270668465
 21
129.6873701376
  0
LINE
  5
27D
100
AcDbEntity
  8
0
100
AcDbLine
 62
7
  6
CONTINUOUS
 10
146.8270668465
 20
129.6873701376
 11
146.0270668465
 21
129.6873701376
  0
LINE
  5
27E
100
AcDbEntity
  8
0
100
AcDbLine
 62
7
  6
CONTINUOUS
 10
143.0270668465
 20
129.6873701376
 11
142.2270668465
 21
129.6873701376
  0
LINE
  5
27F
100
AcDbEntity
  8
0
100
AcDbLine
 62
7
  6
CONTINUOUS
 10
139.2270668465
 20
129.6873701376
 11
138.4270668465
 21
129.6873701376
  0
LINE
  5
280
100
AcDbEntity
  8
0
100
AcDbLine
 62
7
  6
CONTINUOUS
 10
135.4270668465
 20
129.6873701376
 11
134.6270668465
 21
129.6873701376
  0
LINE
  5
281
100
AcDbEntity
  8
0
100
AcDbLine
 62
7
  6
CONTINUOUS
 10
131.6270668465
 20
129.6873701376
 11
130.8270668465
 21
129.6873701376
  0
LINE
  5
282
100
AcDbEntity
  8
0
100
AcDbLine
 62
7
  6
CONTINUOUS
 10
127.8270668465
 20
129.6873701376
 11
127.0270668465
 21
129.6873701376
  0
LINE
  5
283
100
AcDbEntity
  8
0
100
AcDbLine
 62
7
  6
CONTINUOUS
 10
124.0270668465
 20
129.6873701376
 11
123.2270668465
 21
129.6873701376
  0
LINE
  5
284
100
AcDbEntity
  8
0
100
AcDbLine
 62
7
  6
CONTINUOUS
 10
120.2270668465
 20
129.6873701376
 11
119.4270668465
 21
129.6873701376
  0
LINE
  5
285
100
AcDbEntity
  8
0
100
AcDbLine
 62
7
  6
CONTINUOUS
 10
116.4270668465
 20
129.6873701376
 11
115.6270668465
 21
129.6873701376
  0
LINE
  5
286
100
AcDbEntity
  8
0
100
AcDbLine
 62
7
  6
CONTINUOUS
 10
112.6270668465
 20
129.6873701376
 11
111.8270668465
 21
129.6873701376
  0
LINE
  5
287
100
AcDbEntity
  8
0
100
AcDbLine
 62
7
  6
CONTINUOUS
 10
108.8270668465
 20
129.6873701376
 11
108.0270668465
 21
129.6873701376
  0
LINE
  5
288
100
AcDbEntity
  8
0
100
AcDbLine
 62
7
  6
CONTINUOUS
 10
105.0270668465
 20
129.6873701376
 11
104.2270668465
 21
129.6873701376
  0
LINE
  5
289
100
AcDbEntity
  8
0
100
AcDbLine
 62
7
  6
CONTINUOUS
 10
101.2270668465
 20
129.6873701376
 11
100.4270668465
 21
129.6873701376
  0
LINE
  5
28A
100
AcDbEntity
  8
0
100
AcDbLine
 62
7
  6
CONTINUOUS
 10
97.4270668465
 20
129.6873701376
 11
96.6270668465
 21
129.6873701376
  0
LINE
  5
28B
100
AcDbEntity
  8
0
100
AcDbLine
 62
7
  6
CONTINUOUS
 10
93.6270668465
 20
129.6873701376
 11
92.8270668465
 21
129.6873701376
  0
LINE
  5
28C
100
AcDbEntity
  8
0
100
AcDbLine
 62
7
  6
CONTINUOUS
 10
89.8270668465
 20
129.6873701376
 11
89.0270668465
 21
129.6873701376
  0
LINE
  5
28D
100
AcDbEntity
  8
0
100
AcDbLine
 62
7
  6
CONTINUOUS
 10
86.0270668465
 20
129.6873701376
 11
85.2270668465
 21
129.6873701376
  0
LINE
  5
28E
100
AcDbEntity
  8
0
100
AcDbLine
 62
7
  6
CONTINUOUS
 10
82.2270668465
 20
129.6873701376
 11
81.4270668465
 21
129.6873701376
  0
LINE
  5
28F
100
AcDbEntity
  8
0
100
AcDbLine
 62
7
  6
CONTINUOUS
 10
78.4270668465
 20
129.6873701376
 11
77.6270668465
 21
129.6873701376
  0
LINE
  5
290
100
AcDbEntity
  8
0
100
AcDbLine
 62
7
  6
CONTINUOUS
 10
74.6270668465
 20
129.6873701376
 11
73.8270668465
 21
129.6873701376
  0
LINE
  5
291
100
AcDbEntity
  8
0
100
AcDbLine
 62
7
  6
CONTINUOUS
 10
190.7829757487
 20
130.0778455207
 11
184.8270668465
 21
130.0778455207
  0
LINE
  5
292
100
AcDbEntity
  8
0
100
AcDbLine
 62
7
  6
CONTINUOUS
 10
184.0270668465
 20
130.0778455207
 11
181.0270668465
 21
130.0778455207
  0
LINE
  5
293
100
AcDbEntity
  8
0
100
AcDbLine
 62
7
  6
CONTINUOUS
 10
180.2270668465
 20
130.0778455207
 11
177.2270668465
 21
130.0778455207
  0
LINE
  5
294
100
AcDbEntity
  8
0
100
AcDbLine
 62
7
  6
CONTINUOUS
 10
176.4270668465
 20
130.0778455207
 11
173.4270668465
 21
130.0778455207
  0
LINE
  5
295
100
AcDbEntity
  8
0
100
AcDbLine
 62
7
  6
CONTINUOUS
 10
172.6270668465
 20
130.0778455207
 11
169.6270668465
 21
130.0778455207
  0
LINE
  5
296
100
AcDbEntity
  8
0
100
AcDbLine
 62
7
  6
CONTINUOUS
 10
168.8270668465
 20
130.0778455207
 11
165.8270668465
 21
130.0778455207
  0
LINE
  5
297
100
AcDbEntity
  8
0
100
AcDbLine
 62
7
  6
CONTINUOUS
 10
165.0270668465
 20
130.0778455207
 11
163.1024202974
 21
130.0778455207
  0
LINE
  5
298
100
AcDbEntity
  8
0
100
AcDbLine
 62
7
  6
CONTINUOUS
 10
156.6517133956
 20
130.0778455207
 11
155.8523997742
 21
130.0778455207
  0
LINE
  5
299
100
AcDbEntity
  8
0
100
AcDbLine
 62
7
  6
CONTINUOUS
 10
126.9017339188
 20
130.0778455207
 11
126.1024202974
 21
130.0778455207
  0
LINE
  5
29A
100
AcDbEntity
  8
0
100
AcDbLine
 62
7
  6
CONTINUOUS
 10
119.4270668465
 20
130.0778455207
 11
116.4270668465
 21
130.0778455207
  0
LINE
  5
29B
100
AcDbEntity
  8
0
100
AcDbLine
 62
7
  6
CONTINUOUS
 10
115.6270668465
 20
130.0778455207
 11
112.6270668465
 21
130.0778455207
  0
LINE
  5
29C
100
AcDbEntity
  8
0
100
AcDbLine
 62
7
  6
CONTINUOUS
 10
111.8270668465
 20
130.0778455207
 11
108.8270668465
 21
130.0778455207
  0
LINE
  5
29D
100
AcDbEntity
  8
0
100
AcDbLine
 62
7
  6
CONTINUOUS
 10
108.0270668465
 20
130.0778455207
 11
105.0270668465
 21
130.0778455207
  0
LINE
  5
29E
100
AcDbEntity
  8
0
100
AcDbLine
 62
7
  6
CONTINUOUS
 10
104.2270668465
 20
130.0778455207
 11
101.2270668465
 21
130.0778455207
  0
LINE
  5
29F
100
AcDbEntity
  8
0
100
AcDbLine
 62
7
  6
CONTINUOUS
 10
100.4270668465
 20
130.0778455207
 11
97.4270668465
 21
130.0778455207
  0
LINE
  5
2A0
100
AcDbEntity
  8
0
100
AcDbLine
 62
7
  6
CONTINUOUS
 10
96.6270668465
 20
130.0778455207
 11
93.6270668465
 21
130.0778455207
  0
LINE
  5
2A1
100
AcDbEntity
  8
0
100
AcDbLine
 62
7
  6
CONTINUOUS
 10
92.8270668465
 20
130.0778455207
 11
89.8270668465
 21
130.0778455207
  0
LINE
  5
2A2
100
AcDbEntity
  8
0
100
AcDbLine
 62
7
  6
CONTINUOUS
 10
89.0270668465
 20
130.0778455207
 11
86.0270668465
 21
130.0778455207
  0
LINE
  5
2A3
100
AcDbEntity
  8
0
100
AcDbLine
 62
7
  6
CONTINUOUS
 10
85.2270668465
 20
130.0778455207
 11
82.2270668465
 21
130.0778455207
  0
LINE
  5
2A4
100
AcDbEntity
  8
0
100
AcDbLine
 62
7
  6
CONTINUOUS
 10
81.4270668465
 20
130.0778455207
 11
80.1024202974
 21
130.0778455207
  0
LINE
  5
2A5
100
AcDbEntity
  8
0
100
AcDbLine
 62
7
  6
CONTINUOUS
 10
73.6517133956
 20
130.0778455207
 11
73.4256233169
 21
130.0778455207
  0
LINE
  5
2A6
100
AcDbEntity
  8
0
100
AcDbLine
 62
7
  6
CONTINUOUS
 10
99.3884769067
 20
130.1651474468
 11
100.3656567536
 21
130.1651474468
  0
LINE
  5
2A7
100
AcDbEntity
  8
0
100
AcDbLine
 62
7
  6
CONTINUOUS
 10
182.3884769067
 20
130.1651474468
 11
183.3656567536
 21
130.1651474468
  0
LINE
  5
2A8
100
AcDbEntity
  8
0
100
AcDbLine
 62
7
  6
CONTINUOUS
 10
190.7793184829
 20
130.2873701376
 11
184.8270668465
 21
130.2873701376
  0
LINE
  5
2A9
100
AcDbEntity
  8
0
100
AcDbLine
 62
7
  6
CONTINUOUS
 10
181.1275235056
 20
130.2873701376
 11
181.0270668465
 21
130.2873701376
  0
LINE
  5
2AA
100
AcDbEntity
  8
0
100
AcDbLine
 62
7
  6
CONTINUOUS
 10
180.2270668465
 20
130.2873701376
 11
177.2270668465
 21
130.2873701376
  0
LINE
  5
2AB
100
AcDbEntity
  8
0
100
AcDbLine
 62
7
  6
CONTINUOUS
 10
176.4270668465
 20
130.2873701376
 11
173.4270668465
 21
130.2873701376
  0
LINE
  5
2AC
100
AcDbEntity
  8
0
100
AcDbLine
 62
7
  6
CONTINUOUS
 10
172.6270668465
 20
130.2873701376
 11
169.6270668465
 21
130.2873701376
  0
LINE
  5
2AD
100
AcDbEntity
  8
0
100
AcDbLine
 62
7
  6
CONTINUOUS
 10
168.8270668465
 20
130.2873701376
 11
165.8270668465
 21
130.2873701376
  0
LINE
  5
2AE
100
AcDbEntity
  8
0
100
AcDbLine
 62
7
  6
CONTINUOUS
 10
165.0270668465
 20
130.2873701376
 11
163.4168669731
 21
130.2873701376
  0
LINE
  5
2AF
100
AcDbEntity
  8
0
100
AcDbLine
 62
7
  6
CONTINUOUS
 10
156.3372667199
 20
130.2873701376
 11
155.9183815692
 21
130.2873701376
  0
LINE
  5
2B0
100
AcDbEntity
  8
0
100
AcDbLine
 62
7
  6
CONTINUOUS
 10
126.8357521238
 20
130.2873701376
 11
126.4168669731
 21
130.2873701376
  0
LINE
  5
2B1
100
AcDbEntity
  8
0
100
AcDbLine
 62
7
  6
CONTINUOUS
 10
119.3372667199
 20
130.2873701376
 11
116.4270668465
 21
130.2873701376
  0
LINE
  5
2B2
100
AcDbEntity
  8
0
100
AcDbLine
 62
7
  6
CONTINUOUS
 10
115.6270668465
 20
130.2873701376
 11
112.6270668465
 21
130.2873701376
  0
LINE
  5
2B3
100
AcDbEntity
  8
0
100
AcDbLine
 62
7
  6
CONTINUOUS
 10
111.8270668465
 20
130.2873701376
 11
108.8270668465
 21
130.2873701376
  0
LINE
  5
2B4
100
AcDbEntity
  8
0
100
AcDbLine
 62
7
  6
CONTINUOUS
 10
108.0270668465
 20
130.2873701376
 11
105.0270668465
 21
130.2873701376
  0
LINE
  5
2B5
100
AcDbEntity
  8
0
100
AcDbLine
 62
7
  6
CONTINUOUS
 10
104.2270668465
 20
130.2873701376
 11
101.6266101874
 21
130.2873701376
  0
LINE
  5
2B6
100
AcDbEntity
  8
0
100
AcDbLine
 62
7
  6
CONTINUOUS
 10
98.1275235056
 20
130.2873701376
 11
97.4270668465
 21
130.2873701376
  0
LINE
  5
2B7
100
AcDbEntity
  8
0
100
AcDbLine
 62
7
  6
CONTINUOUS
 10
96.6270668465
 20
130.2873701376
 11
93.6270668465
 21
130.2873701376
  0
LINE
  5
2B8
100
AcDbEntity
  8
0
100
AcDbLine
 62
7
  6
CONTINUOUS
 10
92.8270668465
 20
130.2873701376
 11
89.8270668465
 21
130.2873701376
  0
LINE
  5
2B9
100
AcDbEntity
  8
0
100
AcDbLine
 62
7
  6
CONTINUOUS
 10
89.0270668465
 20
130.2873701376
 11
86.0270668465
 21
130.2873701376
  0
LINE
  5
2BA
100
AcDbEntity
  8
0
100
AcDbLine
 62
7
  6
CONTINUOUS
 10
85.2270668465
 20
130.2873701376
 11
82.2270668465
 21
130.2873701376
  0
LINE
  5
2BB
100
AcDbEntity
  8
0
100
AcDbLine
 62
7
  6
CONTINUOUS
 10
81.4270668465
 20
130.2873701376
 11
80.4168669731
 21
130.2873701376
  0
LINE
  5
2BC
100
AcDbEntity
  8
0
100
AcDbLine
 62
7
  6
CONTINUOUS
 10
74.6270668465
 20
130.5520563195
 11
77.6270668465
 21
130.5520563195
  0
LINE
  5
2BD
100
AcDbEntity
  8
0
100
AcDbLine
 62
7
  6
CONTINUOUS
 10
78.4270668465
 20
130.5520563195
 11
79.2025161972
 21
130.5520563195
  0
LINE
  5
2BE
100
AcDbEntity
  8
0
100
AcDbLine
 62
7
  6
CONTINUOUS
 10
120.5516174958
 20
130.5520563195
 11
123.2270668465
 21
130.5520563195
  0
LINE
  5
2BF
100
AcDbEntity
  8
0
100
AcDbLine
 62
7
  6
CONTINUOUS
 10
124.0270668465
 20
130.5520563195
 11
125.2025161972
 21
130.5520563195
  0
LINE
  5
2C0
100
AcDbEntity
  8
0
100
AcDbLine
 62
7
  6
CONTINUOUS
 10
158.2270668465
 20
130.5520563195
 11
161.2270668465
 21
130.5520563195
  0
LINE
  5
2C1
100
AcDbEntity
  8
0
100
AcDbLine
 62
7
  6
CONTINUOUS
 10
162.0270668465
 20
130.5520563195
 11
162.2025161972
 21
130.5520563195
  0
LINE
  5
2C2
100
AcDbEntity
  8
0
100
AcDbLine
 62
7
  6
CONTINUOUS
 10
163.1024202974
 20
130.6620166867
 11
162.3770668465
 21
130.6620166867
  0
LINE
  5
2C3
100
AcDbEntity
  8
0
100
AcDbLine
 62
7
  6
CONTINUOUS
 10
157.3770668465
 20
130.6620166867
 11
156.6517133956
 21
130.6620166867
  0
LINE
  5
2C4
100
AcDbEntity
  8
0
100
AcDbLine
 62
7
  6
CONTINUOUS
 10
126.1024202974
 20
130.6620166867
 11
125.3770668465
 21
130.6620166867
  0
LINE
  5
2C5
100
AcDbEntity
  8
0
100
AcDbLine
 62
7
  6
CONTINUOUS
 10
120.3770668465
 20
130.6620166867
 11
120.2270668465
 21
130.6620166867
  0
LINE
  5
2C6
100
AcDbEntity
  8
0
100
AcDbLine
 62
7
  6
CONTINUOUS
 10
80.1024202974
 20
130.6620166867
 11
79.3770668465
 21
130.6620166867
  0
LINE
  5
2C7
100
AcDbEntity
  8
0
100
AcDbLine
 62
7
  6
CONTINUOUS
 10
73.8270668465
 20
130.6620166867
 11
73.6517133956
 21
130.6620166867
  0
LINE
  5
2C8
100
AcDbEntity
  8
0
100
AcDbLine
 62
7
  6
CONTINUOUS
 10
73.4504004624
 20
130.7873701376
 11
73.8270668465
 21
130.7873701376
  0
LINE
  5
2C9
100
AcDbEntity
  8
0
100
AcDbLine
 62
7
  6
CONTINUOUS
 10
74.6270668465
 20
130.7873701376
 11
77.6270668465
 21
130.7873701376
  0
LINE
  5
2CA
100
AcDbEntity
  8
0
100
AcDbLine
 62
7
  6
CONTINUOUS
 10
78.4270668465
 20
130.7873701376
 11
81.4270668465
 21
130.7873701376
  0
LINE
  5
2CB
100
AcDbEntity
  8
0
100
AcDbLine
 62
7
  6
CONTINUOUS
 10
82.2270668465
 20
130.7873701376
 11
85.2270668465
 21
130.7873701376
  0
LINE
  5
2CC
100
AcDbEntity
  8
0
100
AcDbLine
 62
7
  6
CONTINUOUS
 10
86.0270668465
 20
130.7873701376
 11
89.0270668465
 21
130.7873701376
  0
LINE
  5
2CD
100
AcDbEntity
  8
0
100
AcDbLine
 62
7
  6
CONTINUOUS
 10
89.8270668465
 20
130.7873701376
 11
92.8270668465
 21
130.7873701376
  0
LINE
  5
2CE
100
AcDbEntity
  8
0
100
AcDbLine
 62
7
  6
CONTINUOUS
 10
93.6270668465
 20
130.7873701376
 11
96.6270668465
 21
130.7873701376
  0
LINE
  5
2CF
100
AcDbEntity
  8
0
100
AcDbLine
 62
7
  6
CONTINUOUS
 10
97.4270668465
 20
130.7873701376
 11
100.4270668465
 21
130.7873701376
  0
LINE
  5
2D0
100
AcDbEntity
  8
0
100
AcDbLine
 62
7
  6
CONTINUOUS
 10
101.2270668465
 20
130.7873701376
 11
104.2270668465
 21
130.7873701376
  0
LINE
  5
2D1
100
AcDbEntity
  8
0
100
AcDbLine
 62
7
  6
CONTINUOUS
 10
105.0270668465
 20
130.7873701376
 11
108.0270668465
 21
130.7873701376
  0
LINE
  5
2D2
100
AcDbEntity
  8
0
100
AcDbLine
 62
7
  6
CONTINUOUS
 10
108.8270668465
 20
130.7873701376
 11
111.8270668465
 21
130.7873701376
  0
LINE
  5
2D3
100
AcDbEntity
  8
0
100
AcDbLine
 62
7
  6
CONTINUOUS
 10
112.6270668465
 20
130.7873701376
 11
115.6270668465
 21
130.7873701376
  0
LINE
  5
2D4
100
AcDbEntity
  8
0
100
AcDbLine
 62
7
  6
CONTINUOUS
 10
116.4270668465
 20
130.7873701376
 11
119.4270668465
 21
130.7873701376
  0
LINE
  5
2D5
100
AcDbEntity
  8
0
100
AcDbLine
 62
7
  6
CONTINUOUS
 10
120.2270668465
 20
130.7873701376
 11
123.2270668465
 21
130.7873701376
  0
LINE
  5
2D6
100
AcDbEntity
  8
0
100
AcDbLine
 62
7
  6
CONTINUOUS
 10
124.0270668465
 20
130.7873701376
 11
127.0270668465
 21
130.7873701376
  0
LINE
  5
2D7
100
AcDbEntity
  8
0
100
AcDbLine
 62
7
  6
CONTINUOUS
 10
127.8270668465
 20
130.7873701376
 11
130.8270668465
 21
130.7873701376
  0
LINE
  5
2D8
100
AcDbEntity
  8
0
100
AcDbLine
 62
7
  6
CONTINUOUS
 10
131.6270668465
 20
130.7873701376
 11
134.6270668465
 21
130.7873701376
  0
LINE
  5
2D9
100
AcDbEntity
  8
0
100
AcDbLine
 62
7
  6
CONTINUOUS
 10
135.4270668465
 20
130.7873701376
 11
136.8770668465
 21
130.7873701376
  0
LINE
  5
2DA
100
AcDbEntity
  8
0
100
AcDbLine
 62
7
  6
CONTINUOUS
 10
145.8770668465
 20
130.7873701376
 11
146.0270668465
 21
130.7873701376
  0
LINE
  5
2DB
100
AcDbEntity
  8
0
100
AcDbLine
 62
7
  6
CONTINUOUS
 10
146.8270668465
 20
130.7873701376
 11
149.8270668465
 21
130.7873701376
  0
LINE
  5
2DC
100
AcDbEntity
  8
0
100
AcDbLine
 62
7
  6
CONTINUOUS
 10
150.6270668465
 20
130.7873701376
 11
153.6270668465
 21
130.7873701376
  0
LINE
  5
2DD
100
AcDbEntity
  8
0
100
AcDbLine
 62
7
  6
CONTINUOUS
 10
154.4270668465
 20
130.7873701376
 11
157.4270668465
 21
130.7873701376
  0
LINE
  5
2DE
100
AcDbEntity
  8
0
100
AcDbLine
 62
7
  6
CONTINUOUS
 10
158.2270668465
 20
130.7873701376
 11
161.2270668465
 21
130.7873701376
  0
LINE
  5
2DF
100
AcDbEntity
  8
0
100
AcDbLine
 62
7
  6
CONTINUOUS
 10
162.0270668465
 20
130.7873701376
 11
165.0270668465
 21
130.7873701376
  0
LINE
  5
2E0
100
AcDbEntity
  8
0
100
AcDbLine
 62
7
  6
CONTINUOUS
 10
165.8270668465
 20
130.7873701376
 11
168.8270668465
 21
130.7873701376
  0
LINE
  5
2E1
100
AcDbEntity
  8
0
100
AcDbLine
 62
7
  6
CONTINUOUS
 10
169.6270668465
 20
130.7873701376
 11
172.6270668465
 21
130.7873701376
  0
LINE
  5
2E2
100
AcDbEntity
  8
0
100
AcDbLine
 62
7
  6
CONTINUOUS
 10
173.4270668465
 20
130.7873701376
 11
176.4270668465
 21
130.7873701376
  0
LINE
  5
2E3
100
AcDbEntity
  8
0
100
AcDbLine
 62
7
  6
CONTINUOUS
 10
177.2270668465
 20
130.7873701376
 11
180.2270668465
 21
130.7873701376
  0
LINE
  5
2E4
100
AcDbEntity
  8
0
100
AcDbLine
 62
7
  6
CONTINUOUS
 10
181.0270668465
 20
130.7873701376
 11
184.0270668465
 21
130.7873701376
  0
LINE
  5
2E5
100
AcDbEntity
  8
0
100
AcDbLine
 62
7
  6
CONTINUOUS
 10
184.8270668465
 20
130.7873701376
 11
190.7705909505
 21
130.7873701376
  0
LINE
  5
2E6
100
AcDbEntity
  8
0
100
AcDbLine
 62
7
  6
CONTINUOUS
 10
136.956996105
 20
130.8088123729
 11
138.4270668465
 21
130.8088123729
  0
LINE
  5
2E7
100
AcDbEntity
  8
0
100
AcDbLine
 62
7
  6
CONTINUOUS
 10
139.2270668465
 20
130.8088123729
 11
140.1152076308
 21
130.8088123729
  0
LINE
  5
2E8
100
AcDbEntity
  8
0
100
AcDbLine
 62
7
  6
CONTINUOUS
 10
143.0270668465
 20
130.8088123729
 11
145.7971426198
 21
130.8088123729
  0
LINE
  5
2E9
100
AcDbEntity
  8
0
100
AcDbLine
 62
7
  6
CONTINUOUS
 10
137.2498323599
 20
130.8873701376
 11
138.4270668465
 21
130.8873701376
  0
LINE
  5
2EA
100
AcDbEntity
  8
0
100
AcDbLine
 62
7
  6
CONTINUOUS
 10
139.2270668465
 20
130.8873701376
 11
140.0366498661
 21
130.8873701376
  0
LINE
  5
2EB
100
AcDbEntity
  8
0
100
AcDbLine
 62
7
  6
CONTINUOUS
 10
140.1152076308
 20
130.8873701376
 11
142.2270668465
 21
130.8873701376
  0
LINE
  5
2EC
100
AcDbEntity
  8
0
100
AcDbLine
 62
7
  6
CONTINUOUS
 10
143.0270668465
 20
130.8873701376
 11
145.5043247999
 21
130.8873701376
  0
LINE
  5
2ED
100
AcDbEntity
  8
0
100
AcDbLine
 62
7
  6
CONTINUOUS
 10
76.9138353646
 20
132.0873701388
 11
77.6270668465
 21
132.0873701388
  0
LINE
  5
2EE
100
AcDbEntity
  8
0
100
AcDbLine
 62
7
  6
CONTINUOUS
 10
78.4270668465
 20
132.0873701388
 11
81.4270668465
 21
132.0873701388
  0
LINE
  5
2EF
100
AcDbEntity
  8
0
100
AcDbLine
 62
7
  6
CONTINUOUS
 10
82.2270668465
 20
132.0873701388
 11
85.2270668465
 21
132.0873701388
  0
LINE
  5
2F0
100
AcDbEntity
  8
0
100
AcDbLine
 62
7
  6
CONTINUOUS
 10
86.0270668465
 20
132.0873701388
 11
89.0270668465
 21
132.0873701388
  0
LINE
  5
2F1
100
AcDbEntity
  8
0
100
AcDbLine
 62
7
  6
CONTINUOUS
 10
89.8270668465
 20
132.0873701388
 11
92.3773638508
 21
132.0873701388
  0
LINE
  5
2F2
100
AcDbEntity
  8
0
100
AcDbLine
 62
7
  6
CONTINUOUS
 10
95.8770668471
 20
132.0873701388
 11
96.6270668465
 21
132.0873701388
  0
LINE
  5
2F3
100
AcDbEntity
  8
0
100
AcDbLine
 62
7
  6
CONTINUOUS
 10
97.4270668465
 20
132.0873701388
 11
100.4270668465
 21
132.0873701388
  0
LINE
  5
2F4
100
AcDbEntity
  8
0
100
AcDbLine
 62
7
  6
CONTINUOUS
 10
101.2270668465
 20
132.0873701388
 11
104.2270668465
 21
132.0873701388
  0
LINE
  5
2F5
100
AcDbEntity
  8
0
100
AcDbLine
 62
7
  6
CONTINUOUS
 10
105.0270668465
 20
132.0873701388
 11
108.0270668465
 21
132.0873701388
  0
LINE
  5
2F6
100
AcDbEntity
  8
0
100
AcDbLine
 62
7
  6
CONTINUOUS
 10
108.8270668465
 20
132.0873701388
 11
111.8270668465
 21
132.0873701388
  0
LINE
  5
2F7
100
AcDbEntity
  8
0
100
AcDbLine
 62
7
  6
CONTINUOUS
 10
112.6270668465
 20
132.0873701388
 11
115.6270668465
 21
132.0873701388
  0
LINE
  5
2F8
100
AcDbEntity
  8
0
100
AcDbLine
 62
7
  6
CONTINUOUS
 10
116.4270668465
 20
132.0873701388
 11
119.4270668465
 21
132.0873701388
  0
LINE
  5
2F9
100
AcDbEntity
  8
0
100
AcDbLine
 62
7
  6
CONTINUOUS
 10
120.2270668465
 20
132.0873701388
 11
122.8402983284
 21
132.0873701388
  0
LINE
  5
2FA
100
AcDbEntity
  8
0
100
AcDbLine
 62
7
  6
CONTINUOUS
 10
159.9138353646
 20
132.0873701388
 11
161.2270668465
 21
132.0873701388
  0
LINE
  5
2FB
100
AcDbEntity
  8
0
100
AcDbLine
 62
7
  6
CONTINUOUS
 10
162.0270668465
 20
132.0873701388
 11
165.0270668465
 21
132.0873701388
  0
LINE
  5
2FC
100
AcDbEntity
  8
0
100
AcDbLine
 62
7
  6
CONTINUOUS
 10
165.8270668465
 20
132.0873701388
 11
168.8270668465
 21
132.0873701388
  0
LINE
  5
2FD
100
AcDbEntity
  8
0
100
AcDbLine
 62
7
  6
CONTINUOUS
 10
169.6270668465
 20
132.0873701388
 11
172.6270668465
 21
132.0873701388
  0
LINE
  5
2FE
100
AcDbEntity
  8
0
100
AcDbLine
 62
7
  6
CONTINUOUS
 10
173.4270668465
 20
132.0873701388
 11
176.4270668465
 21
132.0873701388
  0
LINE
  5
2FF
100
AcDbEntity
  8
0
100
AcDbLine
 62
7
  6
CONTINUOUS
 10
177.2270668465
 20
132.0873701388
 11
180.2270668465
 21
132.0873701388
  0
LINE
  5
300
100
AcDbEntity
  8
0
100
AcDbLine
 62
7
  6
CONTINUOUS
 10
181.0270668465
 20
132.0873701388
 11
184.0270668465
 21
132.0873701388
  0
LINE
  5
301
100
AcDbEntity
  8
0
100
AcDbLine
 62
7
  6
CONTINUOUS
 10
184.8270668465
 20
132.0873701388
 11
190.747899366
 21
132.0873701388
  0
LINE
  5
302
100
AcDbEntity
  8
0
100
AcDbLine
 62
7
  6
CONTINUOUS
 10
99.28566159
 20
133.4812044887
 11
99.7849763568
 21
133.4812044887
  0
LINE
  5
303
100
AcDbEntity
  8
0
100
AcDbLine
 62
7
  6
CONTINUOUS
 10
99.9691573363
 20
133.4812045938
 11
100.4270668465
 21
133.4812045938
  0
LINE
  5
304
100
AcDbEntity
  8
0
100
AcDbLine
 62
7
  6
CONTINUOUS
 10
182.28566159
 20
133.4812044887
 11
182.7849763568
 21
133.4812044887
  0
LINE
  5
305
100
AcDbEntity
  8
0
100
AcDbLine
 62
7
  6
CONTINUOUS
 10
182.9691573363
 20
133.4812045938
 11
183.468472103
 21
133.4812045938
  0
LINE
  5
306
100
AcDbEntity
  8
0
100
AcDbLine
 62
7
  6
CONTINUOUS
 10
41.9270668465
 20
199.1873701376
 11
42.9235135515
 21
198.2669930605
  0
LINE
  5
307
100
AcDbEntity
  8
0
100
AcDbLine
 62
7
  6
CONTINUOUS
 10
45.7270668465
 20
199.1873701376
 11
46.7235135515
 21
198.2669930605
  0
LINE
  5
308
100
AcDbEntity
  8
0
100
AcDbLine
 62
7
  6
CONTINUOUS
 10
49.5270668465
 20
199.1873701376
 11
50.5235135515
 21
198.2669930605
  0
LINE
  5
309
100
AcDbEntity
  8
0
100
AcDbLine
 62
7
  6
CONTINUOUS
 10
126.4168669731
 20
130.347570011
 11
126.1024202974
 21
130.6620166867
  0
LINE
  5
30A
100
AcDbEntity
  8
0
100
AcDbLine
 62
7
  6
CONTINUOUS
 10
75.6628494695
 20
194.1436202802
 11
77.6270668465
 21
188.1965811769
  0
LINE
  5
30B
100
AcDbEntity
  8
0
100
AcDbLine
 62
7
  6
CONTINUOUS
 10
78.4270668465
 20
185.7744300758
 11
81.4270668465
 21
176.6913634464
  0
LINE
  5
30C
100
AcDbEntity
  8
0
100
AcDbLine
 62
7
  6
CONTINUOUS
 10
82.2270668465
 20
174.2692123452
 11
83.3770668465
 21
170.7873701373
  0
LINE
  5
30D
100
AcDbEntity
  8
0
100
AcDbLine
 62
7
  6
CONTINUOUS
 10
79.4190696361
 20
148.9151593649
 11
79.4120925526
 21
149.1324691184
  0
LINE
  5
30E
100
AcDbEntity
  8
0
100
AcDbLine
 62
7
  6
CONTINUOUS
 10
75.3770668465
 20
122.1873701376
 11
75.3770668465
 21
124.1873701376
  0
LINE
  5
30F
100
AcDbEntity
  8
0
100
AcDbLine
 62
7
  6
CONTINUOUS
 10
75.8770668465
 20
122.1873701376
 11
75.8770668465
 21
124.1873701376
  0
LINE
  5
310
100
AcDbEntity
  8
0
100
AcDbLine
 62
7
  6
CONTINUOUS
 10
77.6270668465
 20
129.6873701376
 11
77.6270668465
 21
200.1873701376
  0
LINE
  5
311
100
AcDbEntity
  8
0
100
AcDbLine
 62
7
  6
CONTINUOUS
 10
78.4270668465
 20
129.6873701376
 11
78.4270668465
 21
200.1873701376
  0
LINE
  5
312
100
AcDbEntity
  8
0
100
AcDbLine
 62
7
  6
CONTINUOUS
 10
79.2025161972
 20
130.5520563195
 11
79.2025161972
 21
129.361852421
  0
LINE
  5
313
100
AcDbEntity
  8
0
100
AcDbLine
 62
7
  6
CONTINUOUS
 10
79.3770668465
 20
128.6873701376
 11
79.3770668465
 21
130.6620166867
  0
LINE
  5
314
100
AcDbEntity
  8
0
100
AcDbLine
 62
7
  6
CONTINUOUS
 10
80.1024202974
 20
130.0778455207
 11
80.1024202974
 21
130.6620166867
  0
LINE
  5
315
100
AcDbEntity
  8
0
100
AcDbLine
 62
7
  6
CONTINUOUS
 10
80.4168669731
 20
130.2873701376
 11
80.4168669731
 21
130.347570011
  0
LINE
  5
316
100
AcDbEntity
  8
0
100
AcDbLine
 62
7
  6
CONTINUOUS
 10
81.4270668465
 20
129.6873701376
 11
81.4270668465
 21
200.1873701376
  0
LINE
  5
317
100
AcDbEntity
  8
0
100
AcDbLine
 62
7
  6
CONTINUOUS
 10
82.2270668465
 20
129.6873701376
 11
82.2270668465
 21
200.1873701376
  0
LINE
  5
318
100
AcDbEntity
  8
0
100
AcDbLine
 62
7
  6
CONTINUOUS
 10
85.2270668465
 20
129.6873701376
 11
85.2270668465
 21
200.1873701376
  0
LINE
  5
319
100
AcDbEntity
  8
0
100
AcDbLine
 62
7
  6
CONTINUOUS
 10
75.5213319429
 20
147.7873192947
 11
75.5165030304
 21
147.6167330467
  0
LINE
  5
31A
100
AcDbEntity
  8
0
100
AcDbLine
 62
7
  6
CONTINUOUS
 10
76.2405699448
 20
210.6873701376
 11
73.3770668465
 21
128.6873701376
  0
LINE
  5
31B
100
AcDbEntity
  8
0
100
AcDbLine
 62
7
  6
CONTINUOUS
 10
127.0270668465
 20
145.0157335747
 11
126.8433448331
 21
145.0110188763
  0
LINE
  5
31C
100
AcDbEntity
  8
0
100
AcDbLine
 62
7
  6
CONTINUOUS
 10
140.3770668465
 20
136.6608728295
 11
142.2270668465
 21
136.6608728295
  0
LINE
  5
31D
100
AcDbEntity
  8
0
100
AcDbLine
 62
7
  6
CONTINUOUS
 10
41.3940649736
 20
143.7046728745
 11
50.3337931871
 21
143.7046728745
  0
LINE
  5
31E
100
AcDbEntity
  8
0
100
AcDbLine
 62
7
  6
CONTINUOUS
 10
50.3340597967
 20
144.7045205697
 11
41.3940649737
 21
144.7045205697
  0
LINE
  5
31F
100
AcDbEntity
  8
0
100
AcDbLine
 62
7
  6
CONTINUOUS
 10
40.3942172786
 20
145.7043682648
 11
39.3943695834
 21
145.7043682648
  0
LINE
  5
320
100
AcDbEntity
  8
0
100
AcDbLine
 62
7
  6
CONTINUOUS
 10
155.9107888599
 20
145.0110188763
 11
155.6921136936
 21
145.0166305471
  0
LINE
  5
321
100
AcDbEntity
  8
0
100
AcDbLine
 62
7
  6
CONTINUOUS
 10
156.3372667199
 20
130.2873701376
 11
156.6517133956
 21
130.0778455207
  0
LINE
  5
322
100
AcDbEntity
  8
0
100
AcDbLine
 62
7
  6
CONTINUOUS
 10
125.647806437
 20
143.6024169847
 11
126.4418270813
 21
142.8083963405
  0
LINE
  5
323
100
AcDbEntity
  8
0
100
AcDbLine
 62
7
  6
CONTINUOUS
 10
126.5687525867
 20
142.9057576722
 11
125.6534181079
 21
143.821092151
  0
LINE
  5
324
100
AcDbEntity
  8
0
100
AcDbLine
 62
7
  6
CONTINUOUS
 10
126.0066941239
 20
144.1739538503
 11
126.968360908
 21
143.2122870663
  0
LINE
  5
325
100
AcDbEntity
  8
0
100
AcDbLine
 62
7
  6
CONTINUOUS
 10
140.1152076308
 20
130.8088123729
 11
140.0366498661
 21
130.8873701376
  0
LINE
  5
326
100
AcDbEntity
  8
0
100
AcDbLine
 62
7
  6
CONTINUOUS
 10
127.0270668465
 20
144.1211591472
 11
126.4897633707
 21
144.6584626231
  0
LINE
  5
327
100
AcDbEntity
  8
0
100
AcDbLine
 62
7
  6
CONTINUOUS
 10
126.8433448331
 20
145.0110188763
 11
127.0270668465
 21
144.8272968629
  0
LINE
  5
328
100
AcDbEntity
  8
0
100
AcDbLine
 62
7
  6
CONTINUOUS
 10
127.8559737129
 20
144.2226768336
 11
127.8270668465
 21
144.2515837
  0
LINE
  5
329
100
AcDbEntity
  8
0
100
AcDbLine
 62
7
  6
CONTINUOUS
 10
58.3782024304
 20
210.6873701376
 11
57.3955051672
 21
211.6873701376
  0
LINE
  5
32A
100
AcDbEntity
  8
0
100
AcDbLine
 62
7
  6
CONTINUOUS
 10
105.0270668465
 20
147.0000975911
 11
108.0270668465
 21
141.5145215835
  0
LINE
  5
32B
100
AcDbEntity
  8
0
100
AcDbLine
 62
7
  6
CONTINUOUS
 10
108.8270668465
 20
140.0517013149
 11
109.1547813072
 21
139.4524671206
  0
LINE
  5
32C
100
AcDbEntity
  8
0
100
AcDbLine
 62
7
  6
CONTINUOUS
 10
88.8713542717
 20
183.0807305251
 11
86.0270668465
 21
190.7413193835
  0
LINE
  5
32D
100
AcDbEntity
  8
0
100
AcDbLine
 62
7
  6
CONTINUOUS
 10
85.2270668465
 20
192.8959789417
 11
83.1046132223
 21
198.6124351769
  0
LINE
  5
32E
100
AcDbEntity
  8
0
100
AcDbLine
 62
7
  6
CONTINUOUS
 10
86.5037788201
 20
180.4520050175
 11
86.0270668465
 21
181.8953405571
  0
LINE
  5
32F
100
AcDbEntity
  8
0
100
AcDbLine
 62
7
  6
CONTINUOUS
 10
85.2270668465
 20
184.3174916581
 11
82.2270668465
 21
193.400558287
  0
LINE
  5
330
100
AcDbEntity
  8
0
100
AcDbLine
 62
7
  6
CONTINUOUS
 10
81.4270668465
 20
195.822709388
 11
80.4864090117
 21
198.670728651
  0
LINE
  5
331
100
AcDbEntity
  8
0
100
AcDbLine
 62
7
  6
CONTINUOUS
 10
86.0270668465
 20
129.6873701376
 11
86.0270668465
 21
200.1873701376
  0
LINE
  5
332
100
AcDbEntity
  8
0
100
AcDbLine
 62
7
  6
CONTINUOUS
 10
89.0270668465
 20
129.6873701376
 11
89.0270668465
 21
200.1873701376
  0
LINE
  5
333
100
AcDbEntity
  8
0
100
AcDbLine
 62
7
  6
CONTINUOUS
 10
89.8270668465
 20
129.6873701376
 11
89.8270668465
 21
200.1873701376
  0
LINE
  5
334
100
AcDbEntity
  8
0
100
AcDbLine
 62
7
  6
CONTINUOUS
 10
92.8270668465
 20
129.6873701376
 11
92.8270668465
 21
200.1873701376
  0
LINE
  5
335
100
AcDbEntity
  8
0
100
AcDbLine
 62
7
  6
CONTINUOUS
 10
92.8520668465
 20
292.9873701376
 11
92.8520668465
 21
292.6873701376
  0
LINE
  5
336
100
AcDbEntity
  8
0
100
AcDbLine
 62
7
  6
CONTINUOUS
 10
93.6270668465
 20
129.6873701376
 11
93.6270668465
 21
200.1873701376
  0
LINE
  5
337
100
AcDbEntity
  8
0
100
AcDbLine
 62
7
  6
CONTINUOUS
 10
95.3770665437
 20
312.1873367273
 11
95.3770671959
 21
309.3127837745
  0
LINE
  5
338
100
AcDbEntity
  8
0
100
AcDbLine
 62
7
  6
CONTINUOUS
 10
44.7239598891
 20
198.2608412577
 11
45.7270668465
 21
199.1873701376
  0
LINE
  5
339
100
AcDbEntity
  8
0
100
AcDbLine
 62
7
  6
CONTINUOUS
 10
76.7064297533
 20
146.4268063192
 11
76.9373207395
 21
146.4334104682
  0
LINE
  5
33A
100
AcDbEntity
  8
0
100
AcDbLine
 62
7
  6
CONTINUOUS
 10
119.3269412918
 20
160.3836421097
 11
119.4270668465
 21
160.3661201376
  0
LINE
  5
33B
100
AcDbEntity
  8
0
100
AcDbLine
 62
7
  6
CONTINUOUS
 10
120.2270668465
 20
160.2261201376
 11
123.2270668465
 21
159.7011201376
  0
LINE
  5
33C
100
AcDbEntity
  8
0
100
AcDbLine
 62
7
  6
CONTINUOUS
 10
124.0270668465
 20
159.5611201376
 11
127.0270668465
 21
159.0361201376
  0
LINE
  5
33D
100
AcDbEntity
  8
0
100
AcDbLine
 62
7
  6
CONTINUOUS
 10
127.8270668465
 20
158.8961201376
 11
130.1541118117
 21
158.4888872687
  0
LINE
  5
33E
100
AcDbEntity
  8
0
100
AcDbLine
 62
7
  6
CONTINUOUS
 10
83.4033145062
 20
169.8557571675
 11
82.2270668465
 21
170.2431845191
  0
LINE
  5
33F
100
AcDbEntity
  8
0
100
AcDbLine
 62
7
  6
CONTINUOUS
 10
81.4270668465
 20
170.5066850488
 11
78.4270668465
 21
171.4948120348
  0
LINE
  5
340
100
AcDbEntity
  8
0
100
AcDbLine
 62
7
  6
CONTINUOUS
 10
77.6270668465
 20
171.7583125645
 11
74.9123619742
 21
172.652470279
  0
LINE
  5
341
100
AcDbEntity
  8
0
100
AcDbLine
 62
7
  6
CONTINUOUS
 10
86.8318400525
 20
188.5738040329
 11
86.0270668465
 21
189.1483995674
  0
LINE
  5
342
100
AcDbEntity
  8
0
100
AcDbLine
 62
7
  6
CONTINUOUS
 10
85.2270668465
 20
189.7195871071
 11
82.8922416509
 21
191.3866159311
  0
LINE
  5
343
100
AcDbEntity
  8
0
100
AcDbLine
 62
7
  6
CONTINUOUS
 10
139.9580921014
 20
143.240308988
 11
140.1152076308
 21
143.1000281377
  0
LINE
  5
344
100
AcDbEntity
  8
0
100
AcDbLine
 62
7
  6
CONTINUOUS
 10
76.1270668465
 20
199.1873701376
 11
77.1235135515
 21
198.2669930605
  0
LINE
  5
345
100
AcDbEntity
  8
0
100
AcDbLine
 62
7
  6
CONTINUOUS
 10
79.9270668465
 20
199.1873701376
 11
80.9235135515
 21
198.2669930605
  0
LINE
  5
346
100
AcDbEntity
  8
0
100
AcDbLine
 62
7
  6
CONTINUOUS
 10
83.7270668465
 20
199.1873701376
 11
84.7235135515
 21
198.2669930605
  0
LINE
  5
347
100
AcDbEntity
  8
0
100
AcDbLine
 62
7
  6
CONTINUOUS
 10
115.1141622511
 20
164.4562294404
 11
115.6270668465
 21
163.960393144
  0
LINE
  5
348
100
AcDbEntity
  8
0
100
AcDbLine
 62
7
  6
CONTINUOUS
 10
116.4270668465
 20
163.1870153254
 11
119.4270668465
 21
160.2868485058
  0
LINE
  5
349
100
AcDbEntity
  8
0
100
AcDbLine
 62
7
  6
CONTINUOUS
 10
120.2270668465
 20
159.5134706873
 11
123.2270668465
 21
156.6133038677
  0
LINE
  5
34A
100
AcDbEntity
  8
0
100
AcDbLine
 62
7
  6
CONTINUOUS
 10
124.0270668465
 20
155.8399260491
 11
127.0270668465
 21
152.9397592295
  0
LINE
  5
34B
100
AcDbEntity
  8
0
100
AcDbLine
 62
7
  6
CONTINUOUS
 10
105.6388782358
 20
192.0790751499
 11
105.3085923724
 21
198.2298032107
  0
LINE
  5
34C
100
AcDbEntity
  8
0
100
AcDbLine
 62
7
  6
CONTINUOUS
 10
101.4245773853
 20
134.4789284162
 11
101.4033138435
 21
134.9778239311
  0
LINE
  5
34D
100
AcDbEntity
  8
0
100
AcDbLine
 62
7
  6
CONTINUOUS
 10
96.6270668465
 20
129.6873701376
 11
96.6270668465
 21
200.1873701376
  0
LINE
  5
34E
100
AcDbEntity
  8
0
100
AcDbLine
 62
7
  6
CONTINUOUS
 10
97.4270668465
 20
129.6873701376
 11
97.4270668465
 21
200.1873701376
  0
LINE
  5
34F
100
AcDbEntity
  8
0
100
AcDbLine
 62
7
  6
CONTINUOUS
 10
99.1270668465
 20
133.3295336847
 11
99.1270668465
 21
132.0873701388
  0
LINE
  5
350
100
AcDbEntity
  8
0
100
AcDbLine
 62
7
  6
CONTINUOUS
 10
99.28566159
 20
133.4812045938
 11
99.28566159
 21
132.0873701388
  0
LINE
  5
351
100
AcDbEntity
  8
0
100
AcDbLine
 62
7
  6
CONTINUOUS
 10
99.6520668465
 20
292.6873701376
 11
99.6520668465
 21
292.9873701376
  0
LINE
  5
352
100
AcDbEntity
  8
0
100
AcDbLine
 62
7
  6
CONTINUOUS
 10
99.7849763567
 20
132.0873701388
 11
99.7849763574
 21
133.4812045927
  0
LINE
  5
353
100
AcDbEntity
  8
0
100
AcDbLine
 62
7
  6
CONTINUOUS
 10
99.9691573357
 20
133.4815627898
 11
99.9691573364
 21
132.0873701388
  0
LINE
  5
354
100
AcDbEntity
  8
0
100
AcDbLine
 62
7
  6
CONTINUOUS
 10
100.4270668465
 20
129.6873701376
 11
100.4270668465
 21
200.1873701376
  0
LINE
  5
355
100
AcDbEntity
  8
0
100
AcDbLine
 62
7
  6
CONTINUOUS
 10
101.2270668465
 20
129.6873701376
 11
101.2270668465
 21
200.1873701376
  0
LINE
  5
356
100
AcDbEntity
  8
0
100
AcDbLine
 62
7
  6
CONTINUOUS
 10
104.2270668465
 20
129.6873701376
 11
104.2270668465
 21
200.1873701376
  0
LINE
  5
357
100
AcDbEntity
  8
0
100
AcDbLine
 62
7
  6
CONTINUOUS
 10
105.0270668465
 20
129.6873701376
 11
105.0270668465
 21
200.1873701376
  0
LINE
  5
358
100
AcDbEntity
  8
0
100
AcDbLine
 62
7
  6
CONTINUOUS
 10
48.5239598891
 20
198.2608412577
 11
49.5270668465
 21
199.1873701376
  0
LINE
  5
359
100
AcDbEntity
  8
0
100
AcDbLine
 62
7
  6
CONTINUOUS
 10
168.4230378419
 20
162.8291376436
 11
165.8270668465
 21
162.4933907518
  0
LINE
  5
35A
100
AcDbEntity
  8
0
100
AcDbLine
 62
7
  6
CONTINUOUS
 10
165.0270668465
 20
162.3899236815
 11
162.5492566142
 21
162.0694589747
  0
LINE
  5
35B
100
AcDbEntity
  8
0
100
AcDbLine
 62
7
  6
CONTINUOUS
 10
154.527771652
 20
161.0320095391
 11
154.4270668465
 21
161.0189850002
  0
LINE
  5
35C
100
AcDbEntity
  8
0
100
AcDbLine
 62
7
  6
CONTINUOUS
 10
153.6270668465
 20
160.9155179299
 11
151.9304799185
 21
160.6960918312
  0
LINE
  5
35D
100
AcDbEntity
  8
0
100
AcDbLine
 62
7
  6
CONTINUOUS
 10
144.1770668475
 20
163.6900326904
 11
146.0270668465
 21
163.2149594543
  0
LINE
  5
35E
100
AcDbEntity
  8
0
100
AcDbLine
 62
7
  6
CONTINUOUS
 10
146.8270668465
 20
163.0095223791
 11
149.8270668465
 21
162.2391333472
  0
LINE
  5
35F
100
AcDbEntity
  8
0
100
AcDbLine
 62
7
  6
CONTINUOUS
 10
150.6270668465
 20
162.0336962721
 11
153.6270668465
 21
161.2633072402
  0
LINE
  5
360
100
AcDbEntity
  8
0
100
AcDbLine
 62
7
  6
CONTINUOUS
 10
154.4270668465
 20
161.057870165
 11
157.4270668465
 21
160.2874811331
  0
LINE
  5
361
100
AcDbEntity
  8
0
100
AcDbLine
 62
7
  6
CONTINUOUS
 10
158.2270668465
 20
160.0820440579
 11
161.2270668465
 21
159.3116550261
  0
LINE
  5
362
100
AcDbEntity
  8
0
100
AcDbLine
 62
7
  6
CONTINUOUS
 10
162.0270668465
 20
159.1062179509
 11
165.0270668465
 21
158.335828919
  0
LINE
  5
363
100
AcDbEntity
  8
0
100
AcDbLine
 62
7
  6
CONTINUOUS
 10
165.8270668465
 20
158.1303918438
 11
168.8270668465
 21
157.3600028119
  0
LINE
  5
364
100
AcDbEntity
  8
0
100
AcDbLine
 62
7
  6
CONTINUOUS
 10
169.6270668465
 20
157.1545657368
 11
172.6270668465
 21
156.3841767049
  0
LINE
  5
365
100
AcDbEntity
  8
0
100
AcDbLine
 62
7
  6
CONTINUOUS
 10
173.4270668465
 20
156.1787396297
 11
176.4270668465
 21
155.4083505978
  0
LINE
  5
366
100
AcDbEntity
  8
0
100
AcDbLine
 62
7
  6
CONTINUOUS
 10
177.2270668465
 20
155.2029135226
 11
178.7730842344
 21
154.8059019097
  0
LINE
  5
367
100
AcDbEntity
  8
0
100
AcDbLine
 62
7
  6
CONTINUOUS
 10
170.3305647177
 20
160.0712475024
 11
169.6270668465
 21
160.2519031837
  0
LINE
  5
368
100
AcDbEntity
  8
0
100
AcDbLine
 62
7
  6
CONTINUOUS
 10
168.8270668465
 20
160.4573402589
 11
165.8270668465
 21
161.2277292908
  0
LINE
  5
369
100
AcDbEntity
  8
0
100
AcDbLine
 62
7
  6
CONTINUOUS
 10
165.0270668465
 20
161.433166366
 11
162.0270668465
 21
162.2035553979
  0
LINE
  5
36A
100
AcDbEntity
  8
0
100
AcDbLine
 62
7
  6
CONTINUOUS
 10
161.2270668465
 20
162.408992473
 11
158.2270668465
 21
163.1793815049
  0
LINE
  5
36B
100
AcDbEntity
  8
0
100
AcDbLine
 62
7
  6
CONTINUOUS
 10
157.4270668465
 20
163.3848185801
 11
154.4270668465
 21
164.155207612
  0
LINE
  5
36C
100
AcDbEntity
  8
0
100
AcDbLine
 62
7
  6
CONTINUOUS
 10
153.6270668465
 20
164.3606446872
 11
150.6270668465
 21
165.1310337191
  0
LINE
  5
36D
100
AcDbEntity
  8
0
100
AcDbLine
 62
7
  6
CONTINUOUS
 10
149.8270668465
 20
165.3364707942
 11
146.8270668465
 21
166.1068598261
  0
LINE
  5
36E
100
AcDbEntity
  8
0
100
AcDbLine
 62
7
  6
CONTINUOUS
 10
146.0270668465
 20
166.3122969013
 11
144.1770668475
 21
166.7873701374
  0
LINE
  5
36F
100
AcDbEntity
  8
0
100
AcDbLine
 62
7
  6
CONTINUOUS
 10
181.2856644298
 20
130.1819985497
 11
181.1275235056
 21
130.2873701376
  0
LINE
  5
370
100
AcDbEntity
  8
0
100
AcDbLine
 62
7
  6
CONTINUOUS
 10
87.5270668465
 20
199.1873701376
 11
88.5235135515
 21
198.2669930605
  0
LINE
  5
371
100
AcDbEntity
  8
0
100
AcDbLine
 62
7
  6
CONTINUOUS
 10
91.3270668465
 20
199.1873701376
 11
92.3235135515
 21
198.2669930605
  0
LINE
  5
372
100
AcDbEntity
  8
0
100
AcDbLine
 62
7
  6
CONTINUOUS
 10
95.1270668465
 20
199.1873701376
 11
96.1235135515
 21
198.2669930605
  0
LINE
  5
373
100
AcDbEntity
  8
0
100
AcDbLine
 62
7
  6
CONTINUOUS
 10
98.9270668465
 20
199.1873701376
 11
99.9235135515
 21
198.2669930605
  0
LINE
  5
374
100
AcDbEntity
  8
0
100
AcDbLine
 62
7
  6
CONTINUOUS
 10
163.4168669731
 20
130.347570011
 11
163.1024202974
 21
130.6620166867
  0
LINE
  5
375
100
AcDbEntity
  8
0
100
AcDbLine
 62
7
  6
CONTINUOUS
 10
155.9107888816
 20
145.011018898
 11
156.2638577394
 21
144.6579500402
  0
LINE
  5
376
100
AcDbEntity
  8
0
100
AcDbLine
 62
7
  6
CONTINUOUS
 10
156.747646728
 20
144.1741610096
 11
157.1007155859
 21
143.8210921517
  0
LINE
  5
377
100
AcDbEntity
  8
0
100
AcDbLine
 62
7
  6
CONTINUOUS
 10
125.2107869659
 20
128.8625376536
 11
125.2691286932
 21
128.6873701376
  0
LINE
  5
378
100
AcDbEntity
  8
0
100
AcDbLine
 62
7
  6
CONTINUOUS
 10
125.3770668465
 20
130.6620166867
 11
125.3353163153
 21
130.7873701376
  0
LINE
  5
379
100
AcDbEntity
  8
0
100
AcDbLine
 62
7
  6
CONTINUOUS
 10
126.9017339188
 20
130.0778455207
 11
126.8357521238
 21
130.2873701376
  0
LINE
  5
37A
100
AcDbEntity
  8
0
100
AcDbLine
 62
7
  6
CONTINUOUS
 10
108.0270668465
 20
129.6873701376
 11
108.0270668465
 21
200.1873701376
  0
LINE
  5
37B
100
AcDbEntity
  8
0
100
AcDbLine
 62
7
  6
CONTINUOUS
 10
108.8270668465
 20
129.6873701376
 11
108.8270668465
 21
200.1873701376
  0
LINE
  5
37C
100
AcDbEntity
  8
0
100
AcDbLine
 62
7
  6
CONTINUOUS
 10
111.8270668465
 20
129.6873701376
 11
111.8270668465
 21
200.1873701376
  0
LINE
  5
37D
100
AcDbEntity
  8
0
100
AcDbLine
 62
7
  6
CONTINUOUS
 10
112.6270668465
 20
129.6873701376
 11
112.6270668465
 21
200.1873701376
  0
LINE
  5
37E
100
AcDbEntity
  8
0
100
AcDbLine
 62
7
  6
CONTINUOUS
 10
115.6270668465
 20
129.6873701376
 11
115.6270668465
 21
200.1873701376
  0
LINE
  5
37F
100
AcDbEntity
  8
0
100
AcDbLine
 62
7
  6
CONTINUOUS
 10
116.4270668465
 20
129.6873701376
 11
116.4270668465
 21
200.1873701376
  0
LINE
  5
380
100
AcDbEntity
  8
0
100
AcDbLine
 62
7
  6
CONTINUOUS
 10
104.2270668465
 20
152.739400459
 11
104.1224139577
 21
151.6385691244
  0
LINE
  5
381
100
AcDbEntity
  8
0
100
AcDbLine
 62
7
  6
CONTINUOUS
 10
103.4644562039
 20
144.717589486
 11
102.8614005308
 21
138.3741183289
  0
LINE
  5
382
100
AcDbEntity
  8
0
100
AcDbLine
 62
7
  6
CONTINUOUS
 10
74.5433467271
 20
128.8625376536
 11
74.4850049998
 21
128.6873701376
  0
LINE
  5
383
100
AcDbEntity
  8
0
100
AcDbLine
 62
7
  6
CONTINUOUS
 10
85.2270668465
 20
153.6584835025
 11
82.2270668465
 21
146.4959701963
  0
LINE
  5
384
100
AcDbEntity
  8
0
100
AcDbLine
 62
7
  6
CONTINUOUS
 10
81.4270668465
 20
144.585966648
 11
81.1763753936
 21
143.9874396921
  0
LINE
  5
385
100
AcDbEntity
  8
0
100
AcDbLine
 62
7
  6
CONTINUOUS
 10
75.8293792148
 20
198.9124082445
 11
76.1270668465
 21
199.1873701376
  0
LINE
  5
386
100
AcDbEntity
  8
0
100
AcDbLine
 62
7
  6
CONTINUOUS
 10
138.4270668465
 20
170.0373701376
 11
137.3349279027
 21
170.0373701376
  0
LINE
  5
387
100
AcDbEntity
  8
0
100
AcDbLine
 62
7
  6
CONTINUOUS
 10
144.1770668465
 20
170.0373701376
 11
145.4192303936
 21
170.0373701376
  0
LINE
  5
388
100
AcDbEntity
  8
0
100
AcDbLine
 62
7
  6
CONTINUOUS
 10
137.1832323903
 20
170.1959648811
 11
138.4270668465
 21
170.1959648811
  0
LINE
  5
389
100
AcDbEntity
  8
0
100
AcDbLine
 62
7
  6
CONTINUOUS
 10
144.1770668465
 20
170.1959648811
 11
145.5709013027
 21
170.1959648811
  0
LINE
  5
38A
100
AcDbEntity
  8
0
100
AcDbLine
 62
7
  6
CONTINUOUS
 10
145.5712593921
 20
170.6952796485
 11
144.1770668466
 21
170.6952796472
  0
LINE
  5
38B
100
AcDbEntity
  8
0
100
AcDbLine
 62
7
  6
CONTINUOUS
 10
138.4270668465
 20
170.6952796478
 11
137.1832323914
 21
170.6952796485
  0
LINE
  5
38C
100
AcDbEntity
  8
0
100
AcDbLine
 62
7
  6
CONTINUOUS
 10
137.1828617154
 20
170.8794606268
 11
138.4270668465
 21
170.8794606279
  0
LINE
  5
38D
100
AcDbEntity
  8
0
100
AcDbLine
 62
7
  6
CONTINUOUS
 10
144.1770668466
 20
170.8794606276
 11
145.5709013016
 21
170.8794606268
  0
LINE
  5
38E
100
AcDbEntity
  8
0
100
AcDbLine
 62
7
  6
CONTINUOUS
 10
145.5709013027
 20
171.3787753942
 11
144.1770668465
 21
171.3787753942
  0
LINE
  5
38F
100
AcDbEntity
  8
0
100
AcDbLine
 62
7
  6
CONTINUOUS
 10
138.4270668465
 20
171.3787753941
 11
137.1832323903
 21
171.3787753942
  0
LINE
  5
390
100
AcDbEntity
  8
0
100
AcDbLine
 62
7
  6
CONTINUOUS
 10
145.4192303936
 20
171.5373701376
 11
144.1770668465
 21
171.5373701376
  0
LINE
  5
391
100
AcDbEntity
  8
0
100
AcDbLine
 62
7
  6
CONTINUOUS
 10
137.3349278956
 20
171.5373701376
 11
138.4270668465
 21
171.5373701376
  0
LINE
  5
392
100
AcDbEntity
  8
0
100
AcDbLine
 62
7
  6
CONTINUOUS
 10
112.6270668465
 20
181.4512352635
 11
115.6270668465
 21
180.6808462316
  0
LINE
  5
393
100
AcDbEntity
  8
0
100
AcDbLine
 62
7
  6
CONTINUOUS
 10
116.4270668465
 20
180.4754091564
 11
119.4270668465
 21
179.7050201245
  0
LINE
  5
394
100
AcDbEntity
  8
0
100
AcDbLine
 62
7
  6
CONTINUOUS
 10
120.2270668465
 20
179.4995830494
 11
123.2270668465
 21
178.7291940175
  0
LINE
  5
395
100
AcDbEntity
  8
0
100
AcDbLine
 62
7
  6
CONTINUOUS
 10
124.0270668465
 20
178.5237569423
 11
127.0270668465
 21
177.7533679104
  0
LINE
  5
396
100
AcDbEntity
  8
0
100
AcDbLine
 62
7
  6
CONTINUOUS
 10
127.8270668465
 20
177.5479308352
 11
130.8270668465
 21
176.7775418033
  0
LINE
  5
397
100
AcDbEntity
  8
0
100
AcDbLine
 62
7
  6
CONTINUOUS
 10
131.6270668465
 20
176.5721047282
 11
134.6270668465
 21
175.8017156963
  0
LINE
  5
398
100
AcDbEntity
  8
0
100
AcDbLine
 62
7
  6
CONTINUOUS
 10
135.4270668465
 20
175.5962786211
 11
138.4270668465
 21
174.8258895892
  0
LINE
  5
399
100
AcDbEntity
  8
0
100
AcDbLine
 62
7
  6
CONTINUOUS
 10
138.4270668465
 20
177.9232270362
 11
135.4270668465
 21
178.6936160681
  0
LINE
  5
39A
100
AcDbEntity
  8
0
100
AcDbLine
 62
7
  6
CONTINUOUS
 10
134.6270668465
 20
178.8990531433
 11
131.6270668465
 21
179.6694421752
  0
LINE
  5
39B
100
AcDbEntity
  8
0
100
AcDbLine
 62
7
  6
CONTINUOUS
 10
130.8270668465
 20
179.8748792503
 11
127.8270668465
 21
180.6452682822
  0
LINE
  5
39C
100
AcDbEntity
  8
0
100
AcDbLine
 62
7
  6
CONTINUOUS
 10
127.0270668465
 20
180.8507053574
 11
124.0270668465
 21
181.6210943893
  0
LINE
  5
39D
100
AcDbEntity
  8
0
100
AcDbLine
 62
7
  6
CONTINUOUS
 10
123.2270668465
 20
181.8265314645
 11
120.2270668465
 21
182.5969204963
  0
LINE
  5
39E
100
AcDbEntity
  8
0
100
AcDbLine
 62
7
  6
CONTINUOUS
 10
119.4270668465
 20
182.8023575715
 11
116.4270668465
 21
183.5727466034
  0
LINE
  5
39F
100
AcDbEntity
  8
0
100
AcDbLine
 62
7
  6
CONTINUOUS
 10
115.6270668465
 20
183.7781836786
 11
112.6270668465
 21
184.5485727105
  0
LINE
  5
3A0
100
AcDbEntity
  8
0
100
AcDbLine
 62
7
  6
CONTINUOUS
 10
111.8270668465
 20
184.7540097856
 11
108.8270668465
 21
185.5243988175
  0
LINE
  5
3A1
100
AcDbEntity
  8
0
100
AcDbLine
 62
7
  6
CONTINUOUS
 10
108.0270668465
 20
185.7298358927
 11
105.0270668465
 21
186.5002249246
  0
LINE
  5
3A2
100
AcDbEntity
  8
0
100
AcDbLine
 62
7
  6
CONTINUOUS
 10
104.2270668465
 20
186.7056619998
 11
103.9810494587
 21
186.7688383655
  0
LINE
  5
3A3
100
AcDbEntity
  8
0
100
AcDbLine
 62
7
  6
CONTINUOUS
 10
102.7270668465
 20
199.1873701376
 11
103.7235135515
 21
198.2669930605
  0
LINE
  5
3A4
100
AcDbEntity
  8
0
100
AcDbLine
 62
7
  6
CONTINUOUS
 10
106.5270668465
 20
199.1873701376
 11
107.5235135515
 21
198.2669930605
  0
LINE
  5
3A5
100
AcDbEntity
  8
0
100
AcDbLine
 62
7
  6
CONTINUOUS
 10
110.3270668465
 20
199.1873701376
 11
111.3235135515
 21
198.2669930605
  0
LINE
  5
3A6
100
AcDbEntity
  8
0
100
AcDbLine
 62
7
  6
CONTINUOUS
 10
114.1270668465
 20
199.1873701376
 11
115.1235135515
 21
198.2669930605
  0
LINE
  5
3A7
100
AcDbEntity
  8
0
100
AcDbLine
 62
7
  6
CONTINUOUS
 10
183.6270668465
 20
133.3295336847
 11
183.468472103
 21
133.4812045938
  0
LINE
  5
3A8
100
AcDbEntity
  8
0
100
AcDbLine
 62
7
  6
CONTINUOUS
 10
137.1832323903
 20
170.1959648811
 11
137.3349032995
 21
170.0373701376
  0
LINE
  5
3A9
100
AcDbEntity
  8
0
100
AcDbLine
 62
7
  6
CONTINUOUS
 10
125.647806437
 20
197.9723232905
 11
125.6534181079
 21
197.7536481242
  0
LINE
  5
3AA
100
AcDbEntity
  8
0
100
AcDbLine
 62
7
  6
CONTINUOUS
 10
120.8020100673
 20
292.9873701376
 11
120.8072465868
 21
292.6873701376
  0
LINE
  5
3AB
100
AcDbEntity
  8
0
100
AcDbLine
 62
7
  6
CONTINUOUS
 10
119.3372667199
 20
130.347570011
 11
119.3372667199
 21
130.2873701376
  0
LINE
  5
3AC
100
AcDbEntity
  8
0
100
AcDbLine
 62
7
  6
CONTINUOUS
 10
119.4270668465
 20
129.6873701376
 11
119.4270668465
 21
200.1873701376
  0
LINE
  5
3AD
100
AcDbEntity
  8
0
100
AcDbLine
 62
7
  6
CONTINUOUS
 10
120.2270668465
 20
129.6873701376
 11
120.2270668465
 21
200.1873701376
  0
LINE
  5
3AE
100
AcDbEntity
  8
0
100
AcDbLine
 62
7
  6
CONTINUOUS
 10
120.3770668465
 20
130.6620166867
 11
120.3770668465
 21
128.6873701376
  0
LINE
  5
3AF
100
AcDbEntity
  8
0
100
AcDbLine
 62
7
  6
CONTINUOUS
 10
120.5516174958
 20
130.5520563195
 11
120.5516174958
 21
129.361852421
  0
LINE
  5
3B0
100
AcDbEntity
  8
0
100
AcDbLine
 62
7
  6
CONTINUOUS
 10
123.2270668465
 20
129.6873701376
 11
123.2270668465
 21
200.1873701376
  0
LINE
  5
3B1
100
AcDbEntity
  8
0
100
AcDbLine
 62
7
  6
CONTINUOUS
 10
124.0270668465
 20
129.6873701376
 11
124.0270668465
 21
200.1873701376
  0
LINE
  5
3B2
100
AcDbEntity
  8
0
100
AcDbLine
 62
7
  6
CONTINUOUS
 10
125.2025161972
 20
130.5520563195
 11
125.2025161972
 21
129.361852421
  0
LINE
  5
3B3
100
AcDbEntity
  8
0
100
AcDbLine
 62
7
  6
CONTINUOUS
 10
125.3770668465
 20
130.6620166867
 11
125.3770668465
 21
128.6873701376
  0
LINE
  5
3B4
100
AcDbEntity
  8
0
100
AcDbLine
 62
7
  6
CONTINUOUS
 10
126.1024202974
 20
130.0778455207
 11
126.1024202974
 21
130.6620166867
  0
LINE
  5
3B5
100
AcDbEntity
  8
0
100
AcDbLine
 62
7
  6
CONTINUOUS
 10
126.4168669731
 20
130.2873701376
 11
126.4168669731
 21
130.347570011
  0
LINE
  5
3B6
100
AcDbEntity
  8
0
100
AcDbLine
 62
7
  6
CONTINUOUS
 10
126.8876407535
 20
292.6873701376
 11
126.8919450451
 21
292.9873701376
  0
LINE
  5
3B7
100
AcDbEntity
  8
0
100
AcDbLine
 62
7
  6
CONTINUOUS
 10
126.8880698536
 20
292.6873640008
 11
126.8923585068
 21
292.9873642331
  0
LINE
  5
3B8
100
AcDbEntity
  8
0
100
AcDbLine
 62
7
  6
CONTINUOUS
 10
102.6183401414
 20
187.0581365492
 11
104.2270668465
 21
189.7322686936
  0
LINE
  5
3B9
100
AcDbEntity
  8
0
100
AcDbLine
 62
7
  6
CONTINUOUS
 10
105.0270668465
 20
191.0620817121
 11
108.0270668465
 21
196.0488805313
  0
LINE
  5
3BA
100
AcDbEntity
  8
0
100
AcDbLine
 62
7
  6
CONTINUOUS
 10
108.8270668465
 20
197.3786935497
 11
109.3487756002
 21
198.2459124153
  0
LINE
  5
3BB
100
AcDbEntity
  8
0
100
AcDbLine
 62
7
  6
CONTINUOUS
 10
78.9239598891
 20
198.2608412577
 11
79.9270668465
 21
199.1873701376
  0
LINE
  5
3BC
100
AcDbEntity
  8
0
100
AcDbLine
 62
7
  6
CONTINUOUS
 10
82.723959889
 20
198.2608412577
 11
83.7270668465
 21
199.1873701376
  0
LINE
  5
3BD
100
AcDbEntity
  8
0
100
AcDbLine
 62
7
  6
CONTINUOUS
 10
86.523959889
 20
198.2608412577
 11
87.5270668465
 21
199.1873701376
  0
LINE
  5
3BE
100
AcDbEntity
  8
0
100
AcDbLine
 62
7
  6
CONTINUOUS
 10
90.323959889
 20
198.2608412577
 11
91.3270668465
 21
199.1873701376
  0
LINE
  5
3BF
100
AcDbEntity
  8
0
100
AcDbLine
 62
7
  6
CONTINUOUS
 10
114.3310958512
 20
178.7456026316
 11
115.6270668465
 21
178.9132155342
  0
LINE
  5
3C0
100
AcDbEntity
  8
0
100
AcDbLine
 62
7
  6
CONTINUOUS
 10
116.4270668465
 20
179.0166826045
 11
119.4270668465
 21
179.4046841181
  0
LINE
  5
3C1
100
AcDbEntity
  8
0
100
AcDbLine
 62
7
  6
CONTINUOUS
 10
128.2263620411
 20
180.5427307361
 11
130.8236537746
 21
180.878648444
  0
LINE
  5
3C2
100
AcDbEntity
  8
0
100
AcDbLine
 62
7
  6
CONTINUOUS
 10
163.4271924012
 20
181.1910981655
 11
162.0270668465
 21
181.4361201376
  0
LINE
  5
3C3
100
AcDbEntity
  8
0
100
AcDbLine
 62
7
  6
CONTINUOUS
 10
161.2270668465
 20
181.5761201376
 11
158.2270668465
 21
182.1011201376
  0
LINE
  5
3C4
100
AcDbEntity
  8
0
100
AcDbLine
 62
7
  6
CONTINUOUS
 10
157.4270668465
 20
182.2411201376
 11
154.4270668465
 21
182.7661201376
  0
LINE
  5
3C5
100
AcDbEntity
  8
0
100
AcDbLine
 62
7
  6
CONTINUOUS
 10
153.6270668465
 20
182.9061201376
 11
152.6000218813
 21
183.0858530065
  0
LINE
  5
3C6
100
AcDbEntity
  8
0
100
AcDbLine
 62
7
  6
CONTINUOUS
 10
117.9270668465
 20
199.1873701376
 11
118.9235135515
 21
198.2669930605
  0
LINE
  5
3C7
100
AcDbEntity
  8
0
100
AcDbLine
 62
7
  6
CONTINUOUS
 10
121.7270668465
 20
199.1873701376
 11
122.7235135515
 21
198.2669930605
  0
LINE
  5
3C8
100
AcDbEntity
  8
0
100
AcDbLine
 62
7
  6
CONTINUOUS
 10
125.5270668465
 20
199.1873701376
 11
126.5235135515
 21
198.2669930605
  0
LINE
  5
3C9
100
AcDbEntity
  8
0
100
AcDbLine
 62
7
  6
CONTINUOUS
 10
129.3270668465
 20
199.1873701376
 11
130.3235135515
 21
198.2669930605
  0
LINE
  5
3CA
100
AcDbEntity
  8
0
100
AcDbLine
 62
7
  6
CONTINUOUS
 10
126.8433448114
 20
196.5637213773
 11
126.4902759536
 21
196.9167902351
  0
LINE
  5
3CB
100
AcDbEntity
  8
0
100
AcDbLine
 62
7
  6
CONTINUOUS
 10
126.006486965
 20
197.4005792656
 11
125.6534181072
 21
197.7536481235
  0
LINE
  5
3CC
100
AcDbEntity
  8
0
100
AcDbLine
 62
7
  6
CONTINUOUS
 10
145.5709013027
 20
171.3787753942
 11
145.4192303936
 21
171.5373701376
  0
LINE
  5
3CD
100
AcDbEntity
  8
0
100
AcDbLine
 62
7
  6
CONTINUOUS
 10
139.9580921014
 20
172.5373706079
 11
140.0369925438
 21
172.3794584244
  0
LINE
  5
3CE
100
AcDbEntity
  8
0
100
AcDbLine
 62
7
  6
CONTINUOUS
 10
129.2793184829
 20
292.6873701376
 11
129.2740819634
 21
292.9873701376
  0
LINE
  5
3CF
100
AcDbEntity
  8
0
100
AcDbLine
 62
7
  6
CONTINUOUS
 10
127.0270668465
 20
129.6873701376
 11
127.0270668465
 21
200.1873701376
  0
LINE
  5
3D0
100
AcDbEntity
  8
0
100
AcDbLine
 62
7
  6
CONTINUOUS
 10
127.8270668465
 20
129.6873701376
 11
127.8270668465
 21
200.1873701376
  0
LINE
  5
3D1
100
AcDbEntity
  8
0
100
AcDbLine
 62
7
  6
CONTINUOUS
 10
130.8270668465
 20
129.6873701376
 11
130.8270668465
 21
200.1873701376
  0
LINE
  5
3D2
100
AcDbEntity
  8
0
100
AcDbLine
 62
7
  6
CONTINUOUS
 10
131.6270668465
 20
129.6873701376
 11
131.6270668465
 21
200.1873701376
  0
LINE
  5
3D3
100
AcDbEntity
  8
0
100
AcDbLine
 62
7
  6
CONTINUOUS
 10
134.6270668465
 20
129.6873701376
 11
134.6270668465
 21
200.1873701376
  0
LINE
  5
3D4
100
AcDbEntity
  8
0
100
AcDbLine
 62
7
  6
CONTINUOUS
 10
135.4270668465
 20
129.6873701376
 11
135.4270668465
 21
200.1873701376
  0
LINE
  5
3D5
100
AcDbEntity
  8
0
100
AcDbLine
 62
7
  6
CONTINUOUS
 10
137.1832324954
 20
170.1959648811
 11
137.1832324954
 21
170.6952796479
  0
LINE
  5
3D6
100
AcDbEntity
  8
0
100
AcDbLine
 62
7
  6
CONTINUOUS
 10
137.1832323903
 20
170.8794606276
 11
137.1832323903
 21
171.3787753941
  0
LINE
  5
3D7
100
AcDbEntity
  8
0
100
AcDbLine
 62
7
  6
CONTINUOUS
 10
130.4748152101
 20
292.6873701376
 11
130.4800517296
 21
292.9873701376
  0
LINE
  5
3D8
100
AcDbEntity
  8
0
100
AcDbLine
 62
7
  6
CONTINUOUS
 10
125.6534181079
 20
143.821092151
 11
125.647806437
 21
143.6024169847
  0
LINE
  5
3D9
100
AcDbEntity
  8
0
100
AcDbLine
 62
7
  6
CONTINUOUS
 10
94.123959889
 20
198.2608412577
 11
95.1270668465
 21
199.1873701376
  0
LINE
  5
3DA
100
AcDbEntity
  8
0
100
AcDbLine
 62
7
  6
CONTINUOUS
 10
97.923959889
 20
198.2608412577
 11
98.9270668465
 21
199.1873701376
  0
LINE
  5
3DB
100
AcDbEntity
  8
0
100
AcDbLine
 62
7
  6
CONTINUOUS
 10
101.723959889
 20
198.2608412577
 11
102.7270668465
 21
199.1873701376
  0
LINE
  5
3DC
100
AcDbEntity
  8
0
100
AcDbLine
 62
7
  6
CONTINUOUS
 10
105.523959889
 20
198.2608412577
 11
106.5270668465
 21
199.1873701376
  0
LINE
  5
3DD
100
AcDbEntity
  8
0
100
AcDbLine
 62
7
  6
CONTINUOUS
 10
77.6270668465
 20
171.6288832348
 11
74.8490312138
 21
170.8389145832
  0
LINE
  5
3DE
100
AcDbEntity
  8
0
100
AcDbLine
 62
7
  6
CONTINUOUS
 10
155.6921136936
 20
196.5581097281
 11
155.9107888599
 21
196.563721399
  0
LINE
  5
3DF
100
AcDbEntity
  8
0
100
AcDbLine
 62
7
  6
CONTINUOUS
 10
126.8433448331
 20
196.563721399
 11
127.0270668465
 21
196.5590067005
  0
LINE
  5
3E0
100
AcDbEntity
  8
0
100
AcDbLine
 62
7
  6
CONTINUOUS
 10
133.1270668465
 20
199.1873701376
 11
134.1235135515
 21
198.2669930605
  0
LINE
  5
3E1
100
AcDbEntity
  8
0
100
AcDbLine
 62
7
  6
CONTINUOUS
 10
136.9270668465
 20
199.1873701376
 11
137.9235135515
 21
198.2669930605
  0
LINE
  5
3E2
100
AcDbEntity
  8
0
100
AcDbLine
 62
7
  6
CONTINUOUS
 10
140.7270668465
 20
199.1873701376
 11
141.7235135515
 21
198.2669930605
  0
LINE
  5
3E3
100
AcDbEntity
  8
0
100
AcDbLine
 62
7
  6
CONTINUOUS
 10
144.5270668465
 20
199.1873701376
 11
145.5235135515
 21
198.2669930605
  0
LINE
  5
3E4
100
AcDbEntity
  8
0
100
AcDbLine
 62
7
  6
CONTINUOUS
 10
167.6399714419
 20
177.1185108348
 11
165.8270668465
 21
178.8710860864
  0
LINE
  5
3E5
100
AcDbEntity
  8
0
100
AcDbLine
 62
7
  6
CONTINUOUS
 10
165.0270668465
 20
179.644463905
 11
162.0270668465
 21
182.5446307246
  0
LINE
  5
3E6
100
AcDbEntity
  8
0
100
AcDbLine
 62
7
  6
CONTINUOUS
 10
161.2270668465
 20
183.3180085431
 11
158.2270668465
 21
186.2181753627
  0
LINE
  5
3E7
100
AcDbEntity
  8
0
100
AcDbLine
 62
7
  6
CONTINUOUS
 10
157.4270668465
 20
186.9915531813
 11
155.683582085
 21
188.6770187333
  0
LINE
  5
3E8
100
AcDbEntity
  8
0
100
AcDbLine
 62
7
  6
CONTINUOUS
 10
49.1276762515
 20
295.6867607326
 11
49.1707045088
 21
295.6437324753
  0
LINE
  5
3E9
100
AcDbEntity
  8
0
100
AcDbLine
 62
7
  6
CONTINUOUS
 10
48.8770668465
 20
296.4872939852
 11
48.8420044002
 21
296.5223564315
  0
LINE
  5
3EA
100
AcDbEntity
  8
0
100
AcDbLine
 62
7
  6
CONTINUOUS
 10
162.2107869659
 20
128.8625376536
 11
162.2691286932
 21
128.6873701376
  0
LINE
  5
3EB
100
AcDbEntity
  8
0
100
AcDbLine
 62
7
  6
CONTINUOUS
 10
162.3770668465
 20
130.6620166867
 11
162.3353163153
 21
130.7873701376
  0
LINE
  5
3EC
100
AcDbEntity
  8
0
100
AcDbLine
 62
7
  6
CONTINUOUS
 10
138.4270668465
 20
129.6873701376
 11
138.4270668465
 21
200.1873701376
  0
LINE
  5
3ED
100
AcDbEntity
  8
0
100
AcDbLine
 62
7
  6
CONTINUOUS
 10
139.2270668465
 20
129.6873701376
 11
139.2270668465
 21
200.1873701376
  0
LINE
  5
3EE
100
AcDbEntity
  8
0
100
AcDbLine
 62
7
  6
CONTINUOUS
 10
139.8770668465
 20
133.7873701376
 11
139.8770668465
 21
198.4022598938
  0
LINE
  5
3EF
100
AcDbEntity
  8
0
100
AcDbLine
 62
7
  6
CONTINUOUS
 10
139.9580921014
 20
198.3344312873
 11
139.9580921014
 21
172.5373706079
  0
LINE
  5
3F0
100
AcDbEntity
  8
0
100
AcDbLine
 62
7
  6
CONTINUOUS
 10
139.9580921014
 20
169.0373696674
 11
139.9580921014
 21
143.240308988
  0
LINE
  5
3F1
100
AcDbEntity
  8
0
100
AcDbLine
 62
7
  6
CONTINUOUS
 10
140.0366498661
 20
130.8873701376
 11
140.0366498714
 21
137.9341164409
  0
LINE
  5
3F2
100
AcDbEntity
  8
0
100
AcDbLine
 62
7
  6
CONTINUOUS
 10
140.0497428244
 20
170.3023331975
 11
140.0497428244
 21
171.2724070514
  0
LINE
  5
3F3
100
AcDbEntity
  8
0
100
AcDbLine
 62
7
  6
CONTINUOUS
 10
140.1152076308
 20
130.8873701376
 11
140.1152076308
 21
130.8088123729
  0
LINE
  5
3F4
100
AcDbEntity
  8
0
100
AcDbLine
 62
7
  6
CONTINUOUS
 10
140.115207633
 20
138.15282245
 11
140.1152076308
 21
143.1000281377
  0
LINE
  5
3F5
100
AcDbEntity
  8
0
100
AcDbLine
 62
7
  6
CONTINUOUS
 10
140.1152076308
 20
198.474746585
 11
140.1152076309
 21
198.6222207989
  0
LINE
  5
3F6
100
AcDbEntity
  8
0
100
AcDbLine
 62
7
  6
CONTINUOUS
 10
140.3770668465
 20
198.864089449
 11
140.3770668465
 21
136.6608728295
  0
LINE
  5
3F7
100
AcDbEntity
  8
0
100
AcDbLine
 62
7
  6
CONTINUOUS
 10
142.2270668465
 20
129.6873701376
 11
142.2270668465
 21
200.1873701376
  0
LINE
  5
3F8
100
AcDbEntity
  8
0
100
AcDbLine
 62
7
  6
CONTINUOUS
 10
143.0270668465
 20
129.6873701376
 11
143.0270668465
 21
200.1873701376
  0
LINE
  5
3F9
100
AcDbEntity
  8
0
100
AcDbLine
 62
7
  6
CONTINUOUS
 10
144.1770668477
 20
193.7506016195
 11
144.1770668477
 21
166.7873701374
  0
LINE
  5
3FA
100
AcDbEntity
  8
0
100
AcDbLine
 62
7
  6
CONTINUOUS
 10
144.1770668477
 20
163.6900326904
 11
144.1770668477
 21
147.8241386557
  0
LINE
  5
3FB
100
AcDbEntity
  8
0
100
AcDbLine
 62
7
  6
CONTINUOUS
 10
145.5709011976
 20
171.3787753941
 11
145.5709011976
 21
170.8794606273
  0
LINE
  5
3FC
100
AcDbEntity
  8
0
100
AcDbLine
 62
7
  6
CONTINUOUS
 10
145.5709013027
 20
170.6952796476
 11
145.5709013027
 21
170.1959648811
  0
LINE
  5
3FD
100
AcDbEntity
  8
0
100
AcDbLine
 62
7
  6
CONTINUOUS
 10
146.0270668465
 20
129.6873701376
 11
146.0270668465
 21
200.1873701376
  0
LINE
  5
3FE
100
AcDbEntity
  8
0
100
AcDbLine
 62
7
  6
CONTINUOUS
 10
146.8270668465
 20
129.6873701376
 11
146.8270668465
 21
200.1873701376
  0
LINE
  5
3FF
100
AcDbEntity
  8
0
100
AcDbLine
 62
7
  6
CONTINUOUS
 10
140.3770668465
 20
136.6608728295
 11
140.1152076308
 21
130.8873701376
  0
LINE
  5
400
100
AcDbEntity
  8
0
100
AcDbLine
 62
7
  6
CONTINUOUS
 10
106.5641598857
 20
155.7031801797
 11
105.0270668465
 21
153.144484253
  0
LINE
  5
401
100
AcDbEntity
  8
0
100
AcDbLine
 62
7
  6
CONTINUOUS
 10
104.2270668465
 20
151.8127777855
 11
101.2270668465
 21
146.8188785323
  0
LINE
  5
402
100
AcDbEntity
  8
0
100
AcDbLine
 62
7
  6
CONTINUOUS
 10
100.4270668465
 20
145.4871720648
 11
97.4270668465
 21
140.4932728116
  0
LINE
  5
403
100
AcDbEntity
  8
0
100
AcDbLine
 62
7
  6
CONTINUOUS
 10
96.6270668465
 20
139.1615663441
 11
93.6270668465
 21
134.1676670909
  0
LINE
  5
404
100
AcDbEntity
  8
0
100
AcDbLine
 62
7
  6
CONTINUOUS
 10
92.8270668465
 20
132.8359606234
 11
92.3773638508
 21
132.0873701386
  0
LINE
  5
405
100
AcDbEntity
  8
0
100
AcDbLine
 62
7
  6
CONTINUOUS
 10
80.7794814871
 20
149.1746681805
 11
81.1101260959
 21
149.5488580714
  0
LINE
  5
406
100
AcDbEntity
  8
0
100
AcDbLine
 62
7
  6
CONTINUOUS
 10
76.7460869605
 20
144.9769855844
 11
76.4128758587
 21
144.6051765768
  0
LINE
  5
407
100
AcDbEntity
  8
0
100
AcDbLine
 62
7
  6
CONTINUOUS
 10
75.4773362461
 20
143.8550313334
 11
75.8126077127
 21
144.2251028263
  0
LINE
  5
408
100
AcDbEntity
  8
0
100
AcDbLine
 62
7
  6
CONTINUOUS
 10
109.323959889
 20
198.2608412577
 11
110.3270668465
 21
199.1873701376
  0
LINE
  5
409
100
AcDbEntity
  8
0
100
AcDbLine
 62
7
  6
CONTINUOUS
 10
113.123959889
 20
198.2608412577
 11
114.1270668465
 21
199.1873701376
  0
LINE
  5
40A
100
AcDbEntity
  8
0
100
AcDbLine
 62
7
  6
CONTINUOUS
 10
116.923959889
 20
198.2608412577
 11
117.9270668465
 21
199.1873701376
  0
LINE
  5
40B
100
AcDbEntity
  8
0
100
AcDbLine
 62
7
  6
CONTINUOUS
 10
120.723959889
 20
198.2608412577
 11
121.7270668465
 21
199.1873701376
  0
LINE
  5
40C
100
AcDbEntity
  8
0
100
AcDbLine
 62
7
  6
CONTINUOUS
 10
40.4524353278
 20
200.1873701376
 11
41.9270668465
 21
200.1873701376
  0
LINE
  5
40D
100
AcDbEntity
  8
0
100
AcDbLine
 62
7
  6
CONTINUOUS
 10
43.4270668465
 20
200.1873701376
 11
44.2270668465
 21
200.1873701376
  0
LINE
  5
40E
100
AcDbEntity
  8
0
100
AcDbLine
 62
7
  6
CONTINUOUS
 10
47.2270668465
 20
200.1873701376
 11
48.0270668465
 21
200.1873701376
  0
LINE
  5
40F
100
AcDbEntity
  8
0
100
AcDbLine
 62
7
  6
CONTINUOUS
 10
51.0270668465
 20
200.1873701376
 11
51.8270668465
 21
200.1873701376
  0
LINE
  5
410
100
AcDbEntity
  8
0
100
AcDbLine
 62
7
  6
CONTINUOUS
 10
77.6270668465
 20
200.1873701376
 11
78.4270668465
 21
200.1873701376
  0
LINE
  5
411
100
AcDbEntity
  8
0
100
AcDbLine
 62
7
  6
CONTINUOUS
 10
81.4270668465
 20
200.1873701376
 11
82.2270668465
 21
200.1873701376
  0
LINE
  5
412
100
AcDbEntity
  8
0
100
AcDbLine
 62
7
  6
CONTINUOUS
 10
85.2270668465
 20
200.1873701376
 11
86.0270668465
 21
200.1873701376
  0
LINE
  5
413
100
AcDbEntity
  8
0
100
AcDbLine
 62
7
  6
CONTINUOUS
 10
89.0270668465
 20
200.1873701376
 11
89.8270668465
 21
200.1873701376
  0
LINE
  5
414
100
AcDbEntity
  8
0
100
AcDbLine
 62
7
  6
CONTINUOUS
 10
92.8270668465
 20
200.1873701376
 11
93.6270668465
 21
200.1873701376
  0
LINE
  5
415
100
AcDbEntity
  8
0
100
AcDbLine
 62
7
  6
CONTINUOUS
 10
96.6270668465
 20
200.1873701376
 11
97.4270668465
 21
200.1873701376
  0
LINE
  5
416
100
AcDbEntity
  8
0
100
AcDbLine
 62
7
  6
CONTINUOUS
 10
100.4270668465
 20
200.1873701376
 11
101.2270668465
 21
200.1873701376
  0
LINE
  5
417
100
AcDbEntity
  8
0
100
AcDbLine
 62
7
  6
CONTINUOUS
 10
104.2270668465
 20
200.1873701376
 11
105.0270668465
 21
200.1873701376
  0
LINE
  5
418
100
AcDbEntity
  8
0
100
AcDbLine
 62
7
  6
CONTINUOUS
 10
108.0270668465
 20
200.1873701376
 11
108.8270668465
 21
200.1873701376
  0
LINE
  5
419
100
AcDbEntity
  8
0
100
AcDbLine
 62
7
  6
CONTINUOUS
 10
111.8270668465
 20
200.1873701376
 11
112.6270668465
 21
200.1873701376
  0
LINE
  5
41A
100
AcDbEntity
  8
0
100
AcDbLine
 62
7
  6
CONTINUOUS
 10
115.6270668465
 20
200.1873701376
 11
116.4270668465
 21
200.1873701376
  0
LINE
  5
41B
100
AcDbEntity
  8
0
100
AcDbLine
 62
7
  6
CONTINUOUS
 10
119.4270668465
 20
200.1873701376
 11
120.2270668465
 21
200.1873701376
  0
LINE
  5
41C
100
AcDbEntity
  8
0
100
AcDbLine
 62
7
  6
CONTINUOUS
 10
123.2270668465
 20
200.1873701376
 11
124.0270668465
 21
200.1873701376
  0
LINE
  5
41D
100
AcDbEntity
  8
0
100
AcDbLine
 62
7
  6
CONTINUOUS
 10
127.0270668465
 20
200.1873701376
 11
127.8270668465
 21
200.1873701376
  0
LINE
  5
41E
100
AcDbEntity
  8
0
100
AcDbLine
 62
7
  6
CONTINUOUS
 10
130.8270668465
 20
200.1873701376
 11
131.6270668465
 21
200.1873701376
  0
LINE
  5
41F
100
AcDbEntity
  8
0
100
AcDbLine
 62
7
  6
CONTINUOUS
 10
134.6270668465
 20
200.1873701376
 11
135.4270668465
 21
200.1873701376
  0
LINE
  5
420
100
AcDbEntity
  8
0
100
AcDbLine
 62
7
  6
CONTINUOUS
 10
138.4270668465
 20
200.1873701376
 11
139.2270668465
 21
200.1873701376
  0
LINE
  5
421
100
AcDbEntity
  8
0
100
AcDbLine
 62
7
  6
CONTINUOUS
 10
142.2270668465
 20
200.1873701376
 11
143.0270668465
 21
200.1873701376
  0
LINE
  5
422
100
AcDbEntity
  8
0
100
AcDbLine
 62
7
  6
CONTINUOUS
 10
146.0270668465
 20
200.1873701376
 11
146.8270668465
 21
200.1873701376
  0
LINE
  5
423
100
AcDbEntity
  8
0
100
AcDbLine
 62
7
  6
CONTINUOUS
 10
149.8270668465
 20
200.1873701376
 11
150.6270668465
 21
200.1873701376
  0
LINE
  5
424
100
AcDbEntity
  8
0
100
AcDbLine
 62
7
  6
CONTINUOUS
 10
153.6270668465
 20
200.1873701376
 11
154.4270668465
 21
200.1873701376
  0
LINE
  5
425
100
AcDbEntity
  8
0
100
AcDbLine
 62
7
  6
CONTINUOUS
 10
157.4270668465
 20
200.1873701376
 11
158.2270668465
 21
200.1873701376
  0
LINE
  5
426
100
AcDbEntity
  8
0
100
AcDbLine
 62
7
  6
CONTINUOUS
 10
161.2270668465
 20
200.1873701376
 11
162.0270668465
 21
200.1873701376
  0
LINE
  5
427
100
AcDbEntity
  8
0
100
AcDbLine
 62
7
  6
CONTINUOUS
 10
165.0270668465
 20
200.1873701376
 11
165.8270668465
 21
200.1873701376
  0
LINE
  5
428
100
AcDbEntity
  8
0
100
AcDbLine
 62
7
  6
CONTINUOUS
 10
168.8270668465
 20
200.1873701376
 11
169.6270668465
 21
200.1873701376
  0
LINE
  5
429
100
AcDbEntity
  8
0
100
AcDbLine
 62
7
  6
CONTINUOUS
 10
172.6270668465
 20
200.1873701376
 11
173.4270668465
 21
200.1873701376
  0
LINE
  5
42A
100
AcDbEntity
  8
0
100
AcDbLine
 62
7
  6
CONTINUOUS
 10
176.4270668465
 20
200.1873701376
 11
177.2270668465
 21
200.1873701376
  0
LINE
  5
42B
100
AcDbEntity
  8
0
100
AcDbLine
 62
7
  6
CONTINUOUS
 10
180.2270668465
 20
200.1873701376
 11
181.0270668465
 21
200.1873701376
  0
LINE
  5
42C
100
AcDbEntity
  8
0
100
AcDbLine
 62
7
  6
CONTINUOUS
 10
184.0270668465
 20
200.1873701376
 11
184.8270668465
 21
200.1873701376
  0
LINE
  5
42D
100
AcDbEntity
  8
0
100
AcDbLine
 62
7
  6
CONTINUOUS
 10
186.3270668465
 20
200.1873701376
 11
188.1270668465
 21
200.1873701376
  0
LINE
  5
42E
100
AcDbEntity
  8
0
100
AcDbLine
 62
7
  6
CONTINUOUS
 10
51.8938379147
 20
202.6873701376
 11
51.7917267687
 21
202.6873701376
  0
LINE
  5
42F
100
AcDbEntity
  8
0
100
AcDbLine
 62
7
  6
CONTINUOUS
 10
180.3770668465
 20
202.6873701376
 11
183.3770668465
 21
202.6873701376
  0
LINE
  5
430
100
AcDbEntity
  8
0
100
AcDbLine
 62
7
  6
CONTINUOUS
 10
188.1270668465
 20
202.6873701376
 11
189.5155717821
 21
202.6873701376
  0
LINE
  5
431
100
AcDbEntity
  8
0
100
AcDbLine
 62
7
  6
CONTINUOUS
 10
183.4119769764
 20
204.6873701376
 11
180.3421567167
 21
204.6873701376
  0
LINE
  5
432
100
AcDbEntity
  8
0
100
AcDbLine
 62
7
  6
CONTINUOUS
 10
148.3270668465
 20
199.1873701376
 11
149.3235135515
 21
198.2669930605
  0
LINE
  5
433
100
AcDbEntity
  8
0
100
AcDbLine
 62
7
  6
CONTINUOUS
 10
152.1270668465
 20
199.1873701376
 11
153.1235135515
 21
198.2669930605
  0
LINE
  5
434
100
AcDbEntity
  8
0
100
AcDbLine
 62
7
  6
CONTINUOUS
 10
155.9270668465
 20
199.1873701376
 11
156.9235135515
 21
198.2669930605
  0
LINE
  5
435
100
AcDbEntity
  8
0
100
AcDbLine
 62
7
  6
CONTINUOUS
 10
159.7270668465
 20
199.1873701376
 11
160.7235135515
 21
198.2669930605
  0
LINE
  5
436
100
AcDbEntity
  8
0
100
AcDbLine
 62
7
  6
CONTINUOUS
 10
155.6920963495
 20
196.5581270722
 11
154.8981599801
 21
197.3520634417
  0
LINE
  5
437
100
AcDbEntity
  8
0
100
AcDbLine
 62
7
  6
CONTINUOUS
 10
155.9107888599
 20
196.563721399
 11
154.9955237797
 21
197.4789864792
  0
LINE
  5
438
100
AcDbEntity
  8
0
100
AcDbLine
 62
7
  6
CONTINUOUS
 10
155.302060944
 20
197.8785870306
 11
156.264370504
 21
196.9162774705
  0
LINE
  5
439
100
AcDbEntity
  8
0
100
AcDbLine
 62
7
  6
CONTINUOUS
 10
156.7474103619
 20
197.4008156322
 11
155.785772785
 21
198.362453209
  0
LINE
  5
43A
100
AcDbEntity
  8
0
100
AcDbLine
 62
7
  6
CONTINUOUS
 10
156.1853811063
 20
198.6689826031
 11
157.1007155852
 21
197.7536481242
  0
LINE
  5
43B
100
AcDbEntity
  8
0
100
AcDbLine
 62
7
  6
CONTINUOUS
 10
156.3123066118
 20
198.7663439347
 11
157.1063099112
 21
197.9723406353
  0
LINE
  5
43C
100
AcDbEntity
  8
0
100
AcDbLine
 62
7
  6
CONTINUOUS
 10
157.106327256
 20
143.6024169847
 11
157.1007155852
 21
143.821092151
  0
LINE
  5
43D
100
AcDbEntity
  8
0
100
AcDbLine
 62
7
  6
CONTINUOUS
 10
149.8270668465
 20
129.6873701376
 11
149.8270668465
 21
200.1873701376
  0
LINE
  5
43E
100
AcDbEntity
  8
0
100
AcDbLine
 62
7
  6
CONTINUOUS
 10
150.6270668465
 20
129.6873701376
 11
150.6270668465
 21
200.1873701376
  0
LINE
  5
43F
100
AcDbEntity
  8
0
100
AcDbLine
 62
7
  6
CONTINUOUS
 10
153.6270668465
 20
129.6873701376
 11
153.6270668465
 21
200.1873701376
  0
LINE
  5
440
100
AcDbEntity
  8
0
100
AcDbLine
 62
7
  6
CONTINUOUS
 10
154.4270668465
 20
129.6873701376
 11
154.4270668465
 21
200.1873701376
  0
LINE
  5
441
100
AcDbEntity
  8
0
100
AcDbLine
 62
7
  6
CONTINUOUS
 10
156.3372667199
 20
130.347570011
 11
156.3372667199
 21
130.2873701376
  0
LINE
  5
442
100
AcDbEntity
  8
0
100
AcDbLine
 62
7
  6
CONTINUOUS
 10
156.6517133956
 20
130.6620166867
 11
156.6517133956
 21
130.0778455207
  0
LINE
  5
443
100
AcDbEntity
  8
0
100
AcDbLine
 62
7
  6
CONTINUOUS
 10
157.3770668465
 20
130.6620166867
 11
157.3770668465
 21
128.6873701376
  0
LINE
  5
444
100
AcDbEntity
  8
0
100
AcDbLine
 62
7
  6
CONTINUOUS
 10
157.4270668465
 20
129.6873701376
 11
157.4270668465
 21
200.1873701376
  0
LINE
  5
445
100
AcDbEntity
  8
0
100
AcDbLine
 62
7
  6
CONTINUOUS
 10
157.5516174958
 20
129.6873701376
 11
157.5516174958
 21
129.361852421
  0
LINE
  5
446
100
AcDbEntity
  8
0
100
AcDbLine
 62
7
  6
CONTINUOUS
 10
157.1007155852
 20
197.7536481242
 11
157.106327256
 21
197.9723232905
  0
LINE
  5
447
100
AcDbEntity
  8
0
100
AcDbLine
 62
7
  6
CONTINUOUS
 10
120.3770668465
 20
130.6620166867
 11
120.4188173777
 21
130.7873701376
  0
LINE
  5
448
100
AcDbEntity
  8
0
100
AcDbLine
 62
7
  6
CONTINUOUS
 10
120.5433467271
 20
128.8625376536
 11
120.4850049998
 21
128.6873701376
  0
LINE
  5
449
100
AcDbEntity
  8
0
100
AcDbLine
 62
7
  6
CONTINUOUS
 10
95.8770668471
 20
132.0873701386
 11
96.6270668465
 21
133.3358449509
  0
LINE
  5
44A
100
AcDbEntity
  8
0
100
AcDbLine
 62
7
  6
CONTINUOUS
 10
97.4270668465
 20
134.6675514184
 11
100.4270668465
 21
139.6614506716
  0
LINE
  5
44B
100
AcDbEntity
  8
0
100
AcDbLine
 62
7
  6
CONTINUOUS
 10
101.2270668465
 20
140.9931571391
 11
104.2270668465
 21
145.9870563923
  0
LINE
  5
44C
100
AcDbEntity
  8
0
100
AcDbLine
 62
7
  6
CONTINUOUS
 10
105.0270668465
 20
147.3187628598
 11
108.0270668465
 21
152.312662113
  0
LINE
  5
44D
100
AcDbEntity
  8
0
100
AcDbLine
 62
7
  6
CONTINUOUS
 10
108.8270668465
 20
153.6443685805
 11
111.8270668465
 21
158.6382678337
  0
LINE
  5
44E
100
AcDbEntity
  8
0
100
AcDbLine
 62
7
  6
CONTINUOUS
 10
112.6270668465
 20
159.9699743012
 11
114.0211242287
 21
162.290568341
  0
LINE
  5
44F
100
AcDbEntity
  8
0
100
AcDbLine
 62
7
  6
CONTINUOUS
 10
125.647823781
 20
197.9723406345
 11
126.2329948793
 21
198.5575117328
  0
LINE
  5
450
100
AcDbEntity
  8
0
100
AcDbLine
 62
7
  6
CONTINUOUS
 10
126.3451382979
 20
198.4453683142
 11
125.6534181079
 21
197.7536481242
  0
LINE
  5
451
100
AcDbEntity
  8
0
100
AcDbLine
 62
7
  6
CONTINUOUS
 10
75.8111373063
 20
147.9113673226
 11
75.5165030304
 21
147.6167330467
  0
LINE
  5
452
100
AcDbEntity
  8
0
100
AcDbLine
 62
7
  6
CONTINUOUS
 10
126.8205479916
 20
198.2146402923
 11
126.0059745296
 21
197.4000668304
  0
LINE
  5
453
100
AcDbEntity
  8
0
100
AcDbLine
 62
7
  6
CONTINUOUS
 10
77.6270668465
 20
149.0211591473
 11
75.869571888
 21
147.2636641884
  0
LINE
  5
454
100
AcDbEntity
  8
0
100
AcDbLine
 62
7
  6
CONTINUOUS
 10
76.3536779545
 20
146.7801922357
 11
77.6270668465
 21
148.053581128
  0
LINE
  5
455
100
AcDbEntity
  8
0
100
AcDbLine
 62
7
  6
CONTINUOUS
 10
78.4270668465
 20
148.8535811281
 11
79.0587858309
 21
149.4853001126
  0
LINE
  5
456
100
AcDbEntity
  8
0
100
AcDbLine
 62
7
  6
CONTINUOUS
 10
126.4905120467
 20
196.9170263278
 11
127.0270668465
 21
197.4535811277
  0
LINE
  5
457
100
AcDbEntity
  8
0
100
AcDbLine
 62
7
  6
CONTINUOUS
 10
127.0270668465
 20
196.7474434124
 11
126.8433448331
 21
196.563721399
  0
LINE
  5
458
100
AcDbEntity
  8
0
100
AcDbLine
 62
7
  6
CONTINUOUS
 10
82.4855741228
 20
152.2059506886
 11
82.2270668465
 21
151.9474434124
  0
LINE
  5
459
100
AcDbEntity
  8
0
100
AcDbLine
 62
7
  6
CONTINUOUS
 10
79.4120925526
 20
149.1324691184
 11
78.4270668465
 21
148.1474434124
  0
LINE
  5
45A
100
AcDbEntity
  8
0
100
AcDbLine
 62
7
  6
CONTINUOUS
 10
77.6270668465
 20
147.3474434124
 11
76.7064297533
 21
146.4268063192
  0
LINE
  5
45B
100
AcDbEntity
  8
0
100
AcDbLine
 62
7
  6
CONTINUOUS
 10
76.9373207395
 20
146.4334104682
 11
77.6270668465
 21
147.1231565753
  0
LINE
  5
45C
100
AcDbEntity
  8
0
100
AcDbLine
 62
7
  6
CONTINUOUS
 10
78.4270668465
 20
147.9231565753
 11
79.4190696361
 21
148.9151593649
  0
LINE
  5
45D
100
AcDbEntity
  8
0
100
AcDbLine
 62
7
  6
CONTINUOUS
 10
82.2528241676
 20
151.7489138963
 11
83.1330880987
 21
152.6291778274
  0
LINE
  5
45E
100
AcDbEntity
  8
0
100
AcDbLine
 62
7
  6
CONTINUOUS
 10
127.8270668465
 20
197.3231565753
 11
127.8560406424
 21
197.3521303712
  0
LINE
  5
45F
100
AcDbEntity
  8
0
100
AcDbLine
 62
7
  6
CONTINUOUS
 10
60.2054939713
 20
127.5157972624
 11
57.462871704
 21
124.7731749951
  0
LINE
  5
460
100
AcDbEntity
  8
0
100
AcDbLine
 62
7
  6
CONTINUOUS
 10
124.523959889
 20
198.2608412577
 11
125.5270668465
 21
199.1873701376
  0
LINE
  5
461
100
AcDbEntity
  8
0
100
AcDbLine
 62
7
  6
CONTINUOUS
 10
128.323959889
 20
198.2608412577
 11
129.3270668465
 21
199.1873701376
  0
LINE
  5
462
100
AcDbEntity
  8
0
100
AcDbLine
 62
7
  6
CONTINUOUS
 10
132.123959889
 20
198.2608412577
 11
133.1270668465
 21
199.1873701376
  0
LINE
  5
463
100
AcDbEntity
  8
0
100
AcDbLine
 62
7
  6
CONTINUOUS
 10
135.923959889
 20
198.2608412577
 11
136.9270668465
 21
199.1873701376
  0
LINE
  5
464
100
AcDbEntity
  8
0
100
AcDbLine
 62
7
  6
CONTINUOUS
 10
52.1729410709
 20
210.6873701376
 11
40.3943696008
 21
210.6873701376
  0
LINE
  5
465
100
AcDbEntity
  8
0
100
AcDbLine
 62
7
  6
CONTINUOUS
 10
58.3782024303
 20
210.6873701376
 11
189.3759312627
 21
210.6873701376
  0
LINE
  5
466
100
AcDbEntity
  8
0
100
AcDbLine
 62
7
  6
CONTINUOUS
 10
190.3586285258
 20
211.6873701376
 11
57.3955051672
 21
211.6873701376
  0
LINE
  5
467
100
AcDbEntity
  8
0
100
AcDbLine
 62
7
  6
CONTINUOUS
 10
52.3289212881
 20
211.6873701376
 11
39.3943695834
 21
211.6873701376
  0
LINE
  5
468
100
AcDbEntity
  8
0
100
AcDbLine
 62
7
  6
CONTINUOUS
 10
163.5270668465
 20
199.1873701376
 11
164.5235135515
 21
198.2669930605
  0
LINE
  5
469
100
AcDbEntity
  8
0
100
AcDbLine
 62
7
  6
CONTINUOUS
 10
167.3270668465
 20
199.1873701376
 11
168.3235135515
 21
198.2669930605
  0
LINE
  5
46A
100
AcDbEntity
  8
0
100
AcDbLine
 62
7
  6
CONTINUOUS
 10
171.1270668465
 20
199.1873701376
 11
172.1235135515
 21
198.2669930605
  0
LINE
  5
46B
100
AcDbEntity
  8
0
100
AcDbLine
 62
7
  6
CONTINUOUS
 10
174.9270668465
 20
199.1873701376
 11
175.9235135515
 21
198.2669930605
  0
LINE
  5
46C
100
AcDbEntity
  8
0
100
AcDbLine
 62
7
  6
CONTINUOUS
 10
158.2270668465
 20
129.6873701376
 11
158.2270668465
 21
200.1873701376
  0
LINE
  5
46D
100
AcDbEntity
  8
0
100
AcDbLine
 62
7
  6
CONTINUOUS
 10
161.2270668465
 20
129.6873701376
 11
161.2270668465
 21
200.1873701376
  0
LINE
  5
46E
100
AcDbEntity
  8
0
100
AcDbLine
 62
7
  6
CONTINUOUS
 10
162.0270668465
 20
129.6873701376
 11
162.0270668465
 21
200.1873701376
  0
LINE
  5
46F
100
AcDbEntity
  8
0
100
AcDbLine
 62
7
  6
CONTINUOUS
 10
162.2025161972
 20
130.5520563195
 11
162.2025161972
 21
129.361852421
  0
LINE
  5
470
100
AcDbEntity
  8
0
100
AcDbLine
 62
7
  6
CONTINUOUS
 10
162.3770668465
 20
130.6620166867
 11
162.3770668465
 21
128.6873701376
  0
LINE
  5
471
100
AcDbEntity
  8
0
100
AcDbLine
 62
7
  6
CONTINUOUS
 10
163.1024202974
 20
130.0778455207
 11
163.1024202974
 21
130.6620166867
  0
LINE
  5
472
100
AcDbEntity
  8
0
100
AcDbLine
 62
7
  6
CONTINUOUS
 10
163.4168669731
 20
130.2873701376
 11
163.4168669731
 21
130.347570011
  0
LINE
  5
473
100
AcDbEntity
  8
0
100
AcDbLine
 62
7
  6
CONTINUOUS
 10
165.0270668465
 20
129.6873701376
 11
165.0270668465
 21
200.1873701376
  0
LINE
  5
474
100
AcDbEntity
  8
0
100
AcDbLine
 62
7
  6
CONTINUOUS
 10
165.8270668465
 20
129.6873701376
 11
165.8270668465
 21
200.1873701376
  0
LINE
  5
475
100
AcDbEntity
  8
0
100
AcDbLine
 62
7
  6
CONTINUOUS
 10
140.1152076308
 20
138.1528224295
 11
140.036649866
 21
137.9341163881
  0
LINE
  5
476
100
AcDbEntity
  8
0
100
AcDbLine
 62
7
  6
CONTINUOUS
 10
140.036992544
 20
169.1952818494
 11
139.9580921014
 21
169.0373696674
  0
LINE
  5
477
100
AcDbEntity
  8
0
100
AcDbLine
 62
7
  6
CONTINUOUS
 10
73.43858025
 20
130.4488835411
 11
73.6517133956
 21
130.6620166867
  0
LINE
  5
478
100
AcDbEntity
  8
0
100
AcDbLine
 62
7
  6
CONTINUOUS
 10
139.723959889
 20
198.2608412577
 11
140.7270668465
 21
199.1873701376
  0
LINE
  5
479
100
AcDbEntity
  8
0
100
AcDbLine
 62
7
  6
CONTINUOUS
 10
143.523959889
 20
198.2608412577
 11
144.5270668465
 21
199.1873701376
  0
LINE
  5
47A
100
AcDbEntity
  8
0
100
AcDbLine
 62
7
  6
CONTINUOUS
 10
147.323959889
 20
198.2608412577
 11
148.3270668465
 21
199.1873701376
  0
LINE
  5
47B
100
AcDbEntity
  8
0
100
AcDbLine
 62
7
  6
CONTINUOUS
 10
151.123959889
 20
198.2608412577
 11
152.1270668465
 21
199.1873701376
  0
LINE
  5
47C
100
AcDbEntity
  8
0
100
AcDbLine
 62
7
  6
CONTINUOUS
 10
140.1152076308
 20
198.4747121375
 11
139.9580921014
 21
198.3344312873
  0
LINE
  5
47D
100
AcDbEntity
  8
0
100
AcDbLine
 62
7
  6
CONTINUOUS
 10
122.7784788787
 20
181.9417272145
 11
123.2270668465
 21
182.3410360615
  0
LINE
  5
47E
100
AcDbEntity
  8
0
100
AcDbLine
 62
7
  6
CONTINUOUS
 10
124.0270668465
 20
183.0531529716
 11
127.0270668465
 21
185.7235913847
  0
LINE
  5
47F
100
AcDbEntity
  8
0
100
AcDbLine
 62
7
  6
CONTINUOUS
 10
127.8270668465
 20
186.4357082948
 11
128.3218266794
 21
186.8761168492
  0
LINE
  5
480
100
AcDbEntity
  8
0
100
AcDbLine
 62
7
  6
CONTINUOUS
 10
178.7270668465
 20
199.1873701376
 11
179.7235135515
 21
198.2669930605
  0
LINE
  5
481
100
AcDbEntity
  8
0
100
AcDbLine
 62
7
  6
CONTINUOUS
 10
182.5270668465
 20
199.1873701376
 11
183.5235135515
 21
198.2669930605
  0
LINE
  5
482
100
AcDbEntity
  8
0
100
AcDbLine
 62
7
  6
CONTINUOUS
 10
177.8182923881
 20
194.4078344701
 11
177.2270668465
 21
195.4889053521
  0
LINE
  5
483
100
AcDbEntity
  8
0
100
AcDbLine
 62
7
  6
CONTINUOUS
 10
176.4270668465
 20
196.9517256208
 11
175.487529236
 21
198.6696939455
  0
LINE
  5
484
100
AcDbEntity
  8
0
100
AcDbLine
 62
7
  6
CONTINUOUS
 10
177.2270668465
 20
147.4134644451
 11
177.7046464841
 21
138.5197671852
  0
LINE
  5
485
100
AcDbEntity
  8
0
100
AcDbLine
 62
7
  6
CONTINUOUS
 10
168.8270668465
 20
129.6873701376
 11
168.8270668465
 21
200.1873701376
  0
LINE
  5
486
100
AcDbEntity
  8
0
100
AcDbLine
 62
7
  6
CONTINUOUS
 10
169.6270668465
 20
129.6873701376
 11
169.6270668465
 21
200.1873701376
  0
LINE
  5
487
100
AcDbEntity
  8
0
100
AcDbLine
 62
7
  6
CONTINUOUS
 10
172.6270668465
 20
129.6873701376
 11
172.6270668465
 21
200.1873701376
  0
LINE
  5
488
100
AcDbEntity
  8
0
100
AcDbLine
 62
7
  6
CONTINUOUS
 10
173.4270668465
 20
129.6873701376
 11
173.4270668465
 21
200.1873701376
  0
LINE
  5
489
100
AcDbEntity
  8
0
100
AcDbLine
 62
7
  6
CONTINUOUS
 10
176.4270668465
 20
129.6873701376
 11
176.4270668465
 21
200.1873701376
  0
LINE
  5
48A
100
AcDbEntity
  8
0
100
AcDbLine
 62
7
  6
CONTINUOUS
 10
177.2270668465
 20
129.6873701376
 11
177.2270668465
 21
200.1873701376
  0
LINE
  5
48B
100
AcDbEntity
  8
0
100
AcDbLine
 62
7
  6
CONTINUOUS
 10
137.3349032995
 20
171.5373701376
 11
137.1832323903
 21
171.3787753942
  0
LINE
  5
48C
100
AcDbEntity
  8
0
100
AcDbLine
 62
7
  6
CONTINUOUS
 10
157.1007156069
 20
197.7536481025
 11
156.7476467491
 21
197.4005792447
  0
LINE
  5
48D
100
AcDbEntity
  8
0
100
AcDbLine
 62
7
  6
CONTINUOUS
 10
156.2638577185
 20
196.9167902561
 11
155.9107888606
 21
196.5637213983
  0
LINE
  5
48E
100
AcDbEntity
  8
0
100
AcDbLine
 62
7
  6
CONTINUOUS
 10
99.28566159
 20
133.4812045938
 11
99.1270668465
 21
133.3295336847
  0
LINE
  5
48F
100
AcDbEntity
  8
0
100
AcDbLine
 62
7
  6
CONTINUOUS
 10
154.923959889
 20
198.2608412577
 11
155.9270668465
 21
199.1873701376
  0
LINE
  5
490
100
AcDbEntity
  8
0
100
AcDbLine
 62
7
  6
CONTINUOUS
 10
158.723959889
 20
198.2608412577
 11
159.7270668465
 21
199.1873701376
  0
LINE
  5
491
100
AcDbEntity
  8
0
100
AcDbLine
 62
7
  6
CONTINUOUS
 10
162.523959889
 20
198.2608412577
 11
163.5270668465
 21
199.1873701376
  0
LINE
  5
492
100
AcDbEntity
  8
0
100
AcDbLine
 62
7
  6
CONTINUOUS
 10
166.323959889
 20
198.2608412577
 11
167.3270668465
 21
199.1873701376
  0
LINE
  5
493
100
AcDbEntity
  8
0
100
AcDbLine
 62
7
  6
CONTINUOUS
 10
90.3275034887
 20
157.331581102
 11
89.8270668465
 21
157.0044864352
  0
LINE
  5
494
100
AcDbEntity
  8
0
100
AcDbLine
 62
7
  6
CONTINUOUS
 10
89.0270668465
 20
156.4815916042
 11
86.0270668465
 21
154.5207359879
  0
LINE
  5
495
100
AcDbEntity
  8
0
100
AcDbLine
 62
7
  6
CONTINUOUS
 10
85.2270668465
 20
153.9978411568
 11
82.2270668465
 21
152.0369855405
  0
LINE
  5
496
100
AcDbEntity
  8
0
100
AcDbLine
 62
7
  6
CONTINUOUS
 10
81.4270668465
 20
151.5140907094
 11
78.4270668465
 21
149.5532350931
  0
LINE
  5
497
100
AcDbEntity
  8
0
100
AcDbLine
 62
7
  6
CONTINUOUS
 10
77.6270668465
 20
149.0303402621
 11
76.4073118757
 21
148.2330858004
  0
LINE
  5
498
100
AcDbEntity
  8
0
100
AcDbLine
 62
7
  6
CONTINUOUS
 10
35.8770668465
 20
235.6873701376
 11
50.3337931876
 21
235.6873701376
  0
LINE
  5
499
100
AcDbEntity
  8
0
100
AcDbLine
 62
7
  6
CONTINUOUS
 10
263.4203405054
 20
235.6873701376
 11
277.8770668465
 21
235.6873701376
  0
LINE
  5
49A
100
AcDbEntity
  8
0
100
AcDbLine
 62
7
  6
CONTINUOUS
 10
35.8770668465
 20
236.0282008531
 11
53.5642267795
 21
236.0282008531
  0
LINE
  5
49B
100
AcDbEntity
  8
0
100
AcDbLine
 62
7
  6
CONTINUOUS
 10
260.1899069135
 20
236.0282008531
 11
277.8770668465
 21
236.0282008531
  0
LINE
  5
49C
100
AcDbEntity
  8
0
100
AcDbLine
 62
7
  6
CONTINUOUS
 10
279.3770668465
 20
237.5279723958
 11
260.0868472823
 21
237.5279723958
  0
LINE
  5
49D
100
AcDbEntity
  8
0
100
AcDbLine
 62
7
  6
CONTINUOUS
 10
53.6672864107
 20
237.5279723958
 11
34.3770668465
 21
237.5279723958
  0
LINE
  5
49E
100
AcDbEntity
  8
0
100
AcDbLine
 62
7
  6
CONTINUOUS
 10
188.5990637942
 20
206.5626677662
 11
189.4743920618
 21
205.0465547334
  0
LINE
  5
49F
100
AcDbEntity
  8
0
100
AcDbLine
 62
7
  6
CONTINUOUS
 10
180.2374263271
 20
210.6873701376
 11
180.3770668465
 21
202.6873701376
  0
LINE
  5
4A0
100
AcDbEntity
  8
0
100
AcDbLine
 62
7
  6
CONTINUOUS
 10
188.5990637942
 20
206.5626677662
 11
188.5270668465
 21
210.6873701376
  0
LINE
  5
4A1
100
AcDbEntity
  8
0
100
AcDbLine
 62
7
  6
CONTINUOUS
 10
180.2270668465
 20
129.6873701376
 11
180.2270668465
 21
200.1873701376
  0
LINE
  5
4A2
100
AcDbEntity
  8
0
100
AcDbLine
 62
7
  6
CONTINUOUS
 10
181.0270668465
 20
129.6873701376
 11
181.0270668465
 21
200.1873701376
  0
LINE
  5
4A3
100
AcDbEntity
  8
0
100
AcDbLine
 62
7
  6
CONTINUOUS
 10
182.1270668465
 20
132.0873701376
 11
182.1270668465
 21
133.3295090991
  0
LINE
  5
4A4
100
AcDbEntity
  8
0
100
AcDbLine
 62
7
  6
CONTINUOUS
 10
182.28566159
 20
133.4812045938
 11
182.28566159
 21
132.0873701376
  0
LINE
  5
4A5
100
AcDbEntity
  8
0
100
AcDbLine
 62
7
  6
CONTINUOUS
 10
182.7849763567
 20
132.0873701377
 11
182.7849763574
 21
133.4812045927
  0
LINE
  5
4A6
100
AcDbEntity
  8
0
100
AcDbLine
 62
7
  6
CONTINUOUS
 10
182.9691573357
 20
133.4815752184
 11
182.9691573364
 21
132.0873701377
  0
LINE
  5
4A7
100
AcDbEntity
  8
0
100
AcDbLine
 62
7
  6
CONTINUOUS
 10
183.468472103
 20
132.0873701376
 11
183.468472103
 21
133.4812045938
  0
LINE
  5
4A8
100
AcDbEntity
  8
0
100
AcDbLine
 62
7
  6
CONTINUOUS
 10
183.6270668465
 20
133.3295091057
 11
183.6270668465
 21
132.0873701376
  0
LINE
  5
4A9
100
AcDbEntity
  8
0
100
AcDbLine
 62
7
  6
CONTINUOUS
 10
184.0270668465
 20
129.6873701376
 11
184.0270668465
 21
200.1873701376
  0
LINE
  5
4AA
100
AcDbEntity
  8
0
100
AcDbLine
 62
7
  6
CONTINUOUS
 10
184.8270668465
 20
129.6873701376
 11
184.8270668465
 21
200.1873701376
  0
LINE
  5
4AB
100
AcDbEntity
  8
0
100
AcDbLine
 62
7
  6
CONTINUOUS
 10
186.3270668465
 20
200.1873701376
 11
186.3270668465
 21
199.1873701376
  0
LINE
  5
4AC
100
AcDbEntity
  8
0
100
AcDbLine
 62
7
  6
CONTINUOUS
 10
188.1270668465
 20
200.1873701376
 11
188.1270668465
 21
210.6873701376
  0
LINE
  5
4AD
100
AcDbEntity
  8
0
100
AcDbLine
 62
7
  6
CONTINUOUS
 10
183.3770668465
 20
202.6873701376
 11
183.5167073659
 21
210.6873701376
  0
LINE
  5
4AE
100
AcDbEntity
  8
0
100
AcDbLine
 62
7
  6
CONTINUOUS
 10
178.3188699791
 20
186.6453416414
 11
178.6317197353
 21
189.9361711508
  0
LINE
  5
4AF
100
AcDbEntity
  8
0
100
AcDbLine
 62
7
  6
CONTINUOUS
 10
179.2896774892
 20
196.8571507892
 11
179.4479079876
 21
198.5215586505
  0
LINE
  5
4B0
100
AcDbEntity
  8
0
100
AcDbLine
 62
7
  6
CONTINUOUS
 10
155.9183815692
 20
130.2873701376
 11
155.8523997742
 21
130.0778455207
  0
LINE
  5
4B1
100
AcDbEntity
  8
0
100
AcDbLine
 62
7
  6
CONTINUOUS
 10
157.3770668465
 20
130.6620166867
 11
157.4188173777
 21
130.7873701376
  0
LINE
  5
4B2
100
AcDbEntity
  8
0
100
AcDbLine
 62
7
  6
CONTINUOUS
 10
157.5433467271
 20
128.8625376536
 11
157.4850049998
 21
128.6873701376
  0
LINE
  5
4B3
100
AcDbEntity
  8
0
100
AcDbLine
 62
7
  6
CONTINUOUS
 10
180.0270690865
 20
198.0846372382
 11
177.2270668465
 21
193.4236608733
  0
LINE
  5
4B4
100
AcDbEntity
  8
0
100
AcDbLine
 62
7
  6
CONTINUOUS
 10
176.4270668465
 20
192.0919544057
 11
173.4270668465
 21
187.0980551526
  0
LINE
  5
4B5
100
AcDbEntity
  8
0
100
AcDbLine
 62
7
  6
CONTINUOUS
 10
172.6270668465
 20
185.7663486851
 11
169.6270668465
 21
180.7724494319
  0
LINE
  5
4B6
100
AcDbEntity
  8
0
100
AcDbLine
 62
7
  6
CONTINUOUS
 10
168.8270668465
 20
179.4407429644
 11
168.7330094644
 21
179.2841719342
  0
LINE
  5
4B7
100
AcDbEntity
  8
0
100
AcDbLine
 62
7
  6
CONTINUOUS
 10
145.4192303936
 20
170.0373701376
 11
145.5709013027
 21
170.1959648811
  0
LINE
  5
4B8
100
AcDbEntity
  8
0
100
AcDbLine
 62
7
  6
CONTINUOUS
 10
189.3759312627
 20
210.6873701376
 11
190.3586285258
 21
211.6873701376
  0
LINE
  5
4B9
100
AcDbEntity
  8
0
100
AcDbLine
 62
7
  6
CONTINUOUS
 10
125.6534180862
 20
143.8210921727
 11
126.006486944
 21
144.1741610305
  0
LINE
  5
4BA
100
AcDbEntity
  8
0
100
AcDbLine
 62
7
  6
CONTINUOUS
 10
126.4902759745
 20
144.6579500191
 11
126.8433448324
 21
145.011018877
  0
LINE
  5
4BB
100
AcDbEntity
  8
0
100
AcDbLine
 62
7
  6
CONTINUOUS
 10
170.123959889
 20
198.2608412577
 11
171.1270668465
 21
199.1873701376
  0
LINE
  5
4BC
100
AcDbEntity
  8
0
100
AcDbLine
 62
7
  6
CONTINUOUS
 10
173.923959889
 20
198.2608412577
 11
174.9270668465
 21
199.1873701376
  0
LINE
  5
4BD
100
AcDbEntity
  8
0
100
AcDbLine
 62
7
  6
CONTINUOUS
 10
177.723959889
 20
198.2608412577
 11
178.7270668465
 21
199.1873701376
  0
LINE
  5
4BE
100
AcDbEntity
  8
0
100
AcDbLine
 62
7
  6
CONTINUOUS
 10
181.523959889
 20
198.2608412577
 11
182.5270668465
 21
199.1873701376
  0
LINE
  5
4BF
100
AcDbEntity
  8
0
100
AcDbLine
 62
7
  6
CONTINUOUS
 10
80.4168669731
 20
130.2873701376
 11
80.1024202974
 21
130.0778455207
  0
LINE
  5
4C0
100
AcDbEntity
  8
0
100
AcDbLine
 62
7
  6
CONTINUOUS
 10
258.3770668465
 20
247.6873701376
 11
55.3770668465
 21
247.6873701376
  0
LINE
  5
4C1
100
AcDbEntity
  8
0
100
AcDbLine
 62
7
  6
CONTINUOUS
 10
56.3770668465
 20
248.6873701376
 11
257.3770668465
 21
248.6873701376
  0
LINE
  5
4C2
100
AcDbEntity
  8
0
100
AcDbLine
 62
7
  6
CONTINUOUS
 10
256.8770668465
 20
249.1873701376
 11
56.8770668465
 21
249.1873701376
  0
LINE
  5
4C3
100
AcDbEntity
  8
0
100
AcDbLine
 62
7
  6
CONTINUOUS
 10
189.3759312627
 20
210.6873701376
 11
190.8773714794
 21
124.6699177312
  0
LINE
  5
4C4
100
AcDbEntity
  8
0
100
AcDbLine
 62
7
  6
CONTINUOUS
 10
190.3586285258
 20
211.6873701376
 11
191.8772191746
 21
124.6873701376
  0
LINE
  5
4C5
100
AcDbEntity
  8
0
100
AcDbLine
 62
7
  6
CONTINUOUS
 10
191.8772191746
 20
123.6873701376
 11
191.8772191746
 21
124.6873701376
  0
LINE
  5
4C6
100
AcDbEntity
  8
0
100
AcDbLine
 62
7
  6
CONTINUOUS
 10
176.1899738074
 20
185.8715600955
 11
176.4270668465
 21
186.2662330126
  0
LINE
  5
4C7
100
AcDbEntity
  8
0
100
AcDbLine
 62
7
  6
CONTINUOUS
 10
177.2270668465
 20
187.5979394801
 11
180.2270668465
 21
192.5918387332
  0
LINE
  5
4C8
100
AcDbEntity
  8
0
100
AcDbLine
 62
7
  6
CONTINUOUS
 10
181.0270668465
 20
193.9235452008
 11
183.6064052677
 21
198.2171972725
  0
LINE
  5
4C9
100
AcDbEntity
  8
0
100
AcDbLine
 62
7
  6
CONTINUOUS
 10
119.3372667199
 20
130.347570011
 11
119.4270668465
 21
130.4373701376
  0
LINE
  5
4CA
100
AcDbEntity
  8
0
100
AcDbLine
 62
7
  6
CONTINUOUS
 10
185.323959889
 20
198.2608412577
 11
186.3270668465
 21
199.1873701376
  0
LINE
  5
4CB
100
AcDbEntity
  8
0
100
AcDbLine
 62
7
  6
CONTINUOUS
 10
101.6266101874
 20
130.2873701376
 11
101.4684692616
 21
130.1819985499
  0
LINE
  5
4CC
100
AcDbEntity
  8
0
100
AcDbLine
 62
7
  6
CONTINUOUS
 10
52.3289212881
 20
235.7198450599
 11
53.5642267795
 21
236.0282008531
  0
LINE
  5
4CD
100
AcDbEntity
  8
0
100
AcDbLine
 62
7
  6
CONTINUOUS
 10
180.1357935516
 20
154.5166037261
 11
177.2270668465
 21
149.6815254266
  0
LINE
  5
4CE
100
AcDbEntity
  8
0
100
AcDbLine
 62
7
  6
CONTINUOUS
 10
176.4270668465
 20
148.3517124082
 11
173.4270668465
 21
143.364913589
  0
LINE
  5
4CF
100
AcDbEntity
  8
0
100
AcDbLine
 62
7
  6
CONTINUOUS
 10
172.6270668465
 20
142.0351005705
 11
171.5631318538
 21
140.2665573153
  0
LINE
  5
4D0
100
AcDbEntity
  8
0
100
AcDbLine
 62
7
  6
CONTINUOUS
 10
154.8980930506
 20
144.2226099041
 11
155.6920963448
 21
145.0166131983
  0
LINE
  5
4D1
100
AcDbEntity
  8
0
100
AcDbLine
 62
7
  6
CONTINUOUS
 10
154.9954543823
 20
144.0956843986
 11
155.9107888599
 21
145.0110188763
  0
LINE
  5
4D2
100
AcDbEntity
  8
0
100
AcDbLine
 62
7
  6
CONTINUOUS
 10
156.2636218814
 20
144.6577141825
 11
155.3019837765
 21
143.6960760775
  0
LINE
  5
4D3
100
AcDbEntity
  8
0
100
AcDbLine
 62
7
  6
CONTINUOUS
 10
155.7858499522
 20
143.2123642337
 11
156.7481592346
 21
144.174673516
  0
LINE
  5
4D4
100
AcDbEntity
  8
0
100
AcDbLine
 62
7
  6
CONTINUOUS
 10
156.1854505037
 20
142.9058270696
 11
157.1007155852
 21
143.821092151
  0
LINE
  5
4D5
100
AcDbEntity
  8
0
100
AcDbLine
 62
7
  6
CONTINUOUS
 10
157.1063099162
 20
143.6023996449
 11
156.3123735413
 21
142.80846327
  0
LINE
  5
4D6
100
AcDbEntity
  8
0
100
AcDbLine
 62
7
  6
CONTINUOUS
 10
162.7405839782
 20
162.094204077
 11
162.6761716201
 21
162.0368676652
  0
LINE
  5
4D7
100
AcDbEntity
  8
0
100
AcDbLine
 62
7
  6
CONTINUOUS
 10
159.9756548143
 20
159.6330130607
 11
158.2270668465
 21
158.0765142348
  0
LINE
  5
4D8
100
AcDbEntity
  8
0
100
AcDbLine
 62
7
  6
CONTINUOUS
 10
157.4270668465
 20
157.3643973246
 11
154.4323070136
 21
154.6986234261
  0
LINE
  5
4D9
100
AcDbEntity
  8
0
100
AcDbLine
 62
7
  6
CONTINUOUS
 10
34.1770668465
 20
267.6873701376
 11
34.3770668465
 21
267.6873701376
  0
LINE
  5
4DA
100
AcDbEntity
  8
0
100
AcDbLine
 62
7
  6
CONTINUOUS
 10
260.1899069135
 20
236.0282008531
 11
261.4252124049
 21
235.7198450599
  0
LINE
  5
4DB
100
AcDbEntity
  8
0
100
AcDbLine
 62
7
  6
CONTINUOUS
 10
156.3372667199
 20
130.347570011
 11
156.6517133956
 21
130.6620166867
  0
LINE
  5
4DC
100
AcDbEntity
  8
0
100
AcDbLine
 62
7
  6
CONTINUOUS
 10
126.4168669731
 20
130.2873701376
 11
126.1024202974
 21
130.0778455207
  0
LINE
  5
4DD
100
AcDbEntity
  8
0
100
AcDbLine
 62
7
  6
CONTINUOUS
 10
33.8770668465
 20
286.6873701376
 11
34.3770668465
 21
286.6873701376
  0
LINE
  5
4DE
100
AcDbEntity
  8
0
100
AcDbLine
 62
7
  6
CONTINUOUS
 10
56.8770668465
 20
288.1873701376
 11
256.8770668465
 21
288.1873701376
  0
LINE
  5
4DF
100
AcDbEntity
  8
0
100
AcDbLine
 62
7
  6
CONTINUOUS
 10
257.3770668465
 20
288.6873701376
 11
56.3770668465
 21
288.6873701376
  0
LINE
  5
4E0
100
AcDbEntity
  8
0
100
AcDbLine
 62
7
  6
CONTINUOUS
 10
55.3770668465
 20
289.6873701376
 11
258.3770668465
 21
289.6873701376
  0
LINE
  5
4E1
100
AcDbEntity
  8
0
100
AcDbLine
 62
7
  6
CONTINUOUS
 10
236.8997931575
 20
310.5911508963
 11
236.8978526204
 21
310.3911603107
  0
LINE
  5
4E2
100
AcDbEntity
  8
0
100
AcDbLine
 62
7
  6
CONTINUOUS
 10
182.28566159
 20
133.4812045938
 11
182.1270668465
 21
133.3295336847
  0
LINE
  5
4E3
100
AcDbEntity
  8
0
100
AcDbLine
 62
7
  6
CONTINUOUS
 10
163.4168669731
 20
130.2873701376
 11
163.1024202974
 21
130.0778455207
  0
LINE
  5
4E4
100
AcDbEntity
  8
0
100
AcDbLine
 62
7
  6
CONTINUOUS
 10
53.7022498167
 20
292.6873701376
 11
260.0518838764
 21
292.6873701376
  0
LINE
  5
4E5
100
AcDbEntity
  8
0
100
AcDbLine
 62
7
  6
CONTINUOUS
 10
279.3770668465
 20
292.9873701376
 11
34.3770668465
 21
292.9873701376
  0
LINE
  5
4E6
100
AcDbEntity
  8
0
100
AcDbLine
 62
7
  6
CONTINUOUS
 10
274.9207045088
 20
295.6437324753
 11
264.5834291842
 21
295.6437324753
  0
LINE
  5
4E7
100
AcDbEntity
  8
0
100
AcDbLine
 62
7
  6
CONTINUOUS
 10
38.8334291842
 20
295.6437324753
 11
49.1707045088
 21
295.6437324753
  0
LINE
  5
4E8
100
AcDbEntity
  8
0
100
AcDbLine
 62
7
  6
CONTINUOUS
 10
274.8776762515
 20
295.6867607326
 11
264.6264574415
 21
295.6867607326
  0
LINE
  5
4E9
100
AcDbEntity
  8
0
100
AcDbLine
 62
7
  6
CONTINUOUS
 10
38.8764574415
 20
295.6867607326
 11
49.1276762515
 21
295.6867607326
  0
LINE
  5
4EA
100
AcDbEntity
  8
0
100
AcDbLine
 62
7
  6
CONTINUOUS
 10
38.8764574415
 20
295.9786426052
 11
49.1276762515
 21
295.9786426052
  0
LINE
  5
4EB
100
AcDbEntity
  8
0
100
AcDbLine
 62
7
  6
CONTINUOUS
 10
264.6264574415
 20
295.9786426052
 11
274.8776762515
 21
295.9786426052
  0
LINE
  5
4EC
100
AcDbEntity
  8
0
100
AcDbLine
 62
7
  6
CONTINUOUS
 10
38.8764574415
 20
295.9873701376
 11
39.6269906942
 21
295.9873701376
  0
LINE
  5
4ED
100
AcDbEntity
  8
0
100
AcDbLine
 62
7
  6
CONTINUOUS
 10
48.3771429988
 20
295.9873701376
 11
49.1276762515
 21
295.9873701376
  0
LINE
  5
4EE
100
AcDbEntity
  8
0
100
AcDbLine
 62
7
  6
CONTINUOUS
 10
264.6264574415
 20
295.9873701376
 11
265.3769906942
 21
295.9873701376
  0
LINE
  5
4EF
100
AcDbEntity
  8
0
100
AcDbLine
 62
7
  6
CONTINUOUS
 10
274.1271429988
 20
295.9873701376
 11
274.8776762515
 21
295.9873701376
  0
LINE
  5
4F0
100
AcDbEntity
  8
0
100
AcDbLine
 62
7
  6
CONTINUOUS
 10
39.6620531404
 20
296.0224325839
 11
48.3420805526
 21
296.0224325839
  0
LINE
  5
4F1
100
AcDbEntity
  8
0
100
AcDbLine
 62
7
  6
CONTINUOUS
 10
265.4120531404
 20
296.0224325839
 11
274.0920805526
 21
296.0224325839
  0
LINE
  5
4F2
100
AcDbEntity
  8
0
100
AcDbLine
 62
7
  6
CONTINUOUS
 10
34.1770668465
 20
296.1873701376
 11
34.3770668465
 21
296.1873701376
  0
LINE
  5
4F3
100
AcDbEntity
  8
0
100
AcDbLine
 62
7
  6
CONTINUOUS
 10
274.5920044002
 20
296.5223564315
 11
264.9121292928
 21
296.5223564315
  0
LINE
  5
4F4
100
AcDbEntity
  8
0
100
AcDbLine
 62
7
  6
CONTINUOUS
 10
48.8420044002
 20
296.5223564315
 11
39.1621292928
 21
296.5223564315
  0
LINE
  5
4F5
100
AcDbEntity
  8
0
100
AcDbLine
 62
7
  6
CONTINUOUS
 10
34.3770668465
 20
298.1873701376
 11
34.1770668465
 21
298.1873701376
  0
LINE
  5
4F6
100
AcDbEntity
  8
0
100
AcDbLine
 62
7
  6
CONTINUOUS
 10
38.8770668465
 20
299.6873701376
 11
49.1270668465
 21
299.6873701376
  0
LINE
  5
4F7
100
AcDbEntity
  8
0
100
AcDbLine
 62
7
  6
CONTINUOUS
 10
264.6270668465
 20
299.6873701376
 11
274.8770668465
 21
299.6873701376
  0
LINE
  5
4F8
100
AcDbEntity
  8
0
100
AcDbLine
 62
7
  6
CONTINUOUS
 10
49.1707045088
 20
299.7310077999
 11
38.8334291842
 21
299.7310077999
  0
LINE
  5
4F9
100
AcDbEntity
  8
0
100
AcDbLine
 62
7
  6
CONTINUOUS
 10
264.5834291842
 20
299.7310077999
 11
274.9207045088
 21
299.7310077999
  0
LINE
  5
4FA
100
AcDbEntity
  8
0
100
AcDbLine
 62
7
  6
CONTINUOUS
 10
82.3820059667
 20
312.0830382238
 11
78.7917350629
 21
312.9629815715
  0
LWPOLYLINE
  5
4FB
100
AcDbEntity
  8
0
100
AcDbPolyline
 62
7
  6
CONTINUOUS
 90
4
 70
0
 10
99.8814418358
 20
312.175923982
 10
96.3121496411
 20
313.1462853674
 10
94.4560710389
 20
313.1463015769
 10
90.8867617673
 20
312.176002473
  0
LINE
  5
4FC
100
AcDbEntity
  8
0
100
AcDbLine
 62
7
  6
CONTINUOUS
 10
117.3787146329
 20
311.8859870747
 11
113.8305378217
 21
312.9220941637
  0
LINE
  5
4FD
100
AcDbEntity
  8
0
100
AcDbLine
 62
7
  6
CONTINUOUS
 10
248.4307734274
 20
310.2388545194
 11
248.4249698328
 21
310.0389387414
  0
LINE
  5
4FE
100
AcDbEntity
  8
0
100
AcDbLine
 62
7
  6
CONTINUOUS
 10
35.8770668465
 20
308.2249109016
 11
35.3032574978
 21
308.2057884407
  0
LINE
  5
4FF
100
AcDbEntity
  8
0
100
AcDbLine
 62
7
  6
CONTINUOUS
 10
35.8770668465
 20
308.2249109016
 11
34.3770668465
 21
308.1747861103
  0
LWPOLYLINE
  5
500
100
AcDbEntity
  8
0
100
AcDbPolyline
 62
7
  6
CONTINUOUS
 90
3
 70
0
 10
34.816242755
 20
308.1894844606
 10
34.4915523243
 20
308.1786166938
 10
34.3770668465
 20
308.1747861122
  0
LINE
  5
501
100
AcDbEntity
  8
0
100
AcDbLine
 62
7
  6
CONTINUOUS
 10
121.027889406
 20
312.1269682629
 11
121.0287065252
 21
312.1269644145
  0
LWPOLYLINE
  5
502
100
AcDbEntity
  8
0
100
AcDbPolyline
 62
7
  6
CONTINUOUS
 90
3
 70
0
 10
277.8770668465
 20
308.1283789758
 10
278.9368076416
 20
308.1167487176
 10
279.3770668465
 20
308.1116274059
  0
LINE
  5
503
100
AcDbEntity
  8
0
100
AcDbLine
 62
7
  6
CONTINUOUS
 10
277.8770668465
 20
308.1283789758
 11
279.3770668482
 21
308.1116274045
  0
LINE
  5
504
100
AcDbEntity
  8
0
100
AcDbLine
 62
7
  6
CONTINUOUS
 10
113.8305368234
 20
312.9220941855
 11
111.9763101121
 21
312.9626783415
  0
LWPOLYLINE
  5
505
100
AcDbEntity
  8
0
100
AcDbPolyline
 62
7
  6
CONTINUOUS
 90
4
 70
0
 10
93.7213600091
 20
309.312671817
 10
87.1570028894
 20
309.5235747259
 10
78.6390004341
 20
310.2901713311
 10
69.7271409367
 20
311.6388538299
  0
LINE
  5
506
100
AcDbEntity
  8
0
100
AcDbLine
 62
7
  6
CONTINUOUS
 10
91.9477067954
 20
312.4644151411
 11
87.3742929556
 21
313.1209839446
  0
LWPOLYLINE
  5
507
100
AcDbEntity
  8
0
100
AcDbPolyline
 62
7
  6
CONTINUOUS
 90
3
 70
0
 10
108.9216344975
 20
312.2140350675
 10
103.3934976974
 20
313.1208473704
 10
98.8205674794
 20
312.4643373295
  0
LINE
  5
508
100
AcDbEntity
  8
0
100
AcDbLine
 62
7
  6
CONTINUOUS
 10
256.8456477296
 20
292.9873701376
 11
256.8508842491
 21
292.6873701376
  0
LINE
  5
509
100
AcDbEntity
  8
0
100
AcDbLine
 62
7
  6
CONTINUOUS
 10
256.8770668465
 20
288.1873701376
 11
256.8770668465
 21
249.1873701376
  0
LINE
  5
50A
100
AcDbEntity
  8
0
100
AcDbLine
 62
7
  6
CONTINUOUS
 10
257.3770668465
 20
248.6873701376
 11
257.3770668465
 21
288.6873701376
  0
LINE
  5
50B
100
AcDbEntity
  8
0
100
AcDbLine
 62
7
  6
CONTINUOUS
 10
258.3770668465
 20
289.6873701376
 11
258.3770668465
 21
247.6873701376
  0
LINE
  5
50C
100
AcDbEntity
  8
0
100
AcDbLine
 62
7
  6
CONTINUOUS
 10
258.9445517604
 20
292.6873701376
 11
258.9445517604
 21
123.6873701376
  0
LINE
  5
50D
100
AcDbEntity
  8
0
100
AcDbLine
 62
7
  6
CONTINUOUS
 10
259.9421158106
 20
124.6873701376
 11
259.9421158106
 21
292.6873701376
  0
LINE
  5
50E
100
AcDbEntity
  8
0
100
AcDbLine
 62
7
  6
CONTINUOUS
 10
260.0518838764
 20
292.6873701376
 11
260.0518838764
 21
292.9873701376
  0
LINE
  5
50F
100
AcDbEntity
  8
0
100
AcDbLine
 62
7
  6
CONTINUOUS
 10
260.0868472823
 20
237.5279723958
 11
260.0868472823
 21
292.6873701376
  0
LINE
  5
510
100
AcDbEntity
  8
0
100
AcDbLine
 62
7
  6
CONTINUOUS
 10
260.3770668465
 20
124.1873701376
 11
260.3770668465
 21
122.1873701376
  0
LINE
  5
511
100
AcDbEntity
  8
0
100
AcDbLine
 62
7
  6
CONTINUOUS
 10
260.8770668465
 20
124.1873701376
 11
260.8770668465
 21
122.1873701376
  0
LINE
  5
512
100
AcDbEntity
  8
0
100
AcDbLine
 62
7
  6
CONTINUOUS
 10
261.4252124049
 20
235.7198450599
 11
261.4252124049
 21
124.6873701376
  0
LINE
  5
513
100
AcDbEntity
  8
0
100
AcDbLine
 62
7
  6
CONTINUOUS
 10
257.8248768721
 20
292.9873701376
 11
257.8196403526
 21
292.6873701376
  0
LINE
  5
514
100
AcDbEntity
  8
0
100
AcDbLine
 62
7
  6
CONTINUOUS
 10
260.7618150263
 20
309.9809240703
 11
260.758913229
 21
309.8809661813
  0
LINE
  5
515
100
AcDbEntity
  8
0
100
AcDbLine
 62
7
  6
CONTINUOUS
 10
263.427358574
 20
309.9035428136
 11
263.4244567767
 21
309.8035849246
  0
LINE
  5
516
100
AcDbEntity
  8
0
100
AcDbLine
 62
7
  6
CONTINUOUS
 10
111.9763096387
 20
312.9626782255
 11
108.3861972956
 21
312.0828095266
  0
LWPOLYLINE
  5
517
100
AcDbEntity
  8
0
100
AcDbPolyline
 62
7
  6
CONTINUOUS
 90
4
 70
0
 10
121.0278853773
 20
312.1269682818
 10
112.075379181
 20
310.4993342485
 10
103.5755173668
 20
309.5780753117
 10
96.8137992393
 20
309.3142317019
  0
LINE
  5
518
100
AcDbEntity
  8
0
100
AcDbLine
 62
7
  6
CONTINUOUS
 10
69.7271522391
 20
311.6388543135
 11
69.7265372875
 21
311.638828
  0
LWPOLYLINE
  5
519
100
AcDbEntity
  8
0
100
AcDbPolyline
 62
7
  6
CONTINUOUS
 90
3
 70
0
 10
78.7917350557
 20
312.9629815713
 10
76.9374214894
 20
312.9223902432
 10
73.3890996361
 20
311.8861834347
  0
LINE
  5
51A
100
AcDbEntity
  8
0
100
AcDbLine
 62
7
  6
CONTINUOUS
 10
278.4123365314
 20
309.1683995518
 11
248.4249698328
 21
310.0389387414
  0
LINE
  5
51B
100
AcDbEntity
  8
0
100
AcDbLine
 62
7
  6
CONTINUOUS
 10
278.418140126
 20
309.3683153298
 11
248.4307734274
 21
310.2388545194
  0
LINE
  5
51C
100
AcDbEntity
  8
0
100
AcDbLine
 62
7
  6
CONTINUOUS
 10
260.7618150263
 20
309.9809240703
 11
267.4256741338
 21
309.7874709216
  0
LINE
  5
51D
100
AcDbEntity
  8
0
100
AcDbLine
 62
7
  6
CONTINUOUS
 10
261.8770668465
 20
122.1873701376
 11
261.8770668465
 21
124.1873701376
  0
LINE
  5
51E
100
AcDbEntity
  8
0
100
AcDbLine
 62
7
  6
CONTINUOUS
 10
263.4203405054
 20
124.6873701376
 11
263.4203405054
 21
235.6873701376
  0
LINE
  5
51F
100
AcDbEntity
  8
0
100
AcDbLine
 62
7
  6
CONTINUOUS
 10
264.5834291842
 20
295.6437324753
 11
264.5834291842
 21
299.7310077999
  0
LINE
  5
520
100
AcDbEntity
  8
0
100
AcDbLine
 62
7
  6
CONTINUOUS
 10
264.9121292928
 20
299.6873701376
 11
264.9121292928
 21
296.5223564315
  0
LINE
  5
521
100
AcDbEntity
  8
0
100
AcDbLine
 62
7
  6
CONTINUOUS
 10
265.4120531404
 20
296.0224325839
 11
265.4120531404
 21
299.6873701376
  0
LINE
  5
522
100
AcDbEntity
  8
0
100
AcDbLine
 62
7
  6
CONTINUOUS
 10
271.3770668465
 20
124.1873701376
 11
271.3770668465
 21
122.1873701376
  0
LINE
  5
523
100
AcDbEntity
  8
0
100
AcDbLine
 62
7
  6
CONTINUOUS
 10
264.6264574415
 20
295.6867607326
 11
264.6270668465
 21
299.6873701376
  0
LINE
  5
524
100
AcDbEntity
  8
0
100
AcDbLine
 62
7
  6
CONTINUOUS
 10
264.7601303478
 20
309.8648521852
 11
264.7572285505
 21
309.7648942962
  0
LINE
  5
525
100
AcDbEntity
  8
0
100
AcDbLine
 62
7
  6
CONTINUOUS
 10
267.4256741338
 20
309.7874709216
 11
267.4227723365
 21
309.6875130326
  0
LINE
  5
526
100
AcDbEntity
  8
0
100
AcDbLine
 62
7
  6
CONTINUOUS
 10
87.3742929556
 20
313.1209839446
 11
81.846673259
 21
312.2142434915
  0
LINE
  5
527
100
AcDbEntity
  8
0
100
AcDbLine
 62
7
  6
CONTINUOUS
 10
276.3596117816
 20
124.6873701376
 11
276.3683393141
 21
124.1873701376
  0
LINE
  5
528
100
AcDbEntity
  8
0
100
AcDbLine
 62
7
  6
CONTINUOUS
 10
274.8770668465
 20
299.6873701376
 11
274.8776762515
 21
295.6867607326
  0
LINE
  5
529
100
AcDbEntity
  8
0
100
AcDbLine
 62
7
  6
CONTINUOUS
 10
274.0920805526
 20
299.6873701376
 11
274.0920805526
 21
296.0224325839
  0
LINE
  5
52A
100
AcDbEntity
  8
0
100
AcDbLine
 62
7
  6
CONTINUOUS
 10
274.5920044002
 20
296.5223564315
 11
274.5920044002
 21
299.6873701376
  0
LINE
  5
52B
100
AcDbEntity
  8
0
100
AcDbLine
 62
7
  6
CONTINUOUS
 10
274.9207045088
 20
299.7310077999
 11
274.9207045088
 21
295.6437324753
  0
LINE
  5
52C
100
AcDbEntity
  8
0
100
AcDbLine
 62
7
  6
CONTINUOUS
 10
275.5770668465
 20
124.6873701376
 11
275.5770668465
 21
124.1873701376
  0
LINE
  5
52D
100
AcDbEntity
  8
0
100
AcDbLine
 62
7
  6
CONTINUOUS
 10
277.8770668465
 20
308.1284164994
 11
277.8770668465
 21
124.6873701376
  0
LINE
  5
52E
100
AcDbEntity
  8
0
100
AcDbLine
 62
7
  6
CONTINUOUS
 10
279.3770668465
 20
122.1873701376
 11
279.3770668465
 21
124.1873701376
  0
LINE
  5
52F
100
AcDbEntity
  8
0
100
AcDbLine
 62
7
  6
CONTINUOUS
 10
279.3770668465
 20
124.6873701376
 11
279.3770668465
 21
308.1116274061
  0
LINE
  5
530
100
AcDbEntity
  8
0
100
AcDbLine
 62
7
  6
CONTINUOUS
 10
278.418140126
 20
309.3683153298
 11
278.4123365314
 21
309.1683995518
  0
LINE
  5
531
100
AcDbEntity
  8
0
100
AcDbLine
 62
7
  6
CONTINUOUS
 10
277.9105805747
 20
309.1278683154
 11
277.8770669154
 21
308.1284164972
  0
LINE
  5
532
100
AcDbEntity
  8
0
100
AcDbLine
 62
7
  6
CONTINUOUS
 10
277.906710155
 20
309.383162243
 11
277.9073059501
 21
309.3954120803
  0
ARC
  5
533
100
AcDbEntity
  8
0
100
AcDbCircle
 62
7
  6
CONTINUOUS
 10
95.3770668465
 20
-5134.4014058104
 40
5446.588775948
100
AcDbArc
 50
89.7323343437
 51
89.7676305384
  0
ARC
  5
534
100
AcDbEntity
  8
0
100
AcDbCircle
 62
7
  6
CONTINUOUS
 10
95.3770668465
 20
-5134.4014058104
 40
5446.588775948
100
AcDbArc
 50
88.0742017248
 51
89.7301547473
  0
ARC
  5
535
100
AcDbEntity
  8
0
100
AcDbCircle
 62
7
  6
CONTINUOUS
 10
95.3770668465
 20
-5134.4014058104
 40
5445.588775948
100
AcDbArc
 50
88.0794660523
 51
89.7281405655
  0
ARC
  5
536
100
AcDbEntity
  8
0
100
AcDbCircle
 62
7
  6
CONTINUOUS
 10
89.7027201066
 20
417.7757543493
 40
108.6112986941
100
AcDbArc
 50
272.1215906669
 51
272.9947550775
  0
ARC
  5
537
100
AcDbEntity
  8
0
100
AcDbCircle
 62
7
  6
CONTINUOUS
 10
85.7881814961
 20
142.0557967456
 40
5.0
100
AcDbArc
 50
157.2737552621
 51
210.5297923474
  0
ARC
  5
538
100
AcDbEntity
  8
0
100
AcDbCircle
 62
7
  6
CONTINUOUS
 10
85.7881814961
 20
142.0557967456
 40
5.0
100
AcDbArc
 50
220.7875842503
 51
243.8784012638
  0
ARC
  5
539
100
AcDbEntity
  8
0
100
AcDbCircle
 62
7
  6
CONTINUOUS
 10
73.6732223061
 20
152.4200477606
 40
5.0
100
AcDbArc
 50
281.1354284187
 51
303.1445609652
  0
ARC
  5
53A
100
AcDbEntity
  8
0
100
AcDbCircle
 62
7
  6
CONTINUOUS
 10
68.720212597
 20
124.6873701377
 40
4.0
100
AcDbArc
 50
45.0005729674
 51
88.4444915024
  0
ARC
  5
53B
100
AcDbEntity
  8
0
100
AcDbCircle
 62
7
  6
CONTINUOUS
 10
63.033921096
 20
124.6873701376
 40
4.0
100
AcDbArc
 50
91.5555084964
 51
134.9994270321
  0
ARC
  5
53C
100
AcDbEntity
  8
0
100
AcDbCircle
 62
7
  6
CONTINUOUS
 10
56.0486397218
 20
126.1873701376
 40
2.0
100
AcDbArc
 50
270.0012596046
 51
315.0
  0
ARC
  5
53D
100
AcDbEntity
  8
0
100
AcDbCircle
 62
7
  6
CONTINUOUS
 10
75.7054939713
 20
126.1873701376
 40
2.0
100
AcDbArc
 50
225.0
 51
261.0799394448
  0
ARC
  5
53E
100
AcDbEntity
  8
0
100
AcDbCircle
 62
7
  6
CONTINUOUS
 10
41.3939459719
 20
145.704249263
 40
1.999576392
100
AcDbArc
 50
179.9965901261
 51
270.0034098689
  0
ARC
  5
53F
100
AcDbEntity
  8
0
100
AcDbCircle
 62
7
  6
CONTINUOUS
 10
35.8769446928
 20
237.5280945655
 40
1.4998857844
100
AcDbArc
 50
180.0046669198
 51
270.0046662576
  0
ARC
  5
540
100
AcDbEntity
  8
0
100
AcDbCircle
 62
7
  6
CONTINUOUS
 10
82.9620721082
 20
151.0455294124
 40
1.0027360783
100
AcDbArc
 50
220.2315660412
 51
229.3815548722
  0
ARC
  5
541
100
AcDbEntity
  8
0
100
AcDbCircle
 62
7
  6
CONTINUOUS
 10
74.8159810487
 20
148.557510621
 40
1.0026624778
100
AcDbArc
 50
272.5933303165
 51
290.4876120086
  0
ARC
  5
542
100
AcDbEntity
  8
0
100
AcDbCircle
 62
7
  6
CONTINUOUS
 10
35.3770668465
 20
308.1747861122
 40
1.0
100
AcDbArc
 50
95.7487839859
 51
180.0
  0
ARC
  5
543
100
AcDbEntity
  8
0
100
AcDbCircle
 62
7
  6
CONTINUOUS
 10
35.3770668465
 20
124.6873701376
 40
1.0
100
AcDbArc
 50
180.0
 51
211.6717822418
  0
ARC
  5
544
100
AcDbEntity
  8
0
100
AcDbCircle
 62
7
  6
CONTINUOUS
 10
77.6427135865
 20
145.7272538755
 40
0.9981140516
100
AcDbArc
 50
134.9608805797
 51
228.4572143337
  0
ARC
  5
545
100
AcDbEntity
  8
0
100
AcDbCircle
 62
7
  6
CONTINUOUS
 10
34.1770668465
 20
297.8873701376
 40
0.3
100
AcDbArc
 50
90.0
 51
180.0
  0
ARC
  5
546
100
AcDbEntity
  8
0
100
AcDbCircle
 62
7
  6
CONTINUOUS
 10
34.1770668465
 20
296.4873701376
 40
0.3
100
AcDbArc
 50
180.0
 51
270.0
  0
ARC
  5
547
100
AcDbEntity
  8
0
100
AcDbCircle
 62
7
  6
CONTINUOUS
 10
43.1270668465
 20
198.4873701376
 40
0.3
100
AcDbArc
 50
227.2726046827
 51
360.0
  0
ARC
  5
548
100
AcDbEntity
  8
0
100
AcDbCircle
 62
7
  6
CONTINUOUS
 10
93.9270668465
 20
198.4873701376
 40
0.3
100
AcDbArc
 50
180.0
 51
312.7273953131
  0
ARC
  5
549
100
AcDbEntity
  8
0
100
AcDbCircle
 62
7
  6
CONTINUOUS
 10
92.5270668465
 20
198.4873701376
 40
0.3
100
AcDbArc
 50
227.2726046869
 51
360.0
  0
ARC
  5
54A
100
AcDbEntity
  8
0
100
AcDbCircle
 62
7
  6
CONTINUOUS
 10
90.1270668465
 20
198.4873701376
 40
0.3
100
AcDbArc
 50
180.0
 51
312.7273953131
  0
ARC
  5
54B
100
AcDbEntity
  8
0
100
AcDbCircle
 62
7
  6
CONTINUOUS
 10
88.7270668465
 20
198.4873701376
 40
0.3
100
AcDbArc
 50
227.2726046869
 51
360.0
  0
ARC
  5
54C
100
AcDbEntity
  8
0
100
AcDbCircle
 62
7
  6
CONTINUOUS
 10
86.3270668465
 20
198.4873701376
 40
0.3
100
AcDbArc
 50
180.0
 51
312.7273953131
  0
ARC
  5
54D
100
AcDbEntity
  8
0
100
AcDbCircle
 62
7
  6
CONTINUOUS
 10
84.9270668465
 20
198.4873701376
 40
0.3
100
AcDbArc
 50
227.2726046869
 51
360.0
  0
ARC
  5
54E
100
AcDbEntity
  8
0
100
AcDbCircle
 62
7
  6
CONTINUOUS
 10
82.5270668465
 20
198.4873701376
 40
0.3
100
AcDbArc
 50
180.0
 51
312.7273953131
  0
ARC
  5
54F
100
AcDbEntity
  8
0
100
AcDbCircle
 62
7
  6
CONTINUOUS
 10
81.1270668465
 20
198.4873701376
 40
0.3
100
AcDbArc
 50
227.2726046827
 51
360.0
  0
ARC
  5
550
100
AcDbEntity
  8
0
100
AcDbCircle
 62
7
  6
CONTINUOUS
 10
78.7270668465
 20
198.4873701376
 40
0.3
100
AcDbArc
 50
180.0
 51
312.7273953173
  0
ARC
  5
551
100
AcDbEntity
  8
0
100
AcDbCircle
 62
7
  6
CONTINUOUS
 10
77.3270668465
 20
198.4873701376
 40
0.3
100
AcDbArc
 50
227.2726046827
 51
360.0
  0
ARC
  5
552
100
AcDbEntity
  8
0
100
AcDbCircle
 62
7
  6
CONTINUOUS
 10
52.1270668465
 20
198.4873701376
 40
0.3
100
AcDbArc
 50
180.0
 51
207.7175146257
  0
ARC
  5
553
100
AcDbEntity
  8
0
100
AcDbCircle
 62
7
  6
CONTINUOUS
 10
50.7270668465
 20
198.4873701376
 40
0.3
100
AcDbArc
 50
227.2726046827
 51
360.0
  0
ARC
  5
554
100
AcDbEntity
  8
0
100
AcDbCircle
 62
7
  6
CONTINUOUS
 10
48.3270668465
 20
198.4873701376
 40
0.3
100
AcDbArc
 50
180.0
 51
312.7273953173
  0
ARC
  5
555
100
AcDbEntity
  8
0
100
AcDbCircle
 62
7
  6
CONTINUOUS
 10
46.9270668465
 20
198.4873701376
 40
0.3
100
AcDbArc
 50
227.2726046827
 51
360.0
  0
ARC
  5
556
100
AcDbEntity
  8
0
100
AcDbCircle
 62
7
  6
CONTINUOUS
 10
44.5270668465
 20
198.4873701376
 40
0.3
100
AcDbArc
 50
180.0
 51
312.7273953173
  0
ARC
  5
557
100
AcDbEntity
  8
0
100
AcDbCircle
 62
7
  6
CONTINUOUS
 10
95.3770668465
 20
-487.8126298624
 40
800.0
100
AcDbArc
 50
88.2578465614
 51
91.8569973085
  0
ARC
  5
558
100
AcDbEntity
  8
0
100
AcDbCircle
 62
7
  6
CONTINUOUS
 10
95.3770668465
 20
-287.8126298624
 40
600.3
100
AcDbArc
 50
91.2409699573
 51
91.332511402
  0
ARC
  5
559
100
AcDbEntity
  8
0
100
AcDbCircle
 62
7
  6
CONTINUOUS
 10
95.3770668465
 20
-287.8126298624
 40
600.2
100
AcDbArc
 50
92.0666479548
 51
92.2725710914
  0
ARC
  5
55A
100
AcDbEntity
  8
0
100
AcDbCircle
 62
7
  6
CONTINUOUS
 10
95.3770668465
 20
-287.8126298624
 40
600.0
100
AcDbArc
 50
92.4501918741
 51
95.7487839849
  0
ARC
  5
55B
100
AcDbEntity
  8
0
100
AcDbCircle
 62
7
  6
CONTINUOUS
 10
95.3770668465
 20
-287.8126298624
 40
599.0
100
AcDbArc
 50
92.4672525615
 51
95.700718065
  0
ARC
  5
55C
100
AcDbEntity
  8
0
100
AcDbCircle
 62
7
  6
CONTINUOUS
 10
100.3652732686
 20
157.5782856991
 40
27.4131382558
100
AcDbArc
 50
270.0005285711
 51
270.1304776223
  0
ARC
  5
55D
100
AcDbEntity
  8
0
100
AcDbCircle
 62
7
  6
CONTINUOUS
 10
97.8834613435
 20
138.849531496
 40
5.0
100
AcDbArc
 50
312.2327009017
 51
354.5445609653
  0
ARC
  5
55E
100
AcDbEntity
  8
0
100
AcDbCircle
 62
7
  6
CONTINUOUS
 10
97.8834613435
 20
138.849531496
 40
5.0
100
AcDbArc
 50
266.4281499602
 51
300.930329121
  0
ARC
  5
55F
100
AcDbEntity
  8
0
100
AcDbCircle
 62
7
  6
CONTINUOUS
 10
101.4682301361
 20
133.4784136974
 40
1.5008825986
100
AcDbArc
 50
92.4416169252
 51
99.5381163911
  0
ARC
  5
560
100
AcDbEntity
  8
0
100
AcDbCircle
 62
7
  6
CONTINUOUS
 10
101.468992294
 20
131.1924494098
 40
1.0104509921
100
AcDbArc
 50
255.1588958987
 51
269.970524242
  0
ARC
  5
561
100
AcDbEntity
  8
0
100
AcDbCircle
 62
7
  6
CONTINUOUS
 10
101.4680240122
 20
133.4773812554
 40
1.0036763977
100
AcDbArc
 50
92.4839362822
 51
104.750571429
  0
ARC
  5
562
100
AcDbEntity
  8
0
100
AcDbCircle
 62
7
  6
CONTINUOUS
 10
99.8673289571
 20
170.7776322482
 40
45.0142684436
100
AcDbArc
 50
31.0012829651
 51
37.2418283106
  0
ARC
  5
563
100
AcDbEntity
  8
0
100
AcDbCircle
 62
7
  6
CONTINUOUS
 10
99.867328957
 20
170.7971080271
 40
45.0142684436
100
AcDbArc
 50
322.7581716894
 51
328.9987170349
  0
ARC
  5
564
100
AcDbEntity
  8
0
100
AcDbCircle
 62
7
  6
CONTINUOUS
 10
99.867328957
 20
170.7971080271
 40
45.0142684436
100
AcDbArc
 50
314.8874834746
 51
321.0972137424
  0
ARC
  5
565
100
AcDbEntity
  8
0
100
AcDbCircle
 62
7
  6
CONTINUOUS
 10
99.867328957
 20
170.7971080271
 40
45.0142684436
100
AcDbArc
 50
308.7447230658
 51
313.5961577549
  0
ARC
  5
566
100
AcDbEntity
  8
0
100
AcDbCircle
 62
7
  6
CONTINUOUS
 10
99.867328957
 20
170.7971080271
 40
45.0142684436
100
AcDbArc
 50
302.6118182605
 51
307.4544629586
  0
ARC
  5
567
100
AcDbEntity
  8
0
100
AcDbCircle
 62
7
  6
CONTINUOUS
 10
99.867328957
 20
170.7971080271
 40
45.0142684436
100
AcDbArc
 50
300.6877517141
 51
301.3155745929
  0
ARC
  5
568
100
AcDbEntity
  8
0
100
AcDbCircle
 62
7
  6
CONTINUOUS
 10
99.8770668465
 20
170.7873701376
 40
51.0
100
AcDbArc
 50
314.2076035763
 51
317.2751590055
  0
ARC
  5
569
100
AcDbEntity
  8
0
100
AcDbCircle
 62
7
  6
CONTINUOUS
 10
99.8770668465
 20
170.7873701376
 40
51.0
100
AcDbArc
 50
312.6834823228
 51
312.9639549837
  0
ARC
  5
56A
100
AcDbEntity
  8
0
100
AcDbCircle
 62
7
  6
CONTINUOUS
 10
99.8770668465
 20
170.7873701376
 40
50.9214422353
100
AcDbArc
 50
312.6456507559
 51
313.0435700692
  0
ARC
  5
56B
100
AcDbEntity
  8
0
100
AcDbCircle
 62
7
  6
CONTINUOUS
 10
99.8770668465
 20
170.7873701376
 40
50.9214422353
100
AcDbArc
 50
314.2975208128
 51
317.2974719772
  0
ARC
  5
56C
100
AcDbEntity
  8
0
100
AcDbCircle
 62
7
  6
CONTINUOUS
 10
99.8770668465
 20
170.7873701376
 40
49.209524617
100
AcDbArc
 50
316.3180511681
 51
316.8657986993
  0
ARC
  5
56D
100
AcDbEntity
  8
0
100
AcDbCircle
 62
7
  6
CONTINUOUS
 10
99.8770668465
 20
170.7873701376
 40
49.209524617
100
AcDbArc
 50
313.1547653305
 51
315.0105294494
  0
ARC
  5
56E
100
AcDbEntity
  8
0
100
AcDbCircle
 62
7
  6
CONTINUOUS
 10
99.8770668465
 20
170.7873701376
 40
49.209524617
100
AcDbArc
 50
304.9198892236
 51
305.5818456078
  0
ARC
  5
56F
100
AcDbEntity
  8
0
100
AcDbCircle
 62
7
  6
CONTINUOUS
 10
99.8770668465
 20
170.7873701376
 40
49.1222226932
100
AcDbArc
 50
314.1062601787
 51
315.026083823
  0
ARC
  5
570
100
AcDbEntity
  8
0
100
AcDbCircle
 62
7
  6
CONTINUOUS
 10
99.8770668465
 20
170.7873701376
 40
49.0
100
AcDbArc
 50
304.9998421874
 51
305.2738286822
  0
ARC
  5
571
100
AcDbEntity
  8
0
100
AcDbCircle
 62
7
  6
CONTINUOUS
 10
99.8770668465
 20
170.7873701376
 40
38.7
100
AcDbArc
 50
266.3340040236
 51
269.9999986078
  0
ARC
  5
572
100
AcDbEntity
  8
0
100
AcDbCircle
 62
7
  6
CONTINUOUS
 10
99.8770668465
 20
170.7873701376
 40
38.7
100
AcDbArc
 50
264.452070686
 51
265.1365354842
  0
ARC
  5
573
100
AcDbEntity
  8
0
100
AcDbCircle
 62
7
  6
CONTINUOUS
 10
99.8770668465
 20
170.7873701376
 40
38.7
100
AcDbArc
 50
254.944894416
 51
259.4457341409
  0
ARC
  5
574
100
AcDbEntity
  8
0
100
AcDbCircle
 62
7
  6
CONTINUOUS
 10
99.8770668465
 20
170.7873701376
 40
38.7
100
AcDbArc
 50
248.8410478873
 51
253.6602182505
  0
ARC
  5
575
100
AcDbEntity
  8
0
100
AcDbCircle
 62
7
  6
CONTINUOUS
 10
99.8770668465
 20
170.7873701376
 40
38.7
100
AcDbArc
 50
242.7339404309
 51
247.555607665
  0
ARC
  5
576
100
AcDbEntity
  8
0
100
AcDbCircle
 62
7
  6
CONTINUOUS
 10
99.8770668465
 20
170.7873701376
 40
38.7
100
AcDbArc
 50
236.0694195757
 51
241.447880609
  0
ARC
  5
577
100
AcDbEntity
  8
0
100
AcDbCircle
 62
7
  6
CONTINUOUS
 10
99.8770668465
 20
170.7873701376
 40
38.7
100
AcDbArc
 50
228.9582948605
 51
234.5724436921
  0
ARC
  5
578
100
AcDbEntity
  8
0
100
AcDbCircle
 62
7
  6
CONTINUOUS
 10
99.8770668465
 20
170.7873701376
 40
38.7
100
AcDbArc
 50
36.253825624
 51
43.5729086951
  0
ARC
  5
579
100
AcDbEntity
  8
0
100
AcDbCircle
 62
7
  6
CONTINUOUS
 10
99.8770668465
 20
170.7873701376
 40
38.7
100
AcDbArc
 50
25.2086164572
 51
34.3022936513
  0
ARC
  5
57A
100
AcDbEntity
  8
0
100
AcDbCircle
 62
7
  6
CONTINUOUS
 10
99.8770668465
 20
170.7873701376
 40
38.7
100
AcDbArc
 50
10.9966693795
 51
22.1018162508
  0
ARC
  5
57B
100
AcDbEntity
  8
0
100
AcDbCircle
 62
7
  6
CONTINUOUS
 10
99.8770668465
 20
170.7873701376
 40
38.7
100
AcDbArc
 50
1.7070788918
 51
6.195473629
  0
ARC
  5
57C
100
AcDbEntity
  8
0
100
AcDbCircle
 62
7
  6
CONTINUOUS
 10
99.8770668465
 20
170.7873701376
 40
38.7
100
AcDbArc
 50
337.8981978658
 51
358.2929884799
  0
ARC
  5
57D
100
AcDbEntity
  8
0
100
AcDbCircle
 62
7
  6
CONTINUOUS
 10
99.8770668465
 20
170.7873701376
 40
38.7
100
AcDbArc
 50
325.6975920253
 51
334.791525853
  0
ARC
  5
57E
100
AcDbEntity
  8
0
100
AcDbCircle
 62
7
  6
CONTINUOUS
 10
99.8770668465
 20
170.7873701376
 40
38.7
100
AcDbArc
 50
316.427255473
 51
323.7461098993
  0
ARC
  5
57F
100
AcDbEntity
  8
0
100
AcDbCircle
 62
7
  6
CONTINUOUS
 10
99.8770668465
 20
170.7873701376
 40
38.7
100
AcDbArc
 50
308.9829928857
 51
314.5975008549
  0
ARC
  5
580
100
AcDbEntity
  8
0
100
AcDbCircle
 62
7
  6
CONTINUOUS
 10
99.8770668465
 20
170.7873701376
 40
38.7
100
AcDbArc
 50
301.872455581
 51
307.4859219453
  0
ARC
  5
581
100
AcDbEntity
  8
0
100
AcDbCircle
 62
7
  6
CONTINUOUS
 10
99.8770668465
 20
170.7873701376
 40
38.7
100
AcDbArc
 50
295.4978234135
 51
300.3757935913
  0
ARC
  5
582
100
AcDbEntity
  8
0
100
AcDbCircle
 62
7
  6
CONTINUOUS
 10
99.8770668465
 20
170.7873701376
 40
38.7
100
AcDbArc
 50
289.3916414072
 51
294.2120384524
  0
ARC
  5
583
100
AcDbEntity
  8
0
100
AcDbCircle
 62
7
  6
CONTINUOUS
 10
99.8770668465
 20
170.7873701376
 40
38.7
100
AcDbArc
 50
283.4013270373
 51
288.1065313934
  0
ARC
  5
584
100
AcDbEntity
  8
0
100
AcDbCircle
 62
7
  6
CONTINUOUS
 10
99.8770668465
 20
170.7873701376
 40
38.7
100
AcDbArc
 50
277.7082151717
 51
282.202430708
  0
ARC
  5
585
100
AcDbEntity
  8
0
100
AcDbCircle
 62
7
  6
CONTINUOUS
 10
99.8770668465
 20
170.7873701376
 40
38.7
100
AcDbArc
 50
272.0197863158
 51
276.5102700276
  0
ARC
  5
586
100
AcDbEntity
  8
0
100
AcDbCircle
 62
7
  6
CONTINUOUS
 10
99.8770668465
 20
170.7873701376
 40
37.0
100
AcDbArc
 50
38.2784012638
 51
40.8995616
  0
ARC
  5
587
100
AcDbEntity
  8
0
100
AcDbCircle
 62
7
  6
CONTINUOUS
 10
99.8770668465
 20
170.7873701376
 40
37.0
100
AcDbArc
 50
42.7948065838
 51
48.1153105191
  0
ARC
  5
588
100
AcDbEntity
  8
0
100
AcDbCircle
 62
7
  6
CONTINUOUS
 10
99.8770668465
 20
170.7873701376
 40
37.0
100
AcDbArc
 50
243.8784012638
 51
246.6672204416
  0
ARC
  5
589
100
AcDbEntity
  8
0
100
AcDbCircle
 62
7
  6
CONTINUOUS
 10
99.8770668465
 20
170.7873701376
 40
37.0
100
AcDbArc
 50
248.0149603511
 51
252.9478680188
  0
ARC
  5
58A
100
AcDbEntity
  8
0
100
AcDbCircle
 62
7
  6
CONTINUOUS
 10
99.8770668465
 20
170.7873701376
 40
37.0
100
AcDbArc
 50
254.2405425297
 51
259.0230795358
  0
ARC
  5
58B
100
AcDbEntity
  8
0
100
AcDbCircle
 62
7
  6
CONTINUOUS
 10
99.8770668465
 20
170.7873701376
 40
37.0
100
AcDbArc
 50
260.2759666944
 51
260.4054645157
  0
ARC
  5
58C
100
AcDbEntity
  8
0
100
AcDbCircle
 62
7
  6
CONTINUOUS
 10
99.8770668465
 20
170.7873701376
 40
37.0
100
AcDbArc
 50
266.2064468085
 51
266.4281499602
  0
ARC
  5
58D
100
AcDbEntity
  8
0
100
AcDbCircle
 62
7
  6
CONTINUOUS
 10
99.8770668465
 20
170.7873701376
 40
37.0
100
AcDbArc
 50
296.5986673746
 51
301.9348046569
  0
ARC
  5
58E
100
AcDbEntity
  8
0
100
AcDbCircle
 62
7
  6
CONTINUOUS
 10
99.8770668465
 20
170.7873701376
 40
37.0
100
AcDbArc
 50
303.3924131819
 51
309.1468943435
  0
ARC
  5
58F
100
AcDbEntity
  8
0
100
AcDbCircle
 62
7
  6
CONTINUOUS
 10
99.8770668465
 20
170.7873701376
 40
37.0
100
AcDbArc
 50
310.772328244
 51
317.2263510821
  0
ARC
  5
590
100
AcDbEntity
  8
0
100
AcDbCircle
 62
7
  6
CONTINUOUS
 10
99.8770668465
 20
170.7873701376
 40
37.0
100
AcDbArc
 50
346.6784012638
 51
7.0125939511
  0
ARC
  5
591
100
AcDbEntity
  8
0
100
AcDbCircle
 62
7
  6
CONTINUOUS
 10
99.8770668465
 20
170.7873701376
 40
36.5
100
AcDbArc
 50
33.0478203339
 51
35.0631788404
  0
ARC
  5
592
100
AcDbEntity
  8
0
100
AcDbCircle
 62
7
  6
CONTINUOUS
 10
99.8770668465
 20
170.7873701376
 40
36.5
100
AcDbArc
 50
14.957105028
 51
31.1740369583
  0
ARC
  5
593
100
AcDbEntity
  8
0
100
AcDbCircle
 62
7
  6
CONTINUOUS
 10
99.8770668465
 20
170.7873701376
 40
36.5
100
AcDbArc
 50
232.7329735704
 51
237.4758478722
  0
ARC
  5
594
100
AcDbEntity
  8
0
100
AcDbCircle
 62
7
  6
CONTINUOUS
 10
99.8770668465
 20
170.7873701376
 40
36.5
100
AcDbArc
 50
228.0545028735
 51
231.4665031544
  0
ARC
  5
595
100
AcDbEntity
  8
0
100
AcDbCircle
 62
7
  6
CONTINUOUS
 10
99.8770668465
 20
170.7873701376
 40
36.5
100
AcDbArc
 50
289.2706650613
 51
291.3931444116
  0
ARC
  5
596
100
AcDbEntity
  8
0
100
AcDbCircle
 62
7
  6
CONTINUOUS
 10
99.8770668465
 20
170.7873701376
 40
36.5
100
AcDbArc
 50
282.34368827
 51
287.010797353
  0
ARC
  5
597
100
AcDbEntity
  8
0
100
AcDbCircle
 62
7
  6
CONTINUOUS
 10
99.8770668465
 20
170.7873701376
 40
36.5
100
AcDbArc
 50
277.2826615694
 51
281.2765521001
  0
ARC
  5
598
100
AcDbEntity
  8
0
100
AcDbCircle
 62
7
  6
CONTINUOUS
 10
99.8770668465
 20
170.7873701376
 40
36.5
100
AcDbArc
 50
272.6707704965
 51
276.2159262887
  0
ARC
  5
599
100
AcDbEntity
  8
0
100
AcDbCircle
 62
7
  6
CONTINUOUS
 10
99.8770668465
 20
170.7873701376
 40
36.5
100
AcDbArc
 50
328.8269048356
 51
345.0425283423
  0
ARC
  5
59A
100
AcDbEntity
  8
0
100
AcDbCircle
 62
7
  6
CONTINUOUS
 10
99.8770668465
 20
170.7873701376
 40
36.5
100
AcDbArc
 50
321.5361993623
 51
326.9533305088
  0
ARC
  5
59B
100
AcDbEntity
  8
0
100
AcDbCircle
 62
7
  6
CONTINUOUS
 10
99.8770668465
 20
170.7873701376
 40
36.3414051614
100
AcDbArc
 50
272.440539707
 51
276.1959186296
  0
ARC
  5
59C
100
AcDbEntity
  8
0
100
AcDbCircle
 62
7
  6
CONTINUOUS
 10
99.8770668465
 20
170.7873701376
 40
36.3414051614
100
AcDbArc
 50
277.2679309303
 51
281.2879770614
  0
ARC
  5
59D
100
AcDbEntity
  8
0
100
AcDbCircle
 62
7
  6
CONTINUOUS
 10
99.8770668465
 20
170.7873701376
 40
36.3414051614
100
AcDbArc
 50
282.3599893642
 51
287.1587768898
  0
ARC
  5
59E
100
AcDbEntity
  8
0
100
AcDbCircle
 62
7
  6
CONTINUOUS
 10
99.8770668465
 20
170.7873701376
 40
36.3414051614
100
AcDbArc
 50
289.4327875623
 51
290.3394475391
  0
ARC
  5
59F
100
AcDbEntity
  8
0
100
AcDbCircle
 62
7
  6
CONTINUOUS
 10
99.8770668465
 20
170.7873701376
 40
36.3414051594
100
AcDbArc
 50
321.884859012
 51
327.2388598347
  0
ARC
  5
5A0
100
AcDbEntity
  8
0
100
AcDbCircle
 62
7
  6
CONTINUOUS
 10
99.8770668465
 20
170.7873701376
 40
36.3414051594
100
AcDbArc
 50
329.1134441766
 51
345.0592070412
  0
ARC
  5
5A1
100
AcDbEntity
  8
0
100
AcDbCircle
 62
7
  6
CONTINUOUS
 10
99.8770668465
 20
170.7873701376
 40
36.3414051302
100
AcDbArc
 50
227.8245537413
 51
231.2515686586
  0
ARC
  5
5A2
100
AcDbEntity
  8
0
100
AcDbCircle
 62
7
  6
CONTINUOUS
 10
99.8770668465
 20
170.7873701376
 40
36.3414051302
100
AcDbArc
 50
232.5268967766
 51
237.3093771807
  0
ARC
  5
5A3
100
AcDbEntity
  8
0
100
AcDbCircle
 62
7
  6
CONTINUOUS
 10
99.8770668465
 20
170.7873701376
 40
36.3414051292
100
AcDbArc
 50
13.8329610067
 51
30.8865557338
  0
ARC
  5
5A4
100
AcDbEntity
  8
0
100
AcDbCircle
 62
7
  6
CONTINUOUS
 10
99.8770668465
 20
170.7873701376
 40
36.3414051292
100
AcDbArc
 50
32.7611400672
 51
34.7451083418
  0
ARC
  5
5A5
100
AcDbEntity
  8
0
100
AcDbCircle
 62
7
  6
CONTINUOUS
 10
99.8770668465
 20
170.7873701376
 40
35.8420567129
100
AcDbArc
 50
272.4421069617
 51
276.2863072532
  0
ARC
  5
5A6
100
AcDbEntity
  8
0
100
AcDbCircle
 62
7
  6
CONTINUOUS
 10
99.8770668465
 20
170.7873701376
 40
35.8420567129
100
AcDbArc
 50
277.3717861662
 51
281.4373071894
  0
ARC
  5
5A7
100
AcDbEntity
  8
0
100
AcDbCircle
 62
7
  6
CONTINUOUS
 10
99.8770668465
 20
170.7873701376
 40
35.8420567129
100
AcDbArc
 50
282.5241792097
 51
287.6337229029
  0
ARC
  5
5A8
100
AcDbEntity
  8
0
100
AcDbCircle
 62
7
  6
CONTINUOUS
 10
99.8770668465
 20
170.7873701376
 40
35.8420559987
100
AcDbArc
 50
322.821584527
 51
328.2465855897
  0
ARC
  5
5A9
100
AcDbEntity
  8
0
100
AcDbCircle
 62
7
  6
CONTINUOUS
 10
99.8770668465
 20
170.7873701376
 40
35.8420559987
100
AcDbArc
 50
330.1502904502
 51
343.7123554431
  0
ARC
  5
5AA
100
AcDbEntity
  8
0
100
AcDbCircle
 62
7
  6
CONTINUOUS
 10
99.8770668465
 20
170.7873701376
 40
35.8420456743
100
AcDbArc
 50
227.8264378556
 51
230.7667362852
  0
ARC
  5
5AB
100
AcDbEntity
  8
0
100
AcDbCircle
 62
7
  6
CONTINUOUS
 10
99.8770668465
 20
170.7873701376
 40
35.8420456743
100
AcDbArc
 50
232.0592765267
 51
236.8966382038
  0
ARC
  5
5AC
100
AcDbEntity
  8
0
100
AcDbCircle
 62
7
  6
CONTINUOUS
 10
99.8770668465
 20
170.7873701376
 40
35.8420452846
100
AcDbArc
 50
12.9224369264
 51
29.8493757205
  0
ARC
  5
5AD
100
AcDbEntity
  8
0
100
AcDbCircle
 62
7
  6
CONTINUOUS
 10
99.8770668465
 20
170.7873701376
 40
35.1578656686
100
AcDbArc
 50
231.4540025318
 51
235.5408347332
  0
ARC
  5
5AE
100
AcDbEntity
  8
0
100
AcDbCircle
 62
7
  6
CONTINUOUS
 10
99.8770668465
 20
170.7873701376
 40
35.1578656686
100
AcDbArc
 50
228.133877171
 51
230.1376349743
  0
ARC
  5
5AF
100
AcDbEntity
  8
0
100
AcDbCircle
 62
7
  6
CONTINUOUS
 10
99.8770668465
 20
170.7873701376
 40
35.1578647915
100
AcDbArc
 50
30.2617371825
 51
33.2090508167
  0
ARC
  5
5B0
100
AcDbEntity
  8
0
100
AcDbCircle
 62
7
  6
CONTINUOUS
 10
99.8770668465
 20
170.7873701376
 40
35.1578647915
100
AcDbArc
 50
13.8416415366
 51
27.3412577222
  0
ARC
  5
5B1
100
AcDbEntity
  8
0
100
AcDbCircle
 62
7
  6
CONTINUOUS
 10
99.8770668465
 20
170.7873701376
 40
35.1578613999
100
AcDbArc
 50
282.8056446651
 51
286.4389134469
  0
ARC
  5
5B2
100
AcDbEntity
  8
0
100
AcDbCircle
 62
7
  6
CONTINUOUS
 10
99.8770668465
 20
170.7873701376
 40
35.1578613999
100
AcDbArc
 50
277.5501465952
 51
281.6970113833
  0
ARC
  5
5B3
100
AcDbEntity
  8
0
100
AcDbCircle
 62
7
  6
CONTINUOUS
 10
99.8770668465
 20
170.7873701376
 40
35.1578613999
100
AcDbArc
 50
273.0016837264
 51
276.4429543777
  0
ARC
  5
5B4
100
AcDbEntity
  8
0
100
AcDbCircle
 62
7
  6
CONTINUOUS
 10
99.8770668465
 20
170.7873701376
 40
35.1578613729
100
AcDbArc
 50
332.6587602415
 51
341.748214916
  0
ARC
  5
5B5
100
AcDbEntity
  8
0
100
AcDbCircle
 62
7
  6
CONTINUOUS
 10
99.8770668465
 20
170.7873701376
 40
35.1578613729
100
AcDbArc
 50
323.7566803906
 51
329.7381930327
  0
ARC
  5
5B6
100
AcDbEntity
  8
0
100
AcDbCircle
 62
7
  6
CONTINUOUS
 10
99.8770668465
 20
170.7873701376
 40
34.6585946235
100
AcDbArc
 50
230.9368242484
 51
235.0549545613
  0
ARC
  5
5B7
100
AcDbEntity
  8
0
100
AcDbCircle
 62
7
  6
CONTINUOUS
 10
99.8770668465
 20
170.7873701376
 40
34.6585946235
100
AcDbArc
 50
228.1336578229
 51
229.6027611036
  0
ARC
  5
5B8
100
AcDbEntity
  8
0
100
AcDbCircle
 62
7
  6
CONTINUOUS
 10
99.8770668465
 20
170.7873701376
 40
34.6585946211
100
AcDbArc
 50
29.1762653779
 51
32.7430522309
  0
ARC
  5
5B9
100
AcDbEntity
  8
0
100
AcDbCircle
 62
7
  6
CONTINUOUS
 10
99.8770668465
 20
170.7873701376
 40
34.6585946211
100
AcDbArc
 50
14.2866749436
 51
24.0653254125
  0
ARC
  5
5BA
100
AcDbEntity
  8
0
100
AcDbCircle
 62
7
  6
CONTINUOUS
 10
99.8770668465
 20
170.7873701376
 40
34.6585946118
100
AcDbArc
 50
335.9346746147
 51
340.7680138482
  0
ARC
  5
5BB
100
AcDbEntity
  8
0
100
AcDbCircle
 62
7
  6
CONTINUOUS
 10
99.8770668465
 20
170.7873701376
 40
34.6585946118
100
AcDbArc
 50
324.2263618083
 51
330.8237346678
  0
ARC
  5
5BC
100
AcDbEntity
  8
0
100
AcDbCircle
 62
7
  6
CONTINUOUS
 10
99.8770668465
 20
170.7873701376
 40
34.6585946119
100
AcDbArc
 50
282.9866787195
 51
285.6214615013
  0
ARC
  5
5BD
100
AcDbEntity
  8
0
100
AcDbCircle
 62
7
  6
CONTINUOUS
 10
99.8770668465
 20
170.7873701376
 40
34.6585946119
100
AcDbArc
 50
277.6452616238
 51
281.8621698572
  0
ARC
  5
5BE
100
AcDbEntity
  8
0
100
AcDbCircle
 62
7
  6
CONTINUOUS
 10
99.8770668465
 20
170.7873701376
 40
34.6585946119
100
AcDbArc
 50
273.5959822646
 51
276.5207527615
  0
ARC
  5
5BF
100
AcDbEntity
  8
0
100
AcDbCircle
 62
7
  6
CONTINUOUS
 10
99.8770668465
 20
170.7873701376
 40
34.5
100
AcDbArc
 50
273.7900483353
 51
276.6021544641
  0
ARC
  5
5C0
100
AcDbEntity
  8
0
100
AcDbCircle
 62
7
  6
CONTINUOUS
 10
99.8770668465
 20
170.7873701376
 40
34.5
100
AcDbArc
 50
277.7311056759
 51
281.9595432856
  0
ARC
  5
5C1
100
AcDbEntity
  8
0
100
AcDbCircle
 62
7
  6
CONTINUOUS
 10
99.8770668465
 20
170.7873701376
 40
34.5
100
AcDbArc
 50
283.0900128111
 51
285.4923284844
  0
ARC
  5
5C2
100
AcDbEntity
  8
0
100
AcDbCircle
 62
7
  6
CONTINUOUS
 10
99.8770668465
 20
170.7873701376
 40
34.5
100
AcDbArc
 50
228.4203572161
 51
229.5058873554
  0
ARC
  5
5C3
100
AcDbEntity
  8
0
100
AcDbCircle
 62
7
  6
CONTINUOUS
 10
99.8770668465
 20
170.7873701376
 40
34.5
100
AcDbArc
 50
230.84642493
 51
234.9589217765
  0
ARC
  5
5C4
100
AcDbEntity
  8
0
100
AcDbCircle
 62
7
  6
CONTINUOUS
 10
99.8770668465
 20
170.7873701376
 40
34.5
100
AcDbArc
 50
324.4237439522
 51
331.2343137575
  0
ARC
  5
5C5
100
AcDbEntity
  8
0
100
AcDbCircle
 62
7
  6
CONTINUOUS
 10
99.8770668465
 20
170.7873701376
 40
34.5
100
AcDbArc
 50
336.9784083203
 51
340.4566893309
  0
ARC
  5
5C6
100
AcDbEntity
  8
0
100
AcDbCircle
 62
7
  6
CONTINUOUS
 10
99.8770668465
 20
170.7873701376
 40
34.5
100
AcDbArc
 50
14.4783802929
 51
23.0215916797
  0
ARC
  5
5C7
100
AcDbEntity
  8
0
100
AcDbCircle
 62
7
  6
CONTINUOUS
 10
99.8770668465
 20
170.7873701376
 40
29.0
100
AcDbArc
 50
122.5453302177
 51
127.7949919685
  0
ARC
  5
5C8
100
AcDbEntity
  8
0
100
AcDbCircle
 62
7
  6
CONTINUOUS
 10
99.8770668465
 20
170.7873701376
 40
29.0
100
AcDbArc
 50
280.3929195889
 51
284.7122713165
  0
ARC
  5
5C9
100
AcDbEntity
  8
0
100
AcDbCircle
 62
7
  6
CONTINUOUS
 10
99.8770668465
 20
170.7873701376
 40
29.0
100
AcDbArc
 50
276.7340952119
 51
278.7694539285
  0
ARC
  5
5CA
100
AcDbEntity
  8
0
100
AcDbCircle
 62
7
  6
CONTINUOUS
 10
99.8770668465
 20
170.7873701376
 40
29.0
100
AcDbArc
 50
232.2059134117
 51
233.4262741096
  0
ARC
  5
5CB
100
AcDbEntity
  8
0
100
AcDbCircle
 62
7
  6
CONTINUOUS
 10
99.8770668465
 20
170.7873701376
 40
29.0
100
AcDbArc
 50
228.8193342082
 51
230.3338050254
  0
ARC
  5
5CC
100
AcDbEntity
  8
0
100
AcDbCircle
 62
7
  6
CONTINUOUS
 10
99.8770668465
 20
170.7873701376
 40
29.0
100
AcDbArc
 50
328.1572586611
 51
336.2462248679
  0
ARC
  5
5CD
100
AcDbEntity
  8
0
100
AcDbCircle
 62
7
  6
CONTINUOUS
 10
99.8770668465
 20
170.7873701376
 40
29.0
100
AcDbArc
 50
20.4437334047
 51
27.7925313829
  0
ARC
  5
5CE
100
AcDbEntity
  8
0
100
AcDbCircle
 62
7
  6
CONTINUOUS
 10
99.8770668465
 20
170.7873701376
 40
28.8414051887
100
AcDbArc
 50
70.9610656135
 51
71.7809750618
  0
ARC
  5
5CF
100
AcDbEntity
  8
0
100
AcDbCircle
 62
7
  6
CONTINUOUS
 10
99.8770668465
 20
170.7873701376
 40
28.8414051887
100
AcDbArc
 50
74.4699613405
 51
77.8182210514
  0
ARC
  5
5D0
100
AcDbEntity
  8
0
100
AcDbCircle
 62
7
  6
CONTINUOUS
 10
99.8770668465
 20
170.7873701376
 40
28.8414051747
100
AcDbArc
 50
20.6438696346
 51
27.711336645
  0
ARC
  5
5D1
100
AcDbEntity
  8
0
100
AcDbCircle
 62
7
  6
CONTINUOUS
 10
99.8770668465
 20
170.7873701376
 40
28.8414051747
100
AcDbArc
 50
228.5352890874
 51
230.0571208733
  0
ARC
  5
5D2
100
AcDbEntity
  8
0
100
AcDbCircle
 62
7
  6
CONTINUOUS
 10
99.8770668465
 20
170.7873701376
 40
28.8414051747
100
AcDbArc
 50
231.9371283558
 51
233.3264860006
  0
ARC
  5
5D3
100
AcDbEntity
  8
0
100
AcDbCircle
 62
7
  6
CONTINUOUS
 10
99.8770668465
 20
170.7873701376
 40
28.8414051556
100
AcDbArc
 50
122.6209849684
 51
127.9979782334
  0
ARC
  5
5D4
100
AcDbEntity
  8
0
100
AcDbCircle
 62
7
  6
CONTINUOUS
 10
99.8770668465
 20
170.7873701376
 40
28.8414051441
100
AcDbArc
 50
328.1288465742
 51
336.1595234405
  0
ARC
  5
5D5
100
AcDbEntity
  8
0
100
AcDbCircle
 62
7
  6
CONTINUOUS
 10
99.8770668465
 20
170.7873701376
 40
28.8414051443
100
AcDbArc
 50
276.7980422213
 51
278.8091654512
  0
ARC
  5
5D6
100
AcDbEntity
  8
0
100
AcDbCircle
 62
7
  6
CONTINUOUS
 10
99.8770668465
 20
170.7873701376
 40
28.8414051443
100
AcDbArc
 50
280.4456627841
 51
284.6321046603
  0
ARC
  5
5D7
100
AcDbEntity
  8
0
100
AcDbCircle
 62
7
  6
CONTINUOUS
 10
99.8770668465
 20
170.7873701376
 40
28.3420666283
100
AcDbArc
 50
73.1253356966
 51
78.3747308975
  0
ARC
  5
5D8
100
AcDbEntity
  8
0
100
AcDbCircle
 62
7
  6
CONTINUOUS
 10
99.8770668465
 20
170.7873701376
 40
28.3420616792
100
AcDbArc
 50
21.298640207
 51
27.4664509161
  0
ARC
  5
5D9
100
AcDbEntity
  8
0
100
AcDbCircle
 62
7
  6
CONTINUOUS
 10
99.8770668465
 20
170.7873701376
 40
28.3420616739
100
AcDbArc
 50
228.5352892116
 51
229.2994590164
  0
ARC
  5
5DA
100
AcDbEntity
  8
0
100
AcDbCircle
 62
7
  6
CONTINUOUS
 10
99.8770668465
 20
170.7873701376
 40
28.3420616739
100
AcDbArc
 50
231.2216854109
 51
233.0976982176
  0
ARC
  5
5DB
100
AcDbEntity
  8
0
100
AcDbCircle
 62
7
  6
CONTINUOUS
 10
99.8770668465
 20
170.7873701376
 40
28.3420549563
100
AcDbArc
 50
122.8335130407
 51
128.3314712282
  0
ARC
  5
5DC
100
AcDbEntity
  8
0
100
AcDbCircle
 62
7
  6
CONTINUOUS
 10
99.8770668465
 20
170.7873701376
 40
28.3420509102
100
AcDbArc
 50
277.0383993638
 51
278.9803170448
  0
ARC
  5
5DD
100
AcDbEntity
  8
0
100
AcDbCircle
 62
7
  6
CONTINUOUS
 10
99.8770668465
 20
170.7873701376
 40
28.3420509102
100
AcDbArc
 50
280.6399695289
 51
284.3752577364
  0
ARC
  5
5DE
100
AcDbEntity
  8
0
100
AcDbCircle
 62
7
  6
CONTINUOUS
 10
99.8770668465
 20
170.7873701376
 40
28.3420508418
100
AcDbArc
 50
329.7331216813
 51
335.9023399605
  0
ARC
  5
5DF
100
AcDbEntity
  8
0
100
AcDbCircle
 62
7
  6
CONTINUOUS
 10
99.8770668465
 20
170.7873701376
 40
27.6579090895
100
AcDbArc
 50
123.1294561766
 51
128.8135969435
  0
ARC
  5
5E0
100
AcDbEntity
  8
0
100
AcDbCircle
 62
7
  6
CONTINUOUS
 10
99.8770668465
 20
170.7873701376
 40
27.657890522
100
AcDbArc
 50
24.1341820241
 51
28.5118446784
  0
ARC
  5
5E1
100
AcDbEntity
  8
0
100
AcDbCircle
 62
7
  6
CONTINUOUS
 10
99.8770668465
 20
170.7873701376
 40
27.657890522
100
AcDbArc
 50
330.6194809295
 51
333.9060630174
  0
ARC
  5
5E2
100
AcDbEntity
  8
0
100
AcDbCircle
 62
7
  6
CONTINUOUS
 10
99.8770668465
 20
170.7873701376
 40
27.6578902819
100
AcDbArc
 50
230.2218906276
 51
232.7594375546
  0
ARC
  5
5E3
100
AcDbEntity
  8
0
100
AcDbCircle
 62
7
  6
CONTINUOUS
 10
99.8770668465
 20
170.7873701376
 40
27.6578646657
100
AcDbArc
 50
280.896303196
 51
284.0265877327
  0
ARC
  5
5E4
100
AcDbEntity
  8
0
100
AcDbCircle
 62
7
  6
CONTINUOUS
 10
99.8770668465
 20
170.7873701376
 40
27.6578646657
100
AcDbArc
 50
277.3404200147
 51
279.1943492206
  0
ARC
  5
5E5
100
AcDbEntity
  8
0
100
AcDbCircle
 62
7
  6
CONTINUOUS
 10
99.8770668465
 20
170.7873701376
 40
27.6578477273
100
AcDbArc
 50
72.7093492366
 51
78.4253259308
  0
ARC
  5
5E6
100
AcDbEntity
  8
0
100
AcDbCircle
 62
7
  6
CONTINUOUS
 10
99.8770668465
 20
170.7873701376
 40
27.1585947424
100
AcDbArc
 50
123.1155294013
 51
129.2063680804
  0
ARC
  5
5E7
100
AcDbEntity
  8
0
100
AcDbCircle
 62
7
  6
CONTINUOUS
 10
99.8770668465
 20
170.7873701376
 40
27.1585946915
100
AcDbArc
 50
330.9046206108
 51
332.6415966529
  0
ARC
  5
5E8
100
AcDbEntity
  8
0
100
AcDbCircle
 62
7
  6
CONTINUOUS
 10
99.8770668465
 20
170.7873701376
 40
27.1585946915
100
AcDbArc
 50
24.8019552836
 51
29.0953794193
  0
ARC
  5
5E9
100
AcDbEntity
  8
0
100
AcDbCircle
 62
7
  6
CONTINUOUS
 10
99.8770668465
 20
170.7873701376
 40
27.1585946909
100
AcDbArc
 50
229.4207411394
 51
232.4768787774
  0
ARC
  5
5EA
100
AcDbEntity
  8
0
100
AcDbCircle
 62
7
  6
CONTINUOUS
 10
99.8770668465
 20
170.7873701376
 40
27.1585946209
100
AcDbArc
 50
281.0906194456
 51
283.7564933426
  0
ARC
  5
5EB
100
AcDbEntity
  8
0
100
AcDbCircle
 62
7
  6
CONTINUOUS
 10
99.8770668465
 20
170.7873701376
 40
27.1585946209
100
AcDbArc
 50
277.5681260668
 51
279.351749407
  0
ARC
  5
5EC
100
AcDbEntity
  8
0
100
AcDbCircle
 62
7
  6
CONTINUOUS
 10
99.8770668465
 20
170.7873701376
 40
27.1585945746
100
AcDbArc
 50
72.3886178801
 51
78.1560317173
  0
ARC
  5
5ED
100
AcDbEntity
  8
0
100
AcDbCircle
 62
7
  6
CONTINUOUS
 10
99.8770668465
 20
170.7873701376
 40
27.0
100
AcDbArc
 50
25.3258193174
 51
28.539345043
  0
ARC
  5
5EE
100
AcDbEntity
  8
0
100
AcDbCircle
 62
7
  6
CONTINUOUS
 10
99.8770668465
 20
170.7873701376
 40
27.0
100
AcDbArc
 50
331.460646553
 51
332.6186919281
  0
ARC
  5
5EF
100
AcDbEntity
  8
0
100
AcDbCircle
 62
7
  6
CONTINUOUS
 10
99.8770668465
 20
170.7873701376
 40
27.0
100
AcDbArc
 50
72.2872759971
 51
78.0703210936
  0
ARC
  5
5F0
100
AcDbEntity
  8
0
100
AcDbCircle
 62
7
  6
CONTINUOUS
 10
99.8770668465
 20
170.7873701376
 40
27.0
100
AcDbArc
 50
123.2981145586
 51
129.3052623293
  0
ARC
  5
5F1
100
AcDbEntity
  8
0
100
AcDbCircle
 62
7
  6
CONTINUOUS
 10
99.8770668465
 20
170.7873701376
 40
27.0
100
AcDbArc
 50
277.6488842971
 51
279.4126802894
  0
ARC
  5
5F2
100
AcDbEntity
  8
0
100
AcDbCircle
 62
7
  6
CONTINUOUS
 10
99.8770668465
 20
170.7873701376
 40
27.0
100
AcDbArc
 50
281.1573356303
 51
283.6739985881
  0
ARC
  5
5F3
100
AcDbEntity
  8
0
100
AcDbCircle
 62
7
  6
CONTINUOUS
 10
99.8770668465
 20
170.7873701376
 40
27.0
100
AcDbArc
 50
229.4086749397
 51
232.4146619418
  0
ARC
  5
5F4
100
AcDbEntity
  8
0
100
AcDbCircle
 62
7
  6
CONTINUOUS
 10
99.8770668465
 20
170.7873701376
 40
16.5
100
AcDbArc
 50
75.5978508132
 51
89.1780387304
  0
ARC
  5
5F5
100
AcDbEntity
  8
0
100
AcDbCircle
 62
7
  6
CONTINUOUS
 10
99.8770668465
 20
170.7873701376
 40
16.5
100
AcDbArc
 50
91.2252913233
 51
98.5773411627
  0
ARC
  5
5F6
100
AcDbEntity
  8
0
100
AcDbCircle
 62
7
  6
CONTINUOUS
 10
99.8770668465
 20
170.7873701376
 40
16.5
100
AcDbArc
 50
100.5420671868
 51
113.3008279662
  0
ARC
  5
5F7
100
AcDbEntity
  8
0
100
AcDbCircle
 62
7
  6
CONTINUOUS
 10
99.8770668465
 20
170.7873701376
 40
16.5
100
AcDbArc
 50
117.1224080496
 51
126.0129601105
  0
ARC
  5
5F8
100
AcDbEntity
  8
0
100
AcDbCircle
 62
7
  6
CONTINUOUS
 10
99.8770668465
 20
170.7873701376
 40
16.5
100
AcDbArc
 50
128.3878024113
 51
144.1450370046
  0
ARC
  5
5F9
100
AcDbEntity
  8
0
100
AcDbCircle
 62
7
  6
CONTINUOUS
 10
99.8770668465
 20
170.7873701376
 40
16.5
100
AcDbArc
 50
15.0891845269
 51
39.3925812906
  0
ARC
  5
5FA
100
AcDbEntity
  8
0
100
AcDbCircle
 62
7
  6
CONTINUOUS
 10
99.8770668465
 20
170.7873701376
 40
16.5
100
AcDbArc
 50
329.0053733889
 51
343.1801654088
  0
ARC
  5
5FB
100
AcDbEntity
  8
0
100
AcDbCircle
 62
7
  6
CONTINUOUS
 10
99.8770668465
 20
170.7873701376
 40
16.5
100
AcDbArc
 50
180.0000000012
 51
205.9622074601
  0
ARC
  5
5FC
100
AcDbEntity
  8
0
100
AcDbCircle
 62
7
  6
CONTINUOUS
 10
99.8770668465
 20
170.7873701376
 40
16.5
100
AcDbArc
 50
211.8040336101
 51
228.183913955
  0
ARC
  5
5FD
100
AcDbEntity
  8
0
100
AcDbCircle
 62
7
  6
CONTINUOUS
 10
99.8770668465
 20
170.7873701376
 40
16.5
100
AcDbArc
 50
231.9725413425
 51
244.3695037243
  0
ARC
  5
5FE
100
AcDbEntity
  8
0
100
AcDbCircle
 62
7
  6
CONTINUOUS
 10
99.8770668465
 20
170.7873701376
 40
16.5
100
AcDbArc
 50
247.4066462156
 51
258.5889444627
  0
ARC
  5
5FF
100
AcDbEntity
  8
0
100
AcDbCircle
 62
7
  6
CONTINUOUS
 10
99.8770668465
 20
170.7873701376
 40
16.5
100
AcDbArc
 50
261.3932110022
 51
271.8944517902
  0
ARC
  5
600
100
AcDbEntity
  8
0
100
AcDbCircle
 62
7
  6
CONTINUOUS
 10
99.8770668465
 20
170.7873701376
 40
16.5
100
AcDbArc
 50
274.6929553012
 51
285.4819700966
  0
ARC
  5
601
100
AcDbEntity
  8
0
100
AcDbCircle
 62
7
  6
CONTINUOUS
 10
99.8770668465
 20
170.7873701376
 40
16.5
100
AcDbArc
 50
288.353936972
 51
293.9085721613
  0
ARC
  5
602
100
AcDbEntity
  8
0
100
AcDbCircle
 62
7
  6
CONTINUOUS
 10
99.886804736
 20
170.7971080271
 40
45.0142684436
100
AcDbArc
 50
235.6100384034
 51
239.3122482859
  0
ARC
  5
603
100
AcDbEntity
  8
0
100
AcDbCircle
 62
7
  6
CONTINUOUS
 10
99.886804736
 20
170.7971080271
 40
45.0142684436
100
AcDbArc
 50
233.9303613494
 51
234.3190236915
  0
ARC
  5
604
100
AcDbEntity
  8
0
100
AcDbCircle
 62
7
  6
CONTINUOUS
 10
101.5270668465
 20
198.4873701376
 40
0.3
100
AcDbArc
 50
180.0
 51
312.7273953131
  0
ARC
  5
605
100
AcDbEntity
  8
0
100
AcDbCircle
 62
7
  6
CONTINUOUS
 10
100.1270668465
 20
198.4873701376
 40
0.3
100
AcDbArc
 50
227.2726046869
 51
360.0
  0
ARC
  5
606
100
AcDbEntity
  8
0
100
AcDbCircle
 62
7
  6
CONTINUOUS
 10
97.7270668465
 20
198.4873701376
 40
0.3
100
AcDbArc
 50
180.0
 51
312.7273953131
  0
ARC
  5
607
100
AcDbEntity
  8
0
100
AcDbCircle
 62
7
  6
CONTINUOUS
 10
96.3270668465
 20
198.4873701376
 40
0.3
100
AcDbArc
 50
227.2726046869
 51
360.0
  0
ARC
  5
608
100
AcDbEntity
  8
0
100
AcDbCircle
 62
7
  6
CONTINUOUS
 10
109.1270668465
 20
198.4873701376
 40
0.3
100
AcDbArc
 50
180.0
 51
312.7273953131
  0
ARC
  5
609
100
AcDbEntity
  8
0
100
AcDbCircle
 62
7
  6
CONTINUOUS
 10
107.7270668465
 20
198.4873701376
 40
0.3
100
AcDbArc
 50
227.2726046869
 51
360.0
  0
ARC
  5
60A
100
AcDbEntity
  8
0
100
AcDbCircle
 62
7
  6
CONTINUOUS
 10
105.3270668465
 20
198.4873701376
 40
0.3
100
AcDbArc
 50
180.0
 51
312.7273953131
  0
ARC
  5
60B
100
AcDbEntity
  8
0
100
AcDbCircle
 62
7
  6
CONTINUOUS
 10
103.9270668465
 20
198.4873701376
 40
0.3
100
AcDbArc
 50
227.2726046869
 51
360.0
  0
ARC
  5
60C
100
AcDbEntity
  8
0
100
AcDbCircle
 62
7
  6
CONTINUOUS
 10
116.6181870222
 20
153.7355534636
 40
25.2284349946
100
AcDbArc
 50
311.9499719359
 51
312.3358813265
  0
ARC
  5
60D
100
AcDbEntity
  8
0
100
AcDbCircle
 62
7
  6
CONTINUOUS
 10
118.7248004212
 20
152.4166079254
 40
22.8033709338
100
AcDbArc
 50
317.0919987368
 51
318.0353282598
  0
ARC
  5
60E
100
AcDbEntity
  8
0
100
AcDbCircle
 62
7
  6
CONTINUOUS
 10
118.5209021911
 20
151.6455591909
 40
22.4020592552
100
AcDbArc
 50
312.3385796205
 51
312.9131941078
  0
ARC
  5
60F
100
AcDbEntity
  8
0
100
AcDbCircle
 62
7
  6
CONTINUOUS
 10
123.5933717926
 20
149.3039607316
 40
5.0
100
AcDbArc
 50
328.427332837
 51
31.8923412277
  0
ARC
  5
610
100
AcDbEntity
  8
0
100
AcDbCircle
 62
7
  6
CONTINUOUS
 10
113.5416115467
 20
141.851575382
 40
5.0
100
AcDbArc
 50
208.6737552621
 51
249.0097690263
  0
ARC
  5
611
100
AcDbEntity
  8
0
100
AcDbCircle
 62
7
  6
CONTINUOUS
 10
113.5416115467
 20
141.851575382
 40
5.0
100
AcDbArc
 50
261.5146099417
 51
294.4325510172
  0
ARC
  5
612
100
AcDbEntity
  8
0
100
AcDbCircle
 62
7
  6
CONTINUOUS
 10
124.9973853197
 20
190.6108309809
 40
5.0
100
AcDbArc
 50
311.673755262
 51
38.2784012637
  0
ARC
  5
613
100
AcDbEntity
  8
0
100
AcDbCircle
 62
7
  6
CONTINUOUS
 10
124.3270668465
 20
198.4873701376
 40
0.3
100
AcDbArc
 50
180.0
 51
312.7273953131
  0
ARC
  5
614
100
AcDbEntity
  8
0
100
AcDbCircle
 62
7
  6
CONTINUOUS
 10
122.9270668465
 20
198.4873701376
 40
0.3
100
AcDbArc
 50
227.2726046869
 51
360.0
  0
ARC
  5
615
100
AcDbEntity
  8
0
100
AcDbCircle
 62
7
  6
CONTINUOUS
 10
120.5270668465
 20
198.4873701376
 40
0.3
100
AcDbArc
 50
180.0
 51
312.7273953131
  0
ARC
  5
616
100
AcDbEntity
  8
0
100
AcDbCircle
 62
7
  6
CONTINUOUS
 10
119.1270668465
 20
198.4873701376
 40
0.3
100
AcDbArc
 50
227.2726046869
 51
360.0
  0
ARC
  5
617
100
AcDbEntity
  8
0
100
AcDbCircle
 62
7
  6
CONTINUOUS
 10
116.7270668465
 20
198.4873701376
 40
0.3
100
AcDbArc
 50
180.0
 51
312.7273953131
  0
ARC
  5
618
100
AcDbEntity
  8
0
100
AcDbCircle
 62
7
  6
CONTINUOUS
 10
115.3270668465
 20
198.4873701376
 40
0.3
100
AcDbArc
 50
227.2726046869
 51
360.0
  0
ARC
  5
619
100
AcDbEntity
  8
0
100
AcDbCircle
 62
7
  6
CONTINUOUS
 10
112.9270668465
 20
198.4873701376
 40
0.3
100
AcDbArc
 50
180.0
 51
312.7273953131
  0
ARC
  5
61A
100
AcDbEntity
  8
0
100
AcDbCircle
 62
7
  6
CONTINUOUS
 10
111.5270668465
 20
198.4873701376
 40
0.3
100
AcDbArc
 50
227.2726046869
 51
360.0
  0
ARC
  5
61B
100
AcDbEntity
  8
0
100
AcDbCircle
 62
7
  6
CONTINUOUS
 10
99.6145897532
 20
404.6423660869
 40
95.4242236933
100
AcDbArc
 50
268.3167881788
 51
268.5934960634
  0
ARC
  5
61C
100
AcDbEntity
  8
0
100
AcDbCircle
 62
7
  6
CONTINUOUS
 10
99.4452308541
 20
399.1947713503
 40
89.9740053783
100
AcDbArc
 50
267.4084949938
 51
268.3226923972
  0
ARC
  5
61D
100
AcDbEntity
  8
0
100
AcDbCircle
 62
7
  6
CONTINUOUS
 10
131.0160134705
 20
163.4140396045
 40
5.0
100
AcDbArc
 50
260.0737552621
 51
270.91672112
  0
ARC
  5
61E
100
AcDbEntity
  8
0
100
AcDbCircle
 62
7
  6
CONTINUOUS
 10
131.0160134705
 20
163.4140396045
 40
5.0
100
AcDbArc
 50
280.7174162786
 51
317.6095256512
  0
ARC
  5
61F
100
AcDbEntity
  8
0
100
AcDbCircle
 62
7
  6
CONTINUOUS
 10
131.0160134705
 20
163.4140396045
 40
5.0
100
AcDbArc
 50
328.0829389203
 51
346.6784012638
  0
ARC
  5
620
100
AcDbEntity
  8
0
100
AcDbCircle
 62
7
  6
CONTINUOUS
 10
136.8770668465
 20
133.7873701376
 40
3.0
100
AcDbArc
 50
270.0
 51
301.3478570752
  0
ARC
  5
621
100
AcDbEntity
  8
0
100
AcDbCircle
 62
7
  6
CONTINUOUS
 10
136.8770668465
 20
133.7873701376
 40
3.0
100
AcDbArc
 50
323.2156753918
 51
360.0
  0
ARC
  5
622
100
AcDbEntity
  8
0
100
AcDbCircle
 62
7
  6
CONTINUOUS
 10
135.6270668465
 20
135.0373701376
 40
2.15
100
AcDbArc
 50
261.4733371615
 51
98.2758324664
  0
ARC
  5
623
100
AcDbEntity
  8
0
100
AcDbCircle
 62
7
  6
CONTINUOUS
 10
135.6270668465
 20
135.0373701376
 40
2.15
100
AcDbArc
 50
119.1037271787
 51
241.0441306408
  0
ARC
  5
624
100
AcDbEntity
  8
0
100
AcDbCircle
 62
7
  6
CONTINUOUS
 10
137.9489579401
 20
143.2415046159
 40
2.0091345171
100
AcDbArc
 50
344.5793990533
 51
359.9659035065
  0
ARC
  5
625
100
AcDbEntity
  8
0
100
AcDbCircle
 62
7
  6
CONTINUOUS
 10
126.9000525048
 20
132.0798540063
 40
2.0024009593
100
AcDbArc
 50
297.7236348684
 51
304.9136049423
  0
ARC
  5
626
100
AcDbEntity
  8
0
100
AcDbCircle
 62
7
  6
CONTINUOUS
 10
126.8355251343
 20
132.2862049987
 40
1.9988348739
100
AcDbArc
 50
270.0065065606
 51
275.5274503143
  0
ARC
  5
627
100
AcDbEntity
  8
0
100
AcDbCircle
 62
7
  6
CONTINUOUS
 10
126.8362646984
 20
132.2857897529
 40
1.9981911004
100
AcDbArc
 50
299.8932189423
 51
304.9937569926
  0
ARC
  5
628
100
AcDbEntity
  8
0
100
AcDbCircle
 62
7
  6
CONTINUOUS
 10
126.9016307197
 20
132.0725093628
 40
1.9946638448
100
AcDbArc
 50
270.0029643479
 51
273.6214800049
  0
ARC
  5
629
100
AcDbEntity
  8
0
100
AcDbCircle
 62
7
  6
CONTINUOUS
 10
127.6129764557
 20
145.7664920095
 40
1.5777632128
100
AcDbArc
 50
212.9069531608
 51
224.6101058373
  0
ARC
  5
62A
100
AcDbEntity
  8
0
100
AcDbCircle
 62
7
  6
CONTINUOUS
 10
135.169964871
 20
138.0962183734
 40
1.4976293957
100
AcDbArc
 50
242.1426477161
 51
248.5672785428
  0
ARC
  5
62B
100
AcDbEntity
  8
0
100
AcDbCircle
 62
7
  6
CONTINUOUS
 10
132.5619310144
 20
135.4953308715
 40
1.0047877993
100
AcDbArc
 50
347.9286225792
 51
6.5241545676
  0
ARC
  5
62C
100
AcDbEntity
  8
0
100
AcDbCircle
 62
7
  6
CONTINUOUS
 10
132.5722527631
 20
135.4942075291
 40
0.9944599272
100
AcDbArc
 50
343.0569387966
 51
347.867545784
  0
ARC
  5
62D
100
AcDbEntity
  8
0
100
AcDbCircle
 62
7
  6
CONTINUOUS
 10
131.4629098798
 20
175.9190871869
 40
5.0
100
AcDbArc
 50
50.5918870651
 51
88.1287694942
  0
ARC
  5
62E
100
AcDbEntity
  8
0
100
AcDbCircle
 62
7
  6
CONTINUOUS
 10
131.4629098798
 20
175.9190871869
 40
5.0
100
AcDbArc
 50
33.3846158944
 51
37.3282013031
  0
ARC
  5
62F
100
AcDbEntity
  8
0
100
AcDbCircle
 62
7
  6
CONTINUOUS
 10
137.9562762499
 20
198.3343733343
 40
2.001819385
100
AcDbArc
 50
0.0016587266
 51
3.9050172293
  0
ARC
  5
630
100
AcDbEntity
  8
0
100
AcDbCircle
 62
7
  6
CONTINUOUS
 10
138.1141571257
 20
198.474677552
 40
2.0010505064
100
AcDbArc
 50
0.0019766116
 51
4.038290598
  0
ARC
  5
631
100
AcDbEntity
  8
0
100
AcDbCircle
 62
7
  6
CONTINUOUS
 10
137.1841569947
 20
172.3874562082
 40
1.5080285459
100
AcDbArc
 50
257.5071487255
 51
259.9590073628
  0
ARC
  5
632
100
AcDbEntity
  8
0
100
AcDbCircle
 62
7
  6
CONTINUOUS
 10
137.1836807143
 20
169.1909321923
 40
1.504347523
100
AcDbArc
 50
90.0170751823
 51
102.1360564425
  0
ARC
  5
633
100
AcDbEntity
  8
0
100
AcDbCircle
 62
7
  6
CONTINUOUS
 10
137.1835493106
 20
172.3826819573
 40
1.5032214878
100
AcDbArc
 50
259.9500873369
 51
269.9737920848
  0
ARC
  5
634
100
AcDbEntity
  8
0
100
AcDbCircle
 62
7
  6
CONTINUOUS
 10
139.0385688819
 20
172.3771710719
 40
1.497656931
100
AcDbArc
 50
304.3376440981
 51
312.4674003891
  0
ARC
  5
635
100
AcDbEntity
  8
0
100
AcDbCircle
 62
7
  6
CONTINUOUS
 10
139.0385701871
 20
169.1975712286
 40
1.4976545363
100
AcDbArc
 50
47.5325834513
 51
55.6623535798
  0
ARC
  5
636
100
AcDbEntity
  8
0
100
AcDbCircle
 62
7
  6
CONTINUOUS
 10
139.5270668465
 20
198.4873701376
 40
0.3
100
AcDbArc
 50
180.0
 51
312.7273953131
  0
ARC
  5
637
100
AcDbEntity
  8
0
100
AcDbCircle
 62
7
  6
CONTINUOUS
 10
138.1270668465
 20
198.4873701376
 40
0.3
100
AcDbArc
 50
227.2726046869
 51
360.0
  0
ARC
  5
638
100
AcDbEntity
  8
0
100
AcDbCircle
 62
7
  6
CONTINUOUS
 10
135.7270668465
 20
198.4873701376
 40
0.3
100
AcDbArc
 50
180.0
 51
312.7273953131
  0
ARC
  5
639
100
AcDbEntity
  8
0
100
AcDbCircle
 62
7
  6
CONTINUOUS
 10
134.3270668465
 20
198.4873701376
 40
0.3
100
AcDbArc
 50
227.2726046869
 51
360.0
  0
ARC
  5
63A
100
AcDbEntity
  8
0
100
AcDbCircle
 62
7
  6
CONTINUOUS
 10
131.9270668465
 20
198.4873701376
 40
0.3
100
AcDbArc
 50
180.0
 51
312.7273953131
  0
ARC
  5
63B
100
AcDbEntity
  8
0
100
AcDbCircle
 62
7
  6
CONTINUOUS
 10
130.5270668465
 20
198.4873701376
 40
0.3
100
AcDbArc
 50
227.2726046869
 51
360.0
  0
ARC
  5
63C
100
AcDbEntity
  8
0
100
AcDbCircle
 62
7
  6
CONTINUOUS
 10
128.1270668465
 20
198.4873701376
 40
0.3
100
AcDbArc
 50
180.0
 51
312.7273953131
  0
ARC
  5
63D
100
AcDbEntity
  8
0
100
AcDbCircle
 62
7
  6
CONTINUOUS
 10
126.7270668465
 20
198.4873701376
 40
0.3
100
AcDbArc
 50
227.2726046869
 51
360.0
  0
ARC
  5
63E
100
AcDbEntity
  8
0
100
AcDbCircle
 62
7
  6
CONTINUOUS
 10
145.8770668465
 20
133.7873701376
 40
3.0
100
AcDbArc
 50
191.2476558978
 51
270.0
  0
ARC
  5
63F
100
AcDbEntity
  8
0
100
AcDbCircle
 62
7
  6
CONTINUOUS
 10
147.1270668465
 20
135.0373701376
 40
2.15
100
AcDbArc
 50
121.4428422826
 51
238.7067278066
  0
ARC
  5
640
100
AcDbEntity
  8
0
100
AcDbCircle
 62
7
  6
CONTINUOUS
 10
147.1270668465
 20
135.0373701376
 40
2.15
100
AcDbArc
 50
257.3437295576
 51
102.4644397567
  0
ARC
  5
641
100
AcDbEntity
  8
0
100
AcDbCircle
 62
7
  6
CONTINUOUS
 10
150.1920564499
 20
135.5010658742
 40
1.0052707461
100
AcDbArc
 50
190.6038028021
 51
195.7985798042
  0
ARC
  5
642
100
AcDbEntity
  8
0
100
AcDbCircle
 62
7
  6
CONTINUOUS
 10
147.5852816374
 20
138.0995056505
 40
1.001829545
100
AcDbArc
 50
252.6548674079
 51
267.7375618246
  0
ARC
  5
643
100
AcDbEntity
  8
0
100
AcDbCircle
 62
7
  6
CONTINUOUS
 10
150.1579351597
 20
135.4944378803
 40
0.9705125083
100
AcDbArc
 50
174.8627495877
 51
190.5898745825
  0
ARC
  5
644
100
AcDbEntity
  8
0
100
AcDbCircle
 62
7
  6
CONTINUOUS
 10
151.2912238132
 20
165.6556530883
 40
5.0
100
AcDbArc
 50
262.4592471491
 51
277.3445609653
  0
ARC
  5
645
100
AcDbEntity
  8
0
100
AcDbCircle
 62
7
  6
CONTINUOUS
 10
151.2912238132
 20
165.6556530883
 40
5.0
100
AcDbArc
 50
213.3846158944
 51
253.0510543693
  0
ARC
  5
646
100
AcDbEntity
  8
0
100
AcDbCircle
 62
7
  6
CONTINUOUS
 10
151.7381202226
 20
178.1607006708
 40
5.0
100
AcDbArc
 50
80.0737552621
 51
104.8965192188
  0
ARC
  5
647
100
AcDbEntity
  8
0
100
AcDbCircle
 62
7
  6
CONTINUOUS
 10
151.7381202226
 20
178.1607006708
 40
5.0
100
AcDbArc
 50
111.584925142
 51
166.6784012638
  0
ARC
  5
648
100
AcDbEntity
  8
0
100
AcDbCircle
 62
7
  6
CONTINUOUS
 10
155.1411590373
 20
195.808249454
 40
1.5777610986
100
AcDbArc
 50
32.9069530455
 51
44.6101116895
  0
ARC
  5
649
100
AcDbEntity
  8
0
100
AcDbCircle
 62
7
  6
CONTINUOUS
 10
145.5699750865
 20
169.1872486558
 40
1.5080632334
100
AcDbArc
 50
77.5073696967
 51
79.9591616539
  0
ARC
  5
64A
100
AcDbEntity
  8
0
100
AcDbCircle
 62
7
  6
CONTINUOUS
 10
145.5704529616
 20
172.3838082765
 40
1.5043477165
100
AcDbArc
 50
270.0170758341
 51
282.1360435151
  0
ARC
  5
64B
100
AcDbEntity
  8
0
100
AcDbCircle
 62
7
  6
CONTINUOUS
 10
145.5705732209
 20
169.1919614606
 40
1.5033183445
100
AcDbArc
 50
79.9502926149
 51
89.9738480436
  0
ARC
  5
64C
100
AcDbEntity
  8
0
100
AcDbCircle
 62
7
  6
CONTINUOUS
 10
154.7270668465
 20
198.4873701376
 40
0.3
100
AcDbArc
 50
180.0
 51
312.7273953131
  0
ARC
  5
64D
100
AcDbEntity
  8
0
100
AcDbCircle
 62
7
  6
CONTINUOUS
 10
153.3270668465
 20
198.4873701376
 40
0.3
100
AcDbArc
 50
227.2726046869
 51
360.0
  0
ARC
  5
64E
100
AcDbEntity
  8
0
100
AcDbCircle
 62
7
  6
CONTINUOUS
 10
150.9270668465
 20
198.4873701376
 40
0.3
100
AcDbArc
 50
180.0
 51
312.7273953131
  0
ARC
  5
64F
100
AcDbEntity
  8
0
100
AcDbCircle
 62
7
  6
CONTINUOUS
 10
149.5270668465
 20
198.4873701376
 40
0.3
100
AcDbArc
 50
227.2726046869
 51
360.0
  0
ARC
  5
650
100
AcDbEntity
  8
0
100
AcDbCircle
 62
7
  6
CONTINUOUS
 10
147.1270668465
 20
198.4873701376
 40
0.3
100
AcDbArc
 50
180.0
 51
312.7273953131
  0
ARC
  5
651
100
AcDbEntity
  8
0
100
AcDbCircle
 62
7
  6
CONTINUOUS
 10
145.7270668465
 20
198.4873701376
 40
0.3
100
AcDbArc
 50
227.2726046869
 51
360.0
  0
ARC
  5
652
100
AcDbEntity
  8
0
100
AcDbCircle
 62
7
  6
CONTINUOUS
 10
143.3270668465
 20
198.4873701376
 40
0.3
100
AcDbArc
 50
180.0
 51
312.7273953131
  0
ARC
  5
653
100
AcDbEntity
  8
0
100
AcDbCircle
 62
7
  6
CONTINUOUS
 10
141.9270668465
 20
198.4873701376
 40
0.3
100
AcDbArc
 50
227.2726046869
 51
360.0
  0
ARC
  5
654
100
AcDbEntity
  8
0
100
AcDbCircle
 62
7
  6
CONTINUOUS
 10
164.4285878641
 20
151.8555914329
 40
22.6889002357
100
AcDbArc
 50
227.0918592182
 51
227.9954826398
  0
ARC
  5
655
100
AcDbEntity
  8
0
100
AcDbCircle
 62
7
  6
CONTINUOUS
 10
167.2792836345
 20
142.8461969541
 40
5.0
100
AcDbArc
 50
298.0526036766
 51
328.9445609652
  0
ARC
  5
656
100
AcDbEntity
  8
0
100
AcDbCircle
 62
7
  6
CONTINUOUS
 10
167.2792836345
 20
142.8461969541
 40
5.0
100
AcDbArc
 50
252.9962561109
 51
288.2780521514
  0
ARC
  5
657
100
AcDbEntity
  8
0
100
AcDbCircle
 62
7
  6
CONTINUOUS
 10
167.2792836345
 20
142.8461969541
 40
5.0
100
AcDbArc
 50
240.8281499601
 51
243.0924722955
  0
ARC
  5
658
100
AcDbEntity
  8
0
100
AcDbCircle
 62
7
  6
CONTINUOUS
 10
157.7567483733
 20
150.9639092943
 40
5.0
100
AcDbArc
 50
150.647412723
 51
212.074862584
  0
ARC
  5
659
100
AcDbEntity
  8
0
100
AcDbCircle
 62
7
  6
CONTINUOUS
 10
159.1607619005
 20
192.2707795436
 40
5.0
100
AcDbArc
 50
198.2115753484
 51
225.9445609652
  0
ARC
  5
65A
100
AcDbEntity
  8
0
100
AcDbCircle
 62
7
  6
CONTINUOUS
 10
159.1607619005
 20
192.2707795436
 40
5.0
100
AcDbArc
 50
137.8281499602
 51
162.5301862293
  0
ARC
  5
65B
100
AcDbEntity
  8
0
100
AcDbCircle
 62
7
  6
CONTINUOUS
 10
173.7270668465
 20
198.4873701376
 40
0.3
100
AcDbArc
 50
180.0
 51
312.7273953131
  0
ARC
  5
65C
100
AcDbEntity
  8
0
100
AcDbCircle
 62
7
  6
CONTINUOUS
 10
172.3270668465
 20
198.4873701376
 40
0.3
100
AcDbArc
 50
227.2726046869
 51
360.0
  0
ARC
  5
65D
100
AcDbEntity
  8
0
100
AcDbCircle
 62
7
  6
CONTINUOUS
 10
169.9270668465
 20
198.4873701376
 40
0.3
100
AcDbArc
 50
180.0
 51
312.7273953131
  0
ARC
  5
65E
100
AcDbEntity
  8
0
100
AcDbCircle
 62
7
  6
CONTINUOUS
 10
168.5270668465
 20
198.4873701376
 40
0.3
100
AcDbArc
 50
227.2726046869
 51
360.0
  0
ARC
  5
65F
100
AcDbEntity
  8
0
100
AcDbCircle
 62
7
  6
CONTINUOUS
 10
166.1270668465
 20
198.4873701376
 40
0.3
100
AcDbArc
 50
180.0
 51
312.7273953131
  0
ARC
  5
660
100
AcDbEntity
  8
0
100
AcDbCircle
 62
7
  6
CONTINUOUS
 10
164.7270668465
 20
198.4873701376
 40
0.3
100
AcDbArc
 50
227.2726046869
 51
360.0
  0
ARC
  5
661
100
AcDbEntity
  8
0
100
AcDbCircle
 62
7
  6
CONTINUOUS
 10
162.3270668465
 20
198.4873701376
 40
0.3
100
AcDbArc
 50
180.0
 51
312.7273953131
  0
ARC
  5
662
100
AcDbEntity
  8
0
100
AcDbCircle
 62
7
  6
CONTINUOUS
 10
160.9270668465
 20
198.4873701376
 40
0.3
100
AcDbArc
 50
227.2726046869
 51
360.0
  0
ARC
  5
663
100
AcDbEntity
  8
0
100
AcDbCircle
 62
7
  6
CONTINUOUS
 10
158.5270668465
 20
198.4873701376
 40
0.3
100
AcDbArc
 50
180.0
 51
312.7273953131
  0
ARC
  5
664
100
AcDbEntity
  8
0
100
AcDbCircle
 62
7
  6
CONTINUOUS
 10
157.1270668465
 20
198.4873701376
 40
0.3
100
AcDbArc
 50
227.2726046869
 51
360.0
  0
ARC
  5
665
100
AcDbEntity
  8
0
100
AcDbCircle
 62
7
  6
CONTINUOUS
 10
182.6974531715
 20
138.7878742208
 40
5.0
100
AcDbArc
 50
183.0737552621
 51
240.0917357503
  0
ARC
  5
666
100
AcDbEntity
  8
0
100
AcDbCircle
 62
7
  6
CONTINUOUS
 10
182.6974531715
 20
138.7878742208
 40
5.0
100
AcDbArc
 50
247.2338814855
 51
269.6784012638
  0
ARC
  5
667
100
AcDbEntity
  8
0
100
AcDbCircle
 62
7
  6
CONTINUOUS
 10
184.4757812299
 20
133.4805805485
 40
1.5066242226
100
AcDbArc
 50
167.1362947611
 51
179.9621734542
  0
ARC
  5
668
100
AcDbEntity
  8
0
100
AcDbCircle
 62
7
  6
CONTINUOUS
 10
181.2807005119
 20
133.4807674754
 40
1.504275909
100
AcDbArc
 50
0.0166491921
 51
12.0279285072
  0
ARC
  5
669
100
AcDbEntity
  8
0
100
AcDbCircle
 62
7
  6
CONTINUOUS
 10
191.8772191746
 20
124.6873701376
 40
1.0
100
AcDbArc
 50
180.9999999999
 51
270.0
  0
ARC
  5
66A
100
AcDbEntity
  8
0
100
AcDbCircle
 62
7
  6
CONTINUOUS
 10
179.9270668465
 20
198.4873701376
 40
0.3
100
AcDbArc
 50
227.2726046869
 51
360.0
  0
ARC
  5
66B
100
AcDbEntity
  8
0
100
AcDbCircle
 62
7
  6
CONTINUOUS
 10
177.5270668465
 20
198.4873701376
 40
0.3
100
AcDbArc
 50
180.0
 51
312.7273953131
  0
ARC
  5
66C
100
AcDbEntity
  8
0
100
AcDbCircle
 62
7
  6
CONTINUOUS
 10
176.1270668465
 20
198.4873701376
 40
0.3
100
AcDbArc
 50
227.2726046869
 51
360.0
  0
ARC
  5
66D
100
AcDbEntity
  8
0
100
AcDbCircle
 62
7
  6
CONTINUOUS
 10
182.8770668465
 20
170.7873701376
 40
51.0
100
AcDbArc
 50
224.9946058339
 51
227.3136154749
  0
ARC
  5
66E
100
AcDbEntity
  8
0
100
AcDbCircle
 62
7
  6
CONTINUOUS
 10
182.8770668465
 20
170.7873701376
 40
51.0
100
AcDbArc
 50
222.7226297287
 51
223.7180921289
  0
ARC
  5
66F
100
AcDbEntity
  8
0
100
AcDbCircle
 62
7
  6
CONTINUOUS
 10
182.8770668465
 20
170.7873701376
 40
50.9214422353
100
AcDbArc
 50
222.699930264
 51
223.6248385141
  0
ARC
  5
670
100
AcDbEntity
  8
0
100
AcDbCircle
 62
7
  6
CONTINUOUS
 10
182.8770668465
 20
170.7873701376
 40
50.9214422353
100
AcDbArc
 50
224.9033772426
 51
227.3506507187
  0
ARC
  5
671
100
AcDbEntity
  8
0
100
AcDbCircle
 62
7
  6
CONTINUOUS
 10
182.8770668465
 20
170.7873701376
 40
49.209524617
100
AcDbArc
 50
234.662548399
 51
235.0802359452
  0
ARC
  5
672
100
AcDbEntity
  8
0
100
AcDbCircle
 62
7
  6
CONTINUOUS
 10
182.8770668465
 20
170.7873701376
 40
49.209524617
100
AcDbArc
 50
223.1360033921
 51
226.8453431797
  0
ARC
  5
673
100
AcDbEntity
  8
0
100
AcDbCircle
 62
7
  6
CONTINUOUS
 10
182.8770668465
 20
170.7873701376
 40
49.1222226932
100
AcDbArc
 50
224.1062229493
 51
225.8937366751
  0
ARC
  5
674
100
AcDbEntity
  8
0
100
AcDbCircle
 62
7
  6
CONTINUOUS
 10
182.8770668465
 20
170.7873701376
 40
49.0
100
AcDbArc
 50
234.726171318
 51
235.0001578122
  0
ARC
  5
675
100
AcDbEntity
  8
0
100
AcDbCircle
 62
7
  6
CONTINUOUS
 10
182.886804736
 20
170.7776322481
 40
45.0142684436
100
AcDbArc
 50
145.4572145814
 51
149.3122482859
  0
ARC
  5
676
100
AcDbEntity
  8
0
100
AcDbCircle
 62
7
  6
CONTINUOUS
 10
182.886804736
 20
170.7776322481
 40
45.0142684436
100
AcDbArc
 50
142.3028377138
 51
143.7957799161
  0
ARC
  5
677
100
AcDbEntity
  8
0
100
AcDbCircle
 62
7
  6
CONTINUOUS
 10
182.886804736
 20
170.7971080271
 40
45.0142684436
100
AcDbArc
 50
236.5794152043
 51
239.312248286
  0
ARC
  5
678
100
AcDbEntity
  8
0
100
AcDbCircle
 62
7
  6
CONTINUOUS
 10
182.886804736
 20
170.7971080271
 40
45.0142684436
100
AcDbArc
 50
230.4474996479
 51
235.2871457941
  0
ARC
  5
679
100
AcDbEntity
  8
0
100
AcDbCircle
 62
7
  6
CONTINUOUS
 10
182.886804736
 20
170.7971080271
 40
45.0142684436
100
AcDbArc
 50
224.1066001811
 51
229.1536320435
  0
ARC
  5
67A
100
AcDbEntity
  8
0
100
AcDbCircle
 62
7
  6
CONTINUOUS
 10
182.886804736
 20
170.7971080271
 40
45.0142684436
100
AcDbArc
 50
216.2042200839
 51
222.442084893
  0
ARC
  5
67B
100
AcDbEntity
  8
0
100
AcDbCircle
 62
7
  6
CONTINUOUS
 10
182.886804736
 20
170.7971080271
 40
45.0142684436
100
AcDbArc
 50
210.6877517141
 51
214.5427854186
  0
ARC
  5
67C
100
AcDbEntity
  8
0
100
AcDbCircle
 62
7
  6
CONTINUOUS
 10
182.8770668465
 20
170.7873701376
 40
38.7
100
AcDbArc
 50
272.9176547123
 51
281.7571015646
  0
ARC
  5
67D
100
AcDbEntity
  8
0
100
AcDbCircle
 62
7
  6
CONTINUOUS
 10
182.8770668465
 20
170.7873701376
 40
38.7
100
AcDbArc
 50
267.2319733512
 51
270.0000013559
  0
ARC
  5
67E
100
AcDbEntity
  8
0
100
AcDbCircle
 62
7
  6
CONTINUOUS
 10
182.8770668465
 20
170.7873701376
 40
38.7
100
AcDbArc
 50
261.5429111848
 51
266.0346556813
  0
ARC
  5
67F
100
AcDbEntity
  8
0
100
AcDbCircle
 62
7
  6
CONTINUOUS
 10
182.8770668465
 20
170.7873701376
 40
38.7
100
AcDbArc
 50
255.8492641038
 51
260.3446023256
  0
ARC
  5
680
100
AcDbEntity
  8
0
100
AcDbCircle
 62
7
  6
CONTINUOUS
 10
182.8770668465
 20
170.7873701376
 40
38.7
100
AcDbArc
 50
249.8050528984
 51
254.6237458145
  0
ARC
  5
681
100
AcDbEntity
  8
0
100
AcDbCircle
 62
7
  6
CONTINUOUS
 10
182.8770668465
 20
170.7873701376
 40
38.7
100
AcDbArc
 50
243.6984223218
 51
248.5196978105
  0
ARC
  5
682
100
AcDbEntity
  8
0
100
AcDbCircle
 62
7
  6
CONTINUOUS
 10
182.8770668465
 20
170.7873701376
 40
38.7
100
AcDbArc
 50
237.192094875
 51
242.4124338429
  0
ARC
  5
683
100
AcDbEntity
  8
0
100
AcDbCircle
 62
7
  6
CONTINUOUS
 10
182.8770668465
 20
170.7873701376
 40
38.7
100
AcDbArc
 50
230.0812034354
 51
235.6951823674
  0
ARC
  5
684
100
AcDbEntity
  8
0
100
AcDbCircle
 62
7
  6
CONTINUOUS
 10
182.8770668465
 20
170.7873701376
 40
38.7
100
AcDbArc
 50
222.352992637
 51
228.5839868993
  0
ARC
  5
685
100
AcDbEntity
  8
0
100
AcDbCircle
 62
7
  6
CONTINUOUS
 10
182.8770668465
 20
170.7873701376
 40
38.7
100
AcDbArc
 50
213.0826517762
 51
220.4011423338
  0
ARC
  5
686
100
AcDbEntity
  8
0
100
AcDbCircle
 62
7
  6
CONTINUOUS
 10
182.8770668465
 20
170.7873701376
 40
38.7
100
AcDbArc
 50
200.1604727267
 51
211.1313921554
  0
ARC
  5
687
100
AcDbEntity
  8
0
100
AcDbCircle
 62
7
  6
CONTINUOUS
 10
182.8770668465
 20
170.7873701376
 40
38.7
100
AcDbArc
 50
190.9966693795
 51
197.0550066754
  0
ARC
  5
688
100
AcDbEntity
  8
0
100
AcDbCircle
 62
7
  6
CONTINUOUS
 10
182.8770668465
 20
170.7873701376
 40
38.7
100
AcDbArc
 50
162.944824783
 51
186.195473629
  0
ARC
  5
689
100
AcDbEntity
  8
0
100
AcDbCircle
 62
7
  6
CONTINUOUS
 10
182.8770668465
 20
170.7873701376
 40
38.7
100
AcDbArc
 50
148.8684231786
 51
159.8394673271
  0
ARC
  5
68A
100
AcDbEntity
  8
0
100
AcDbCircle
 62
7
  6
CONTINUOUS
 10
182.8770668465
 20
170.7873701376
 40
38.7
100
AcDbArc
 50
139.5989145469
 51
146.9172052127
  0
ARC
  5
68B
100
AcDbEntity
  8
0
100
AcDbCircle
 62
7
  6
CONTINUOUS
 10
182.8770668465
 20
170.7873701376
 40
38.7
100
AcDbArc
 50
133.4300502337
 51
137.6471287868
  0
ARC
  5
68C
100
AcDbEntity
  8
0
100
AcDbCircle
 62
7
  6
CONTINUOUS
 10
182.8770668465
 20
170.7873701376
 40
37.0
100
AcDbArc
 50
219.7068396635
 51
226.5246733612
  0
ARC
  5
68D
100
AcDbEntity
  8
0
100
AcDbCircle
 62
7
  6
CONTINUOUS
 10
182.8770668465
 20
170.7873701376
 40
37.0
100
AcDbArc
 50
228.2084017039
 51
234.1848861622
  0
ARC
  5
68E
100
AcDbEntity
  8
0
100
AcDbCircle
 62
7
  6
CONTINUOUS
 10
182.8770668465
 20
170.7873701376
 40
37.0
100
AcDbArc
 50
235.6993573569
 51
240.8281499602
  0
ARC
  5
68F
100
AcDbEntity
  8
0
100
AcDbCircle
 62
7
  6
CONTINUOUS
 10
182.8770668465
 20
170.7873701376
 40
37.0
100
AcDbArc
 50
269.6784012638
 51
271.7939346014
  0
ARC
  5
690
100
AcDbEntity
  8
0
100
AcDbCircle
 62
7
  6
CONTINUOUS
 10
182.8770668465
 20
170.7873701376
 40
37.0
100
AcDbArc
 50
273.03128828
 51
282.2239110955
  0
ARC
  5
691
100
AcDbEntity
  8
0
100
AcDbCircle
 62
7
  6
CONTINUOUS
 10
182.8770668465
 20
170.7873701376
 40
37.0
100
AcDbArc
 50
133.490761394
 51
137.8281499602
  0
ARC
  5
692
100
AcDbEntity
  8
0
100
AcDbCircle
 62
7
  6
CONTINUOUS
 10
182.8770668465
 20
170.7873701376
 40
37.0
100
AcDbArc
 50
175.0702648029
 51
184.9436006919
  0
ARC
  5
693
100
AcDbEntity
  8
0
100
AcDbCircle
 62
7
  6
CONTINUOUS
 10
182.8770668465
 20
170.7873701376
 40
36.5
100
AcDbArc
 50
153.2863466084
 51
165.4333040751
  0
ARC
  5
694
100
AcDbEntity
  8
0
100
AcDbCircle
 62
7
  6
CONTINUOUS
 10
182.8770668465
 20
170.7873701376
 40
36.5
100
AcDbArc
 50
142.9833488485
 51
149.9992523149
  0
ARC
  5
695
100
AcDbEntity
  8
0
100
AcDbCircle
 62
7
  6
CONTINUOUS
 10
182.8770668465
 20
170.7873701376
 40
36.5
100
AcDbArc
 50
210.0014892637
 51
215.0631789184
  0
ARC
  5
696
100
AcDbEntity
  8
0
100
AcDbCircle
 62
7
  6
CONTINUOUS
 10
182.8770668465
 20
170.7873701376
 40
36.5
100
AcDbArc
 50
191.8102796646
 51
206.7129370295
  0
ARC
  5
697
100
AcDbEntity
  8
0
100
AcDbCircle
 62
7
  6
CONTINUOUS
 10
182.8770668465
 20
170.7873701376
 40
36.5
100
AcDbArc
 50
262.0508904496
 51
266.0559814524
  0
ARC
  5
698
100
AcDbEntity
  8
0
100
AcDbCircle
 62
7
  6
CONTINUOUS
 10
182.8770668465
 20
170.7873701376
 40
36.5
100
AcDbArc
 50
256.9882074413
 51
260.9857877037
  0
ARC
  5
699
100
AcDbEntity
  8
0
100
AcDbCircle
 62
7
  6
CONTINUOUS
 10
182.8770668465
 20
170.7873701376
 40
36.5
100
AcDbArc
 50
249.314377812
 51
255.9190494155
  0
ARC
  5
69A
100
AcDbEntity
  8
0
100
AcDbCircle
 62
7
  6
CONTINUOUS
 10
182.8770668465
 20
170.7873701376
 40
36.3414051614
100
AcDbArc
 50
243.3025003311
 51
246.8719451121
  0
ARC
  5
69B
100
AcDbEntity
  8
0
100
AcDbCircle
 62
7
  6
CONTINUOUS
 10
182.8770668465
 20
170.7873701376
 40
36.3414051614
100
AcDbArc
 50
249.1459557848
 51
255.897990636
  0
ARC
  5
69C
100
AcDbEntity
  8
0
100
AcDbCircle
 62
7
  6
CONTINUOUS
 10
182.8770668465
 20
170.7873701376
 40
36.3414051614
100
AcDbArc
 50
256.970002938
 51
260.9900490705
  0
ARC
  5
69D
100
AcDbEntity
  8
0
100
AcDbCircle
 62
7
  6
CONTINUOUS
 10
182.8770668465
 20
170.7873701376
 40
36.3414051614
100
AcDbArc
 50
262.0620613725
 51
265.4772604024
  0
ARC
  5
69E
100
AcDbEntity
  8
0
100
AcDbCircle
 62
7
  6
CONTINUOUS
 10
182.8770668465
 20
170.7873701376
 40
36.3414051594
100
AcDbArc
 50
192.081415509
 51
205.7074182698
  0
ARC
  5
69F
100
AcDbEntity
  8
0
100
AcDbCircle
 62
7
  6
CONTINUOUS
 10
182.8770668465
 20
170.7873701376
 40
36.3414051594
100
AcDbArc
 50
209.714940599
 51
214.7451084109
  0
ARC
  5
6A0
100
AcDbEntity
  8
0
100
AcDbCircle
 62
7
  6
CONTINUOUS
 10
182.8770668465
 20
170.7873701376
 40
36.3414051292
100
AcDbArc
 50
143.2553681492
 51
150.2850594534
  0
ARC
  5
6A1
100
AcDbEntity
  8
0
100
AcDbCircle
 62
7
  6
CONTINUOUS
 10
182.8770668465
 20
170.7873701376
 40
36.3414051292
100
AcDbArc
 50
154.292581944
 51
165.0592069609
  0
ARC
  5
6A2
100
AcDbEntity
  8
0
100
AcDbCircle
 62
7
  6
CONTINUOUS
 10
182.8770668465
 20
170.7873701376
 40
35.8420567137
100
AcDbArc
 50
248.6226293653
 51
255.7068562772
  0
ARC
  5
6A3
100
AcDbEntity
  8
0
100
AcDbCircle
 62
7
  6
CONTINUOUS
 10
182.8770668465
 20
170.7873701376
 40
35.8420567137
100
AcDbArc
 50
256.795417741
 51
260.865875598
  0
ARC
  5
6A4
100
AcDbEntity
  8
0
100
AcDbCircle
 62
7
  6
CONTINUOUS
 10
182.8770668465
 20
170.7873701376
 40
35.8420567137
100
AcDbArc
 50
261.9498861136
 51
264.4199225374
  0
ARC
  5
6A5
100
AcDbEntity
  8
0
100
AcDbCircle
 62
7
  6
CONTINUOUS
 10
182.8770668465
 20
170.7873701376
 40
35.8420559979
100
AcDbArc
 50
192.9224496615
 51
202.517637312
  0
ARC
  5
6A6
100
AcDbEntity
  8
0
100
AcDbCircle
 62
7
  6
CONTINUOUS
 10
182.8770668465
 20
170.7873701376
 40
35.8420559979
100
AcDbArc
 50
208.1344596254
 51
213.9269260923
  0
ARC
  5
6A7
100
AcDbEntity
  8
0
100
AcDbCircle
 62
7
  6
CONTINUOUS
 10
182.8770668465
 20
170.7873701376
 40
35.8420452846
100
AcDbArc
 50
144.214243684
 51
151.8655458742
  0
ARC
  5
6A8
100
AcDbEntity
  8
0
100
AcDbCircle
 62
7
  6
CONTINUOUS
 10
182.8770668465
 20
170.7873701376
 40
35.1578647915
100
AcDbArc
 50
145.6017175278
 51
156.2383477211
  0
ARC
  5
6A9
100
AcDbEntity
  8
0
100
AcDbCircle
 62
7
  6
CONTINUOUS
 10
182.8770668465
 20
170.7873701376
 40
35.1578613999
100
AcDbArc
 50
261.758359133
 51
263.6022514592
  0
ARC
  5
6AA
100
AcDbEntity
  8
0
100
AcDbCircle
 62
7
  6
CONTINUOUS
 10
182.8770668465
 20
170.7873701376
 40
35.1578613999
100
AcDbArc
 50
256.500704222
 51
260.6527474003
  0
ARC
  5
6AB
100
AcDbEntity
  8
0
100
AcDbCircle
 62
7
  6
CONTINUOUS
 10
182.8770668465
 20
170.7873701376
 40
35.1578613999
100
AcDbArc
 50
247.8669992106
 51
255.3904828391
  0
ARC
  5
6AC
100
AcDbEntity
  8
0
100
AcDbCircle
 62
7
  6
CONTINUOUS
 10
182.8770668465
 20
170.7873701376
 40
35.1578613729
100
AcDbArc
 50
203.7616297704
 51
213.2090395963
  0
ARC
  5
6AD
100
AcDbEntity
  8
0
100
AcDbCircle
 62
7
  6
CONTINUOUS
 10
182.8770668465
 20
170.7873701376
 40
35.1578613729
100
AcDbArc
 50
193.8416474407
 51
198.0266029113
  0
ARC
  5
6AE
100
AcDbEntity
  8
0
100
AcDbCircle
 62
7
  6
CONTINUOUS
 10
182.8770668465
 20
170.7873701376
 40
34.6585946211
100
AcDbArc
 50
146.6263133184
 51
159.5700416765
  0
ARC
  5
6AF
100
AcDbEntity
  8
0
100
AcDbCircle
 62
7
  6
CONTINUOUS
 10
182.8770668465
 20
170.7873701376
 40
34.6585946119
100
AcDbArc
 50
261.6519204089
 51
263.1115409304
  0
ARC
  5
6B0
100
AcDbEntity
  8
0
100
AcDbCircle
 62
7
  6
CONTINUOUS
 10
182.8770668465
 20
170.7873701376
 40
34.6585946119
100
AcDbArc
 50
256.3105032905
 51
260.5274115533
  0
ARC
  5
6B1
100
AcDbEntity
  8
0
100
AcDbCircle
 62
7
  6
CONTINUOUS
 10
182.8770668465
 20
170.7873701376
 40
34.6585946119
100
AcDbArc
 50
248.4581927381
 51
255.1859944074
  0
ARC
  5
6B2
100
AcDbEntity
  8
0
100
AcDbCircle
 62
7
  6
CONTINUOUS
 10
182.8770668465
 20
170.7873701376
 40
34.6585946118
100
AcDbArc
 50
200.4299582337
 51
212.7430522276
  0
ARC
  5
6B3
100
AcDbEntity
  8
0
100
AcDbCircle
 62
7
  6
CONTINUOUS
 10
182.8770668465
 20
170.7873701376
 40
34.5
100
AcDbArc
 50
248.7574309745
 51
255.0707102881
  0
ARC
  5
6B4
100
AcDbEntity
  8
0
100
AcDbCircle
 62
7
  6
CONTINUOUS
 10
182.8770668465
 20
170.7873701376
 40
34.5
100
AcDbArc
 50
256.2026238071
 51
260.4364466473
  0
ARC
  5
6B5
100
AcDbEntity
  8
0
100
AcDbCircle
 62
7
  6
CONTINUOUS
 10
182.8770668465
 20
170.7873701376
 40
34.5
100
AcDbArc
 50
146.9954872886
 51
160.456689331
  0
ARC
  5
6B6
100
AcDbEntity
  8
0
100
AcDbCircle
 62
7
  6
CONTINUOUS
 10
182.8770668465
 20
170.7873701376
 40
34.5
100
AcDbArc
 50
199.3664591608
 51
212.5499001782
  0
ARC
  5
6B7
100
AcDbEntity
  8
0
100
AcDbCircle
 62
7
  6
CONTINUOUS
 10
182.8770668465
 20
170.7873701376
 40
29.0
100
AcDbArc
 50
104.5360019154
 51
104.7123303191
  0
ARC
  5
6B8
100
AcDbEntity
  8
0
100
AcDbCircle
 62
7
  6
CONTINUOUS
 10
182.8770668465
 20
170.7873701376
 40
29.0
100
AcDbArc
 50
258.5935130643
 51
259.1088677716
  0
ARC
  5
6B9
100
AcDbEntity
  8
0
100
AcDbCircle
 62
7
  6
CONTINUOUS
 10
182.8770668465
 20
170.7873701376
 40
29.0
100
AcDbArc
 50
251.1155250502
 51
256.9724461001
  0
ARC
  5
6BA
100
AcDbEntity
  8
0
100
AcDbCircle
 62
7
  6
CONTINUOUS
 10
182.8770668465
 20
170.7873701376
 40
29.0
100
AcDbArc
 50
152.4962279153
 51
156.246224868
  0
ARC
  5
6BB
100
AcDbEntity
  8
0
100
AcDbCircle
 62
7
  6
CONTINUOUS
 10
182.8770668465
 20
170.7873701376
 40
29.0
100
AcDbArc
 50
148.1572586614
 51
149.473825399
  0
ARC
  5
6BC
100
AcDbEntity
  8
0
100
AcDbCircle
 62
7
  6
CONTINUOUS
 10
182.8770668465
 20
170.7873701376
 40
29.0
100
AcDbArc
 50
200.4437334046
 51
207.5049805407
  0
ARC
  5
6BD
100
AcDbEntity
  8
0
100
AcDbCircle
 62
7
  6
CONTINUOUS
 10
182.8770668465
 20
170.7873701376
 40
28.8414051887
100
AcDbArc
 50
104.3209777673
 51
104.6321045932
  0
ARC
  5
6BE
100
AcDbEntity
  8
0
100
AcDbCircle
 62
7
  6
CONTINUOUS
 10
182.8770668465
 20
170.7873701376
 40
28.8414051747
100
AcDbArc
 50
148.2283647774
 51
150.0193529658
  0
ARC
  5
6BF
100
AcDbEntity
  8
0
100
AcDbCircle
 62
7
  6
CONTINUOUS
 10
182.8770668465
 20
170.7873701376
 40
28.8414051747
100
AcDbArc
 50
153.0441634113
 51
156.1595234498
  0
ARC
  5
6C0
100
AcDbEntity
  8
0
100
AcDbCircle
 62
7
  6
CONTINUOUS
 10
182.8770668465
 20
170.7873701376
 40
28.8414051443
100
AcDbArc
 50
251.1908519261
 51
256.8950291663
  0
ARC
  5
6C1
100
AcDbEntity
  8
0
100
AcDbCircle
 62
7
  6
CONTINUOUS
 10
182.8770668465
 20
170.7873701376
 40
28.8414051443
100
AcDbArc
 50
258.5315264888
 51
259.0321861507
  0
ARC
  5
6C2
100
AcDbEntity
  8
0
100
AcDbCircle
 62
7
  6
CONTINUOUS
 10
182.8770668465
 20
170.7873701376
 40
28.8414051441
100
AcDbArc
 50
200.6438696738
 51
206.9558365307
  0
ARC
  5
6C3
100
AcDbEntity
  8
0
100
AcDbCircle
 62
7
  6
CONTINUOUS
 10
182.8770668465
 20
170.7873701376
 40
28.3420666283
100
AcDbArc
 50
97.3138248523
 51
98.2580352078
  0
ARC
  5
6C4
100
AcDbEntity
  8
0
100
AcDbCircle
 62
7
  6
CONTINUOUS
 10
182.8770668465
 20
170.7873701376
 40
28.3420666283
100
AcDbArc
 50
104.2030642653
 51
104.3752585163
  0
ARC
  5
6C5
100
AcDbEntity
  8
0
100
AcDbCircle
 62
7
  6
CONTINUOUS
 10
182.8770668465
 20
170.7873701376
 40
28.3420616792
100
AcDbArc
 50
148.4439232087
 51
151.6583690605
  0
ARC
  5
6C6
100
AcDbEntity
  8
0
100
AcDbCircle
 62
7
  6
CONTINUOUS
 10
182.8770668465
 20
170.7873701376
 40
28.3420616792
100
AcDbArc
 50
154.7430654812
 51
155.9023450841
  0
ARC
  5
6C7
100
AcDbEntity
  8
0
100
AcDbCircle
 62
7
  6
CONTINUOUS
 10
182.8770668465
 20
170.7873701376
 40
28.3420509092
100
AcDbArc
 50
251.4122814041
 51
256.6654600758
  0
ARC
  5
6C8
100
AcDbEntity
  8
0
100
AcDbCircle
 62
7
  6
CONTINUOUS
 10
182.8770668465
 20
170.7873701376
 40
28.3420509092
100
AcDbArc
 50
258.3236980117
 51
258.7740679001
  0
ARC
  5
6C9
100
AcDbEntity
  8
0
100
AcDbCircle
 62
7
  6
CONTINUOUS
 10
182.8770668465
 20
170.7873701376
 40
28.3420508408
100
AcDbArc
 50
201.2986544799
 51
205.2568618615
  0
ARC
  5
6CA
100
AcDbEntity
  8
0
100
AcDbCircle
 62
7
  6
CONTINUOUS
 10
182.8770668465
 20
170.7873701376
 40
27.657890522
100
AcDbArc
 50
202.127339089
 51
204.7640319817
  0
ARC
  5
6CB
100
AcDbEntity
  8
0
100
AcDbCircle
 62
7
  6
CONTINUOUS
 10
182.8770668465
 20
170.7873701376
 40
27.657890522
100
AcDbArc
 50
147.7739946697
 51
152.395379688
  0
ARC
  5
6CC
100
AcDbEntity
  8
0
100
AcDbCircle
 62
7
  6
CONTINUOUS
 10
182.8770668465
 20
170.7873701376
 40
27.6578646657
100
AcDbArc
 50
258.0407759461
 51
258.4251785471
  0
ARC
  5
6CD
100
AcDbEntity
  8
0
100
AcDbCircle
 62
7
  6
CONTINUOUS
 10
182.8770668465
 20
170.7873701376
 40
27.6578646657
100
AcDbArc
 50
251.725988111
 51
256.3399820227
  0
ARC
  5
6CE
100
AcDbEntity
  8
0
100
AcDbCircle
 62
7
  6
CONTINUOUS
 10
182.8770668465
 20
170.7873701376
 40
27.6578477275
100
AcDbArc
 50
103.6598704328
 51
104.0265871449
  0
ARC
  5
6CF
100
AcDbEntity
  8
0
100
AcDbCircle
 62
7
  6
CONTINUOUS
 10
182.8770668465
 20
170.7873701376
 40
27.6578477275
100
AcDbArc
 50
97.3404343822
 51
101.9590744377
  0
ARC
  5
6D0
100
AcDbEntity
  8
0
100
AcDbCircle
 62
7
  6
CONTINUOUS
 10
182.8770668465
 20
170.7873701376
 40
27.1585946915
100
AcDbArc
 50
147.2836738267
 51
152.5340449098
  0
ARC
  5
6D1
100
AcDbEntity
  8
0
100
AcDbCircle
 62
7
  6
CONTINUOUS
 10
182.8770668465
 20
170.7873701376
 40
27.1585946209
100
AcDbArc
 50
257.822586927
 51
258.1560318902
  0
ARC
  5
6D2
100
AcDbEntity
  8
0
100
AcDbCircle
 62
7
  6
CONTINUOUS
 10
182.8770668465
 20
170.7873701376
 40
27.1585946209
100
AcDbArc
 50
251.9704574532
 51
256.083716885
  0
ARC
  5
6D3
100
AcDbEntity
  8
0
100
AcDbCircle
 62
7
  6
CONTINUOUS
 10
182.8770668465
 20
170.7873701376
 40
27.1585945746
100
AcDbArc
 50
97.5681260898
 51
102.1774132407
  0
ARC
  5
6D4
100
AcDbEntity
  8
0
100
AcDbCircle
 62
7
  6
CONTINUOUS
 10
182.8770668465
 20
170.7873701376
 40
27.0
100
AcDbArc
 50
206.5198565249
 51
209.1157201388
  0
ARC
  5
6D5
100
AcDbEntity
  8
0
100
AcDbCircle
 62
7
  6
CONTINUOUS
 10
182.8770668465
 20
170.7873701376
 40
27.0
100
AcDbArc
 50
147.4113635276
 51
152.6186950989
  0
ARC
  5
6D6
100
AcDbEntity
  8
0
100
AcDbCircle
 62
7
  6
CONTINUOUS
 10
182.8770668465
 20
170.7873701376
 40
27.0
100
AcDbArc
 50
97.6488590043
 51
102.24676315
  0
ARC
  5
6D7
100
AcDbEntity
  8
0
100
AcDbCircle
 62
7
  6
CONTINUOUS
 10
182.8770668465
 20
170.7873701376
 40
27.0
100
AcDbArc
 50
252.0438054508
 51
256.0094459766
  0
ARC
  5
6D8
100
AcDbEntity
  8
0
100
AcDbCircle
 62
7
  6
CONTINUOUS
 10
182.8770668465
 20
170.7873701376
 40
27.0
100
AcDbArc
 50
257.7532502741
 51
258.0703589764
  0
ARC
  5
6D9
100
AcDbEntity
  8
0
100
AcDbCircle
 62
7
  6
CONTINUOUS
 10
182.8770668465
 20
170.7873701376
 40
16.5
100
AcDbArc
 50
255.5978508132
 51
262.7879063461
  0
ARC
  5
6DA
100
AcDbEntity
  8
0
100
AcDbCircle
 62
7
  6
CONTINUOUS
 10
182.8770668465
 20
170.7873701376
 40
16.5
100
AcDbArc
 50
266.7149555084
 51
275.3928174987
  0
ARC
  5
6DB
100
AcDbEntity
  8
0
100
AcDbCircle
 62
7
  6
CONTINUOUS
 10
182.8770668465
 20
170.7873701376
 40
16.5
100
AcDbArc
 50
277.3506022921
 51
298.3097322381
  0
ARC
  5
6DC
100
AcDbEntity
  8
0
100
AcDbCircle
 62
7
  6
CONTINUOUS
 10
182.8770668465
 20
170.7873701376
 40
16.5
100
AcDbArc
 50
216.6790955542
 51
220.5010495858
  0
ARC
  5
6DD
100
AcDbEntity
  8
0
100
AcDbCircle
 62
7
  6
CONTINUOUS
 10
182.8770668465
 20
170.7873701376
 40
16.5
100
AcDbArc
 50
149.0053733889
 51
212.3548345065
  0
ARC
  5
6DE
100
AcDbEntity
  8
0
100
AcDbCircle
 62
7
  6
CONTINUOUS
 10
182.8770668465
 20
170.7873701376
 40
16.5
100
AcDbArc
 50
64.7947444282
 51
83.1451516184
  0
ARC
  5
6DF
100
AcDbEntity
  8
0
100
AcDbCircle
 62
7
  6
CONTINUOUS
 10
182.8770668465
 20
170.7873701376
 40
16.5
100
AcDbArc
 50
85.9385030762
 51
96.4817125371
  0
ARC
  5
6E0
100
AcDbEntity
  8
0
100
AcDbCircle
 62
7
  6
CONTINUOUS
 10
182.8770668465
 20
170.7873701376
 40
16.5
100
AcDbArc
 50
99.3646855005
 51
110.1539617802
  0
ARC
  5
6E1
100
AcDbEntity
  8
0
100
AcDbCircle
 62
7
  6
CONTINUOUS
 10
182.8770668465
 20
170.7873701376
 40
16.5
100
AcDbArc
 50
113.0471575228
 51
113.9085721613
  0
ARC
  5
6E2
100
AcDbEntity
  8
0
100
AcDbCircle
 62
7
  6
CONTINUOUS
 10
185.1270668465
 20
198.4873701376
 40
0.3
100
AcDbArc
 50
180.0
 51
312.7273953131
  0
ARC
  5
6E3
100
AcDbEntity
  8
0
100
AcDbCircle
 62
7
  6
CONTINUOUS
 10
183.7270668465
 20
198.4873701376
 40
0.3
100
AcDbArc
 50
227.2726046869
 51
360.0
  0
ARC
  5
6E4
100
AcDbEntity
  8
0
100
AcDbCircle
 62
7
  6
CONTINUOUS
 10
181.3270668465
 20
198.4873701376
 40
0.3
100
AcDbArc
 50
180.0
 51
312.727395313
  0
ARC
  5
6E5
100
AcDbEntity
  8
0
100
AcDbCircle
 62
7
  6
CONTINUOUS
 10
226.6653523416
 20
-744.1641971566
 40
1054.805
100
AcDbArc
 50
87.2155007829
 51
89.4440683676
  0
ARC
  5
6E6
100
AcDbEntity
  8
0
100
AcDbCircle
 62
7
  6
CONTINUOUS
 10
226.6653523416
 20
-744.1641971566
 40
1054.605
100
AcDbArc
 50
88.8174353385
 51
89.4440683676
  0
ARC
  5
6E7
100
AcDbEntity
  8
0
100
AcDbCircle
 62
7
  6
CONTINUOUS
 10
277.8771890002
 20
237.5280945655
 40
1.4998857844
100
AcDbArc
 50
269.9953337424
 51
359.9953330802
  0
ARC
  5
6E8
100
AcDbEntity
  8
0
100
AcDbCircle
 62
7
  6
CONTINUOUS
 10
259.0836507815
 20
124.6926803642
 40
1.0057639073
100
AcDbArc
 50
315.0280811529
 51
327.6148102656
  0
ARC
  5
6E9
100
AcDbEntity
  8
0
100
AcDbCircle
 62
7
  6
CONTINUOUS
 10
278.3770668465
 20
308.1116274061
 40
1.0
100
AcDbArc
 50
0.0
 51
88.0742023359
  0
ARC
  5
6EA
100
AcDbEntity
  8
0
100
AcDbCircle
 62
7
  6
CONTINUOUS
 10
278.3770668465
 20
124.6873701376
 40
1.0
100
AcDbArc
 50
328.3307716406
 51
360.0
  0
ARC
  5
6EB
100
AcDbEntity
  8
0
100
AcDbCircle
 62
7
  6
CONTINUOUS
 10
259.0983601022
 20
124.6832848866
 40
0.9883100837
100
AcDbArc
 50
327.6180409853
 51
339.4598238553
  0
SPLINE
  5
6EC
100
AcDbEntity
  8
0
100
AcDbSpline
 62
7
  6
CONTINUOUS
 70
0
 71
3
 72
9
 73
5
 74
0
 42
0.0000001
 43
0.0000001
 44
0.0000000001
 40
0.0
 40
0.0
 40
0.0
 40
0.0
 40
0.4401064787
 40
1.0
 40
1.0
 40
1.0
 40
1.0
 10
96.2151440719
 20
312.1868992624
 30
0.0
 10
96.1812589804
 20
312.2252202389
 30
0.0
 10
96.0857869504
 20
312.2954547785
 30
0.0
 10
95.9780639471
 20
312.3406242361
 30
0.0
 10
95.9163300522
 20
312.3612125981
 30
0.0
  0
SPLINE
  5
6ED
100
AcDbEntity
  8
0
100
AcDbSpline
 62
7
  6
CONTINUOUS
 70
0
 71
3
 72
11
 73
7
 74
0
 42
0.0000001
 43
0.0000001
 44
0.0000000001
 40
0.0
 40
0.0
 40
0.0
 40
0.0
 40
0.2370782343
 40
0.4996992685
 40
0.7624801717
 40
1.0
 40
1.0
 40
1.0
 40
1.0
 10
95.9163300522
 20
312.3612125981
 30
0.0
 10
95.8345445232
 20
312.3884882151
 30
0.0
 10
95.6561737619
 20
312.428359359
 30
0.0
 10
95.3787121624
 20
312.4478864611
 30
0.0
 10
95.1010867521
 20
312.4284047684
 30
0.0
 10
94.9224863968
 20
312.3885898497
 30
0.0
 10
94.840518927
 20
312.3613523525
 30
0.0
  0
SPLINE
  5
6EE
100
AcDbEntity
  8
0
100
AcDbSpline
 62
7
  6
CONTINUOUS
 70
0
 71
3
 72
9
 73
5
 74
0
 42
0.0000001
 43
0.0000001
 44
0.0000000001
 40
0.0
 40
0.0
 40
0.0
 40
0.0
 40
0.5603054818
 40
1.0
 40
1.0
 40
1.0
 40
1.0
 10
94.840518927
 20
312.3613523525
 30
0.0
 10
94.7780759202
 20
312.3406027646
 30
0.0
 10
94.6691956991
 20
312.2950601202
 30
0.0
 10
94.5727190727
 20
312.2240552387
 30
0.0
 10
94.5386020449
 20
312.1852954685
 30
0.0
  0
SPLINE
  5
6EF
100
AcDbEntity
  8
0
100
AcDbSpline
 62
7
  6
CONTINUOUS
 70
0
 71
3
 72
10
 73
6
 74
0
 42
0.0000001
 43
0.0000001
 44
0.0000000001
 40
0.0
 40
0.0
 40
0.0
 40
0.0
 40
0.3816475268
 40
0.66380076
 40
1.0
 40
1.0
 40
1.0
 40
1.0
 10
94.4817996683
 20
312.1868638875
 30
0.0
 10
94.5031105065
 20
312.2785929304
 30
0.0
 10
94.6499152606
 20
312.3972280089
 30
0.0
 10
94.8752673615
 20
312.4847405865
 30
0.0
 10
95.0265421041
 20
312.5171341852
 30
0.0
 10
95.1086901901
 20
312.528695095
 30
0.0
  0
SPLINE
  5
6F0
100
AcDbEntity
  8
0
100
AcDbSpline
 62
7
  6
CONTINUOUS
 70
0
 71
3
 72
9
 73
5
 74
0
 42
0.0000001
 43
0.0000001
 44
0.0000000001
 40
0.0
 40
0.0
 40
0.0
 40
0.0
 40
0.2465379261
 40
1.0
 40
1.0
 40
1.0
 40
1.0
 10
95.1086901901
 20
312.528695095
 30
0.0
 10
95.1487535251
 20
312.5343333104
 30
0.0
 10
95.3119799488
 20
312.5517076414
 30
0.0
 10
95.477393882
 20
312.5487794458
 30
0.0
 10
95.6002466019
 20
312.5347872538
 30
0.0
  0
SPLINE
  5
6F1
100
AcDbEntity
  8
0
100
AcDbSpline
 62
7
  6
CONTINUOUS
 70
0
 71
3
 72
10
 73
6
 74
0
 42
0.0000001
 43
0.0000001
 44
0.0000000001
 40
0.0
 40
0.0
 40
0.0
 40
0.0
 40
0.3372209657
 40
0.6210474547
 40
1.0
 40
1.0
 40
1.0
 40
1.0
 10
95.6002466019
 20
312.5347872538
 30
0.0
 10
95.6879974608
 20
312.5247929543
 30
0.0
 10
95.8502394768
 20
312.4941729239
 30
0.0
 10
96.0907895261
 20
312.4068345204
 30
0.0
 10
96.2508100927
 20
312.2836909245
 30
0.0
 10
96.2726180599
 20
312.1868688567
 30
0.0
  0
SPLINE
  5
6F2
100
AcDbEntity
  8
0
100
AcDbSpline
 62
7
  6
CONTINUOUS
 70
0
 71
3
 72
8
 73
4
 74
0
 42
0.0000001
 43
0.0000001
 44
0.0000000001
 40
0.0
 40
0.0
 40
0.0
 40
0.0
 40
1.0
 40
1.0
 40
1.0
 40
1.0
 10
145.943252046
 20
171.6857069373
 30
0.0
 10
145.7886951734
 20
171.5904658151
 30
0.0
 10
145.6007509465
 20
171.5376036723
 30
0.0
 10
145.4192057905
 20
171.5373701376
 30
0.0
  0
SPLINE
  5
6F3
100
AcDbEntity
  8
0
100
AcDbSpline
 62
7
  6
CONTINUOUS
 70
0
 71
3
 72
8
 73
4
 74
0
 42
0.0000001
 43
0.0000001
 44
0.0000000001
 40
0.0
 40
0.0
 40
0.0
 40
0.0
 40
1.0
 40
1.0
 40
1.0
 40
1.0
 10
155.6920963495
 20
196.5581270722
 30
0.0
 10
155.8155327847
 20
196.4343698067
 30
0.0
 10
155.9087373689
 20
196.2722611073
 30
0.0
 10
155.9526876212
 20
196.1030843074
 30
0.0
  0
SPLINE
  5
6F4
100
AcDbEntity
  8
0
100
AcDbSpline
 62
7
  6
CONTINUOUS
 70
0
 71
3
 72
9
 73
5
 74
0
 42
0.0000001
 43
0.0000001
 44
0.0000000001
 40
0.0
 40
0.0
 40
0.0
 40
0.0
 40
0.500000033
 40
1.0
 40
1.0
 40
1.0
 40
1.0
 10
155.9183815692
 20
130.2873701376
 30
0.0
 10
155.7156742687
 20
130.2873692574
 30
0.0
 10
155.3078435577
 20
130.3497641678
 30
0.0
 10
154.9379808419
 20
130.5325755028
 30
0.0
 10
154.7719320204
 20
130.6488425562
 30
0.0
  0
SPLINE
  5
6F5
100
AcDbEntity
  8
0
100
AcDbSpline
 62
7
  6
CONTINUOUS
 70
0
 71
3
 72
9
 73
5
 74
0
 42
0.0000001
 43
0.0000001
 44
0.0000000001
 40
0.0
 40
0.0
 40
0.0
 40
0.0
 40
0.500263585
 40
1.0
 40
1.0
 40
1.0
 40
1.0
 10
181.9469716168
 20
133.9019061219
 30
0.0
 10
182.0049707646
 20
133.8189344454
 30
0.0
 10
182.0959290032
 20
133.6341539231
 30
0.0
 10
182.1269337959
 20
133.4306357284
 30
0.0
 10
182.1270668465
 20
133.3295090991
 30
0.0
  0
SPLINE
  5
6F6
100
AcDbEntity
  8
0
100
AcDbSpline
 62
7
  6
CONTINUOUS
 70
0
 71
3
 72
8
 73
4
 74
0
 42
0.0000001
 43
0.0000001
 44
0.0000000001
 40
0.0
 40
0.0
 40
0.0
 40
0.0
 40
1.0
 40
1.0
 40
1.0
 40
1.0
 10
157.1063099162
 20
143.6023996449
 30
0.0
 10
157.1900048793
 20
143.6858775081
 30
0.0
 10
157.2901132132
 20
143.7554412651
 30
0.0
 10
157.3975611098
 20
143.8047195566
 30
0.0
  0
SPLINE
  5
6F7
100
AcDbEntity
  8
0
100
AcDbSpline
 62
7
  6
CONTINUOUS
 70
0
 71
3
 72
8
 73
4
 74
0
 42
0.0000001
 43
0.0000001
 44
0.0000000001
 40
0.0
 40
0.0
 40
0.0
 40
0.0
 40
1.0
 40
1.0
 40
1.0
 40
1.0
 10
183.6270668465
 20
133.3295091057
 30
0.0
 10
183.627307646
 20
133.5125309837
 30
0.0
 10
183.6810958802
 20
133.702101722
 30
0.0
 10
183.7778288012
 20
133.8574716285
 30
0.0
  0
SPLINE
  5
6F8
100
AcDbEntity
  8
0
100
AcDbSpline
 62
7
  6
CONTINUOUS
 70
0
 71
3
 72
8
 73
4
 74
0
 42
0.0000001
 43
0.0000001
 44
0.0000000001
 40
0.0
 40
0.0
 40
0.0
 40
0.0
 40
1.0
 40
1.0
 40
1.0
 40
1.0
 10
136.8108816431
 20
169.8890333419
 30
0.0
 10
136.9654385145
 20
169.984274468
 30
0.0
 10
137.1533827458
 20
170.0371365223
 30
0.0
 10
137.3349279027
 20
170.0373701376
 30
0.0
  0
SPLINE
  5
6F9
100
AcDbEntity
  8
0
100
AcDbSpline
 62
7
  6
CONTINUOUS
 70
0
 71
3
 72
8
 73
4
 74
0
 42
0.0000001
 43
0.0000001
 44
0.0000000001
 40
0.0
 40
0.0
 40
0.0
 40
0.0
 40
1.0
 40
1.0
 40
1.0
 40
1.0
 10
127.0047760533
 20
145.0791269954
 30
0.0
 10
126.9099232321
 20
145.191894483
 30
0.0
 10
126.8384974323
 20
145.3290349293
 30
0.0
 10
126.8014460717
 20
145.4716559678
 30
0.0
  0
SPLINE
  5
6FA
100
AcDbEntity
  8
0
100
AcDbSpline
 62
7
  6
CONTINUOUS
 70
0
 71
3
 72
9
 73
5
 74
0
 42
0.0000001
 43
0.0000001
 44
0.0000000001
 40
0.0
 40
0.0
 40
0.0
 40
0.0
 40
0.4998465146
 40
1.0
 40
1.0
 40
1.0
 40
1.0
 10
74.6172328443
 20
143.8758098872
 30
0.0
 10
74.7673726814
 20
143.9057524863
 30
0.0
 10
75.0860898222
 20
143.8952901055
 30
0.0
 10
75.365755454
 20
143.7418511489
 30
0.0
 10
75.4796151311
 20
143.6393655337
 30
0.0
  0
SPLINE
  5
6FB
100
AcDbEntity
  8
0
100
AcDbSpline
 62
7
  6
CONTINUOUS
 70
0
 71
3
 72
9
 73
5
 74
0
 42
0.0000001
 43
0.0000001
 44
0.0000000001
 40
0.0
 40
0.0
 40
0.0
 40
0.0
 40
0.5000904547
 40
1.0
 40
1.0
 40
1.0
 40
1.0
 10
98.8963797427
 20
133.9682125921
 30
0.0
 10
98.9698448057
 20
133.8798364504
 30
0.0
 10
99.0869109339
 20
133.6759589642
 30
0.0
 10
99.126919014
 20
133.4443911173
 30
0.0
 10
99.1270668465
 20
133.3295090817
 30
0.0
  0
SPLINE
  5
6FC
100
AcDbEntity
  8
0
100
AcDbSpline
 62
7
  6
CONTINUOUS
 70
0
 71
3
 72
8
 73
4
 74
0
 42
0.0000001
 43
0.0000001
 44
0.0000000001
 40
0.0
 40
0.0
 40
0.0
 40
0.0
 40
1.0
 40
1.0
 40
1.0
 40
1.0
 10
125.1904083395
 20
143.8636046016
 30
0.0
 10
125.3604554418
 20
143.8198721169
 30
0.0
 10
125.5235120149
 20
143.7263961307
 30
0.0
 10
125.6478237861
 20
143.6023996357
 30
0.0
  0
SPLINE
  5
6FD
100
AcDbEntity
  8
0
100
AcDbSpline
 62
7
  6
CONTINUOUS
 70
0
 71
3
 72
8
 73
4
 74
0
 42
0.0000001
 43
0.0000001
 44
0.0000000001
 40
0.0
 40
0.0
 40
0.0
 40
0.0
 40
1.0
 40
1.0
 40
1.0
 40
1.0
 10
101.1964023651
 20
134.231310502
 30
0.0
 10
101.3147878328
 20
134.2876114798
 30
0.0
 10
101.4469035749
 20
134.3209043298
 30
0.0
 10
101.5778520877
 20
134.3270203796
 30
0.0
  0
SPLINE
  5
6FE
100
AcDbEntity
  8
0
100
AcDbSpline
 62
7
  6
CONTINUOUS
 70
0
 71
3
 72
8
 73
4
 74
0
 42
0.0000001
 43
0.0000001
 44
0.0000000001
 40
0.0
 40
0.0
 40
0.0
 40
0.0
 40
1.0
 40
1.0
 40
1.0
 40
1.0
 10
126.8023439182
 20
196.1065170067
 30
0.0
 10
126.8396095689
 20
196.247893944
 30
0.0
 10
126.910667817
 20
196.383737491
 30
0.0
 10
127.0047830475
 20
196.4956235514
 30
0.0
  0
SPLINE
  5
6FF
100
AcDbEntity
  8
0
100
AcDbSpline
 62
7
  6
CONTINUOUS
 70
0
 71
3
 72
8
 73
4
 74
0
 42
0.0000001
 43
0.0000001
 44
0.0000000001
 40
0.0
 40
0.0
 40
0.0
 40
0.0
 40
1.0
 40
1.0
 40
1.0
 40
1.0
 10
137.3349278956
 20
171.5373701376
 30
0.0
 10
137.156916546
 20
171.5376040685
 30
0.0
 10
136.972855016
 20
171.5882688739
 30
0.0
 10
136.8202874028
 20
171.6799815705
 30
0.0
  0
SPLINE
  5
700
100
AcDbEntity
  8
0
100
AcDbSpline
 62
7
  6
CONTINUOUS
 70
0
 71
3
 72
8
 73
4
 74
0
 42
0.0000001
 43
0.0000001
 44
0.0000000001
 40
0.0
 40
0.0
 40
0.0
 40
0.0
 40
1.0
 40
1.0
 40
1.0
 40
1.0
 10
125.647823781
 20
197.9723406345
 30
0.0
 10
125.5244851078
 20
197.8493217089
 30
0.0
 10
125.3630832625
 20
197.7563249006
 30
0.0
 10
125.1945595599
 20
197.7122131557
 30
0.0
  0
SPLINE
  5
701
100
AcDbEntity
  8
0
100
AcDbSpline
 62
7
  6
CONTINUOUS
 70
0
 71
3
 72
11
 73
7
 74
0
 42
0.0000001
 43
0.0000001
 44
0.0000000001
 40
0.0
 40
0.0
 40
0.0
 40
0.0
 40
0.2500079835
 40
0.5000003289
 40
0.749992614
 40
1.0
 40
1.0
 40
1.0
 40
1.0
 10
79.4190523698
 20
148.9151420986
 30
0.0
 10
79.5071727111
 20
149.0029805885
 30
0.0
 10
79.7182497409
 20
149.147343939
 30
0.0
 10
80.0909487683
 20
149.2309801528
 30
0.0
 10
80.4682153388
 20
149.1723853744
 30
0.0
 10
80.68889093
 20
149.042929213
 30
0.0
 10
80.7824390557
 20
148.9608958719
 30
0.0
  0
SPLINE
  5
702
100
AcDbEntity
  8
0
100
AcDbSpline
 62
7
  6
CONTINUOUS
 70
0
 71
3
 72
8
 73
4
 74
0
 42
0.0000001
 43
0.0000001
 44
0.0000000001
 40
0.0
 40
0.0
 40
0.0
 40
0.0
 40
1.0
 40
1.0
 40
1.0
 40
1.0
 10
155.9517896992
 20
145.4682232885
 30
0.0
 10
155.9075286753
 20
145.3003076458
 30
0.0
 10
155.8147302112
 20
145.1395588617
 30
0.0
 10
155.6920963448
 20
145.0166131983
 30
0.0
  0
SPLINE
  5
703
100
AcDbEntity
  8
0
100
AcDbSpline
 62
7
  6
CONTINUOUS
 70
0
 71
3
 72
8
 73
4
 74
0
 42
0.0000001
 43
0.0000001
 44
0.0000000001
 40
0.0
 40
0.0
 40
0.0
 40
0.0
 40
1.0
 40
1.0
 40
1.0
 40
1.0
 10
145.4192057972
 20
170.0373701376
 30
0.0
 10
145.5972171474
 20
170.0371361431
 30
0.0
 10
145.7812786808
 20
169.9864714073
 30
0.0
 10
145.9338462933
 20
169.8947587081
 30
0.0
  0
SPLINE
  5
704
100
AcDbEntity
  8
0
100
AcDbSpline
 62
7
  6
CONTINUOUS
 70
0
 71
3
 72
8
 73
4
 74
0
 42
0.0000001
 43
0.0000001
 44
0.0000000001
 40
0.0
 40
0.0
 40
0.0
 40
0.0
 40
1.0
 40
1.0
 40
1.0
 40
1.0
 10
157.3975718766
 20
197.770015627
 30
0.0
 10
157.2901197251
 20
197.8192940398
 30
0.0
 10
157.190007648
 20
197.8888600048
 30
0.0
 10
157.1063099112
 20
197.9723406353
 30
0.0
  0
SPLINE
  5
705
100
AcDbEntity
  8
0
100
AcDbSpline
 62
7
  6
CONTINUOUS
 70
0
 71
3
 72
9
 73
5
 74
0
 42
0.0000001
 43
0.0000001
 44
0.0000000001
 40
0.0
 40
0.0
 40
0.0
 40
0.0
 40
0.5000690707
 40
1.0
 40
1.0
 40
1.0
 40
1.0
 10
75.869571888
 20
147.2636641884
 30
0.0
 10
75.7104505203
 20
147.104441415
 30
0.0
 10
75.3143082717
 20
146.8552601704
 30
0.0
 10
74.8487017904
 20
146.8082987211
 30
0.0
 10
74.6253746074
 20
146.8360201741
 30
0.0
  0
SPLINE
  5
706
100
AcDbEntity
  8
0
100
AcDbSpline
 62
7
  6
CONTINUOUS
 70
0
 71
3
 72
8
 73
4
 74
0
 42
0.0000001
 43
0.0000001
 44
0.0000000001
 40
0.0
 40
0.0
 40
0.0
 40
0.0
 40
1.0
 40
1.0
 40
1.0
 40
1.0
 10
136.8250240836
 20
170.1293609703
 30
0.0
 10
136.9384773617
 20
170.1724940559
 30
0.0
 10
137.0618554385
 20
170.1950627744
 30
0.0
 10
137.183230958
 20
170.1947583679
 30
0.0
  0
SPLINE
  5
707
100
AcDbEntity
  8
0
100
AcDbSpline
 62
7
  6
CONTINUOUS
 70
0
 71
3
 72
8
 73
4
 74
0
 42
0.0000001
 43
0.0000001
 44
0.0000000001
 40
0.0
 40
0.0
 40
0.0
 40
0.0
 40
1.0
 40
1.0
 40
1.0
 40
1.0
 10
126.8441788019
 20
145.0118548562
 30
0.0
 10
126.7614760102
 20
145.0941521907
 30
0.0
 10
126.6924914693
 20
145.1926537781
 30
0.0
 10
126.6431186275
 20
145.2983652984
 30
0.0
  0
LINE
  5
708
100
AcDbEntity
  8
0
100
AcDbLine
 62
7
  6
CONTINUOUS
 10
127.9822030942
 20
130.6488405251
 11
128.0460148349
 21
130.4377986059
  0
SPLINE
  5
709
100
AcDbEntity
  8
0
100
AcDbSpline
 62
7
  6
CONTINUOUS
 70
0
 71
3
 72
9
 73
5
 74
0
 42
0.0000001
 43
0.0000001
 44
0.0000000001
 40
0.0
 40
0.0
 40
0.0
 40
0.0
 40
0.4999108834
 40
1.0
 40
1.0
 40
1.0
 40
1.0
 10
74.6166950384
 20
144.0958449791
 30
0.0
 10
74.7669586653
 20
144.1253622265
 30
0.0
 10
75.0858252478
 20
144.1137837769
 30
0.0
 10
75.3646117079
 20
143.9587722672
 30
0.0
 10
75.4781254299
 20
143.8559044641
 30
0.0
  0
LINE
  5
70A
100
AcDbEntity
  8
0
100
AcDbLine
 62
7
  6
CONTINUOUS
 10
75.4781254299
 20
143.8559044641
 11
75.4787885822
 21
143.6385057487
  0
SPLINE
  5
70B
100
AcDbEntity
  8
0
100
AcDbSpline
 62
7
  6
CONTINUOUS
 70
0
 71
3
 72
9
 73
5
 74
0
 42
0.0000001
 43
0.0000001
 44
0.0000000001
 40
0.0
 40
0.0
 40
0.0
 40
0.0
 40
0.2514375247
 40
1.0
 40
1.0
 40
1.0
 40
1.0
 10
99.1122194406
 20
134.0445411641
 30
0.0
 10
99.1401838112
 20
134.0033439369
 30
0.0
 10
99.2393055568
 20
133.8315197248
 30
0.0
 10
99.2848268522
 20
133.6294421031
 30
0.0
 10
99.2844550799
 20
133.4812060262
 30
0.0
  0
SPLINE
  5
70C
100
AcDbEntity
  8
0
100
AcDbSpline
 62
7
  6
CONTINUOUS
 70
0
 71
3
 72
9
 73
5
 74
0
 42
0.0000001
 43
0.0000001
 44
0.0000000001
 40
0.0
 40
0.0
 40
0.0
 40
0.0
 40
0.2285831906
 40
1.0
 40
1.0
 40
1.0
 40
1.0
 10
98.2856644298
 20
130.1819985497
 30
0.0
 10
98.369678531
 20
130.1799495944
 30
0.0
 10
98.7372158449
 20
130.1709288224
 30
0.0
 10
99.1048670036
 20
130.1651464341
 30
0.0
 10
99.3884799886
 20
130.1651474444
 30
0.0
  0
SPLINE
  5
70D
100
AcDbEntity
  8
0
100
AcDbSpline
 62
7
  6
CONTINUOUS
 70
0
 71
3
 72
9
 73
5
 74
0
 42
0.0000001
 43
0.0000001
 44
0.0000000001
 40
0.0
 40
0.0
 40
0.0
 40
0.0
 40
0.5000908313
 40
1.0
 40
1.0
 40
1.0
 40
1.0
 10
98.2856612247
 20
130.1819985514
 30
0.0
 10
98.4717556318
 20
130.1818681276
 30
0.0
 10
98.8519572473
 20
130.2894596669
 30
0.0
 10
99.1120401849
 20
130.5872056234
 30
0.0
 10
99.1911428657
 20
130.7555765107
 30
0.0
  0
LINE
  5
70E
100
AcDbEntity
  8
0
100
AcDbLine
 62
7
  6
CONTINUOUS
 10
101.23219188
 20
130.1763457275
 11
101.4684692616
 21
130.1819985499
  0
SPLINE
  5
70F
100
AcDbEntity
  8
0
100
AcDbSpline
 62
7
  6
CONTINUOUS
 70
0
 71
3
 72
8
 73
4
 74
0
 42
0.0000001
 43
0.0000001
 44
0.0000000001
 40
0.0
 40
0.0
 40
0.0
 40
0.0
 40
1.0
 40
1.0
 40
1.0
 40
1.0
 10
125.36697796
 20
144.0209023112
 30
0.0
 10
125.4723604145
 20
143.9715996367
 30
0.0
 10
125.5705094489
 20
143.9027220207
 30
0.0
 10
125.6525711695
 20
143.82024724
 30
0.0
  0
SPLINE
  5
710
100
AcDbEntity
  8
0
100
AcDbSpline
 62
7
  6
CONTINUOUS
 70
0
 71
3
 72
9
 73
5
 74
0
 42
0.0000001
 43
0.0000001
 44
0.0000000001
 40
0.0
 40
0.0
 40
0.0
 40
0.0
 40
0.2433735058
 40
1.0
 40
1.0
 40
1.0
 40
1.0
 10
133.7742300425
 20
135.2386018761
 30
0.0
 10
133.798097851
 20
135.2607967863
 30
0.0
 10
133.8959583389
 20
135.3522192206
 30
0.0
 10
133.9929243532
 20
135.4446012367
 30
0.0
 10
134.0656827979
 20
135.5151246513
 30
0.0
  0
SPLINE
  5
711
100
AcDbEntity
  8
0
100
AcDbSpline
 62
7
  6
CONTINUOUS
 70
0
 71
3
 72
8
 73
4
 74
0
 42
0.0000001
 43
0.0000001
 44
0.0000000001
 40
0.0
 40
0.0
 40
0.0
 40
0.0
 40
1.0
 40
1.0
 40
1.0
 40
1.0
 10
101.424525392
 20
134.4801146104
 30
0.0
 10
101.4753465793
 20
134.4283941696
 30
0.0
 10
101.5270426383
 20
134.3775382586
 30
0.0
 10
101.5778633178
 20
134.3258173189
 30
0.0
  0
SPLINE
  5
712
100
AcDbEntity
  8
0
100
AcDbSpline
 62
7
  6
CONTINUOUS
 70
0
 71
3
 72
9
 73
5
 74
0
 42
0.0000001
 43
0.0000001
 44
0.0000000001
 40
0.0
 40
0.0
 40
0.0
 40
0.0
 40
0.2509873111
 40
1.0
 40
1.0
 40
1.0
 40
1.0
 10
139.8854109555
 20
142.1693175106
 30
0.0
 10
139.9229562214
 20
142.2406925498
 30
0.0
 10
140.0554581106
 20
142.5337889863
 30
0.0
 10
140.1152078369
 20
142.8593541697
 30
0.0
 10
140.1152076308
 20
143.1000281377
 30
0.0
  0
SPLINE
  5
713
100
AcDbEntity
  8
0
100
AcDbSpline
 62
7
  6
CONTINUOUS
 70
0
 71
3
 72
8
 73
4
 74
0
 42
0.0000001
 43
0.0000001
 44
0.0000000001
 40
0.0
 40
0.0
 40
0.0
 40
0.0
 40
1.0
 40
1.0
 40
1.0
 40
1.0
 10
126.6428445746
 20
196.2758104168
 30
0.0
 10
126.6921995737
 20
196.3817572835
 30
0.0
 10
126.7613349968
 20
196.4804381399
 30
0.0
 10
126.8441882898
 20
196.5628759125
 30
0.0
  0
SPLINE
  5
714
100
AcDbEntity
  8
0
100
AcDbSpline
 62
7
  6
CONTINUOUS
 70
0
 71
3
 72
8
 73
4
 74
0
 42
0.0000001
 43
0.0000001
 44
0.0000000001
 40
0.0
 40
0.0
 40
0.0
 40
0.0
 40
1.0
 40
1.0
 40
1.0
 40
1.0
 10
137.1832309691
 20
171.3799668453
 30
0.0
 10
137.0639841423
 20
171.3796743491
 30
0.0
 10
136.9428606698
 20
171.4015004589
 30
0.0
 10
136.8311037185
 20
171.4430970347
 30
0.0
  0
SPLINE
  5
715
100
AcDbEntity
  8
0
100
AcDbSpline
 62
7
  6
CONTINUOUS
 70
0
 71
3
 72
8
 73
4
 74
0
 42
0.0000001
 43
0.0000001
 44
0.0000000001
 40
0.0
 40
0.0
 40
0.0
 40
0.0
 40
1.0
 40
1.0
 40
1.0
 40
1.0
 10
139.9411313459
 20
171.9507341369
 30
0.0
 10
140.0036250901
 20
172.0831674588
 30
0.0
 10
140.0370618509
 20
172.2330235829
 30
0.0
 10
140.0369925425
 20
172.3794614469
 30
0.0
  0
SPLINE
  5
716
100
AcDbEntity
  8
0
100
AcDbSpline
 62
7
  6
CONTINUOUS
 70
0
 71
3
 72
9
 73
5
 74
0
 42
0.0000001
 43
0.0000001
 44
0.0000000001
 40
0.0
 40
0.0
 40
0.0
 40
0.0
 40
0.2738109406
 40
1.0
 40
1.0
 40
1.0
 40
1.0
 10
140.0497428269
 20
171.2722813429
 30
0.0
 10
140.0497431106
 20
171.3733415424
 30
0.0
 10
140.0482376027
 20
171.7424309137
 30
0.0
 10
140.0418805464
 20
172.1114756841
 30
0.0
 10
140.0369925438
 20
172.3794584244
 30
0.0
  0
SPLINE
  5
717
100
AcDbEntity
  8
0
100
AcDbSpline
 62
7
  6
CONTINUOUS
 70
0
 71
3
 72
8
 73
4
 74
0
 42
0.0000001
 43
0.0000001
 44
0.0000000001
 40
0.0
 40
0.0
 40
0.0
 40
0.0
 40
1.0
 40
1.0
 40
1.0
 40
1.0
 10
125.6525821281
 20
197.7544820928
 30
0.0
 10
125.5693875963
 20
197.6708776836
 30
0.0
 10
125.4696150016
 20
197.6012820365
 30
0.0
 10
125.3625569079
 20
197.5517886841
 30
0.0
  0
SPLINE
  5
718
100
AcDbEntity
  8
0
100
AcDbSpline
 62
7
  6
CONTINUOUS
 70
0
 71
3
 72
9
 73
5
 74
0
 42
0.0000001
 43
0.0000001
 44
0.0000000001
 40
0.0
 40
0.0
 40
0.0
 40
0.0
 40
0.5001308767
 40
1.0
 40
1.0
 40
1.0
 40
1.0
 10
140.115207633
 20
138.15282245
 30
0.0
 10
140.1152424238
 20
138.2340856884
 30
0.0
 10
140.0745263771
 20
138.3991580007
 30
0.0
 10
139.9598089866
 20
138.5247048248
 30
0.0
 10
139.8921766951
 20
138.5696790143
 30
0.0
  0
SPLINE
  5
719
100
AcDbEntity
  8
0
100
AcDbSpline
 62
7
  6
CONTINUOUS
 70
0
 71
3
 72
9
 73
5
 74
0
 42
0.0000001
 43
0.0000001
 44
0.0000000001
 40
0.0
 40
0.0
 40
0.0
 40
0.0
 40
0.4999806387
 40
1.0
 40
1.0
 40
1.0
 40
1.0
 10
139.877675748
 20
138.3003760636
 30
0.0
 10
139.9273850817
 20
138.2540258062
 30
0.0
 10
140.0084646328
 20
138.139493093
 30
0.0
 10
140.0366303315
 20
138.0020876067
 30
0.0
 10
140.0366498714
 20
137.9341164409
 30
0.0
  0
SPLINE
  5
71A
100
AcDbEntity
  8
0
100
AcDbSpline
 62
7
  6
CONTINUOUS
 70
0
 71
3
 72
8
 73
4
 74
0
 42
0.0000001
 43
0.0000001
 44
0.0000000001
 40
0.0
 40
0.0
 40
0.0
 40
0.0
 40
1.0
 40
1.0
 40
1.0
 40
1.0
 10
140.0369925426
 20
169.1952788284
 30
0.0
 10
140.0370604053
 20
169.3386300044
 30
0.0
 10
140.0050528874
 20
169.4851787487
 30
0.0
 10
139.9451376907
 20
169.6154082902
 30
0.0
  0
SPLINE
  5
71B
100
AcDbEntity
  8
0
100
AcDbSpline
 62
7
  6
CONTINUOUS
 70
0
 71
3
 72
9
 73
5
 74
0
 42
0.0000001
 43
0.0000001
 44
0.0000000001
 40
0.0
 40
0.0
 40
0.0
 40
0.0
 40
0.2289249037
 40
1.0
 40
1.0
 40
1.0
 40
1.0
 10
140.036992544
 20
169.1952818494
 30
0.0
 10
140.0385332827
 20
169.2797515885
 30
0.0
 10
140.0453694706
 20
169.6487317971
 30
0.0
 10
140.0497436257
 20
170.0177772118
 30
0.0
 10
140.0497428269
 20
170.3023392891
 30
0.0
  0
SPLINE
  5
71C
100
AcDbEntity
  8
0
100
AcDbSpline
 62
7
  6
CONTINUOUS
 70
0
 71
3
 72
8
 73
4
 74
0
 42
0.0000001
 43
0.0000001
 44
0.0000000001
 40
0.0
 40
0.0
 40
0.0
 40
0.0
 40
1.0
 40
1.0
 40
1.0
 40
1.0
 10
157.3986854852
 20
197.5485150292
 30
0.0
 10
157.2888797885
 20
197.5981754739
 30
0.0
 10
157.1865522776
 20
197.66905183
 30
0.0
 10
157.1015512413
 20
197.7544817699
 30
0.0
  0
SPLINE
  5
71D
100
AcDbEntity
  8
0
100
AcDbSpline
 62
7
  6
CONTINUOUS
 70
0
 71
3
 72
8
 73
4
 74
0
 42
0.0000001
 43
0.0000001
 44
0.0000000001
 40
0.0
 40
0.0
 40
0.0
 40
0.0
 40
1.0
 40
1.0
 40
1.0
 40
1.0
 10
155.9099548881
 20
196.562885416
 30
0.0
 10
155.9926576792
 20
196.4805880802
 30
0.0
 10
156.0616422192
 20
196.3820864916
 30
0.0
 10
156.1110150598
 20
196.2763749704
 30
0.0
  0
SPLINE
  5
71E
100
AcDbEntity
  8
0
100
AcDbSpline
 62
7
  6
CONTINUOUS
 70
0
 71
3
 72
8
 73
4
 74
0
 42
0.0000001
 43
0.0000001
 44
0.0000000001
 40
0.0
 40
0.0
 40
0.0
 40
0.0
 40
1.0
 40
1.0
 40
1.0
 40
1.0
 10
145.9291095965
 20
171.4453792189
 30
0.0
 10
145.8156563188
 20
171.4022461627
 30
0.0
 10
145.6922782441
 20
171.3796774803
 30
0.0
 10
145.5709027355
 20
171.3799819281
 30
0.0
  0
SPLINE
  5
71F
100
AcDbEntity
  8
0
100
AcDbSpline
 62
7
  6
CONTINUOUS
 70
0
 71
3
 72
8
 73
4
 74
0
 42
0.0000001
 43
0.0000001
 44
0.0000000001
 40
0.0
 40
0.0
 40
0.0
 40
0.0
 40
1.0
 40
1.0
 40
1.0
 40
1.0
 10
145.5709027235
 20
170.1947734201
 30
0.0
 10
145.690149563
 20
170.1950658708
 30
0.0
 10
145.811273039
 20
170.1732397193
 30
0.0
 10
145.9230299903
 20
170.1316431076
 30
0.0
  0
SPLINE
  5
720
100
AcDbEntity
  8
0
100
AcDbSpline
 62
7
  6
CONTINUOUS
 70
0
 71
3
 72
8
 73
4
 74
0
 42
0.0000001
 43
0.0000001
 44
0.0000000001
 40
0.0
 40
0.0
 40
0.0
 40
0.0
 40
1.0
 40
1.0
 40
1.0
 40
1.0
 10
156.1112867838
 20
145.2989323545
 30
0.0
 10
156.0619321503
 20
145.1929851908
 30
0.0
 10
155.9927970173
 20
145.0943039758
 30
0.0
 10
155.9099439298
 20
145.0118658339
 30
0.0
  0
SPLINE
  5
721
100
AcDbEntity
  8
0
100
AcDbSpline
 62
7
  6
CONTINUOUS
 70
0
 71
3
 72
9
 73
5
 74
0
 42
0.0000001
 43
0.0000001
 44
0.0000000001
 40
0.0
 40
0.0
 40
0.0
 40
0.0
 40
0.2334075674
 40
1.0
 40
1.0
 40
1.0
 40
1.0
 10
147.0740448256
 20
137.1682667772
 30
0.0
 10
147.114567738
 20
137.1232503894
 30
0.0
 10
147.2888394779
 20
136.9309798077
 30
0.0
 10
147.4663460456
 20
136.7416182506
 30
0.0
 10
147.6047991462
 20
136.5987771043
 30
0.0
  0
LINE
  5
722
100
AcDbEntity
  8
0
100
AcDbLine
 62
7
  6
CONTINUOUS
 10
154.7081188492
 20
130.4377985886
 11
154.77193061
 21
130.6488405411
  0
SPLINE
  5
723
100
AcDbEntity
  8
0
100
AcDbSpline
 62
7
  6
CONTINUOUS
 70
0
 71
3
 72
8
 73
4
 74
0
 42
0.0000001
 43
0.0000001
 44
0.0000000001
 40
0.0
 40
0.0
 40
0.0
 40
0.0
 40
1.0
 40
1.0
 40
1.0
 40
1.0
 10
183.3656567536
 20
130.1651474468
 30
0.0
 10
183.2051435772
 20
130.3391586162
 30
0.0
 10
183.0839311701
 20
130.5581226344
 30
0.0
 10
183.0217798741
 20
130.7865555201
 30
0.0
  0
SPLINE
  5
724
100
AcDbEntity
  8
0
100
AcDbSpline
 62
7
  6
CONTINUOUS
 70
0
 71
3
 72
8
 73
4
 74
0
 42
0.0000001
 43
0.0000001
 44
0.0000000001
 40
0.0
 40
0.0
 40
0.0
 40
0.0
 40
1.0
 40
1.0
 40
1.0
 40
1.0
 10
182.7323538455
 20
130.7865555212
 30
0.0
 10
182.6702025599
 20
130.5581226224
 30
0.0
 10
182.5489901628
 20
130.3391585562
 30
0.0
 10
182.3884769067
 20
130.1651474468
 30
0.0
  0
SPLINE
  5
725
100
AcDbEntity
  8
0
100
AcDbSpline
 62
7
  6
CONTINUOUS
 70
0
 71
3
 72
9
 73
5
 74
0
 42
0.0000001
 43
0.0000001
 44
0.0000000001
 40
0.0
 40
0.0
 40
0.0
 40
0.0
 40
0.4999999305
 40
1.0
 40
1.0
 40
1.0
 40
1.0
 10
154.7081202318
 20
130.43780063
 30
0.0
 10
154.8739652585
 20
130.3220033542
 30
0.0
 10
155.2431862695
 20
130.1399693099
 30
0.0
 10
155.6501286573
 20
130.0778428257
 30
0.0
 10
155.8523997742
 20
130.0778455207
 30
0.0
  0
SPLINE
  5
726
100
AcDbEntity
  8
0
100
AcDbSpline
 62
7
  6
CONTINUOUS
 70
0
 71
3
 72
8
 73
4
 74
0
 42
0.0000001
 43
0.0000001
 44
0.0000000001
 40
0.0
 40
0.0
 40
0.0
 40
0.0
 40
1.0
 40
1.0
 40
1.0
 40
1.0
 10
156.7481592346
 20
144.174673516
 30
0.0
 10
156.8285444044
 20
144.2538475516
 30
0.0
 10
156.9177698534
 20
144.3250339248
 30
0.0
 10
157.0132528322
 20
144.3851446908
 30
0.0
  0
SPLINE
  5
727
100
AcDbEntity
  8
0
100
AcDbSpline
 62
7
  6
CONTINUOUS
 70
0
 71
3
 72
8
 73
4
 74
0
 42
0.0000001
 43
0.0000001
 44
0.0000000001
 40
0.0
 40
0.0
 40
0.0
 40
0.0
 40
1.0
 40
1.0
 40
1.0
 40
1.0
 10
148.6884274595
 20
135.5151473513
 30
0.0
 10
148.6914717766
 20
135.7383970726
 30
0.0
 10
148.7470983069
 20
135.9662960355
 30
0.0
 10
148.8471999819
 20
136.165868981
 30
0.0
  0
SPLINE
  5
728
100
AcDbEntity
  8
0
100
AcDbSpline
 62
7
  6
CONTINUOUS
 70
0
 71
3
 72
8
 73
4
 74
0
 42
0.0000001
 43
0.0000001
 44
0.0000000001
 40
0.0
 40
0.0
 40
0.0
 40
0.0
 40
1.0
 40
1.0
 40
1.0
 40
1.0
 10
148.2865137467
 20
136.7734921346
 30
0.0
 10
148.0793395441
 20
136.6634674413
 30
0.0
 10
147.8393757307
 20
136.601946356
 30
0.0
 10
147.604819975
 20
136.5987556135
 30
0.0
  0
SPLINE
  5
729
100
AcDbEntity
  8
0
100
AcDbSpline
 62
7
  6
CONTINUOUS
 70
0
 71
3
 72
8
 73
4
 74
0
 42
0.0000001
 43
0.0000001
 44
0.0000000001
 40
0.0
 40
0.0
 40
0.0
 40
0.0
 40
1.0
 40
1.0
 40
1.0
 40
1.0
 10
156.4744478878
 20
144.9231329138
 30
0.0
 10
156.4142035401
 20
144.8275468415
 30
0.0
 10
156.3428818763
 20
144.738237048
 30
0.0
 10
156.2636218814
 20
144.6577141825
 30
0.0
  0
SPLINE
  5
72A
100
AcDbEntity
  8
0
100
AcDbSpline
 62
7
  6
CONTINUOUS
 70
0
 71
3
 72
8
 73
4
 74
0
 42
0.0000001
 43
0.0000001
 44
0.0000000001
 40
0.0
 40
0.0
 40
0.0
 40
0.0
 40
1.0
 40
1.0
 40
1.0
 40
1.0
 10
156.9969157852
 20
197.2001583217
 30
0.0
 10
156.9073413973
 20
197.2581853018
 30
0.0
 10
156.8234720298
 20
197.3259469201
 30
0.0
 10
156.7474103619
 20
197.4008156322
 30
0.0
  0
SPLINE
  5
72B
100
AcDbEntity
  8
0
100
AcDbSpline
 62
7
  6
CONTINUOUS
 70
0
 71
3
 72
9
 73
5
 74
0
 42
0.0000001
 43
0.0000001
 44
0.0000000001
 40
0.0
 40
0.0
 40
0.0
 40
0.0
 40
0.2285831906
 40
1.0
 40
1.0
 40
1.0
 40
1.0
 10
181.2856644298
 20
130.1819985497
 30
0.0
 10
181.369678531
 20
130.1799495944
 30
0.0
 10
181.7372158449
 20
130.1709288224
 30
0.0
 10
182.1048670036
 20
130.1651464341
 30
0.0
 10
182.3884799886
 20
130.1651474444
 30
0.0
  0
SPLINE
  5
72C
100
AcDbEntity
  8
0
100
AcDbSpline
 62
7
  6
CONTINUOUS
 70
0
 71
3
 72
9
 73
5
 74
0
 42
0.0000001
 43
0.0000001
 44
0.0000000001
 40
0.0
 40
0.0
 40
0.0
 40
0.0
 40
0.5000908313
 40
1.0
 40
1.0
 40
1.0
 40
1.0
 10
181.2856612247
 20
130.1819985514
 30
0.0
 10
181.4717556318
 20
130.1818681276
 30
0.0
 10
181.8519572473
 20
130.2894596669
 30
0.0
 10
182.1120401849
 20
130.5872056234
 30
0.0
 10
182.1911428657
 20
130.7555765107
 30
0.0
  0
SPLINE
  5
72D
100
AcDbEntity
  8
0
100
AcDbSpline
 62
7
  6
CONTINUOUS
 70
0
 71
3
 72
8
 73
4
 74
0
 42
0.0000001
 43
0.0000001
 44
0.0000000001
 40
0.0
 40
0.0
 40
0.0
 40
0.0
 40
1.0
 40
1.0
 40
1.0
 40
1.0
 10
157.1015512367
 20
143.82025851
 30
0.0
 10
157.1860093523
 20
143.9051327426
 30
0.0
 10
157.2875801458
 20
143.9755842795
 30
0.0
 10
157.3965394561
 20
144.0252297964
 30
0.0
  0
SPLINE
  5
72E
100
AcDbEntity
  8
0
100
AcDbSpline
 62
7
  6
CONTINUOUS
 70
0
 71
3
 72
8
 73
4
 74
0
 42
0.0000001
 43
0.0000001
 44
0.0000000001
 40
0.0
 40
0.0
 40
0.0
 40
0.0
 40
1.0
 40
1.0
 40
1.0
 40
1.0
 10
182.2045179465
 20
133.875536965
 30
0.0
 10
182.2570955216
 20
133.7521542029
 30
0.0
 10
182.2848079355
 20
133.6153238491
 30
0.0
 10
182.2844708539
 20
133.4812060137
 30
0.0
  0
SPLINE
  5
72F
100
AcDbEntity
  8
0
100
AcDbSpline
 62
7
  6
CONTINUOUS
 70
0
 71
3
 72
9
 73
5
 74
0
 42
0.0000001
 43
0.0000001
 44
0.0000000001
 40
0.0
 40
0.0
 40
0.0
 40
0.0
 40
0.25517844
 40
1.0
 40
1.0
 40
1.0
 40
1.0
 10
148.6883767985
 20
135.5151964717
 30
0.0
 10
148.7130477933
 20
135.4912832322
 30
0.0
 10
148.8100064019
 20
135.3978576424
 30
0.0
 10
148.9079718424
 20
135.3054787661
 30
0.0
 10
148.9814186248
 20
135.2371933032
 30
0.0
  0
SPLINE
  5
730
100
AcDbEntity
  8
0
100
AcDbSpline
 62
7
  6
CONTINUOUS
 70
0
 71
3
 72
9
 73
5
 74
0
 42
0.0000001
 43
0.0000001
 44
0.0000000001
 40
0.0
 40
0.0
 40
0.0
 40
0.0
 40
0.2623866213
 40
1.0
 40
1.0
 40
1.0
 40
1.0
 10
183.3655261632
 20
130.1651474444
 30
0.0
 10
183.4235384594
 20
130.1651472378
 30
0.0
 10
183.6446332398
 20
130.1658637975
 30
0.0
 10
183.8657154815
 20
130.1689327657
 30
0.0
 10
184.0287680366
 20
130.17205379
 30
0.0
  0
SPLINE
  5
731
100
AcDbEntity
  8
0
100
AcDbSpline
 62
7
  6
CONTINUOUS
 70
0
 71
3
 72
8
 73
4
 74
0
 42
0.0000001
 43
0.0000001
 44
0.0000000001
 40
0.0
 40
0.0
 40
0.0
 40
0.0
 40
1.0
 40
1.0
 40
1.0
 40
1.0
 10
183.4696628346
 20
133.4812060137
 30
0.0
 10
183.469358781
 20
133.6051830776
 30
0.0
 10
183.4929885512
 20
133.7312734768
 30
0.0
 10
183.537925344
 20
133.8468203913
 30
0.0
  0
SPLINE
  5
732
100
AcDbEntity
  8
0
100
AcDbSpline
 62
7
  6
CONTINUOUS
 70
0
 71
3
 72
9
 73
5
 74
0
 42
0.0000001
 43
0.0000001
 44
0.0000000001
 40
0.0
 40
0.0
 40
0.0
 40
0.0
 40
0.5002383117
 40
1.0
 40
1.0
 40
1.0
 40
1.0
 10
183.5637186031
 20
130.7540124163
 30
0.0
 10
183.6088145934
 20
130.6584100404
 30
0.0
 10
183.7303567619
 20
130.4805714579
 30
0.0
 10
183.9018457685
 20
130.3502691722
 30
0.0
 10
183.9949399505
 20
130.3004128379
 30
0.0
  0
SPLINE
  5
733
100
AcDbEntity
  8
0
100
AcDbSpline
 62
7
  6
CONTINUOUS
 70
0
 71
3
 72
9
 73
5
 74
0
 42
0.0000001
 43
0.0000001
 44
0.0000000001
 40
0.0
 40
0.0
 40
0.0
 40
0.0
 40
0.4989447768
 40
1.0
 40
1.0
 40
1.0
 40
1.0
 10
74.6269994336
 20
147.3405866998
 30
0.0
 10
74.7836536379
 20
147.3104558827
 30
0.0
 10
75.1172449691
 20
147.3313242804
 30
0.0
 10
75.4034275181
 20
147.5032509304
 30
0.0
 10
75.5165010466
 20
147.6167345093
 30
0.0
  0
SPLINE
  5
734
100
AcDbEntity
  8
0
100
AcDbSpline
 62
7
  6
CONTINUOUS
 70
0
 71
3
 72
9
 73
5
 74
0
 42
0.0000001
 43
0.0000001
 44
0.0000000001
 40
0.0
 40
0.0
 40
0.0
 40
0.0
 40
0.4999960286
 40
1.0
 40
1.0
 40
1.0
 40
1.0
 10
81.2989962834
 20
151.4901750647
 30
0.0
 10
81.2434933725
 20
151.3165853604
 30
0.0
 10
81.1961815962
 20
150.9457638996
 30
0.0
 10
81.2859223294
 20
150.5828702562
 30
0.0
 10
81.36105971
 20
150.4168299363
 30
0.0
  0
SPLINE
  5
735
100
AcDbEntity
  8
0
100
AcDbSpline
 62
7
  6
CONTINUOUS
 70
0
 71
3
 72
8
 73
4
 74
0
 42
0.0000001
 43
0.0000001
 44
0.0000000001
 40
0.0
 40
0.0
 40
0.0
 40
0.0
 40
1.0
 40
1.0
 40
1.0
 40
1.0
 10
133.9059751355
 20
136.1677746232
 30
0.0
 10
134.0066727948
 20
135.9677251758
 30
0.0
 10
134.0626510854
 20
135.7390885049
 30
0.0
 10
134.0657042897
 20
135.5151454811
 30
0.0
  0
SPLINE
  5
736
100
AcDbEntity
  8
0
100
AcDbSpline
 62
7
  6
CONTINUOUS
 70
0
 71
3
 72
8
 73
4
 74
0
 42
0.0000001
 43
0.0000001
 44
0.0000000001
 40
0.0
 40
0.0
 40
0.0
 40
0.0
 40
1.0
 40
1.0
 40
1.0
 40
1.0
 10
125.7572189587
 20
144.3745818403
 30
0.0
 10
125.8467822988
 20
144.3165635276
 30
0.0
 10
125.9306422113
 20
144.2488125378
 30
0.0
 10
126.0066941239
 20
144.1739538503
 30
0.0
  0
SPLINE
  5
737
100
AcDbEntity
  8
0
100
AcDbSpline
 62
7
  6
CONTINUOUS
 70
0
 71
3
 72
8
 73
4
 74
0
 42
0.0000001
 43
0.0000001
 44
0.0000000001
 40
0.0
 40
0.0
 40
0.0
 40
0.0
 40
1.0
 40
1.0
 40
1.0
 40
1.0
 10
82.3091743441
 20
150.2844293833
 30
0.0
 10
82.2817993433
 20
150.2839104858
 30
0.0
 10
82.2544093042
 20
150.2843566641
 30
0.0
 10
82.2270381592
 20
150.2836635965
 30
0.0
  0
SPLINE
  5
738
100
AcDbEntity
  8
0
100
AcDbSpline
 62
7
  6
CONTINUOUS
 70
0
 71
3
 72
9
 73
5
 74
0
 42
0.0000001
 43
0.0000001
 44
0.0000000001
 40
0.0
 40
0.0
 40
0.0
 40
0.0
 40
0.5000622615
 40
1.0
 40
1.0
 40
1.0
 40
1.0
 10
99.9691573357
 20
133.4815627898
 30
0.0
 10
99.9691522539
 20
133.6781141112
 30
0.0
 10
100.0479291539
 20
134.0752157417
 30
0.0
 10
100.2754182751
 20
134.4100733884
 30
0.0
 10
100.4153375247
 20
134.548043631
 30
0.0
  0
SPLINE
  5
739
100
AcDbEntity
  8
0
100
AcDbSpline
 62
7
  6
CONTINUOUS
 70
0
 71
3
 72
8
 73
4
 74
0
 42
0.0000001
 43
0.0000001
 44
0.0000000001
 40
0.0
 40
0.0
 40
0.0
 40
0.0
 40
1.0
 40
1.0
 40
1.0
 40
1.0
 10
100.3656567536
 20
130.1651474468
 30
0.0
 10
100.2051435772
 20
130.3391586162
 30
0.0
 10
100.0839311701
 20
130.5581226344
 30
0.0
 10
100.0217798741
 20
130.7865555201
 30
0.0
  0
SPLINE
  5
73A
100
AcDbEntity
  8
0
100
AcDbSpline
 62
7
  6
CONTINUOUS
 70
0
 71
3
 72
8
 73
4
 74
0
 42
0.0000001
 43
0.0000001
 44
0.0000000001
 40
0.0
 40
0.0
 40
0.0
 40
0.0
 40
1.0
 40
1.0
 40
1.0
 40
1.0
 10
99.7323538455
 20
130.7865555212
 30
0.0
 10
99.6702025599
 20
130.5581226224
 30
0.0
 10
99.5489901628
 20
130.3391585562
 30
0.0
 10
99.3884769067
 20
130.1651474468
 30
0.0
  0
SPLINE
  5
73B
100
AcDbEntity
  8
0
100
AcDbSpline
 62
7
  6
CONTINUOUS
 70
0
 71
3
 72
8
 73
4
 74
0
 42
0.0000001
 43
0.0000001
 44
0.0000000001
 40
0.0
 40
0.0
 40
0.0
 40
0.0
 40
1.0
 40
1.0
 40
1.0
 40
1.0
 10
99.6013948437
 20
134.2001458453
 30
0.0
 10
99.7200169487
 20
133.9831108091
 30
0.0
 10
99.7849829555
 20
133.7285412271
 30
0.0
 10
99.7849763574
 20
133.4812045927
 30
0.0
  0
SPLINE
  5
73C
100
AcDbEntity
  8
0
100
AcDbSpline
 62
7
  6
CONTINUOUS
 70
0
 71
3
 72
9
 73
5
 74
0
 42
0.0000001
 43
0.0000001
 44
0.0000000001
 40
0.0
 40
0.0
 40
0.0
 40
0.0
 40
0.4999752506
 40
1.0
 40
1.0
 40
1.0
 40
1.0
 10
74.6258397082
 20
144.6020104131
 30
0.0
 10
74.836887669
 20
144.6275356957
 30
0.0
 10
75.2758699302
 20
144.5887309917
 30
0.0
 10
75.6547901335
 20
144.365798644
 30
0.0
 10
75.8135361174
 20
144.2243721852
 30
0.0
  0
SPLINE
  5
73D
100
AcDbEntity
  8
0
100
AcDbSpline
 62
7
  6
CONTINUOUS
 70
0
 71
3
 72
11
 73
7
 74
0
 42
0.0000001
 43
0.0000001
 44
0.0000000001
 40
0.0
 40
0.0
 40
0.0
 40
0.0
 40
0.2500356613
 40
0.4999989833
 40
0.7499690604
 40
1.0
 40
1.0
 40
1.0
 40
1.0
 10
76.3536779545
 20
146.7801922357
 30
0.0
 10
76.2110312944
 20
146.6377204695
 30
0.0
 10
75.9814462047
 20
146.2903318579
 30
0.0
 10
75.8734935407
 20
145.6787494631
 30
0.0
 10
76.0145490806
 20
145.0738743708
 30
0.0
 10
76.2628717158
 20
144.7396725805
 30
0.0
 10
76.4129823754
 20
144.6050935015
 30
0.0
  0
SPLINE
  5
73E
100
AcDbEntity
  8
0
100
AcDbSpline
 62
7
  6
CONTINUOUS
 70
0
 71
3
 72
11
 73
7
 74
0
 42
0.0000001
 43
0.0000001
 44
0.0000000001
 40
0.0
 40
0.0
 40
0.0
 40
0.0
 40
0.250029168
 40
0.5000027334
 40
0.7499717837
 40
1.0
 40
1.0
 40
1.0
 40
1.0
 10
81.1100975559
 20
149.5488257897
 30
0.0
 10
80.9697054536
 20
149.6728420546
 30
0.0
 10
80.6386495601
 20
149.8697012103
 30
0.0
 10
80.0707338219
 20
149.9593926363
 30
0.0
 10
79.5094877099
 20
149.8347216346
 30
0.0
 10
79.191184536
 20
149.6178153649
 30
0.0
 10
79.0587858309
 20
149.4853001126
 30
0.0
  0
SPLINE
  5
73F
100
AcDbEntity
  8
0
100
AcDbSpline
 62
7
  6
CONTINUOUS
 70
0
 71
3
 72
9
 73
5
 74
0
 42
0.0000001
 43
0.0000001
 44
0.0000000001
 40
0.0
 40
0.0
 40
0.0
 40
0.0
 40
0.4997433929
 40
1.0
 40
1.0
 40
1.0
 40
1.0
 10
80.0872508069
 20
149.4253542839
 30
0.0
 10
79.9625407593
 20
149.4215122815
 30
0.0
 10
79.7126595478
 20
149.364380599
 30
0.0
 10
79.5002584714
 20
149.2209364532
 30
0.0
 10
79.4120991497
 20
149.1324645292
 30
0.0
  0
SPLINE
  5
740
100
AcDbEntity
  8
0
100
AcDbSpline
 62
7
  6
CONTINUOUS
 70
0
 71
3
 72
9
 73
5
 74
0
 42
0.0000001
 43
0.0000001
 44
0.0000000001
 40
0.0
 40
0.0
 40
0.0
 40
0.0
 40
0.5001709404
 40
1.0
 40
1.0
 40
1.0
 40
1.0
 10
80.7794795003
 20
149.1746689173
 30
0.0
 10
80.6859654832
 20
149.257491665
 30
0.0
 10
80.4650222104
 20
149.3875125981
 30
0.0
 10
80.2120241171
 20
149.4291981208
 30
0.0
 10
80.0872508104
 20
149.4253541695
 30
0.0
  0
SPLINE
  5
741
100
AcDbEntity
  8
0
100
AcDbSpline
 62
7
  6
CONTINUOUS
 70
0
 71
3
 72
9
 73
5
 74
0
 42
0.0000001
 43
0.0000001
 44
0.0000000001
 40
0.0
 40
0.0
 40
0.0
 40
0.0
 40
0.5000262324
 40
1.0
 40
1.0
 40
1.0
 40
1.0
 10
76.7064444805
 20
146.4267915216
 30
0.0
 10
76.5198541086
 20
146.2409847937
 30
0.0
 10
76.2914737798
 20
145.6898991019
 30
0.0
 10
76.5497819799
 20
145.1524560711
 30
0.0
 10
76.7460855881
 20
144.9769839927
 30
0.0
  0
LINE
  5
742
100
AcDbEntity
  8
0
100
AcDbLine
 62
7
  6
CONTINUOUS
 10
76.9806921355
 20
144.9802510477
 11
76.7460768286
 21
144.9769742217
  0
LINE
  5
743
100
AcDbEntity
  8
0
100
AcDbLine
 62
7
  6
CONTINUOUS
 10
80.7804372386
 20
149.1757531324
 11
80.7814483058
 21
148.9598326255
  0
SPLINE
  5
744
100
AcDbEntity
  8
0
100
AcDbSpline
 62
7
  6
CONTINUOUS
 70
0
 71
3
 72
8
 73
4
 74
0
 42
0.0000001
 43
0.0000001
 44
0.0000000001
 40
0.0
 40
0.0
 40
0.0
 40
0.0
 40
1.0
 40
1.0
 40
1.0
 40
1.0
 10
126.0059745296
 20
197.4000668304
 30
0.0
 10
125.925589331
 20
197.3208927739
 30
0.0
 10
125.8363638581
 20
197.2497063743
 30
0.0
 10
125.7408808483
 20
197.1895955915
 30
0.0
  0
SPLINE
  5
745
100
AcDbEntity
  8
0
100
AcDbSpline
 62
7
  6
CONTINUOUS
 70
0
 71
3
 72
8
 73
4
 74
0
 42
0.0000001
 43
0.0000001
 44
0.0000000001
 40
0.0
 40
0.0
 40
0.0
 40
0.0
 40
1.0
 40
1.0
 40
1.0
 40
1.0
 10
126.2796858349
 20
196.6516073188
 30
0.0
 10
126.3399302413
 20
196.7471934902
 30
0.0
 10
126.4112519832
 20
196.8365033684
 30
0.0
 10
126.4905120467
 20
196.9170263278
 30
0.0
  0
SPLINE
  5
746
100
AcDbEntity
  8
0
100
AcDbSpline
 62
7
  6
CONTINUOUS
 70
0
 71
3
 72
9
 73
5
 74
0
 42
0.0000001
 43
0.0000001
 44
0.0000000001
 40
0.0
 40
0.0
 40
0.0
 40
0.0
 40
0.2679519138
 40
1.0
 40
1.0
 40
1.0
 40
1.0
 10
69.4530328875
 20
311.767190913
 30
0.0
 10
69.4391086526
 20
311.7666901415
 30
0.0
 10
69.387348297
 20
311.7610619715
 30
0.0
 10
69.3369788341
 20
311.7425398711
 30
0.0
 10
69.3045772247
 20
311.7225613942
 30
0.0
  0
SPLINE
  5
747
100
AcDbEntity
  8
0
100
AcDbSpline
 62
7
  6
CONTINUOUS
 70
0
 71
3
 72
8
 73
4
 74
0
 42
0.0000001
 43
0.0000001
 44
0.0000000001
 40
0.0
 40
0.0
 40
0.0
 40
0.0
 40
1.0
 40
1.0
 40
1.0
 40
1.0
 10
69.3045772247
 20
311.7225613942
 30
0.0
 10
69.2617413248
 20
311.6961492482
 30
0.0
 10
69.2247344647
 20
311.657347893
 30
0.0
 10
69.2003844031
 20
311.6133071134
 30
0.0
  0
SPLINE
  5
748
100
AcDbEntity
  8
0
100
AcDbSpline
 62
7
  6
CONTINUOUS
 70
0
 71
3
 72
8
 73
4
 74
0
 42
0.0000001
 43
0.0000001
 44
0.0000000001
 40
0.0
 40
0.0
 40
0.0
 40
0.0
 40
1.0
 40
1.0
 40
1.0
 40
1.0
 10
96.8135334288
 20
309.313670513
 30
0.0
 10
96.3347117068
 20
309.3130896306
 30
0.0
 10
95.8556142309
 20
309.2965484559
 30
0.0
 10
95.3770674794
 20
309.3127837745
 30
0.0
  0
SPLINE
  5
749
100
AcDbEntity
  8
0
100
AcDbSpline
 62
7
  6
CONTINUOUS
 70
0
 71
3
 72
8
 73
4
 74
0
 42
0.0000001
 43
0.0000001
 44
0.0000000001
 40
0.0
 40
0.0
 40
0.0
 40
0.0
 40
1.0
 40
1.0
 40
1.0
 40
1.0
 10
95.3770674794
 20
309.3127837745
 30
0.0
 10
94.8255412634
 20
309.2965032286
 30
0.0
 10
94.2735347258
 20
309.3121869732
 30
0.0
 10
93.7217683308
 20
309.3119252604
 30
0.0
  0
SPLINE
  5
74A
100
AcDbEntity
  8
0
100
AcDbSpline
 62
7
  6
CONTINUOUS
 70
0
 71
3
 72
9
 73
5
 74
0
 42
0.0000001
 43
0.0000001
 44
0.0000000001
 40
0.0
 40
0.0
 40
0.0
 40
0.0
 40
0.2748152299
 40
1.0
 40
1.0
 40
1.0
 40
1.0
 10
121.2154301584
 20
311.1260705423
 30
0.0
 10
121.2066436049
 20
311.1910280379
 30
0.0
 10
121.1743426516
 20
311.4273388889
 30
0.0
 10
121.1410572513
 20
311.6636061763
 30
0.0
 10
121.1113691347
 20
311.8340107847
 30
0.0
  0
SPLINE
  5
74B
100
AcDbEntity
  8
0
100
AcDbSpline
 62
7
  6
CONTINUOUS
 70
0
 71
3
 72
11
 73
7
 74
0
 42
0.0000001
 43
0.0000001
 44
0.0000000001
 40
0.0
 40
0.0
 40
0.0
 40
0.0
 40
0.4099817914
 40
0.7184788834
 40
0.914331652
 40
1.0
 40
1.0
 40
1.0
 40
1.0
 10
121.1113691347
 20
311.8340107847
 30
0.0
 10
121.1041458466
 20
311.8754711975
 30
0.0
 10
121.0910988679
 20
311.9470192251
 30
0.0
 10
121.0696831025
 20
312.0418356399
 30
0.0
 10
121.0537472238
 20
312.0938677964
 30
0.0
 10
121.0375003471
 20
312.126922998
 30
0.0
 10
121.0287065252
 20
312.1269644145
 30
0.0
  0
SPLINE
  5
74C
100
AcDbEntity
  8
0
100
AcDbSpline
 62
7
  6
CONTINUOUS
 70
0
 71
3
 72
9
 73
5
 74
0
 42
0.0000001
 43
0.0000001
 44
0.0000000001
 40
0.0
 40
0.0
 40
0.0
 40
0.0
 40
0.1937166027
 40
1.0
 40
1.0
 40
1.0
 40
1.0
 10
118.1143872836
 20
311.5765636647
 30
0.0
 10
117.656599321
 20
311.5891923816
 30
0.0
 10
115.2934037453
 20
311.6539501902
 30
0.0
 10
112.9298908135
 20
311.7071984433
 30
0.0
 10
111.0241225791
 20
311.7438603812
 30
0.0
  0
SPLINE
  5
74D
100
AcDbEntity
  8
0
100
AcDbSpline
 62
7
  6
CONTINUOUS
 70
0
 71
3
 72
9
 73
5
 74
0
 42
0.0000001
 43
0.0000001
 44
0.0000000001
 40
0.0
 40
0.0
 40
0.0
 40
0.0
 40
0.2077762585
 40
1.0
 40
1.0
 40
1.0
 40
1.0
 10
111.0241225791
 20
311.7438603812
 30
0.0
 10
109.9405696961
 20
311.7647050714
 30
0.0
 10
104.7254091203
 20
311.8565375455
 30
0.0
 10
99.5092771931
 20
311.8919299387
 30
0.0
 10
95.3770671951
 20
311.8926058596
 30
0.0
  0
SPLINE
  5
74E
100
AcDbEntity
  8
0
100
AcDbSpline
 62
7
  6
CONTINUOUS
 70
0
 71
3
 72
10
 73
6
 74
0
 42
0.0000001
 43
0.0000001
 44
0.0000000001
 40
0.0
 40
0.0
 40
0.0
 40
0.0
 40
0.284325236
 40
0.5518022369
 40
1.0
 40
1.0
 40
1.0
 40
1.0
 10
95.3770671951
 20
311.8926058596
 30
0.0
 10
93.901226024
 20
311.895696636
 30
0.0
 10
91.0369774907
 20
311.8851393974
 30
0.0
 10
85.846423239
 20
311.8465824425
 30
0.0
 10
82.1319507155
 20
311.7893499244
 30
0.0
 10
79.8059090226
 20
311.7454438952
 30
0.0
  0
SPLINE
  5
74F
100
AcDbEntity
  8
0
100
AcDbSpline
 62
7
  6
CONTINUOUS
 70
0
 71
3
 72
11
 73
7
 74
0
 42
0.0000001
 43
0.0000001
 44
0.0000000001
 40
0.0
 40
0.0
 40
0.0
 40
0.0
 40
0.6322843577
 40
0.7472456611
 40
0.8465313429
 40
1.0
 40
1.0
 40
1.0
 40
1.0
 10
79.8059090226
 20
311.7454438952
 30
0.0
 10
77.8379585633
 20
311.7082971448
 30
0.0
 10
75.5125253429
 20
311.6487567046
 30
0.0
 10
72.8780823902
 20
311.5829453194
 30
0.0
 10
71.733997651
 20
311.5454197954
 30
0.0
 10
70.9473023743
 20
311.5286903033
 30
0.0
 10
70.4699011126
 20
311.5104948168
 30
0.0
  0
SPLINE
  5
750
100
AcDbEntity
  8
0
100
AcDbSpline
 62
7
  6
CONTINUOUS
 70
0
 71
3
 72
14
 73
10
 74
0
 42
0.0000001
 43
0.0000001
 44
0.0000000001
 40
0.0
 40
0.0
 40
0.0
 40
0.0
 40
0.3779230981
 40
0.5491438258
 40
0.6995628119
 40
0.8236145481
 40
0.9167945683
 40
0.9755567981
 40
1.0
 40
1.0
 40
1.0
 40
1.0
 10
69.5910890113
 20
310.6320905146
 30
0.0
 10
69.6026910193
 20
310.7600425653
 30
0.0
 10
69.6198414134
 20
310.9460420275
 30
0.0
 10
69.6441411364
 20
311.1823750577
 30
0.0
 10
69.6613454871
 20
311.3335003941
 30
0.0
 10
69.6776301494
 20
311.4557904185
 30
0.0
 10
69.6932300567
 20
311.5523239906
 30
0.0
 10
69.7063291769
 20
311.60330574
 30
0.0
 10
69.7182352873
 20
311.6384727574
 30
0.0
 10
69.7265372875
 20
311.638828
 30
0.0
  0
SPLINE
  5
751
100
AcDbEntity
  8
0
100
AcDbSpline
 62
7
  6
CONTINUOUS
 70
0
 71
3
 72
10
 73
6
 74
0
 42
0.0000001
 43
0.0000001
 44
0.0000000001
 40
0.0
 40
0.0
 40
0.0
 40
0.0
 40
0.4999350824
 40
0.7499570907
 40
1.0
 40
1.0
 40
1.0
 40
1.0
 10
121.2154295113
 20
311.1260705469
 30
0.0
 10
117.268757336
 20
310.4276567356
 30
0.0
 10
111.2960890024
 20
309.6334915511
 30
0.0
 10
103.2875609565
 20
309.2156018201
 30
0.0
 10
99.2763351584
 20
309.1976647932
 30
0.0
 10
97.2723392773
 20
309.2468927658
 30
0.0
  0
SPLINE
  5
752
100
AcDbEntity
  8
0
100
AcDbSpline
 62
7
  6
CONTINUOUS
 70
0
 71
3
 72
10
 73
6
 74
0
 42
0.0000001
 43
0.0000001
 44
0.0000000001
 40
0.0
 40
0.0
 40
0.0
 40
0.0
 40
0.2500399436
 40
0.5000736079
 40
1.0
 40
1.0
 40
1.0
 40
1.0
 10
93.7235409301
 20
309.2389071318
 30
0.0
 10
91.7078470432
 20
309.1641221528
 30
0.0
 10
87.6717654268
 20
309.1246500828
 30
0.0
 10
79.6085589653
 20
309.4120666337
 30
0.0
 10
73.5785390209
 20
310.0281634011
 30
0.0
 10
69.5910910369
 20
310.6320906019
 30
0.0
  0
SPLINE
  5
753
100
AcDbEntity
  8
0
100
AcDbSpline
 62
7
  6
CONTINUOUS
 70
0
 71
3
 72
9
 73
5
 74
0
 42
0.0000001
 43
0.0000001
 44
0.0000000001
 40
0.0
 40
0.0
 40
0.0
 40
0.0
 40
0.5000112925
 40
1.0
 40
1.0
 40
1.0
 40
1.0
 10
259.0844053843
 20
123.6873701376
 30
0.0
 10
259.2151492647
 20
123.6873701376
 30
0.0
 10
259.4792394299
 20
123.7394095997
 30
0.0
 10
259.70274628
 20
123.8893905628
 30
0.0
 10
259.7951817318
 20
123.9818465271
 30
0.0
  0
SPLINE
  5
754
100
AcDbEntity
  8
0
100
AcDbSpline
 62
7
  6
CONTINUOUS
 70
0
 71
3
 72
8
 73
4
 74
0
 42
0.0000001
 43
0.0000001
 44
0.0000000001
 40
0.0
 40
0.0
 40
0.0
 40
0.0
 40
1.0
 40
1.0
 40
1.0
 40
1.0
 10
260.0238397476
 20
124.3365223632
 30
0.0
 10
260.065452844
 20
124.4478503708
 30
0.0
 10
260.0872243192
 20
124.5685191635
 30
0.0
 10
260.087369386
 20
124.6873701376
 30
0.0
  0
SPLINE
  5
755
100
AcDbEntity
  8
0
100
AcDbSpline
 62
7
  6
CONTINUOUS
 70
0
 71
3
 72
11
 73
7
 74
0
 42
0.0000001
 43
0.0000001
 44
0.0000000001
 40
0.0
 40
0.0
 40
0.0
 40
0.0
 40
0.2502217744
 40
0.5001648592
 40
0.7500436521
 40
1.0
 40
1.0
 40
1.0
 40
1.0
 10
41.4563372244
 20
144.7458467349
 30
0.0
 10
41.3244606768
 20
144.7458467349
 30
0.0
 10
41.0569904241
 20
144.7903024403
 30
0.0
 10
40.7169999247
 20
145.0128736546
 30
0.0
 10
40.4891170687
 20
145.3477856107
 30
0.0
 10
40.4358080321
 20
145.6142625039
 30
0.0
 10
40.4358481695
 20
145.7459991554
 30
0.0
  0
SPLINE
  5
756
100
AcDbEntity
  8
0
100
AcDbSpline
 62
7
  6
CONTINUOUS
 70
0
 71
3
 72
8
 73
4
 74
0
 42
0.0000001
 43
0.0000001
 44
0.0000000001
 40
0.0
 40
0.0
 40
0.0
 40
0.0
 40
1.0
 40
1.0
 40
1.0
 40
1.0
 10
265.0585535813
 20
296.16896456
 30
0.0
 10
265.1487420458
 20
296.0787623636
 30
0.0
 10
265.2844976864
 20
296.0224714356
 30
0.0
 10
265.4120531404
 20
296.022432584
 30
0.0
  0
SPLINE
  5
757
100
AcDbEntity
  8
0
100
AcDbSpline
 62
7
  6
CONTINUOUS
 70
0
 71
3
 72
8
 73
4
 74
0
 42
0.0000001
 43
0.0000001
 44
0.0000000001
 40
0.0
 40
0.0
 40
0.0
 40
0.0
 40
1.0
 40
1.0
 40
1.0
 40
1.0
 10
264.9121292928
 20
296.5223564315
 30
0.0
 10
264.9121681302
 20
296.3948478813
 30
0.0
 10
264.9683982761
 20
296.2591335838
 30
0.0
 10
265.0585535813
 20
296.16896456
 30
0.0
  0
SPLINE
  5
758
100
AcDbEntity
  8
0
100
AcDbSpline
 62
7
  6
CONTINUOUS
 70
0
 71
3
 72
9
 73
5
 74
0
 42
0.0000001
 43
0.0000001
 44
0.0000000001
 40
0.0
 40
0.0
 40
0.0
 40
0.0
 40
0.4998844549
 40
1.0
 40
1.0
 40
1.0
 40
1.0
 10
258.9445517604
 20
123.6873701376
 30
0.0
 10
259.18854304
 20
123.6873701376
 30
0.0
 10
259.6951108464
 20
123.882132819
 30
0.0
 10
259.9227521934
 20
124.374267563
 30
0.0
 10
259.9396975762
 20
124.6177827633
 30
0.0
  0
SPLINE
  5
759
100
AcDbEntity
  8
0
100
AcDbSpline
 62
7
  6
CONTINUOUS
 70
0
 71
3
 72
8
 73
4
 74
0
 42
0.0000001
 43
0.0000001
 44
0.0000000001
 40
0.0
 40
0.0
 40
0.0
 40
0.0
 40
1.0
 40
1.0
 40
1.0
 40
1.0
 10
259.9421158106
 20
124.6873701376
 30
0.0
 10
259.9421158106
 20
124.6642027522
 30
0.0
 10
259.9420673681
 20
124.6408586224
 30
0.0
 10
259.9385528442
 20
124.6179593676
 30
0.0
  0
SPLINE
  5
75A
100
AcDbEntity
  8
0
100
AcDbSpline
 62
7
  6
CONTINUOUS
 70
0
 71
3
 72
13
 73
9
 74
0
 42
0.0000001
 43
0.0000001
 44
0.0000000001
 40
0.0
 40
0.0
 40
0.0
 40
0.0
 40
0.0326804849
 40
0.1041903069
 40
0.2089093608
 40
0.3395803579
 40
0.6525849155
 40
1.0
 40
1.0
 40
1.0
 40
1.0
 10
52.172941071
 20
210.6873701376
 30
0.0
 10
52.1840368905
 20
210.6873701376
 30
0.0
 10
52.2023943332
 20
210.7295929149
 30
0.0
 10
52.218782515
 20
210.7904480974
 30
0.0
 10
52.2387816262
 20
210.896634683
 30
0.0
 10
52.2650329966
 20
211.0791146419
 30
0.0
 10
52.2952370161
 20
211.3471956976
 30
0.0
 10
52.3173410887
 20
211.5699840792
 30
0.0
 10
52.3289212881
 20
211.6873701376
 30
0.0
  0
SPLINE
  5
75B
100
AcDbEntity
  8
0
100
AcDbSpline
 62
7
  6
CONTINUOUS
 70
0
 71
3
 72
9
 73
5
 74
0
 42
0.0000001
 43
0.0000001
 44
0.0000000001
 40
0.0
 40
0.0
 40
0.0
 40
0.0
 40
0.1074904137
 40
1.0
 40
1.0
 40
1.0
 40
1.0
 10
40.3943315142
 20
210.6890307387
 30
0.0
 10
40.3585351169
 20
210.7248340317
 30
0.0
 10
40.0207768072
 20
211.0531387825
 30
0.0
 10
39.691621255
 20
211.3901184661
 30
0.0
 10
39.3943695834
 20
211.6873701376
 30
0.0
  0
SPLINE
  5
75C
100
AcDbEntity
  8
0
100
AcDbSpline
 62
7
  6
CONTINUOUS
 70
0
 71
3
 72
13
 73
9
 74
0
 42
0.0000001
 43
0.0000001
 44
0.0000000001
 40
0.0
 40
0.0
 40
0.0
 40
0.0
 40
0.3444833746
 40
0.6551869187
 40
0.7853026727
 40
0.8907057383
 40
0.9644290055
 40
1.0
 40
1.0
 40
1.0
 40
1.0
 10
52.3289212561
 20
143.6559601685
 30
0.0
 10
52.3174685571
 20
143.7764886967
 30
0.0
 10
52.2956126265
 20
144.0054516844
 30
0.0
 10
52.2660392523
 20
144.2807823286
 30
0.0
 10
52.2394110199
 20
144.4694952082
 30
0.0
 10
52.2204603076
 20
144.5795203971
 30
0.0
 10
52.2018168062
 20
144.6463297502
 30
0.0
 10
52.1863573183
 20
144.6905009336
 30
0.0
 10
52.1742233328
 20
144.6935107732
 30
0.0
  0
SPLINE
  5
75D
100
AcDbEntity
  8
0
100
AcDbSpline
 62
7
  6
CONTINUOUS
 70
0
 71
3
 72
13
 73
9
 74
0
 42
0.0000001
 43
0.0000001
 44
0.0000000001
 40
0.0
 40
0.0
 40
0.0
 40
0.0
 40
0.0314443245
 40
0.096600134
 40
0.1926769628
 40
0.3167752002
 40
0.6329877609
 40
1.0
 40
1.0
 40
1.0
 40
1.0
 10
52.3289211183
 20
143.6559413197
 30
0.0
 10
52.3093187429
 20
143.6632688721
 30
0.0
 10
52.2438372263
 20
143.6664994734
 30
0.0
 10
52.1169970121
 20
143.6774831832
 30
0.0
 10
51.9267056405
 20
143.6839954242
 30
0.0
 10
51.5701483598
 20
143.6948659023
 30
0.0
 10
51.0326995129
 20
143.702245869
 30
0.0
 10
50.5780510932
 20
143.7046522666
 30
0.0
 10
50.3337931856
 20
143.7046534215
 30
0.0
  0
SPLINE
  5
75E
100
AcDbEntity
  8
0
100
AcDbSpline
 62
7
  6
CONTINUOUS
 70
0
 71
3
 72
11
 73
7
 74
0
 42
0.0000001
 43
0.0000001
 44
0.0000000001
 40
0.0
 40
0.0
 40
0.0
 40
0.0
 40
0.2953838371
 40
0.5544462841
 40
0.7840482939
 40
1.0
 40
1.0
 40
1.0
 40
1.0
 10
35.8770668465
 20
235.6873701376
 30
0.0
 10
35.6486018701
 20
235.6873701376
 30
0.0
 10
35.2130784149
 20
235.7869062116
 30
0.0
 10
34.7200922148
 20
236.1668838021
 30
0.0
 10
34.437894989
 20
236.6468978628
 30
0.0
 10
34.3770668465
 20
236.9943879311
 30
0.0
 10
34.3770668465
 20
237.1614160323
 30
0.0
  0
SPLINE
  5
75F
100
AcDbEntity
  8
0
100
AcDbSpline
 62
7
  6
CONTINUOUS
 70
0
 71
3
 72
8
 73
4
 74
0
 42
0.0000001
 43
0.0000001
 44
0.0000000001
 40
0.0
 40
0.0
 40
0.0
 40
0.0
 40
1.0
 40
1.0
 40
1.0
 40
1.0
 10
39.3085535813
 20
296.16896456
 30
0.0
 10
39.3987420458
 20
296.0787623636
 30
0.0
 10
39.5344976864
 20
296.0224714356
 30
0.0
 10
39.6620531404
 20
296.022432584
 30
0.0
  0
SPLINE
  5
760
100
AcDbEntity
  8
0
100
AcDbSpline
 62
7
  6
CONTINUOUS
 70
0
 71
3
 72
8
 73
4
 74
0
 42
0.0000001
 43
0.0000001
 44
0.0000000001
 40
0.0
 40
0.0
 40
0.0
 40
0.0
 40
1.0
 40
1.0
 40
1.0
 40
1.0
 10
39.1621292929
 20
296.5223564315
 30
0.0
 10
39.1621681302
 20
296.3948478813
 30
0.0
 10
39.2183982761
 20
296.2591335838
 30
0.0
 10
39.3085535813
 20
296.16896456
 30
0.0
  0
SPLINE
  5
761
100
AcDbEntity
  8
0
100
AcDbSpline
 62
7
  6
CONTINUOUS
 70
0
 71
3
 72
9
 73
5
 74
0
 42
0.0000001
 43
0.0000001
 44
0.0000000001
 40
0.0
 40
0.0
 40
0.0
 40
0.0
 40
0.4999999987
 40
1.0
 40
1.0
 40
1.0
 40
1.0
 10
48.3420805526
 20
296.022432584
 30
0.0
 10
48.4696207387
 20
296.022471431
 30
0.0
 10
48.7353501515
 20
296.1290868318
 30
0.0
 10
48.8419655532
 20
296.3948162448
 30
0.0
 10
48.8420044002
 20
296.5223564315
 30
0.0
  0
SPLINE
  5
762
100
AcDbEntity
  8
0
100
AcDbSpline
 62
7
  6
CONTINUOUS
 70
0
 71
3
 72
9
 73
5
 74
0
 42
0.0000001
 43
0.0000001
 44
0.0000000001
 40
0.0
 40
0.0
 40
0.0
 40
0.0
 40
0.267829284
 40
1.0
 40
1.0
 40
1.0
 40
1.0
 10
50.3340597967
 20
144.7045205697
 30
0.0
 10
50.4983465393
 20
144.7045237381
 30
0.0
 10
51.1117459178
 20
144.703590523
 30
0.0
 10
51.725149934
 20
144.6996012493
 30
0.0
 10
52.1742228645
 20
144.6935108895
 30
0.0
  0
SPLINE
  5
763
100
AcDbEntity
  8
0
100
AcDbSpline
 62
7
  6
CONTINUOUS
 70
0
 71
3
 72
9
 73
5
 74
0
 42
0.0000001
 43
0.0000001
 44
0.0000000001
 40
0.0
 40
0.0
 40
0.0
 40
0.0
 40
0.5000106765
 40
1.0
 40
1.0
 40
1.0
 40
1.0
 10
40.3942176722
 20
145.7043682642
 30
0.0
 10
40.39414874
 20
145.449253625
 30
0.0
 10
40.6072988464
 20
144.9175971744
 30
0.0
 10
41.1389612326
 20
144.7044374447
 30
0.0
 10
41.3940649725
 20
144.7045218533
 30
0.0
  0
SPLINE
  5
764
100
AcDbEntity
  8
0
100
AcDbSpline
 62
7
  6
CONTINUOUS
 70
0
 71
3
 72
9
 73
5
 74
0
 42
0.0000001
 43
0.0000001
 44
0.0000000001
 40
0.0
 40
0.0
 40
0.0
 40
0.0
 40
0.4999999987
 40
1.0
 40
1.0
 40
1.0
 40
1.0
 10
274.0920805526
 20
296.022432584
 30
0.0
 10
274.2196207387
 20
296.022471431
 30
0.0
 10
274.4853501516
 20
296.1290868318
 30
0.0
 10
274.5919655532
 20
296.3948162448
 30
0.0
 10
274.5920044002
 20
296.5223564315
 30
0.0
  0
SPLINE
  5
765
100
AcDbEntity
  8
0
100
AcDbSpline
 62
7
  6
CONTINUOUS
 70
0
 71
3
 72
11
 73
7
 74
0
 42
0.0000001
 43
0.0000001
 44
0.0000000001
 40
0.0
 40
0.0
 40
0.0
 40
0.0
 40
0.2159525555
 40
0.4455669058
 40
0.704657628
 40
1.0
 40
1.0
 40
1.0
 40
1.0
 10
279.3770668465
 20
237.1614160323
 30
0.0
 10
279.3770668465
 20
236.9943876914
 30
0.0
 10
279.3162344123
 20
236.6468908141
 30
0.0
 10
279.0340282212
 20
236.1668388246
 30
0.0
 10
278.5409964288
 20
235.7869211022
 30
0.0
 10
278.105499181
 20
235.6873701376
 30
0.0
 10
277.8770668465
 20
235.6873701376
 30
0.0
  0
ELLIPSE
  5
766
100
AcDbEntity
  8
0
100
AcDbEllipse
 62
7
  6
CONTINUOUS
 10
181.1256945005
 20
131.2879796819
 30
0.0
 11
0.8338289523
 21
-0.5556035581
 31
0.0
 40
0.9980228614
 41
-0.9821146404
 42
0.0257109985
  0
ELLIPSE
  5
767
100
AcDbEntity
  8
0
100
AcDbEllipse
 62
7
  6
CONTINUOUS
 10
184.6284391925
 20
131.2879796819
 30
0.0
 11
0.8338289523
 21
0.5556035581
 31
0.0
 40
0.9980228614
 41
3.1158475801
 42
3.4510041037
  0
ELLIPSE
  5
768
100
AcDbEntity
  8
0
100
AcDbEllipse
 62
7
  6
CONTINUOUS
 10
98.1256945005
 20
131.2879796819
 30
0.0
 11
0.8338289523
 21
-0.5556035581
 31
0.0
 40
0.9980228614
 41
-0.9821146404
 42
0.0257109985
  0
ELLIPSE
  5
769
100
AcDbEntity
  8
0
100
AcDbEllipse
 62
7
  6
CONTINUOUS
 10
101.6284391925
 20
131.2879796819
 30
0.0
 11
0.8338289523
 21
0.5556035581
 31
0.0
 40
0.9980228614
 41
-2.605509983
 42
-2.1594780132
  0
ELLIPSE
  5
76A
100
AcDbEntity
  8
0
100
AcDbEllipse
 62
7
  6
CONTINUOUS
 10
138.9577493089
 20
172.5387424836
 30
0.0
 11
-0.4477346231
 21
0.8960836931
 31
0.0
 40
0.9982882662
 41
-2.244506521
 42
-2.0348549675
  0
ELLIPSE
  5
76B
100
AcDbEntity
  8
0
100
AcDbEllipse
 62
7
  6
CONTINUOUS
 10
138.9577493089
 20
169.0359977916
 30
0.0
 11
0.4477346231
 21
0.8960836931
 31
0.0
 40
0.9982882662
 41
-1.1067376861
 42
-0.8970418344
  0
ELLIPSE
  5
76C
100
AcDbEntity
  8
0
100
AcDbEllipse
 62
7
  6
CONTINUOUS
 10
120.5428899633
 20
129.361852421
 30
0.0
 11
0.0
 21
0.5
 31
0.0
 40
0.0174550649
 41
-3.089232776
 42
-1.5707963268
  0
ELLIPSE
  5
76D
100
AcDbEntity
  8
0
100
AcDbEllipse
 62
7
  6
CONTINUOUS
 10
125.2112437297
 20
129.361852421
 30
0.0
 11
0.0
 21
0.5
 31
0.0
 40
0.0174550649
 41
-4.7123889804
 42
-3.1939525312
  0
ELLIPSE
  5
76E
100
AcDbEntity
  8
0
100
AcDbEllipse
 62
7
  6
CONTINUOUS
 10
120.5428899633
 20
130.5520563195
 30
0.0
 11
0.0
 21
0.5
 31
0.0
 40
0.0174550649
 41
-1.5707963268
 42
-1.0725894256
  0
ELLIPSE
  5
76F
100
AcDbEntity
  8
0
100
AcDbEllipse
 62
7
  6
CONTINUOUS
 10
125.2112437297
 20
130.5520563195
 30
0.0
 11
0.0
 21
0.5
 31
0.0
 40
0.0174550649
 41
1.0725898888
 42
1.5707963268
  0
ELLIPSE
  5
770
100
AcDbEntity
  8
0
100
AcDbEllipse
 62
7
  6
CONTINUOUS
 10
74.5428899633
 20
129.361852421
 30
0.0
 11
0.0
 21
0.5
 31
0.0
 40
0.0174550649
 41
-3.089232776
 42
-1.5707963268
  0
ELLIPSE
  5
771
100
AcDbEntity
  8
0
100
AcDbEllipse
 62
7
  6
CONTINUOUS
 10
79.2112437297
 20
129.361852421
 30
0.0
 11
-0.0
 21
0.5
 31
0.0
 40
0.0174550649
 41
1.5707963268
 42
3.089232776
  0
ELLIPSE
  5
772
100
AcDbEntity
  8
0
100
AcDbEllipse
 62
7
  6
CONTINUOUS
 10
79.2112437297
 20
130.5520563195
 30
0.0
 11
-0.0
 21
0.5
 31
0.0
 40
0.0174550649
 41
1.0725898888
 42
1.5707963268
  0
ELLIPSE
  5
773
100
AcDbEntity
  8
0
100
AcDbEllipse
 62
7
  6
CONTINUOUS
 10
157.5428899633
 20
129.361852421
 30
0.0
 11
0.0
 21
0.5
 31
0.0
 40
0.0174550649
 41
-3.089232776
 42
-1.5707963268
  0
ELLIPSE
  5
774
100
AcDbEntity
  8
0
100
AcDbEllipse
 62
7
  6
CONTINUOUS
 10
162.2112437297
 20
129.361852421
 30
0.0
 11
0.0
 21
0.5
 31
0.0
 40
0.0174550649
 41
-4.7123889804
 42
-3.1939525312
  0
ELLIPSE
  5
775
100
AcDbEntity
  8
0
100
AcDbEllipse
 62
7
  6
CONTINUOUS
 10
162.2112437297
 20
130.5520563195
 30
0.0
 11
0.0
 21
0.5
 31
0.0
 40
0.0174550649
 41
1.0725898888
 42
1.5707963268
  0
ELLIPSE
  5
776
100
AcDbEntity
  8
0
100
AcDbEllipse
 62
7
  6
CONTINUOUS
 10
51.7917267687
 20
204.6873701376
 30
0.0
 11
0.0
 21
2.0
 31
0.0
 40
0.0699268119
 41
-4.4505895926
 42
-3.1415926536
  0
ELLIPSE
  5
777
100
AcDbEntity
  8
0
100
AcDbEllipse
 62
7
  6
CONTINUOUS
 10
260.1917375003
 20
237.5279723958
 30
0.0
 11
0.0
 21
1.5
 31
0.0
 40
0.0699268119
 41
1.5707963268
 42
3.1241393612
  0
ELLIPSE
  5
778
100
AcDbEntity
  8
0
100
AcDbEllipse
 62
7
  6
CONTINUOUS
 10
265.3771430105
 20
296.4874463017
 30
0.0
 11
-0.3536610946
 21
-0.3536610946
 31
0.0
 40
0.9996954599
 41
5.497939437
 42
7.0684311776
  0
ELLIPSE
  5
779
100
AcDbEntity
  8
0
100
AcDbEllipse
 62
7
  6
CONTINUOUS
 10
39.6271430106
 20
296.4874463017
 30
0.0
 11
-0.3536610946
 21
-0.3536610946
 31
0.0
 40
0.9996954599
 41
5.4979394368
 42
7.0684311776
  0
ELLIPSE
  5
77A
100
AcDbEntity
  8
0
100
AcDbEllipse
 62
7
  6
CONTINUOUS
 10
48.3769906825
 20
296.4874463017
 30
0.0
 11
0.3536610946
 21
-0.3536610946
 31
0.0
 40
0.9996954599
 41
5.4979394368
 42
7.0684311776
  0
ELLIPSE
  5
77B
100
AcDbEntity
  8
0
100
AcDbEllipse
 62
7
  6
CONTINUOUS
 10
53.5623961928
 20
237.5279723958
 30
0.0
 11
-0.0
 21
1.5
 31
0.0
 40
0.0699268119
 41
-3.1241393613
 42
-1.5707963268
  0
ELLIPSE
  5
77C
100
AcDbEntity
  8
0
100
AcDbEllipse
 62
7
  6
CONTINUOUS
 10
50.3337931876
 20
235.7222802675
 30
0.0
 11
2.0
 21
-0.0
 31
0.0
 40
0.0174550649
 41
-1.5707963268
 42
-0.0698131701
  0
ELLIPSE
  5
77D
100
AcDbEntity
  8
0
100
AcDbEllipse
 62
7
  6
CONTINUOUS
 10
274.1269906825
 20
296.4874463017
 30
0.0
 11
0.3536610946
 21
-0.3536610946
 31
0.0
 40
0.9996954599
 41
5.4979394368
 42
7.0684311773
  0
ELLIPSE
  5
77E
100
AcDbEntity
  8
0
100
AcDbEllipse
 62
7
  6
CONTINUOUS
 10
263.4203405054
 20
235.7222802675
 30
0.0
 11
2.0
 21
0.0
 31
0.0
 40
0.0174550649
 41
-3.0717794835
 42
-1.5707963268
  0
ENDSEC
  0
SECTION
  2
OBJECTS
  0
DICTIONARY
  5
C
100
AcDbDictionary
280
0
281
1
  3
ACAD_GROUP
350
D
  3
ACAD_MLINESTYLE
350
17
  3
ACAD_LAYOUT
350
1A
  3
ACAD_PLOTSETTINGS
350
19
  3
ACAD_PLOTSTYLENAME
350
E
  0
DICTIONARY
  5
D
102
{ACAD_REACTORS
330
C
102
}
100
AcDbDictionary
280
0
281
1
  0
ACDBDICTIONARYWDFLT
  5
E
102
{ACAD_REACTORS
330
C
102
}
100
AcDbDictionary
281
1
  3
Normal
350
F
100
AcDbDictionaryWithDefault
340
F
  0
DICTIONARY
  5
17
102
{ACAD_REACTORS
330
C
102
}
100
AcDbDictionary
280
0
281
1
  3
Standard
350
18
  0
DICTIONARY
  5
19
102
{ACAD_REACTORS
330
C
102
}
100
AcDbDictionary
281
1
  0
DICTIONARY
  5
1A
102
{ACAD_REACTORS
330
C
102
}
100
AcDbDictionary
281
1
  3
Model
350
77F
  3
Layout1
350
780
  0
ACDBPLACEHOLDER
  5
F
102
{ACAD_REACTORS
330
E
102
}
  0
MLINESTYLE
  5
18
102
{ACAD_REACTORS
330
17
102
}
100
AcDbMlineStyle
  2
STANDARD
 70
0
  3

 62
256
 51
90.0
 52
90.0
 71
2
 49
0.5
 62
256
  6
BYLAYER
 49
-0.5
 62
256
  6
BYLAYER
  0
LAYOUT
  5
77F
102
{ACAD_REACTORS
330
1A
102
}
100
AcDbPlotSettings
  1

  2
none_device
  4

  6

 40
0.0
 41
0.0
 42
0.0
 43
0.0
 44
210.0
 45
297.0
 46
0.0
 47
0.0
 48
0.0
 49
0.0
140
0.0
141
0.0
142
1.0
143
1.0
 70
1024
 72
1
 73
0
 74
0
  7

 75
0
147
1.0
148
0.0
149
0.0
100
AcDbLayout
  1
Model
 70
0
 71
0
 10
0.0
 20
0.0
 11
210.0
 21
297.0
 12
0.0
 22
0.0
 32
0.0
 14
0.0
 24
0.0
 34
0.0
 15
0.0
 25
0.0
 35
0.0
146
0.0
 13
0.0
 23
0.0
 33
0.0
 16
1.0
 26
0.0
 36
0.0
 17
0.0
 27
1.0
 37
0.0
 76
0
330
210
345
0
346
0
  0
LAYOUT
  5
780
102
{ACAD_REACTORS
330
1A
102
}
100
AcDbPlotSettings
  1

  2
none_device
  4

  6

 40
0.0
 41
0.0
 42
0.0
 43
0.0
 44
210.0
 45
297.0
 46
0.0
 47
0.0
 48
0.0
 49
0.0
140
0.0
141
0.0
142
1.0
143
1.0
 70
0
 72
1
 73
0
 74
0
  7

 75
0
147
1.0
148
0.0
149
0.0
100
AcDbLayout
  1
Layout1
 70
0
 71
1
 10
0.0
 20
0.0
 11
210.0
 21
297.0
 12
0.0
 22
0.0
 32
0.0
 14
0.0
 24
0.0
 34
0.0
 15
0.0
 25
0.0
 35
0.0
146
0.0
 13
0.0
 23
0.0
 33
0.0
 16
1.0
 26
0.0
 36
0.0
 17
0.0
 27
1.0
 37
0.0
 76
0
330
211
345
0
346
0
  0
ENDSEC
  0
EOF
