999
DXF file: C:\Users\sesa63760\Dev\_Creo\CAD\MCADPD0004070_3D-CAD\drw0001_3.dxf
999
Pro/ENGINEER 2019471 by Parametric Technology Corporation
  0
SECTION
  2
HEADER
  9
$ACADVER
  1
AC1024
  9
$DWGCODEPAGE
  3
ANSI_1252
  9
$EXTMAX
 10
159.9237852291
 20
226.1779248239
 30
0.0
  9
$EXTMIN
 10
0.0
 20
0.0
 30
0.0
  9
$LIMMIN
 10
0.0
 20
0.0
  9
$LIMMAX
 10
159.9237852291
 20
226.1779248239
  9
$VIEWCTR
 10
79.9618926145
 20
113.088962412
  9
$VIEWSIZE
 40
226.1779248239
  9
$CLAYER
  8
0
  9
$LTSCALE
 40
14.7434499144
  9
$CELTYPE
  6
BYLAYER
  9
$DIMSCALE
 40
1.0
  9
$DIMASZ
 40
1.9038545861
  9
$DIMEXO
 40
1.0
  9
$DIMDLI
 40
10.1863835773
  9
$DIMEXE
 40
1.0
  9
$DIMCEN
 40
2.4125645315
  9
$DIMLFAC
 40
1.0
  9
$DIMBLK
  1
_FILLED
  9
$DIMALT
 70
0
  9
$DIMALTF
 40
0.0393700787
  9
$DIMTXT
 40
2.6653964205
  9
$DIMTOL
 70
1
  9
$DIMLIM
 70
0
  9
$DIMTFAC
 40
1.0
  9
$DIMTP
 40
0.01
  9
$DIMTM
 40
0.01
  9
$DIMGAP
 40
0.625
  9
$DIMDSEP
 70
46
  9
$AUNITS
 70
0
  9
$PDMODE
 70
3
  9
$PDSIZE
 40
0.3125
  9
$HANDSEED
  5
99E
  9
$TILEMODE
 70
1
  9
$MEASUREMENT
 70
1
  9
$INSUNITS
 70
4
  0
ENDSEC
  0
SECTION
  2
CLASSES
  0
CLASS
  1
ACDBDICTIONARYWDFLT
  2
AcDbDictionaryWithDefault
  3
AutoCAD 2000
 90
0
 91
1
280
0
281
0
  0
CLASS
  1
ACDBPLACEHOLDER
  2
AcDbPlaceHolder
  3
AutoCAD 2000
 90
0
 91
1
280
0
281
0
  0
CLASS
  1
LAYOUT
  2
AcDbLayout
  3
AutoCAD 2000
 90
0
 91
0
280
0
281
0
  0
ENDSEC
  0
SECTION
  2
TABLES
  0
TABLE
  2
VPORT
  5
8
100
AcDbSymbolTable
 70
2
  0
VPORT
  5
1F4
100
AcDbSymbolTableRecord
100
AcDbViewportTableRecord
  2
*ACTIVE
 70
0
 10
0.0
 20
0.0
 11
1.0
 21
1.0
 12
79.9618926145
 22
113.088962412
 13
0.0
 23
0.0
 14
1.0
 24
1.0
 15
0.0
 25
0.0
 16
0.0
 26
0.0
 36
1.0
 17
0.0
 27
0.0
 37
0.0
 40
226.1779248239
 41
0.7070707071
 42
50.0
 43
0.0
 44
0.0
 50
0.0
 51
0.0
 71
0
 72
100
 73
1
 74
1
 75
0
 76
0
 77
0
 78
0
  0
ENDTAB
  0
TABLE
  2
LTYPE
  5
5
100
AcDbSymbolTable
 70
6
  0
LTYPE
  5
14
100
AcDbSymbolTableRecord
100
AcDbLinetypeTableRecord
  2
BYBLOCK
 70
0
  3

 72
65
 73
0
 40
0.0
  0
LTYPE
  5
15
100
AcDbSymbolTableRecord
100
AcDbLinetypeTableRecord
  2
BYLAYER
 70
0
  3

 72
65
 73
0
 40
0.0
  0
LTYPE
  5
16
100
AcDbSymbolTableRecord
100
AcDbLinetypeTableRecord
  2
CONTINUOUS
 70
64
  3
Solid line
 72
65
 73
0
 40
0.0
  0
LTYPE
  5
1F5
100
AcDbSymbolTableRecord
100
AcDbLinetypeTableRecord
  2
CENTER
 70
64
  3
____ _ ____ _ ____ _ ____ _ ____ _ ____ _ ____
 72
65
 73
4
 40
0.6
 49
0.375
 74
0
 49
-0.075
 74
0
 49
0.075
 74
0
 49
-0.075
 74
0
  0
LTYPE
  5
1F6
100
AcDbSymbolTableRecord
100
AcDbLinetypeTableRecord
  2
HIDDEN
 70
64
  3
- - - - - - - - - - - - - - - - - - - -
 72
65
 73
2
 40
0.2
 49
0.1
 74
0
 49
-0.1
 74
0
  0
LTYPE
  5
1F7
100
AcDbSymbolTableRecord
100
AcDbLinetypeTableRecord
  2
PHANTOM
 70
64
  3
_____ _ _ _____ _ _ _____ _ _ _____
 72
65
 73
6
 40
0.8
 49
0.45
 74
0
 49
-0.05
 74
0
 49
0.1
 74
0
 49
-0.05
 74
0
 49
0.1
 74
0
 49
-0.05
 74
0
  0
LTYPE
  5
1F8
100
AcDbSymbolTableRecord
100
AcDbLinetypeTableRecord
  2
DOT
 70
64
  3
. . . . . . . . . . . . . . . . . . . .
 72
65
 73
2
 40
0.2
 49
0.1
 74
0
 49
-0.1
 74
0
  0
LTYPE
  5
1F9
100
AcDbSymbolTableRecord
100
AcDbLinetypeTableRecord
  2
DASHED
 70
64
  3
- - - - - - - - - - - - - - - - - - - -
 72
65
 73
2
 40
0.2
 49
0.1
 74
0
 49
-0.1
 74
0
  0
ENDTAB
  0
TABLE
  2
LAYER
  5
2
100
AcDbSymbolTable
 70
36
  0
LAYER
  5
10
100
AcDbSymbolTableRecord
100
AcDbLayerTableRecord
  2
0
 70
0
 62
7
  6
CONTINUOUS
370
-3
390
F
  0
LAYER
  5
1FA
100
AcDbSymbolTableRecord
100
AcDbLayerTableRecord
  2
DEFAULT_1
 70
0
 62
7
  6
CENTER
370
-3
390
F
  0
LAYER
  5
1FB
100
AcDbSymbolTableRecord
100
AcDbLayerTableRecord
  2
DEFAULT_2
 70
0
 62
7
  6
HIDDEN
370
-3
390
F
  0
LAYER
  5
1FC
100
AcDbSymbolTableRecord
100
AcDbLayerTableRecord
  2
DEFAULT_3
 70
0
 62
7
  6
PHANTOM
370
-3
390
F
  0
LAYER
  5
1FD
100
AcDbSymbolTableRecord
100
AcDbLayerTableRecord
  2
00_COMPONENTS
 70
0
 62
7
  6
CONTINUOUS
370
-3
390
F
  0
LAYER
  5
1FE
100
AcDbSymbolTableRecord
100
AcDbLayerTableRecord
  2
01_1_DEFAULT_DATUMS
 70
0
 62
7
  6
CONTINUOUS
370
-3
390
F
  0
LAYER
  5
1FF
100
AcDbSymbolTableRecord
100
AcDbLayerTableRecord
  2
01_PLANES
 70
0
 62
7
  6
CONTINUOUS
370
-3
390
F
  0
LAYER
  5
200
100
AcDbSymbolTableRecord
100
AcDbLayerTableRecord
  2
02_COORD_SYS
 70
0
 62
7
  6
CONTINUOUS
370
-3
390
F
  0
LAYER
  5
201
100
AcDbSymbolTableRecord
100
AcDbLayerTableRecord
  2
03_AXES
 70
0
 62
7
  6
CONTINUOUS
370
-3
390
F
  0
LAYER
  5
202
100
AcDbSymbolTableRecord
100
AcDbLayerTableRecord
  2
04_POINTS
 70
0
 62
7
  6
CONTINUOUS
370
-3
390
F
  0
LAYER
  5
203
100
AcDbSymbolTableRecord
100
AcDbLayerTableRecord
  2
05_CURVES
 70
0
 62
7
  6
CONTINUOUS
370
-3
390
F
  0
LAYER
  5
204
100
AcDbSymbolTableRecord
100
AcDbLayerTableRecord
  2
06_SURFS
 70
0
 62
7
  6
CONTINUOUS
370
-3
390
F
  0
LAYER
  5
205
100
AcDbSymbolTableRecord
100
AcDbLayerTableRecord
  2
07_COSMETICS
 70
0
 62
7
  6
CONTINUOUS
370
-3
390
F
  0
LAYER
  5
206
100
AcDbSymbolTableRecord
100
AcDbLayerTableRecord
  2
10_NOTES
 70
0
 62
7
  6
CONTINUOUS
370
-3
390
F
  0
LAYER
  5
207
100
AcDbSymbolTableRecord
100
AcDbLayerTableRecord
  2
11_NOTES_PUB
 70
0
 62
7
  6
CONTINUOUS
370
-3
390
F
  0
LAYER
  5
208
100
AcDbSymbolTableRecord
100
AcDbLayerTableRecord
  2
13_REF_GTOL
 70
0
 62
7
  6
CONTINUOUS
370
-3
390
F
  0
LAYER
  5
209
100
AcDbSymbolTableRecord
100
AcDbLayerTableRecord
  2
16_MISC
 70
0
 62
7
  6
CONTINUOUS
370
-3
390
F
  0
LAYER
  5
20A
100
AcDbSymbolTableRecord
100
AcDbLayerTableRecord
  2
17_NO_PRINT
 70
0
 62
7
  6
CONTINUOUS
370
-3
390
F
  0
LAYER
  5
20B
100
AcDbSymbolTableRecord
100
AcDbLayerTableRecord
  2
18_DATUM_CAMS_JOINTS
 70
0
 62
7
  6
CONTINUOUS
370
-3
390
F
  0
LAYER
  5
20C
100
AcDbSymbolTableRecord
100
AcDbLayerTableRecord
  2
19_DATUM_FUNCTIONAL
 70
0
 62
7
  6
CONTINUOUS
370
-3
390
F
  0
LAYER
  5
20D
100
AcDbSymbolTableRecord
100
AcDbLayerTableRecord
  2
20_DATUM_KINEMATIC_SCHEME
 70
0
 62
7
  6
CONTINUOUS
370
-3
390
F
  0
ENDTAB
  0
TABLE
  2
STYLE
  5
3
100
AcDbSymbolTable
 70
1
  0
STYLE
  5
11
100
AcDbSymbolTableRecord
100
AcDbTextStyleTableRecord
  2
STANDARD
 70
0
 40
0.0
 41
1.0
 50
0.0
 71
0
 42
0.2
  3
ARIAL.TTF
  4

  0
STYLE
  5
20E
100
AcDbSymbolTableRecord
100
AcDbTextStyleTableRecord
  2
TEXTSTYLE_1
 70
0
 40
0.0
 41
0.8
 50
0.0
 71
0
 42
0.2
  3
gdt
  4

  0
ENDTAB
  0
TABLE
  2
VIEW
  5
6
100
AcDbSymbolTable
 70
0
  0
ENDTAB
  0
TABLE
  2
UCS
  5
7
100
AcDbSymbolTable
 70
0
  0
ENDTAB
  0
TABLE
  2
APPID
  5
9
100
AcDbSymbolTable
 70
1
  0
APPID
  5
20F
100
AcDbSymbolTableRecord
100
AcDbRegAppTableRecord
  2
ACAD
 70
0
  0
ENDTAB
  0
TABLE
  2
BLOCK_RECORD
  5
1
100
AcDbSymbolTable
 70
0
  0
BLOCK_RECORD
  5
210
100
AcDbSymbolTableRecord
100
AcDbBlockTableRecord
  2
*Model_Space
  0
BLOCK_RECORD
  5
211
100
AcDbSymbolTableRecord
100
AcDbBlockTableRecord
  2
*Paper_Space
  0
BLOCK_RECORD
  5
212
100
AcDbSymbolTableRecord
100
AcDbBlockTableRecord
  2
_FILLED
  0
ENDTAB
  0
TABLE
  2
DIMSTYLE
  5
A
100
AcDbSymbolTable
 70
1
100
AcDbDimStyleTable
 71
0
  0
DIMSTYLE
105
213
100
AcDbSymbolTableRecord
100
AcDbDimStyleTableRecord
  2
STANDARD
 70
0
  3

  4

 40
1.0
 41
1.9038545861
 42
1.0
 43
0.38
 44
1.0
 45
0.0
 46
0.0
 47
0.01
 48
0.01
140
2.6653964205
141
0.09
142
0.0
143
25.4
144
1.0
145
0.0
146
1.0
147
0.625
 71
1
 72
0
 73
0
 74
0
 75
0
 76
0
 77
1
 78
8
 79
2
170
0
171
1
172
0
173
0
174
0
175
0
176
0
177
0
178
0
270
2
179
2
271
2
272
2
273
2
274
2
275
0
280
0
281
0
282
0
283
1
284
8
285
0
286
0
287
3
288
0
340
11
278
46
341
212
342
212
343
212
344
212
  0
ENDTAB
  0
ENDSEC
  0
SECTION
  2
BLOCKS
  0
BLOCK
  5
20
100
AcDbEntity
  8
0
100
AcDbBlockBegin
  2
*Model_Space
 70
0
 10
0.0
 20
0.0
 30
0.0
  3
*Model_Space
  1

  0
ENDBLK
  5
21
100
AcDbEntity
  8
0
100
AcDbBlockEnd
  0
BLOCK
  5
1C
100
AcDbEntity
  8
0
100
AcDbBlockBegin
  2
*Paper_Space
 70
0
 10
0.0
 20
0.0
 30
0.0
  3
*Paper_Space
  1

  0
ENDBLK
  5
1D
100
AcDbEntity
  8
0
100
AcDbBlockEnd
  0
BLOCK
  5
214
100
AcDbEntity
  8
0
100
AcDbBlockBegin
  2
_FILLED
 70
64
 10
0.0
 20
0.0
  3
_FILLED
  1

  0
SOLID
  5
215
100
AcDbEntity
  8
0
  6
BYBLOCK
 62
0
100
AcDbTrace
 10
0.0
 20
0.0
 11
-1.0
 21
0.25
 12
-1.0
 22
-0.25
 13
-1.0
 23
-0.25
  0
ENDBLK
  5
216
100
AcDbEntity
  8
0
  6
BYBLOCK
 62
0
100
AcDbBlockEnd
  0
ENDSEC
  0
SECTION
  2
ENTITIES
  0
LINE
  5
217
100
AcDbEntity
  8
0
100
AcDbLine
 62
7
  6
BYLAYER
 10
31.1755093325
 20
18.1329922054
 11
34.3666647507
 21
18.1329922054
  0
LINE
  5
218
100
AcDbEntity
  8
0
100
AcDbLine
 62
7
  6
BYLAYER
 10
34.3886093325
 20
18.1329922054
 11
59.6616093325
 21
18.1329922054
  0
LINE
  5
219
100
AcDbEntity
  8
0
100
AcDbLine
 62
7
  6
BYLAYER
 10
59.6835539142
 20
18.1329922054
 11
63.3512294492
 21
18.1329922054
  0
LINE
  5
21A
100
AcDbEntity
  8
0
100
AcDbLine
 62
7
  6
BYLAYER
 10
65.7001892158
 20
18.1329922054
 11
69.3678647507
 21
18.1329922054
  0
LINE
  5
21B
100
AcDbEntity
  8
0
100
AcDbLine
 62
7
  6
BYLAYER
 10
69.3898093325
 20
18.1329922054
 11
94.6628093325
 21
18.1329922054
  0
LINE
  5
21C
100
AcDbEntity
  8
0
100
AcDbLine
 62
7
  6
BYLAYER
 10
94.6847539142
 20
18.1329922054
 11
98.3524294492
 21
18.1329922054
  0
LINE
  5
21D
100
AcDbEntity
  8
0
100
AcDbLine
 62
7
  6
BYLAYER
 10
100.7013892158
 20
18.1329922054
 11
104.3690647507
 21
18.1329922054
  0
LINE
  5
21E
100
AcDbEntity
  8
0
100
AcDbLine
 62
7
  6
BYLAYER
 10
104.3910093325
 20
18.1329922054
 11
129.6640093325
 21
18.1329922054
  0
LINE
  5
21F
100
AcDbEntity
  8
0
100
AcDbLine
 62
7
  6
BYLAYER
 10
129.6859539142
 20
18.1329922054
 11
132.8771093325
 21
18.1329922054
  0
LINE
  5
220
100
AcDbEntity
  8
0
100
AcDbLine
 62
7
  6
BYLAYER
 10
100.6490728952
 20
21.1301922054
 11
98.4047457698
 21
21.1301922054
  0
LINE
  5
221
100
AcDbEntity
  8
0
100
AcDbLine
 62
7
  6
BYLAYER
 10
63.4035457698
 20
21.1301922054
 11
65.6478728952
 21
21.1301922054
  0
LINE
  5
222
100
AcDbEntity
  8
0
100
AcDbLine
 62
7
  6
BYLAYER
 10
121.5995093325
 20
22.4001922054
 11
112.4555093325
 21
22.4001922054
  0
LINE
  5
223
100
AcDbEntity
  8
0
100
AcDbLine
 62
7
  6
BYLAYER
 10
86.5983093325
 20
22.4001922054
 11
77.4543093325
 21
22.4001922054
  0
LINE
  5
224
100
AcDbEntity
  8
0
100
AcDbLine
 62
7
  6
BYLAYER
 10
51.5971093325
 20
22.4001922054
 11
42.4531093325
 21
22.4001922054
  0
LINE
  5
225
100
AcDbEntity
  8
0
100
AcDbLine
 62
7
  6
BYLAYER
 10
65.6044237476
 20
23.6193922054
 11
63.4469949174
 21
23.6193922054
  0
LINE
  5
226
100
AcDbEntity
  8
0
100
AcDbLine
 62
7
  6
BYLAYER
 10
98.4481949174
 20
23.6193922054
 11
100.6056237476
 21
23.6193922054
  0
LINE
  5
227
100
AcDbEntity
  8
0
100
AcDbLine
 62
7
  6
BYLAYER
 10
30.6675093325
 20
24.2797922054
 11
31.1755093325
 21
24.2797922054
  0
LINE
  5
228
100
AcDbEntity
  8
0
100
AcDbLine
 62
7
  6
BYLAYER
 10
132.8771093325
 20
24.2797922054
 11
133.3851093325
 21
24.2797922054
  0
LINE
  5
229
100
AcDbEntity
  8
0
100
AcDbLine
 62
7
  6
BYLAYER
 10
40.1671093325
 20
24.6861922054
 11
53.8831093325
 21
24.6861922054
  0
LINE
  5
22A
100
AcDbEntity
  8
0
100
AcDbLine
 62
7
  6
BYLAYER
 10
75.1683093325
 20
24.6861922054
 11
88.8843093325
 21
24.6861922054
  0
LINE
  5
22B
100
AcDbEntity
  8
0
100
AcDbLine
 62
7
  6
BYLAYER
 10
110.1695093325
 20
24.6861922054
 11
123.8855093325
 21
24.6861922054
  0
LINE
  5
22C
100
AcDbEntity
  8
0
100
AcDbLine
 62
7
  6
BYLAYER
 10
31.0871675649
 20
24.6994499795
 11
31.5951743653
 21
24.6994572382
  0
LINE
  5
22D
100
AcDbEntity
  8
0
100
AcDbLine
 62
7
  6
BYLAYER
 10
132.4574442996
 20
24.6994572382
 11
132.9654511001
 21
24.6994499795
  0
LINE
  5
22E
100
AcDbEntity
  8
0
100
AcDbLine
 62
7
  6
BYLAYER
 10
31.8491453507
 20
25.4614282236
 11
32.3571453507
 21
25.4614282236
  0
LINE
  5
22F
100
AcDbEntity
  8
0
100
AcDbLine
 62
7
  6
BYLAYER
 10
131.6954733143
 20
25.4614282236
 11
132.2034733143
 21
25.4614282236
  0
LINE
  5
230
100
AcDbEntity
  8
0
100
AcDbLine
 62
7
  6
BYLAYER
 10
35.3411093325
 20
26.2101922054
 11
58.7091093325
 21
26.2101922054
  0
LINE
  5
231
100
AcDbEntity
  8
0
100
AcDbLine
 62
7
  6
BYLAYER
 10
70.3423093325
 20
26.2101922054
 11
93.7103093325
 21
26.2101922054
  0
LINE
  5
232
100
AcDbEntity
  8
0
100
AcDbLine
 62
7
  6
BYLAYER
 10
105.3435093325
 20
26.2101922054
 11
128.7115093325
 21
26.2101922054
  0
LINE
  5
233
100
AcDbEntity
  8
0
100
AcDbLine
 62
7
  6
BYLAYER
 10
65.3369859284
 20
34.149244624
 11
63.7144327365
 21
34.149244624
  0
LINE
  5
234
100
AcDbEntity
  8
0
100
AcDbLine
 62
7
  6
BYLAYER
 10
98.7156327365
 20
34.149244624
 11
100.3381859284
 21
34.149244624
  0
LINE
  5
235
100
AcDbEntity
  8
0
100
AcDbLine
 62
7
  6
BYLAYER
 10
100.13043019
 20
34.3570003625
 11
98.9233884749
 21
34.3570003625
  0
LINE
  5
236
100
AcDbEntity
  8
0
100
AcDbLine
 62
7
  6
BYLAYER
 10
65.12923019
 20
34.3570003625
 11
63.9221884749
 21
34.3570003625
  0
LINE
  5
237
100
AcDbEntity
  8
0
100
AcDbLine
 62
7
  6
BYLAYER
 10
63.1602174896
 20
35.1189713478
 11
65.8912011754
 21
35.1189713478
  0
LINE
  5
238
100
AcDbEntity
  8
0
100
AcDbLine
 62
7
  6
BYLAYER
 10
98.1614174896
 20
35.1189713478
 11
100.8924011754
 21
35.1189713478
  0
LINE
  5
239
100
AcDbEntity
  8
0
100
AcDbLine
 62
7
  6
BYLAYER
 10
36.5839093325
 20
168.7676922053
 11
36.5794370547
 21
168.7632199275
  0
LINE
  5
23A
100
AcDbEntity
  8
0
100
AcDbLine
 62
7
  6
BYLAYER
 10
36.5749647769
 20
168.2507476497
 11
36.5635163879
 21
168.2392992607
  0
LINE
  5
23B
100
AcDbEntity
  8
0
100
AcDbLine
 62
7
  6
BYLAYER
 10
65.3369859284
 20
193.0739397867
 11
65.12923019
 21
192.8661840483
  0
LINE
  5
23C
100
AcDbEntity
  8
0
100
AcDbLine
 62
7
  6
BYLAYER
 10
65.8912011754
 20
192.1042130629
 11
66.0989569138
 21
192.3119688013
  0
LINE
  5
23D
100
AcDbEntity
  8
0
100
AcDbLine
 62
7
  6
BYLAYER
 10
31.9492193689
 20
154.6189022418
 11
31.9883093325
 21
154.6579922054
  0
LWPOLYLINE
  5
23E
100
AcDbEntity
  8
0
100
AcDbPolyline
 62
7
  6
BYLAYER
 90
3
 70
0
 10
100.3365060913
 20
46.7626621974
 10
100.3473049608
 20
46.7628468326
 10
100.3536382783
 20
46.7628078492
  0
LINE
  5
23F
100
AcDbEntity
  8
0
100
AcDbLine
 62
7
  6
BYLAYER
 10
101.1001569138
 20
46.7699397867
 11
101.089765797
 21
46.7698891692
  0
LINE
  5
240
100
AcDbEntity
  8
0
100
AcDbLine
 62
7
  6
BYLAYER
 10
129.6640093325
 20
42.4167158405
 11
129.4735093325
 21
42.4167158405
  0
LINE
  5
241
100
AcDbEntity
  8
0
100
AcDbLine
 62
7
  6
BYLAYER
 10
104.5815093325
 20
42.4167158405
 11
104.3910093325
 21
42.4167158405
  0
LINE
  5
242
100
AcDbEntity
  8
0
100
AcDbLine
 62
7
  6
BYLAYER
 10
94.6628093325
 20
42.4167158405
 11
94.4723093325
 21
42.4167158405
  0
LINE
  5
243
100
AcDbEntity
  8
0
100
AcDbLine
 62
7
  6
BYLAYER
 10
69.5803093325
 20
42.4167158405
 11
69.3898093325
 21
42.4167158405
  0
LINE
  5
244
100
AcDbEntity
  8
0
100
AcDbLine
 62
7
  6
BYLAYER
 10
59.6616093325
 20
42.4167158405
 11
59.4711093325
 21
42.4167158405
  0
LINE
  5
245
100
AcDbEntity
  8
0
100
AcDbLine
 62
7
  6
BYLAYER
 10
34.5791093325
 20
42.4167158405
 11
34.3886093325
 21
42.4167158405
  0
LINE
  5
246
100
AcDbEntity
  8
0
100
AcDbLine
 62
7
  6
BYLAYER
 10
34.5791093325
 20
43.6345922054
 11
59.4711093325
 21
43.6345922054
  0
LINE
  5
247
100
AcDbEntity
  8
0
100
AcDbLine
 62
7
  6
BYLAYER
 10
69.5803093325
 20
43.6345922054
 11
94.4723093325
 21
43.6345922054
  0
LINE
  5
248
100
AcDbEntity
  8
0
100
AcDbLine
 62
7
  6
BYLAYER
 10
104.5815093325
 20
43.6345922054
 11
129.4735093325
 21
43.6345922054
  0
LINE
  5
249
100
AcDbEntity
  8
0
100
AcDbLine
 62
7
  6
BYLAYER
 10
34.3886093325
 20
44.8524685702
 11
34.5791101338
 21
44.8524685702
  0
LINE
  5
24A
100
AcDbEntity
  8
0
100
AcDbLine
 62
7
  6
BYLAYER
 10
59.4711085311
 20
44.8524685702
 11
59.6616093325
 21
44.8524685702
  0
LINE
  5
24B
100
AcDbEntity
  8
0
100
AcDbLine
 62
7
  6
BYLAYER
 10
69.3898093325
 20
44.8524685702
 11
69.5803101338
 21
44.8524685702
  0
LINE
  5
24C
100
AcDbEntity
  8
0
100
AcDbLine
 62
7
  6
BYLAYER
 10
94.4723085311
 20
44.8524685702
 11
94.6628093325
 21
44.8524685702
  0
LINE
  5
24D
100
AcDbEntity
  8
0
100
AcDbLine
 62
7
  6
BYLAYER
 10
104.3910093325
 20
44.8524685702
 11
104.5815101338
 21
44.8524685702
  0
LINE
  5
24E
100
AcDbEntity
  8
0
100
AcDbLine
 62
7
  6
BYLAYER
 10
129.4735085311
 20
44.8524685702
 11
129.6640093325
 21
44.8524685702
  0
LINE
  5
24F
100
AcDbEntity
  8
0
100
AcDbLine
 62
7
  6
BYLAYER
 10
100.8924011754
 20
45.8002130629
 11
98.1614174896
 21
45.8002130629
  0
LINE
  5
250
100
AcDbEntity
  8
0
100
AcDbLine
 62
7
  6
BYLAYER
 10
65.8912011754
 20
45.8002130629
 11
63.1602174896
 21
45.8002130629
  0
LINE
  5
251
100
AcDbEntity
  8
0
100
AcDbLine
 62
7
  6
BYLAYER
 10
103.3877093321
 20
46.2253922054
 11
102.0669093325
 21
46.2253922054
  0
LINE
  5
252
100
AcDbEntity
  8
0
100
AcDbLine
 62
7
  6
BYLAYER
 10
96.7329093321
 20
46.2253922054
 11
95.4121093325
 21
46.2253922054
  0
LINE
  5
253
100
AcDbEntity
  8
0
100
AcDbLine
 62
7
  6
BYLAYER
 10
68.6405093321
 20
46.2253922054
 11
67.3197093325
 21
46.2253922054
  0
LINE
  5
254
100
AcDbEntity
  8
0
100
AcDbLine
 62
7
  6
BYLAYER
 10
61.9857093321
 20
46.2253922054
 11
60.6649093325
 21
46.2253922054
  0
LINE
  5
255
100
AcDbEntity
  8
0
100
AcDbLine
 62
7
  6
BYLAYER
 10
65.12923019
 20
46.5621840483
 11
63.9221884691
 21
46.5621840599
  0
LINE
  5
256
100
AcDbEntity
  8
0
100
AcDbLine
 62
7
  6
BYLAYER
 10
98.9233868399
 20
46.5621840597
 11
100.1304357823
 21
46.5621840594
  0
LINE
  5
257
100
AcDbEntity
  8
0
100
AcDbLine
 62
7
  6
BYLAYER
 10
62.6207093325
 20
46.7699397867
 11
66.4307093325
 21
46.7699397867
  0
LINE
  5
258
100
AcDbEntity
  8
0
100
AcDbLine
 62
7
  6
BYLAYER
 10
97.6219093325
 20
46.7699397867
 11
101.4319093325
 21
46.7699397867
  0
LINE
  5
259
100
AcDbEntity
  8
0
100
AcDbLine
 62
7
  6
BYLAYER
 10
62.892945712
 20
47.0421761662
 11
66.158472953
 21
47.0421761662
  0
LINE
  5
25A
100
AcDbEntity
  8
0
100
AcDbLine
 62
7
  6
BYLAYER
 10
97.894145712
 20
47.0421761662
 11
101.159672953
 21
47.0421761662
  0
LINE
  5
25B
100
AcDbEntity
  8
0
100
AcDbLine
 62
7
  6
BYLAYER
 10
62.9524617512
 20
46.7699397867
 11
62.9628946379
 21
46.7698898416
  0
LINE
  5
25C
100
AcDbEntity
  8
0
100
AcDbLine
 62
7
  6
BYLAYER
 10
34.2967884199
 20
60.9603131179
 11
34.2489093325
 21
61.0081922054
  0
LINE
  5
25D
100
AcDbEntity
  8
0
100
AcDbLine
 62
7
  6
BYLAYER
 10
31.9492193689
 20
67.3464821689
 11
31.9883093325
 21
67.3073922054
  0
LINE
  5
25E
100
AcDbEntity
  8
0
100
AcDbLine
 62
7
  6
BYLAYER
 10
65.12923019
 20
34.3570003625
 11
65.3369859284
 21
34.149244624
  0
LINE
  5
25F
100
AcDbEntity
  8
0
100
AcDbLine
 62
7
  6
BYLAYER
 10
66.0989569138
 20
34.9112156094
 11
65.8912011754
 21
35.1189713478
  0
LINE
  5
260
100
AcDbEntity
  8
0
100
AcDbLine
 62
7
  6
BYLAYER
 10
66.4307093325
 20
180.453244624
 11
66.158472953
 21
180.1810082445
  0
LINE
  5
261
100
AcDbEntity
  8
0
100
AcDbLine
 62
7
  6
BYLAYER
 10
39.0242196447
 20
164.1152435599
 11
38.9866143887
 21
164.1033198689
  0
LINE
  5
262
100
AcDbEntity
  8
0
100
AcDbLine
 62
7
  6
BYLAYER
 10
102.2820517363
 20
51.3815922054
 11
102.0669410823
 21
51.3815922054
  0
LINE
  5
263
100
AcDbEntity
  8
0
100
AcDbLine
 62
7
  6
BYLAYER
 10
96.9868775827
 20
51.3815922054
 11
96.7717669287
 21
51.3815922054
  0
LINE
  5
264
100
AcDbEntity
  8
0
100
AcDbLine
 62
7
  6
BYLAYER
 10
58.4136074699
 20
51.3815922054
 11
58.9263184949
 21
51.3815922054
  0
LINE
  5
265
100
AcDbEntity
  8
0
100
AcDbLine
 62
7
  6
BYLAYER
 10
61.7705669287
 20
51.3815922054
 11
67.2808517363
 21
51.3815922054
  0
LINE
  5
266
100
AcDbEntity
  8
0
100
AcDbLine
 62
7
  6
BYLAYER
 10
93.4148074699
 20
51.3815922054
 11
93.9275184949
 21
51.3815922054
  0
LINE
  5
267
100
AcDbEntity
  8
0
100
AcDbLine
 62
7
  6
BYLAYER
 10
71.5182497172
 20
53.0325922054
 11
71.4090393339
 21
53.0325922054
  0
LINE
  5
268
100
AcDbEntity
  8
0
100
AcDbLine
 62
7
  6
BYLAYER
 10
57.642379331
 20
53.0325922054
 11
57.5331686368
 21
53.0325922054
  0
LINE
  5
269
100
AcDbEntity
  8
0
100
AcDbLine
 62
7
  6
BYLAYER
 10
71.5185461665
 20
53.0328886496
 11
71.4086363275
 21
53.0328877542
  0
LINE
  5
26A
100
AcDbEntity
  8
0
100
AcDbLine
 62
7
  6
BYLAYER
 10
57.6426637202
 20
53.0330355271
 11
57.5327253076
 21
53.0330355271
  0
LINE
  5
26B
100
AcDbEntity
  8
0
100
AcDbLine
 62
7
  6
BYLAYER
 10
101.159672953
 20
55.0971558258
 11
97.894145712
 21
55.0971558258
  0
LINE
  5
26C
100
AcDbEntity
  8
0
100
AcDbLine
 62
7
  6
BYLAYER
 10
66.158472953
 20
55.0971558258
 11
62.892945712
 21
55.0971558258
  0
LINE
  5
26D
100
AcDbEntity
  8
0
100
AcDbLine
 62
7
  6
BYLAYER
 10
125.0581593897
 20
55.3174005849
 11
123.9993080258
 21
55.3174005849
  0
LINE
  5
26E
100
AcDbEntity
  8
0
100
AcDbLine
 62
7
  6
BYLAYER
 10
55.0978760473
 20
55.3174005849
 11
53.9969080258
 21
55.3174005849
  0
LINE
  5
26F
100
AcDbEntity
  8
0
100
AcDbLine
 62
7
  6
BYLAYER
 10
38.9949681357
 20
55.3174005849
 11
40.0533089953
 21
55.3174005849
  0
LINE
  5
270
100
AcDbEntity
  8
0
100
AcDbLine
 62
7
  6
BYLAYER
 10
108.9545613988
 20
55.3174005849
 11
110.0557089953
 21
55.3174005849
  0
LINE
  5
271
100
AcDbEntity
  8
0
100
AcDbLine
 62
7
  6
BYLAYER
 10
101.4319093325
 20
55.3693922054
 11
97.6219093325
 21
55.3693922054
  0
LINE
  5
272
100
AcDbEntity
  8
0
100
AcDbLine
 62
7
  6
BYLAYER
 10
66.4307093325
 20
55.3693922054
 11
62.6207093325
 21
55.3693922054
  0
LINE
  5
273
100
AcDbEntity
  8
0
100
AcDbLine
 62
7
  6
BYLAYER
 10
42.7069179024
 20
55.9281949466
 11
51.343312296
 21
55.9281949466
  0
LINE
  5
274
100
AcDbEntity
  8
0
100
AcDbLine
 62
7
  6
BYLAYER
 10
77.7081179026
 20
55.9281949466
 11
86.344512296
 21
55.9281949466
  0
LINE
  5
275
100
AcDbEntity
  8
0
100
AcDbLine
 62
7
  6
BYLAYER
 10
112.7093179024
 20
55.9281949466
 11
121.345712296
 21
55.9281949466
  0
LINE
  5
276
100
AcDbEntity
  8
0
100
AcDbLine
 62
7
  6
BYLAYER
 10
77.0728660076
 20
55.9535922054
 11
77.0733093325
 21
55.9535922054
  0
LINE
  5
277
100
AcDbEntity
  8
0
100
AcDbLine
 62
7
  6
BYLAYER
 10
78.9783093325
 20
55.9535922054
 11
78.9787526573
 21
55.9535922054
  0
LINE
  5
278
100
AcDbEntity
  8
0
100
AcDbLine
 62
7
  6
BYLAYER
 10
85.0738660076
 20
55.9535922054
 11
85.0743093325
 21
55.9535922054
  0
LINE
  5
279
100
AcDbEntity
  8
0
100
AcDbLine
 62
7
  6
BYLAYER
 10
86.9793093325
 20
55.9535922054
 11
86.9797526573
 21
55.9535922054
  0
LINE
  5
27A
100
AcDbEntity
  8
0
100
AcDbLine
 62
7
  6
BYLAYER
 10
42.5166093325
 20
56.1533367871
 11
51.5336093325
 21
56.1533367871
  0
LINE
  5
27B
100
AcDbEntity
  8
0
100
AcDbLine
 62
7
  6
BYLAYER
 10
77.5178093325
 20
56.1533367871
 11
86.5348093325
 21
56.1533367871
  0
LINE
  5
27C
100
AcDbEntity
  8
0
100
AcDbLine
 62
7
  6
BYLAYER
 10
112.5190093325
 20
56.1533367871
 11
121.5360093325
 21
56.1533367871
  0
LINE
  5
27D
100
AcDbEntity
  8
0
100
AcDbLine
 62
7
  6
BYLAYER
 10
66.4307093325
 20
46.7699397867
 11
66.158472953
 21
47.0421761662
  0
LINE
  5
27E
100
AcDbEntity
  8
0
100
AcDbLine
 62
7
  6
BYLAYER
 10
30.6675093325
 20
46.7333922054
 11
30.6678113617
 21
46.6696878496
  0
LINE
  5
27F
100
AcDbEntity
  8
0
100
AcDbLine
 62
7
  6
BYLAYER
 10
30.6733508219
 20
45.5012983201
 11
30.6738590907
 21
45.3940936561
  0
LINE
  5
280
100
AcDbEntity
  8
0
100
AcDbLine
 62
7
  6
BYLAYER
 10
30.6737435504
 20
45.5012991428
 11
30.6738590907
 21
45.3940936561
  0
LINE
  5
281
100
AcDbEntity
  8
0
100
AcDbLine
 62
7
  6
BYLAYER
 10
29.6769093325
 20
173.8419171386
 11
29.6769093325
 21
53.4066672721
  0
LINE
  5
282
100
AcDbEntity
  8
0
100
AcDbLine
 62
7
  6
BYLAYER
 10
30.0965308348
 20
53.3341750478
 11
30.0965308349
 21
173.9144096982
  0
LINE
  5
283
100
AcDbEntity
  8
0
100
AcDbLine
 62
7
  6
BYLAYER
 10
30.5960428454
 20
183.4420988728
 11
30.596021961
 21
201.4729997015
  0
LINE
  5
284
100
AcDbEntity
  8
0
100
AcDbLine
 62
7
  6
BYLAYER
 10
30.6675093312
 20
49.1627052634
 11
30.6675510639
 21
46.6696875141
  0
LINE
  5
285
100
AcDbEntity
  8
0
100
AcDbLine
 62
7
  6
BYLAYER
 10
30.6675093312
 20
178.0858791474
 11
30.6675093325
 21
202.9687922054
  0
LINE
  5
286
100
AcDbEntity
  8
0
100
AcDbLine
 62
7
  6
BYLAYER
 10
30.6802086071
 20
45.3940936561
 11
30.6802086071
 21
25.8257859486
  0
LINE
  5
287
100
AcDbEntity
  8
0
100
AcDbLine
 62
7
  6
BYLAYER
 10
30.8585453507
 20
173.3931150297
 11
30.8585453507
 21
53.8556387065
  0
LINE
  5
288
100
AcDbEntity
  8
0
100
AcDbLine
 62
7
  6
BYLAYER
 10
30.933258055
 20
60.9603131179
 11
30.933258055
 21
67.3552712928
  0
LINE
  5
289
100
AcDbEntity
  8
0
100
AcDbLine
 62
7
  6
BYLAYER
 10
30.933258055
 20
154.6101131179
 11
30.933258055
 21
167.6598712928
  0
LINE
  5
28A
100
AcDbEntity
  8
0
100
AcDbLine
 62
7
  6
BYLAYER
 10
31.0871671115
 20
202.5491980795
 11
31.0871380893
 21
177.7654820677
  0
LINE
  5
28B
100
AcDbEntity
  8
0
100
AcDbLine
 62
7
  6
BYLAYER
 10
31.0871380894
 20
49.4830970588
 11
31.0871671115
 21
24.699386301
  0
LINE
  5
28C
100
AcDbEntity
  8
0
100
AcDbLine
 62
7
  6
BYLAYER
 10
31.1755093325
 20
24.2797922054
 11
31.1755093325
 21
18.1329922054
  0
LINE
  5
28D
100
AcDbEntity
  8
0
100
AcDbLine
 62
7
  6
BYLAYER
 10
31.1755093325
 20
209.1409922054
 11
31.1755093325
 21
202.9687922054
  0
LINE
  5
28E
100
AcDbEntity
  8
0
100
AcDbLine
 62
7
  6
BYLAYER
 10
31.5951743653
 20
18.1329922054
 11
31.5951743653
 21
24.6994572382
  0
LINE
  5
28F
100
AcDbEntity
  8
0
100
AcDbLine
 62
7
  6
BYLAYER
 10
31.5951743653
 20
202.5491271725
 11
31.5951743653
 21
209.1409922054
  0
LINE
  5
290
100
AcDbEntity
  8
0
100
AcDbLine
 62
7
  6
BYLAYER
 10
31.8491453507
 20
201.7871561871
 11
31.8491453507
 21
178.0620318013
  0
LINE
  5
291
100
AcDbEntity
  8
0
100
AcDbLine
 62
7
  6
BYLAYER
 10
31.8491453507
 20
49.1872943368
 11
31.8491453507
 21
25.4614282236
  0
LINE
  5
292
100
AcDbEntity
  8
0
100
AcDbLine
 62
7
  6
BYLAYER
 10
31.9492193689
 20
167.6510821689
 11
31.9492193689
 21
154.6189022418
  0
LINE
  5
293
100
AcDbEntity
  8
0
100
AcDbLine
 62
7
  6
BYLAYER
 10
31.9492193689
 20
67.3464821689
 11
31.9492193689
 21
60.9691022418
  0
LINE
  5
294
100
AcDbEntity
  8
0
100
AcDbLine
 62
7
  6
BYLAYER
 10
31.9883093325
 20
167.6119922054
 11
31.9883093325
 21
154.6579922054
  0
LINE
  5
295
100
AcDbEntity
  8
0
100
AcDbLine
 62
7
  6
BYLAYER
 10
31.9883093325
 20
67.3073922054
 11
31.9883093325
 21
61.0081922054
  0
LINE
  5
296
100
AcDbEntity
  8
0
100
AcDbLine
 62
7
  6
BYLAYER
 10
30.6738590907
 20
25.8257859486
 11
30.6675093325
 21
24.2797922054
  0
LINE
  5
297
100
AcDbEntity
  8
0
100
AcDbLine
 62
7
  6
BYLAYER
 10
55.830567256
 20
167.6711501373
 11
55.8299022856
 21
167.67048515
  0
LINE
  5
298
100
AcDbEntity
  8
0
100
AcDbLine
 62
7
  6
BYLAYER
 10
62.6207093325
 20
171.8791922054
 11
62.892945712
 21
172.1514285849
  0
LINE
  5
299
100
AcDbEntity
  8
0
100
AcDbLine
 62
7
  6
BYLAYER
 10
65.5006231791
 20
57.4521922054
 11
66.5733954858
 21
57.4521922054
  0
LINE
  5
29A
100
AcDbEntity
  8
0
100
AcDbLine
 62
7
  6
BYLAYER
 10
97.4792231791
 20
57.4521922054
 11
98.5519954858
 21
57.4521922054
  0
LINE
  5
29B
100
AcDbEntity
  8
0
100
AcDbLine
 62
7
  6
BYLAYER
 10
133.1193606099
 20
60.9603131179
 11
129.755830245
 21
60.9603131179
  0
LINE
  5
29C
100
AcDbEntity
  8
0
100
AcDbLine
 62
7
  6
BYLAYER
 10
34.2967884199
 20
60.9603131179
 11
30.933258055
 21
60.9603131179
  0
LINE
  5
29D
100
AcDbEntity
  8
0
100
AcDbLine
 62
7
  6
BYLAYER
 10
31.9883093325
 20
61.0081922054
 11
34.2489093325
 21
61.0081922054
  0
LINE
  5
29E
100
AcDbEntity
  8
0
100
AcDbLine
 62
7
  6
BYLAYER
 10
129.8037093325
 20
61.0081922054
 11
132.0643093325
 21
61.0081922054
  0
LINE
  5
29F
100
AcDbEntity
  8
0
100
AcDbLine
 62
7
  6
BYLAYER
 10
98.5519954858
 20
61.3424918315
 11
98.1750247106
 21
61.3424918315
  0
LINE
  5
2A0
100
AcDbEntity
  8
0
100
AcDbLine
 62
7
  6
BYLAYER
 10
98.5646689191
 20
62.3479029995
 11
100.8787939543
 21
62.347902843
  0
LINE
  5
2A1
100
AcDbEntity
  8
0
100
AcDbLine
 62
7
  6
BYLAYER
 10
98.1750247106
 20
63.4417983741
 11
98.5619702957
 21
63.4417983741
  0
LINE
  5
2A2
100
AcDbEntity
  8
0
100
AcDbLine
 62
7
  6
BYLAYER
 10
63.3456971335
 20
63.6636344084
 11
65.7057215314
 21
63.6636344084
  0
LINE
  5
2A3
100
AcDbEntity
  8
0
100
AcDbLine
 62
7
  6
BYLAYER
 10
62.6207093325
 20
55.3693922054
 11
62.892945712
 21
55.0971558258
  0
LINE
  5
2A4
100
AcDbEntity
  8
0
100
AcDbLine
 62
7
  6
BYLAYER
 10
30.6675093325
 20
182.7256324848
 11
30.5960428454
 21
183.4420988728
  0
LINE
  5
2A5
100
AcDbEntity
  8
0
100
AcDbLine
 62
7
  6
BYLAYER
 10
34.2751430954
 20
167.6382259683
 11
34.2967884199
 21
158.6588811966
  0
LINE
  5
2A6
100
AcDbEntity
  8
0
100
AcDbLine
 62
7
  6
BYLAYER
 10
34.8005345411
 20
160.5507922053
 11
34.7834388302
 21
167.642775582
  0
LINE
  5
2A7
100
AcDbEntity
  8
0
100
AcDbLine
 62
7
  6
BYLAYER
 10
32.3571453507
 20
209.1409922054
 11
32.3571453507
 21
201.7871561871
  0
LINE
  5
2A8
100
AcDbEntity
  8
0
100
AcDbLine
 62
7
  6
BYLAYER
 10
32.3571453507
 20
25.4614282236
 11
32.3571453507
 21
18.1329922054
  0
LINE
  5
2A9
100
AcDbEntity
  8
0
100
AcDbLine
 62
7
  6
BYLAYER
 10
34.2313979996
 20
168.6455228813
 11
34.2313979996
 21
168.1678519497
  0
LINE
  5
2AA
100
AcDbEntity
  8
0
100
AcDbLine
 62
7
  6
BYLAYER
 10
34.2489093325
 20
61.0081922054
 11
34.2489093325
 21
67.3073922054
  0
LINE
  5
2AB
100
AcDbEntity
  8
0
100
AcDbLine
 62
7
  6
BYLAYER
 10
34.2489093325
 20
154.6579922054
 11
34.2489093325
 21
167.6119922054
  0
LINE
  5
2AC
100
AcDbEntity
  8
0
100
AcDbLine
 62
7
  6
BYLAYER
 10
34.2967884199
 20
60.9603131179
 11
34.2967884199
 21
67.3552712928
  0
LINE
  5
2AD
100
AcDbEntity
  8
0
100
AcDbLine
 62
7
  6
BYLAYER
 10
34.2967884199
 20
154.6101131179
 11
34.2967884199
 21
158.6588811966
  0
LINE
  5
2AE
100
AcDbEntity
  8
0
100
AcDbLine
 62
7
  6
BYLAYER
 10
34.3666647507
 20
209.1409922054
 11
34.3666647507
 21
179.2705922052
  0
LINE
  5
2AF
100
AcDbEntity
  8
0
100
AcDbLine
 62
7
  6
BYLAYER
 10
34.3666647507
 20
48.0033922055
 11
34.3666647507
 21
18.1329922054
  0
LINE
  5
2B0
100
AcDbEntity
  8
0
100
AcDbLine
 62
7
  6
BYLAYER
 10
34.5791093325
 20
26.9721922054
 11
34.5791120733
 21
47.7999886246
  0
LINE
  5
2B1
100
AcDbEntity
  8
0
100
AcDbLine
 62
7
  6
BYLAYER
 10
34.5791120733
 20
179.4739836929
 11
34.5791093325
 21
200.3017922054
  0
LINE
  5
2B2
100
AcDbEntity
  8
0
100
AcDbLine
 62
7
  6
BYLAYER
 10
36.3063093325
 20
53.2464537343
 11
36.3063093325
 21
52.7722104036
  0
LINE
  5
2B3
100
AcDbEntity
  8
0
100
AcDbLine
 62
7
  6
BYLAYER
 10
36.3063093325
 20
163.125516256
 11
36.3063093325
 21
169.141538471
  0
LINE
  5
2B4
100
AcDbEntity
  8
0
100
AcDbLine
 62
7
  6
BYLAYER
 10
36.3063093325
 20
174.022815882
 11
36.3063093325
 21
174.2921922054
  0
LINE
  5
2B5
100
AcDbEntity
  8
0
100
AcDbLine
 62
7
  6
BYLAYER
 10
36.5519864501
 20
173.8159506966
 11
36.5519864501
 21
174.2064563705
  0
LINE
  5
2B6
100
AcDbEntity
  8
0
100
AcDbLine
 62
7
  6
BYLAYER
 10
36.562851409
 20
167.6710393061
 11
36.5628514045
 21
169.1472969141
  0
LINE
  5
2B7
100
AcDbEntity
  8
0
100
AcDbLine
 62
7
  6
BYLAYER
 10
36.5839093325
 20
174.1745340241
 11
36.5839093325
 21
173.7916489524
  0
LINE
  5
2B8
100
AcDbEntity
  8
0
100
AcDbLine
 62
7
  6
BYLAYER
 10
36.5839093325
 20
169.1472969151
 11
36.5839093325
 21
168.7676922053
  0
LINE
  5
2B9
100
AcDbEntity
  8
0
100
AcDbLine
 62
7
  6
BYLAYER
 10
38.8437290836
 20
166.1641821239
 11
38.8437290836
 21
164.6656410909
  0
LINE
  5
2BA
100
AcDbEntity
  8
0
100
AcDbLine
 62
7
  6
BYLAYER
 10
39.2041599654
 20
163.125516256
 11
39.2041599654
 21
168.6431250671
  0
LINE
  5
2BB
100
AcDbEntity
  8
0
100
AcDbLine
 62
7
  6
BYLAYER
 10
36.5794370547
 20
168.7632199275
 11
36.5749647769
 21
168.2507476497
  0
LINE
  5
2BC
100
AcDbEntity
  8
0
100
AcDbLine
 62
7
  6
BYLAYER
 10
54.8460586996
 20
163.125516256
 11
53.6037093325
 21
160.5507922054
  0
LINE
  5
2BD
100
AcDbEntity
  8
0
100
AcDbLine
 62
7
  6
BYLAYER
 10
68.5135093325
 20
167.6643922054
 11
68.5339022771
 21
167.68478515
  0
LINE
  5
2BE
100
AcDbEntity
  8
0
100
AcDbLine
 62
7
  6
BYLAYER
 10
100.3381859284
 20
193.0739397867
 11
100.13043019
 21
192.8661840483
  0
LINE
  5
2BF
100
AcDbEntity
  8
0
100
AcDbLine
 62
7
  6
BYLAYER
 10
64.9540411006
 20
64.8470797191
 11
62.7200616535
 21
64.8470797192
  0
LINE
  5
2C0
100
AcDbEntity
  8
0
100
AcDbLine
 62
7
  6
BYLAYER
 10
100.8787939543
 20
64.8471676115
 11
99.0986653939
 21
64.8471676116
  0
LINE
  5
2C1
100
AcDbEntity
  8
0
100
AcDbLine
 62
7
  6
BYLAYER
 10
100.8787939543
 20
65.8761643954
 11
98.6081147735
 21
65.8761673209
  0
LINE
  5
2C2
100
AcDbEntity
  8
0
100
AcDbLine
 62
7
  6
BYLAYER
 10
65.4445038944
 20
65.8761674649
 11
62.7200616535
 21
65.8761643958
  0
LINE
  5
2C3
100
AcDbEntity
  8
0
100
AcDbLine
 62
7
  6
BYLAYER
 10
62.7200616535
 20
66.3421922054
 11
66.3313570114
 21
66.3421922054
  0
LINE
  5
2C4
100
AcDbEntity
  8
0
100
AcDbLine
 62
7
  6
BYLAYER
 10
98.1750247106
 20
66.3421922054
 11
100.8787939543
 21
66.3421922054
  0
LINE
  5
2C5
100
AcDbEntity
  8
0
100
AcDbLine
 62
7
  6
BYLAYER
 10
100.8850005027
 20
67.2430833756
 11
98.1688181622
 21
67.2430833756
  0
LINE
  5
2C6
100
AcDbEntity
  8
0
100
AcDbLine
 62
7
  6
BYLAYER
 10
132.0643093325
 20
67.3073922054
 11
129.8037093325
 21
67.3073922054
  0
LINE
  5
2C7
100
AcDbEntity
  8
0
100
AcDbLine
 62
7
  6
BYLAYER
 10
34.2489093325
 20
67.3073922054
 11
31.9883093325
 21
67.3073922054
  0
LINE
  5
2C8
100
AcDbEntity
  8
0
100
AcDbLine
 62
7
  6
BYLAYER
 10
30.933258055
 20
67.3552712928
 11
34.2967884199
 21
67.3552712928
  0
LINE
  5
2C9
100
AcDbEntity
  8
0
100
AcDbLine
 62
7
  6
BYLAYER
 10
129.755830245
 20
67.3552712928
 11
133.1193606099
 21
67.3552712928
  0
LINE
  5
2CA
100
AcDbEntity
  8
0
100
AcDbLine
 62
7
  6
BYLAYER
 10
73.6189093325
 20
69.4663922054
 11
97.5965093325
 21
69.4663922054
  0
LINE
  5
2CB
100
AcDbEntity
  8
0
100
AcDbLine
 62
7
  6
BYLAYER
 10
66.3406671294
 20
64.2985800064
 11
66.3313570114
 21
64.3078901244
  0
LINE
  5
2CC
100
AcDbEntity
  8
0
100
AcDbLine
 62
7
  6
BYLAYER
 10
100.13043019
 20
34.3570003625
 11
100.3381859284
 21
34.149244624
  0
LINE
  5
2CD
100
AcDbEntity
  8
0
100
AcDbLine
 62
7
  6
BYLAYER
 10
65.4488985698
 20
65.3681840461
 11
65.4620189241
 21
65.3550608217
  0
LINE
  5
2CE
100
AcDbEntity
  8
0
100
AcDbLine
 62
7
  6
BYLAYER
 10
39.129648158
 20
209.1409922054
 11
39.2001368145
 21
201.0637922054
  0
LINE
  5
2CF
100
AcDbEntity
  8
0
100
AcDbLine
 62
7
  6
BYLAYER
 10
40.1671093325
 20
24.6861922054
 11
40.1671093325
 21
26.2101922054
  0
LINE
  5
2D0
100
AcDbEntity
  8
0
100
AcDbLine
 62
7
  6
BYLAYER
 10
40.1671093325
 20
201.0637922054
 11
40.1671093325
 21
202.5877922054
  0
LINE
  5
2D1
100
AcDbEntity
  8
0
100
AcDbLine
 62
7
  6
BYLAYER
 10
40.4465093325
 20
160.5507922054
 11
40.4465093325
 21
168.6493316155
  0
LINE
  5
2D2
100
AcDbEntity
  8
0
100
AcDbLine
 62
7
  6
BYLAYER
 10
42.4531093325
 20
204.8737922054
 11
42.4531093325
 21
201.0637922054
  0
LINE
  5
2D3
100
AcDbEntity
  8
0
100
AcDbLine
 62
7
  6
BYLAYER
 10
42.4531093325
 20
26.2101922054
 11
42.4531093325
 21
22.4001922054
  0
LINE
  5
2D4
100
AcDbEntity
  8
0
100
AcDbLine
 62
7
  6
BYLAYER
 10
42.4559909442
 20
55.8999195034
 11
42.4559909442
 21
56.1471302387
  0
LINE
  5
2D5
100
AcDbEntity
  8
0
100
AcDbLine
 62
7
  6
BYLAYER
 10
39.200358477
 20
26.2101922054
 11
39.1298698205
 21
18.1329922054
  0
LINE
  5
2D6
100
AcDbEntity
  8
0
100
AcDbLine
 62
7
  6
BYLAYER
 10
62.3817903309
 20
170.9257989412
 11
61.7478712247
 21
169.4598610081
  0
LINE
  5
2D7
100
AcDbEntity
  8
0
100
AcDbLine
 62
7
  6
BYLAYER
 10
100.8924011754
 20
192.1042130629
 11
101.1001569138
 21
192.3119688013
  0
LINE
  5
2D8
100
AcDbEntity
  8
0
100
AcDbLine
 62
7
  6
BYLAYER
 10
97.7119515355
 20
71.8039625159
 11
101.3418671294
 21
71.8039625159
  0
LINE
  5
2D9
100
AcDbEntity
  8
0
100
AcDbLine
 62
7
  6
BYLAYER
 10
77.7464093325
 20
71.8793922054
 11
93.5960093325
 21
71.8793922054
  0
LINE
  5
2DA
100
AcDbEntity
  8
0
100
AcDbLine
 62
7
  6
BYLAYER
 10
93.5960093325
 20
75.0543922054
 11
77.7464093325
 21
75.0543922054
  0
LINE
  5
2DB
100
AcDbEntity
  8
0
100
AcDbLine
 62
7
  6
BYLAYER
 10
101.1001569138
 20
34.9112156094
 11
100.8924011754
 21
35.1189713478
  0
LINE
  5
2DC
100
AcDbEntity
  8
0
100
AcDbLine
 62
7
  6
BYLAYER
 10
62.8593005865
 20
77.900234143
 11
63.0702024845
 21
77.6488910483
  0
LINE
  5
2DD
100
AcDbEntity
  8
0
100
AcDbLine
 62
7
  6
BYLAYER
 10
66.1921180785
 20
74.2997286176
 11
65.9812161804
 21
74.5510717124
  0
LINE
  5
2DE
100
AcDbEntity
  8
0
100
AcDbLine
 62
7
  6
BYLAYER
 10
54.9203488445
 20
18.1329922054
 11
54.849860188
 21
26.2101922054
  0
LINE
  5
2DF
100
AcDbEntity
  8
0
100
AcDbLine
 62
7
  6
BYLAYER
 10
50.9084277207
 20
55.9281949466
 11
50.9084277207
 21
56.1471302387
  0
LINE
  5
2E0
100
AcDbEntity
  8
0
100
AcDbLine
 62
7
  6
BYLAYER
 10
51.5971093325
 20
22.4001922054
 11
51.5971093325
 21
26.2101922054
  0
LINE
  5
2E1
100
AcDbEntity
  8
0
100
AcDbLine
 62
7
  6
BYLAYER
 10
51.5971093325
 20
201.0637922054
 11
51.5971093325
 21
204.8737922054
  0
LINE
  5
2E2
100
AcDbEntity
  8
0
100
AcDbLine
 62
7
  6
BYLAYER
 10
53.6037093325
 20
168.6493316155
 11
53.6037093325
 21
160.5507922054
  0
LINE
  5
2E3
100
AcDbEntity
  8
0
100
AcDbLine
 62
7
  6
BYLAYER
 10
53.8831093325
 20
202.5877922054
 11
53.8831093325
 21
201.0637922054
  0
LINE
  5
2E4
100
AcDbEntity
  8
0
100
AcDbLine
 62
7
  6
BYLAYER
 10
53.8831093325
 20
26.2101922054
 11
53.8831093325
 21
24.6861922054
  0
LINE
  5
2E5
100
AcDbEntity
  8
0
100
AcDbLine
 62
7
  6
BYLAYER
 10
54.8500818504
 20
201.0637922054
 11
54.9205705069
 21
209.1409922054
  0
LINE
  5
2E6
100
AcDbEntity
  8
0
100
AcDbLine
 62
7
  6
BYLAYER
 10
101.4319093325
 20
180.453244624
 11
101.159672953
 21
180.1810082445
  0
LINE
  5
2E7
100
AcDbEntity
  8
0
100
AcDbLine
 62
7
  6
BYLAYER
 10
97.6219093325
 20
171.8791922054
 11
97.894145712
 21
172.1514285849
  0
LINE
  5
2E8
100
AcDbEntity
  8
0
100
AcDbLine
 62
7
  6
BYLAYER
 10
63.3456971335
 20
83.3971500023
 11
65.7057215314
 21
83.3971500023
  0
LINE
  5
2E9
100
AcDbEntity
  8
0
100
AcDbLine
 62
7
  6
BYLAYER
 10
62.1903034013
 20
84.7586007816
 11
65.4895152636
 21
84.7586007816
  0
LINE
  5
2EA
100
AcDbEntity
  8
0
100
AcDbLine
 62
7
  6
BYLAYER
 10
101.4319093325
 20
46.7699397867
 11
101.159672953
 21
47.0421761662
  0
LINE
  5
2EB
100
AcDbEntity
  8
0
100
AcDbLine
 62
7
  6
BYLAYER
 10
97.6219093325
 20
55.3693922054
 11
97.894145712
 21
55.0971558258
  0
LINE
  5
2EC
100
AcDbEntity
  8
0
100
AcDbLine
 62
7
  6
BYLAYER
 10
54.8460586996
 20
168.6431250671
 11
54.8460586996
 21
163.125516256
  0
LINE
  5
2ED
100
AcDbEntity
  8
0
100
AcDbLine
 62
7
  6
BYLAYER
 10
55.8299022856
 20
167.67048515
 11
55.8299022771
 21
168.2392992607
  0
LINE
  5
2EE
100
AcDbEntity
  8
0
100
AcDbLine
 62
7
  6
BYLAYER
 10
55.8305672616
 20
169.14729699
 11
55.830567256
 21
167.6711501373
  0
LINE
  5
2EF
100
AcDbEntity
  8
0
100
AcDbLine
 62
7
  6
BYLAYER
 10
59.4711093325
 20
26.9721922054
 11
59.4711065917
 21
47.8000013229
  0
LINE
  5
2F0
100
AcDbEntity
  8
0
100
AcDbLine
 62
7
  6
BYLAYER
 10
59.4711065917
 20
179.473995237
 11
59.4711093325
 21
200.3017922054
  0
LINE
  5
2F1
100
AcDbEntity
  8
0
100
AcDbLine
 62
7
  6
BYLAYER
 10
59.6835539142
 20
209.1409922054
 11
59.6835539142
 21
179.2705922054
  0
LINE
  5
2F2
100
AcDbEntity
  8
0
100
AcDbLine
 62
7
  6
BYLAYER
 10
59.6835539142
 20
48.0033922054
 11
59.6835539142
 21
18.1329922054
  0
LINE
  5
2F3
100
AcDbEntity
  8
0
100
AcDbLine
 62
7
  6
BYLAYER
 10
60.6649093325
 20
209.1409922054
 11
60.6649093326
 21
180.9469922049
  0
LINE
  5
2F4
100
AcDbEntity
  8
0
100
AcDbLine
 62
7
  6
BYLAYER
 10
60.6649093325
 20
18.1329922054
 11
60.6649093325
 21
46.3269921645
  0
LINE
  5
2F5
100
AcDbEntity
  8
0
100
AcDbLine
 62
7
  6
BYLAYER
 10
60.8051964998
 20
158.6588811966
 11
60.8051964998
 21
155.4173915146
  0
LINE
  5
2F6
100
AcDbEntity
  8
0
100
AcDbLine
 62
7
  6
BYLAYER
 10
60.307656927
 20
163.125516256
 11
60.3014503786
 21
160.5507922054
  0
LINE
  5
2F7
100
AcDbEntity
  8
0
100
AcDbLine
 62
7
  6
BYLAYER
 10
60.8051964998
 20
158.6588811966
 11
60.8114030482
 21
161.2336052473
  0
LINE
  5
2F8
100
AcDbEntity
  8
0
100
AcDbLine
 62
7
  6
BYLAYER
 10
131.6954733143
 20
201.7871561871
 11
132.8771093325
 21
202.9687922053
  0
LINE
  5
2F9
100
AcDbEntity
  8
0
100
AcDbLine
 62
7
  6
BYLAYER
 10
132.2034733143
 20
201.7871561871
 11
133.3851093325
 21
202.9687922054
  0
LINE
  5
2FA
100
AcDbEntity
  8
0
100
AcDbLine
 62
7
  6
BYLAYER
 10
132.2034733143
 20
201.7871561871
 11
132.9654511001
 21
202.5491981097
  0
LINE
  5
2FB
100
AcDbEntity
  8
0
100
AcDbLine
 62
7
  6
BYLAYER
 10
91.3925593325
 20
143.8754219995
 11
91.6571428676
 21
144.0375496539
  0
LINE
  5
2FC
100
AcDbEntity
  8
0
100
AcDbLine
 62
7
  6
BYLAYER
 10
65.4895152636
 20
88.9721836291
 11
65.400586249
 21
88.9721836291
  0
LINE
  5
2FD
100
AcDbEntity
  8
0
100
AcDbLine
 62
7
  6
BYLAYER
 10
62.2792324159
 20
88.9721836291
 11
62.1903034013
 21
88.9721836291
  0
LINE
  5
2FE
100
AcDbEntity
  8
0
100
AcDbLine
 62
7
  6
BYLAYER
 10
98.3468971335
 20
89.6455500023
 11
100.7069215314
 21
89.6455500023
  0
LINE
  5
2FF
100
AcDbEntity
  8
0
100
AcDbLine
 62
7
  6
BYLAYER
 10
101.3418671294
 20
78.9137801312
 11
101.3325570114
 21
78.917168737
  0
LINE
  5
300
100
AcDbEntity
  8
0
100
AcDbLine
 62
7
  6
BYLAYER
 10
131.6954733143
 20
25.4614282236
 11
132.8771093325
 21
24.2797922054
  0
LINE
  5
301
100
AcDbEntity
  8
0
100
AcDbLine
 62
7
  6
BYLAYER
 10
133.3851093325
 20
24.2797922053
 11
132.2034733143
 21
25.4614282236
  0
LINE
  5
302
100
AcDbEntity
  8
0
100
AcDbLine
 62
7
  6
BYLAYER
 10
65.7001892158
 20
18.1329922054
 11
65.6478728952
 21
21.1301922054
  0
LINE
  5
303
100
AcDbEntity
  8
0
100
AcDbLine
 62
7
  6
BYLAYER
 10
65.6044237476
 20
23.6193922054
 11
65.4653661964
 21
31.5859939769
  0
LINE
  5
304
100
AcDbEntity
  8
0
100
AcDbLine
 62
7
  6
BYLAYER
 10
63.3507860905
 20
209.1409922054
 11
63.4031024111
 21
206.1437922054
  0
LINE
  5
305
100
AcDbEntity
  8
0
100
AcDbLine
 62
7
  6
BYLAYER
 10
63.4465515587
 20
203.6545922054
 11
63.5860524686
 21
195.6625904338
  0
LINE
  5
306
100
AcDbEntity
  8
0
100
AcDbLine
 62
7
  6
BYLAYER
 10
68.2400156168
 20
161.2336052472
 11
68.2462221652
 21
158.6588811966
  0
LINE
  5
307
100
AcDbEntity
  8
0
100
AcDbLine
 62
7
  6
BYLAYER
 10
61.6809093325
 20
141.2975922054
 11
61.6809093325
 21
125.0415922054
  0
LINE
  5
308
100
AcDbEntity
  8
0
100
AcDbLine
 62
7
  6
BYLAYER
 10
61.8093179087
 20
88.5911981364
 11
61.8093179087
 21
85.1395862743
  0
LINE
  5
309
100
AcDbEntity
  8
0
100
AcDbLine
 62
7
  6
BYLAYER
 10
61.9857093325
 20
209.1409922054
 11
61.9857093325
 21
180.9469922462
  0
LINE
  5
30A
100
AcDbEntity
  8
0
100
AcDbLine
 62
7
  6
BYLAYER
 10
61.9857093325
 20
18.1329922054
 11
61.9857093324
 21
46.3269922058
  0
LINE
  5
30B
100
AcDbEntity
  8
0
100
AcDbLine
 62
7
  6
BYLAYER
 10
62.6207093325
 20
180.453244624
 11
62.6207093325
 21
178.1528502668
  0
LINE
  5
30C
100
AcDbEntity
  8
0
100
AcDbLine
 62
7
  6
BYLAYER
 10
62.6207093325
 20
174.0891341439
 11
62.6207093325
 21
171.8791922054
  0
LINE
  5
30D
100
AcDbEntity
  8
0
100
AcDbLine
 62
7
  6
BYLAYER
 10
62.6207093325
 20
55.3693922054
 11
62.6207093325
 21
53.1427061139
  0
LINE
  5
30E
100
AcDbEntity
  8
0
100
AcDbLine
 62
7
  6
BYLAYER
 10
62.6207093325
 20
49.1124782968
 11
62.6207093325
 21
46.7699397867
  0
LINE
  5
30F
100
AcDbEntity
  8
0
100
AcDbLine
 62
7
  6
BYLAYER
 10
62.6602179087
 20
96.7191981364
 11
62.6602179087
 21
89.3531691218
  0
LINE
  5
310
100
AcDbEntity
  8
0
100
AcDbLine
 62
7
  6
BYLAYER
 10
62.7107515355
 20
82.7622044043
 11
62.7107515355
 21
78.3083693061
  0
LINE
  5
311
100
AcDbEntity
  8
0
100
AcDbLine
 62
7
  6
BYLAYER
 10
62.7107515355
 20
73.8915934545
 11
62.7107515355
 21
64.2985800064
  0
LINE
  5
312
100
AcDbEntity
  8
0
100
AcDbLine
 62
7
  6
BYLAYER
 10
62.892945712
 20
180.1810082445
 11
62.892945712
 21
178.3883748635
  0
LINE
  5
313
100
AcDbEntity
  8
0
100
AcDbLine
 62
7
  6
BYLAYER
 10
62.892945712
 20
173.8536095472
 11
62.892945712
 21
172.1514285849
  0
LINE
  5
314
100
AcDbEntity
  8
0
100
AcDbLine
 62
7
  6
BYLAYER
 10
62.892945712
 20
55.0971558258
 11
62.892945712
 21
53.3799342776
  0
LINE
  5
315
100
AcDbEntity
  8
0
100
AcDbLine
 62
7
  6
BYLAYER
 10
62.892945712
 20
48.8752501331
 11
62.892945712
 21
47.0421761662
  0
LINE
  5
316
100
AcDbEntity
  8
0
100
AcDbLine
 62
7
  6
BYLAYER
 10
62.9524617512
 20
34.9112156094
 11
62.9524617512
 21
46.7699397867
  0
LINE
  5
317
100
AcDbEntity
  8
0
100
AcDbLine
 62
7
  6
BYLAYER
 10
62.9524617512
 20
180.453244624
 11
62.9524617512
 21
192.3119688013
  0
LINE
  5
318
100
AcDbEntity
  8
0
100
AcDbLine
 62
7
  6
BYLAYER
 10
63.1602174896
 20
192.1042130629
 11
63.160217478
 21
181.422971342
  0
LINE
  5
319
100
AcDbEntity
  8
0
100
AcDbLine
 62
7
  6
BYLAYER
 10
63.160217478
 20
45.8002130687
 11
63.1602174896
 21
35.1189713478
  0
LINE
  5
31A
100
AcDbEntity
  8
0
100
AcDbLine
 62
7
  6
BYLAYER
 10
63.2187515355
 20
74.9592068756
 11
63.2187515355
 21
77.240755885
  0
LINE
  5
31B
100
AcDbEntity
  8
0
100
AcDbLine
 62
7
  6
BYLAYER
 10
63.6341279848
 20
154.309708688
 11
63.6341279848
 21
152.5979915146
  0
LINE
  5
31C
100
AcDbEntity
  8
0
100
AcDbLine
 62
7
  6
BYLAYER
 10
63.9221884749
 20
192.8661840482
 11
63.9221884749
 21
180.6610003625
  0
LINE
  5
31D
100
AcDbEntity
  8
0
100
AcDbLine
 62
7
  6
BYLAYER
 10
63.9221884749
 20
46.5621840482
 11
63.9221884749
 21
34.3570003625
  0
LINE
  5
31E
100
AcDbEntity
  8
0
100
AcDbLine
 62
7
  6
BYLAYER
 10
64.9365232375
 20
65.8761643959
 11
64.9365232375
 21
66.3421922054
  0
LINE
  5
31F
100
AcDbEntity
  8
0
100
AcDbLine
 62
7
  6
BYLAYER
 10
64.9799686724
 20
61.3707969147
 11
64.979968872
 21
56.6553833292
  0
LINE
  5
320
100
AcDbEntity
  8
0
100
AcDbLine
 62
7
  6
BYLAYER
 10
65.0196007562
 20
89.3531691218
 11
65.0196007562
 21
96.7191981364
  0
LINE
  5
321
100
AcDbEntity
  8
0
100
AcDbLine
 62
7
  6
BYLAYER
 10
65.12923019
 20
34.3570003625
 11
65.12923019
 21
46.5621840482
  0
LINE
  5
322
100
AcDbEntity
  8
0
100
AcDbLine
 62
7
  6
BYLAYER
 10
65.12923019
 20
180.6610003625
 11
65.12923019
 21
192.8661840482
  0
LINE
  5
323
100
AcDbEntity
  8
0
100
AcDbLine
 62
7
  6
BYLAYER
 10
65.4172906802
 20
152.5979915146
 11
65.4172906802
 21
154.309708688
  0
LINE
  5
324
100
AcDbEntity
  8
0
100
AcDbLine
 62
7
  6
BYLAYER
 10
65.4445038944
 20
66.3421922054
 11
65.4445038944
 21
65.8761762901
  0
LINE
  5
325
100
AcDbEntity
  8
0
100
AcDbLine
 62
7
  6
BYLAYER
 10
65.4879497449
 20
56.8874886865
 11
65.4879497463
 21
57.4521922055
  0
LINE
  5
326
100
AcDbEntity
  8
0
100
AcDbLine
 62
7
  6
BYLAYER
 10
65.4906483692
 20
63.6729445264
 11
65.4906483692
 21
66.3421922054
  0
LINE
  5
327
100
AcDbEntity
  8
0
100
AcDbLine
 62
7
  6
BYLAYER
 10
65.5006231791
 20
57.4521922054
 11
65.5006231791
 21
61.3424918315
  0
LINE
  5
328
100
AcDbEntity
  8
0
100
AcDbLine
 62
7
  6
BYLAYER
 10
65.548723929
 20
56.9161660661
 11
65.548723929
 21
57.4521922054
  0
LINE
  5
329
100
AcDbEntity
  8
0
100
AcDbLine
 62
7
  6
BYLAYER
 10
65.8193212666
 20
45.973723953
 11
65.8193224814
 21
47.1578661578
  0
LINE
  5
32A
100
AcDbEntity
  8
0
100
AcDbLine
 62
7
  6
BYLAYER
 10
65.8326671294
 20
77.240755885
 11
65.8326671294
 21
74.9592068756
  0
LINE
  5
32B
100
AcDbEntity
  8
0
100
AcDbLine
 62
7
  6
BYLAYER
 10
65.8705007562
 20
85.1395862743
 11
65.8705007562
 21
88.5911981364
  0
LINE
  5
32C
100
AcDbEntity
  8
0
100
AcDbLine
 62
7
  6
BYLAYER
 10
65.8912011754
 20
35.1189713478
 11
65.8912011765
 21
45.8001985564
  0
LINE
  5
32D
100
AcDbEntity
  8
0
100
AcDbLine
 62
7
  6
BYLAYER
 10
65.891201187
 20
181.422971342
 11
65.8912011754
 21
192.1042130629
  0
LINE
  5
32E
100
AcDbEntity
  8
0
100
AcDbLine
 62
7
  6
BYLAYER
 10
66.0989569138
 20
192.3119688013
 11
66.0989569138
 21
180.453244624
  0
LINE
  5
32F
100
AcDbEntity
  8
0
100
AcDbLine
 62
7
  6
BYLAYER
 10
66.0989569138
 20
46.7699397867
 11
66.0989569138
 21
34.9112156094
  0
LINE
  5
330
100
AcDbEntity
  8
0
100
AcDbLine
 62
7
  6
BYLAYER
 10
66.158472953
 20
47.0421761662
 11
66.158472953
 21
48.8752501331
  0
LINE
  5
331
100
AcDbEntity
  8
0
100
AcDbLine
 62
7
  6
BYLAYER
 10
66.158472953
 20
53.3799342776
 11
66.158472953
 21
55.0971558258
  0
LINE
  5
332
100
AcDbEntity
  8
0
100
AcDbLine
 62
7
  6
BYLAYER
 10
66.158472953
 20
172.1514285849
 11
66.158472953
 21
173.8536095472
  0
LINE
  5
333
100
AcDbEntity
  8
0
100
AcDbLine
 62
7
  6
BYLAYER
 10
66.158472953
 20
178.3883748635
 11
66.158472953
 21
180.1810082445
  0
LINE
  5
334
100
AcDbEntity
  8
0
100
AcDbLine
 62
7
  6
BYLAYER
 10
66.3406671294
 20
82.7622044043
 11
66.3406671294
 21
78.3083693061
  0
LINE
  5
335
100
AcDbEntity
  8
0
100
AcDbLine
 62
7
  6
BYLAYER
 10
66.3406671294
 20
73.8915934545
 11
66.3406671294
 21
64.2985800064
  0
LINE
  5
336
100
AcDbEntity
  8
0
100
AcDbLine
 62
7
  6
BYLAYER
 10
66.4307093325
 20
46.7699397867
 11
66.4307093325
 21
49.1124782968
  0
LINE
  5
337
100
AcDbEntity
  8
0
100
AcDbLine
 62
7
  6
BYLAYER
 10
66.4307093325
 20
53.1427061139
 11
66.4307093325
 21
55.3693922054
  0
LINE
  5
338
100
AcDbEntity
  8
0
100
AcDbLine
 62
7
  6
BYLAYER
 10
66.4307093325
 20
171.8791922054
 11
66.4307093325
 21
174.089134144
  0
LINE
  5
339
100
AcDbEntity
  8
0
100
AcDbLine
 62
7
  6
BYLAYER
 10
66.4307093325
 20
178.1528502668
 11
66.4307093325
 21
180.453244624
  0
LINE
  5
33A
100
AcDbEntity
  8
0
100
AcDbLine
 62
7
  6
BYLAYER
 10
66.5252947359
 20
57.3769783685
 11
66.5252947359
 21
57.4521922054
  0
LINE
  5
33B
100
AcDbEntity
  8
0
100
AcDbLine
 62
7
  6
BYLAYER
 10
66.5733954858
 20
57.4521922054
 11
66.5733954858
 21
60.3713149542
  0
LINE
  5
33C
100
AcDbEntity
  8
0
100
AcDbLine
 62
7
  6
BYLAYER
 10
66.5860689193
 20
57.4521922051
 11
66.5860689194
 21
57.4056557477
  0
LINE
  5
33D
100
AcDbEntity
  8
0
100
AcDbLine
 62
7
  6
BYLAYER
 10
67.3197093325
 20
209.1409922054
 11
67.3197093326
 21
180.9469922049
  0
LINE
  5
33E
100
AcDbEntity
  8
0
100
AcDbLine
 62
7
  6
BYLAYER
 10
67.3197093325
 20
18.1329922054
 11
67.3197093325
 21
46.3269921645
  0
LINE
  5
33F
100
AcDbEntity
  8
0
100
AcDbLine
 62
7
  6
BYLAYER
 10
68.2462221652
 20
158.6588811966
 11
68.2462221652
 21
155.4173915146
  0
LINE
  5
340
100
AcDbEntity
  8
0
100
AcDbLine
 62
7
  6
BYLAYER
 10
68.533902277
 20
169.1472969899
 11
68.5339022771
 21
167.68478515
  0
LINE
  5
341
100
AcDbEntity
  8
0
100
AcDbLine
 62
7
  6
BYLAYER
 10
65.4653661964
 20
195.6625904338
 11
65.6048671062
 21
203.6545922054
  0
LINE
  5
342
100
AcDbEntity
  8
0
100
AcDbLine
 62
7
  6
BYLAYER
 10
65.6483162538
 20
206.1437922054
 11
65.7006325744
 21
209.1409922054
  0
LINE
  5
343
100
AcDbEntity
  8
0
100
AcDbLine
 62
7
  6
BYLAYER
 10
63.5860524686
 20
31.5859939769
 11
63.4469949174
 21
23.6193922054
  0
LINE
  5
344
100
AcDbEntity
  8
0
100
AcDbLine
 62
7
  6
BYLAYER
 10
63.4035457698
 20
21.1301922054
 11
63.3512294492
 21
18.1329922054
  0
LINE
  5
345
100
AcDbEntity
  8
0
100
AcDbLine
 62
7
  6
BYLAYER
 10
89.8472586996
 20
163.125516256
 11
88.6049093325
 21
160.5507922053
  0
LINE
  5
346
100
AcDbEntity
  8
0
100
AcDbLine
 62
7
  6
BYLAYER
 10
91.2338093325
 20
143.7132943403
 11
91.3925593325
 21
143.8754219995
  0
LINE
  5
347
100
AcDbEntity
  8
0
100
AcDbLine
 62
7
  6
BYLAYER
 10
96.3205837051
 20
154.915617406
 11
96.3143771567
 21
154.9094108577
  0
LINE
  5
348
100
AcDbEntity
  8
0
100
AcDbLine
 62
7
  6
BYLAYER
 10
98.6415345332
 20
154.915617406
 11
98.6353279848
 21
154.9094108577
  0
LINE
  5
349
100
AcDbEntity
  8
0
100
AcDbLine
 62
7
  6
BYLAYER
 10
98.6415345332
 20
152.604198063
 11
98.6353279848
 21
152.5979915146
  0
LINE
  5
34A
100
AcDbEntity
  8
0
100
AcDbLine
 62
7
  6
BYLAYER
 10
99.1495151901
 20
152.096217406
 11
99.1433086417
 21
152.0900108577
  0
LINE
  5
34B
100
AcDbEntity
  8
0
100
AcDbLine
 62
7
  6
BYLAYER
 10
91.7100593325
 20
143.767336887
 11
91.5513093325
 21
143.6592517935
  0
LINE
  5
34C
100
AcDbEntity
  8
0
100
AcDbLine
 62
7
  6
BYLAYER
 10
92.2392257973
 20
141.8758474858
 11
92.3979757973
 21
141.9839325794
  0
LINE
  5
34D
100
AcDbEntity
  8
0
100
AcDbLine
 62
7
  6
BYLAYER
 10
96.2608925649
 20
143.767336887
 11
96.1021425649
 21
143.6592517935
  0
LINE
  5
34E
100
AcDbEntity
  8
0
100
AcDbLine
 62
7
  6
BYLAYER
 10
98.5892260244
 20
143.767336887
 11
98.4304759487
 21
143.6592517935
  0
LINE
  5
34F
100
AcDbEntity
  8
0
100
AcDbLine
 62
7
  6
BYLAYER
 10
96.7900593325
 20
141.8758474858
 11
96.9488093325
 21
141.9839325794
  0
LINE
  5
350
100
AcDbEntity
  8
0
100
AcDbLine
 62
7
  6
BYLAYER
 10
99.1183926406
 20
141.8758474858
 11
99.2771426784
 21
141.9839325794
  0
LINE
  5
351
100
AcDbEntity
  8
0
100
AcDbLine
 62
7
  6
BYLAYER
 10
95.9433925649
 20
143.8754219995
 11
96.2079761
 21
144.0375496539
  0
LINE
  5
352
100
AcDbEntity
  8
0
100
AcDbLine
 62
7
  6
BYLAYER
 10
92.5567257973
 20
141.7677623924
 11
92.2921428677
 21
141.6056347521
  0
LINE
  5
353
100
AcDbEntity
  8
0
100
AcDbLine
 62
7
  6
BYLAYER
 10
98.2717259487
 20
143.8754219995
 11
98.5363093325
 21
144.0375496539
  0
LINE
  5
354
100
AcDbEntity
  8
0
100
AcDbLine
 62
7
  6
BYLAYER
 10
97.1075593325
 20
141.7677623924
 11
96.8429761001
 21
141.6056347521
  0
LINE
  5
355
100
AcDbEntity
  8
0
100
AcDbLine
 62
7
  6
BYLAYER
 10
99.4358926784
 20
141.7677623924
 11
99.1713093325
 21
141.6056347521
  0
LINE
  5
356
100
AcDbEntity
  8
0
100
AcDbLine
 62
7
  6
BYLAYER
 10
120.0204764028
 20
142.6864858385
 11
119.7029764028
 21
142.578400745
  0
LINE
  5
357
100
AcDbEntity
  8
0
100
AcDbLine
 62
7
  6
BYLAYER
 10
94.2183093325
 20
93.5963922054
 11
77.4543093325
 21
93.5963922054
  0
LINE
  5
358
100
AcDbEntity
  8
0
100
AcDbLine
 62
7
  6
BYLAYER
 10
64.6386152636
 20
97.1001836291
 11
63.0412034014
 21
97.1001836291
  0
LINE
  5
359
100
AcDbEntity
  8
0
100
AcDbLine
 62
7
  6
BYLAYER
 10
39.2041599654
 20
163.125516256
 11
40.4465093325
 21
160.5507922054
  0
LINE
  5
35A
100
AcDbEntity
  8
0
100
AcDbLine
 62
7
  6
BYLAYER
 10
74.130848158
 20
209.1409922054
 11
74.2013368145
 21
201.0637922054
  0
LINE
  5
35B
100
AcDbEntity
  8
0
100
AcDbLine
 62
7
  6
BYLAYER
 10
68.7499682863
 20
160.5507922053
 11
68.7437617379
 21
163.125516256
  0
LINE
  5
35C
100
AcDbEntity
  8
0
100
AcDbLine
 62
7
  6
BYLAYER
 10
68.6405093325
 20
209.1409922054
 11
68.6405093325
 21
180.9469922462
  0
LINE
  5
35D
100
AcDbEntity
  8
0
100
AcDbLine
 62
7
  6
BYLAYER
 10
68.6405093325
 20
18.1329922054
 11
68.6405093324
 21
46.3269922058
  0
LINE
  5
35E
100
AcDbEntity
  8
0
100
AcDbLine
 62
7
  6
BYLAYER
 10
69.3678647507
 20
209.1409922054
 11
69.3678647507
 21
179.2705922054
  0
LINE
  5
35F
100
AcDbEntity
  8
0
100
AcDbLine
 62
7
  6
BYLAYER
 10
69.3678647507
 20
18.1329922054
 11
69.3678647507
 21
48.0033922054
  0
LINE
  5
360
100
AcDbEntity
  8
0
100
AcDbLine
 62
7
  6
BYLAYER
 10
69.5803093325
 20
26.9721922054
 11
69.5803120733
 21
47.7999886243
  0
LINE
  5
361
100
AcDbEntity
  8
0
100
AcDbLine
 62
7
  6
BYLAYER
 10
69.5803120733
 20
179.473983693
 11
69.5803093325
 21
200.3017922054
  0
LINE
  5
362
100
AcDbEntity
  8
0
100
AcDbLine
 62
7
  6
BYLAYER
 10
69.6766991599
 20
133.5993922053
 11
69.6766991599
 21
139.6993922054
  0
LINE
  5
363
100
AcDbEntity
  8
0
100
AcDbLine
 62
7
  6
BYLAYER
 10
69.7123163878
 20
169.1472969899
 11
69.7123163878
 21
168.2392992607
  0
LINE
  5
364
100
AcDbEntity
  8
0
100
AcDbLine
 62
7
  6
BYLAYER
 10
70.5205451005
 20
137.6339990002
 11
70.5205451005
 21
135.6647847624
  0
LINE
  5
365
100
AcDbEntity
  8
0
100
AcDbLine
 62
7
  6
BYLAYER
 10
70.8211803718
 20
131.7204995927
 11
70.8211803718
 21
122.9066049716
  0
LINE
  5
366
100
AcDbEntity
  8
0
100
AcDbLine
 62
7
  6
BYLAYER
 10
71.1266991608
 20
137.4279026536
 11
71.1266991608
 21
135.868928632
  0
LINE
  5
367
100
AcDbEntity
  8
0
100
AcDbLine
 62
7
  6
BYLAYER
 10
71.3744368654
 20
132.1832044129
 11
71.3744368654
 21
131.6965417123
  0
LINE
  5
368
100
AcDbEntity
  8
0
100
AcDbLine
 62
7
  6
BYLAYER
 10
71.3756827641
 20
131.6965417123
 11
71.3756827641
 21
124.322484179
  0
LINE
  5
369
100
AcDbEntity
  8
0
100
AcDbLine
 62
7
  6
BYLAYER
 10
71.3767619655
 20
124.3224851199
 11
71.3767619655
 21
123.8150492492
  0
LINE
  5
36A
100
AcDbEntity
  8
0
100
AcDbLine
 62
7
  6
BYLAYER
 10
73.6189093325
 20
69.4663922054
 11
73.6189093325
 21
141.2975922054
  0
LINE
  5
36B
100
AcDbEntity
  8
0
100
AcDbLine
 62
7
  6
BYLAYER
 10
73.9266991608
 20
135.8689286321
 11
73.9266991608
 21
137.4279026536
  0
LINE
  5
36C
100
AcDbEntity
  8
0
100
AcDbLine
 62
7
  6
BYLAYER
 10
74.2053599654
 20
163.125516256
 11
74.2053599654
 21
168.6431250671
  0
LINE
  5
36D
100
AcDbEntity
  8
0
100
AcDbLine
 62
7
  6
BYLAYER
 10
75.1683093325
 20
24.6861922054
 11
75.1683093325
 21
26.2101922054
  0
LINE
  5
36E
100
AcDbEntity
  8
0
100
AcDbLine
 62
7
  6
BYLAYER
 10
75.1683093325
 20
201.0637922054
 11
75.1683093325
 21
202.5877922054
  0
LINE
  5
36F
100
AcDbEntity
  8
0
100
AcDbLine
 62
7
  6
BYLAYER
 10
75.376719505
 20
139.6993922054
 11
75.376719505
 21
133.5993922052
  0
LINE
  5
370
100
AcDbEntity
  8
0
100
AcDbLine
 62
7
  6
BYLAYER
 10
75.4477093325
 20
160.5507922054
 11
75.4477093325
 21
168.6493316154
  0
LINE
  5
371
100
AcDbEntity
  8
0
100
AcDbLine
 62
7
  6
BYLAYER
 10
74.201558477
 20
26.2101922054
 11
74.1310698205
 21
18.1329922054
  0
LINE
  5
372
100
AcDbEntity
  8
0
100
AcDbLine
 62
7
  6
BYLAYER
 10
70.8687813085
 20
124.3070894943
 11
70.8211803718
 21
122.9066049716
  0
LINE
  5
373
100
AcDbEntity
  8
0
100
AcDbLine
 62
7
  6
BYLAYER
 10
71.3280972114
 20
122.3832657704
 11
71.3767619655
 21
123.815049249
  0
LINE
  5
374
100
AcDbEntity
  8
0
100
AcDbLine
 62
7
  6
BYLAYER
 10
97.3829903309
 20
170.9257989413
 11
96.7490712247
 21
169.4598610081
  0
LINE
  5
375
100
AcDbEntity
  8
0
100
AcDbLine
 62
7
  6
BYLAYER
 10
91.5513093325
 20
143.6592517935
 11
91.3396428677
 21
143.3349964752
  0
LINE
  5
376
100
AcDbEntity
  8
0
100
AcDbLine
 62
7
  6
BYLAYER
 10
92.3979757973
 20
141.9839325794
 11
92.6096428677
 21
142.3081880112
  0
LINE
  5
377
100
AcDbEntity
  8
0
100
AcDbLine
 62
7
  6
BYLAYER
 10
94.8321425649
 20
141.9839325794
 11
95.1496425649
 21
142.362230558
  0
LINE
  5
378
100
AcDbEntity
  8
0
100
AcDbLine
 62
7
  6
BYLAYER
 10
95.1496425649
 20
141.9298900326
 11
94.8321425649
 21
141.5515922054
  0
LINE
  5
379
100
AcDbEntity
  8
0
100
AcDbLine
 62
7
  6
BYLAYER
 10
90.5988093325
 20
143.010741119
 11
89.3288093325
 21
141.5515922054
  0
LINE
  5
37A
100
AcDbEntity
  8
0
100
AcDbLine
 62
7
  6
BYLAYER
 10
89.3288093325
 20
141.9839325793
 11
90.2283928677
 21
143.010741119
  0
LINE
  5
37B
100
AcDbEntity
  8
0
100
AcDbLine
 62
7
  6
BYLAYER
 10
92.7154757973
 20
141.9298900326
 11
92.5567257973
 21
141.7677623924
  0
LINE
  5
37C
100
AcDbEntity
  8
0
100
AcDbLine
 62
7
  6
BYLAYER
 10
95.7846425648
 20
143.7132943402
 11
95.9433925649
 21
143.8754219995
  0
LINE
  5
37D
100
AcDbEntity
  8
0
100
AcDbLine
 62
7
  6
BYLAYER
 10
98.1129759486
 20
143.7132943402
 11
98.2717259487
 21
143.8754219995
  0
LINE
  5
37E
100
AcDbEntity
  8
0
100
AcDbLine
 62
7
  6
BYLAYER
 10
97.2663093325
 20
141.9298900326
 11
97.1075593325
 21
141.7677623924
  0
LINE
  5
37F
100
AcDbEntity
  8
0
100
AcDbLine
 62
7
  6
BYLAYER
 10
99.5946426595
 20
141.9298900326
 11
99.4358926784
 21
141.7677623924
  0
LINE
  5
380
100
AcDbEntity
  8
0
100
AcDbLine
 62
7
  6
BYLAYER
 10
129.8037093511
 20
168.6302087138
 11
129.8212206654
 21
168.6455228813
  0
LINE
  5
381
100
AcDbEntity
  8
0
100
AcDbLine
 62
7
  6
BYLAYER
 10
105.6483093325
 20
143.0755922054
 11
107.1723093325
 21
144.0915922054
  0
LINE
  5
382
100
AcDbEntity
  8
0
100
AcDbLine
 62
7
  6
BYLAYER
 10
102.8749460816
 20
135.809570932
 11
101.9399093325
 21
135.2691454645
  0
LINE
  5
383
100
AcDbEntity
  8
0
100
AcDbLine
 62
7
  6
BYLAYER
 10
101.8414835815
 20
135.4312731047
 11
102.5304593325
 21
135.809570932
  0
LINE
  5
384
100
AcDbEntity
  8
0
100
AcDbLine
 62
7
  6
BYLAYER
 10
105.5816350834
 20
134.7287198456
 11
105.3847835815
 21
134.6206347521
  0
LINE
  5
385
100
AcDbEntity
  8
0
100
AcDbLine
 62
7
  6
BYLAYER
 10
119.4913093326
 20
143.9294645462
 11
119.7029764028
 21
144.0375496539
  0
LINE
  5
386
100
AcDbEntity
  8
0
100
AcDbLine
 62
7
  6
BYLAYER
 10
119.7029764029
 20
143.767336887
 11
119.5971422621
 21
143.7132943403
  0
LINE
  5
387
100
AcDbEntity
  8
0
100
AcDbLine
 62
7
  6
BYLAYER
 10
120.7613093325
 20
141.7137198456
 11
120.5496428676
 21
141.6056347521
  0
LINE
  5
388
100
AcDbEntity
  8
0
100
AcDbLine
 62
7
  6
BYLAYER
 10
109.9123343325
 20
135.6474432917
 11
109.7646968325
 21
135.593400745
  0
LINE
  5
389
100
AcDbEntity
  8
0
100
AcDbLine
 62
7
  6
BYLAYER
 10
121.0343591447
 20
136.8363794338
 11
120.8867216447
 21
136.782336887
  0
LINE
  5
38A
100
AcDbEntity
  8
0
100
AcDbLine
 62
7
  6
BYLAYER
 10
123.1997093325
 20
136.8363794338
 11
123.0520718325
 21
136.782336887
  0
LINE
  5
38B
100
AcDbEntity
  8
0
100
AcDbLine
 62
7
  6
BYLAYER
 10
121.3788470202
 20
135.7555283852
 11
121.5264845202
 21
135.809570932
  0
LINE
  5
38C
100
AcDbEntity
  8
0
100
AcDbLine
 62
7
  6
BYLAYER
 10
123.5441966447
 20
135.7555283852
 11
123.6918341448
 21
135.809570932
  0
LINE
  5
38D
100
AcDbEntity
  8
0
100
AcDbLine
 62
7
  6
BYLAYER
 10
121.3788470202
 20
134.8368049391
 11
121.5264845202
 21
134.8908474858
  0
LINE
  5
38E
100
AcDbEntity
  8
0
100
AcDbLine
 62
7
  6
BYLAYER
 10
97.8605005865
 20
78.505644968
 11
98.0714024845
 21
78.2543018733
  0
LINE
  5
38F
100
AcDbEntity
  8
0
100
AcDbLine
 62
7
  6
BYLAYER
 10
101.1933180785
 20
74.9051394427
 11
100.9824161804
 21
75.1564825374
  0
LINE
  5
390
100
AcDbEntity
  8
0
100
AcDbLine
 62
7
  6
BYLAYER
 10
77.0728660076
 20
56.0435566481
 11
77.0728660076
 21
55.9535922054
  0
LINE
  5
391
100
AcDbEntity
  8
0
100
AcDbLine
 62
7
  6
BYLAYER
 10
77.0733093325
 20
56.043659845
 11
77.0733093325
 21
55.9535922054
  0
LINE
  5
392
100
AcDbEntity
  8
0
100
AcDbLine
 62
7
  6
BYLAYER
 10
77.4543093325
 20
204.8737922054
 11
77.4543093325
 21
201.0637922054
  0
LINE
  5
393
100
AcDbEntity
  8
0
100
AcDbLine
 62
7
  6
BYLAYER
 10
77.4543093325
 20
26.2101922054
 11
77.4543093325
 21
22.4001922054
  0
LINE
  5
394
100
AcDbEntity
  8
0
100
AcDbLine
 62
7
  6
BYLAYER
 10
77.4543093325
 20
93.5963922054
 11
77.4543093325
 21
126.3623922054
  0
LINE
  5
395
100
AcDbEntity
  8
0
100
AcDbLine
 62
7
  6
BYLAYER
 10
78.9783093325
 20
55.9535922054
 11
78.9783093325
 21
56.1471302387
  0
LINE
  5
396
100
AcDbEntity
  8
0
100
AcDbLine
 62
7
  6
BYLAYER
 10
78.9787526573
 20
55.9535922054
 11
78.9787526573
 21
56.1471302387
  0
LINE
  5
397
100
AcDbEntity
  8
0
100
AcDbLine
 62
7
  6
BYLAYER
 10
91.0750593325
 20
143.3349964752
 11
91.1279757972
 21
143.4971241153
  0
LINE
  5
398
100
AcDbEntity
  8
0
100
AcDbLine
 62
7
  6
BYLAYER
 10
91.1279757972
 20
143.4971241153
 11
91.2338093325
 21
143.7132943403
  0
LINE
  5
399
100
AcDbEntity
  8
0
100
AcDbLine
 62
7
  6
BYLAYER
 10
92.8213093325
 20
142.1460602196
 11
92.7154757973
 21
141.9298900326
  0
LINE
  5
39A
100
AcDbEntity
  8
0
100
AcDbLine
 62
7
  6
BYLAYER
 10
95.6788093325
 20
143.4971241155
 11
95.7846425648
 21
143.7132943402
  0
LINE
  5
39B
100
AcDbEntity
  8
0
100
AcDbLine
 62
7
  6
BYLAYER
 10
96.1021425649
 20
143.6592517935
 11
95.8904761001
 21
143.3349964752
  0
LINE
  5
39C
100
AcDbEntity
  8
0
100
AcDbLine
 62
7
  6
BYLAYER
 10
96.9488093325
 20
141.9839325794
 11
97.1604761001
 21
142.3081880112
  0
LINE
  5
39D
100
AcDbEntity
  8
0
100
AcDbLine
 62
7
  6
BYLAYER
 10
98.4304759487
 20
143.6592517935
 11
98.2188093325
 21
143.3349964752
  0
LINE
  5
39E
100
AcDbEntity
  8
0
100
AcDbLine
 62
7
  6
BYLAYER
 10
99.2771426784
 20
141.9839325794
 11
99.4888093325
 21
142.3081880112
  0
LINE
  5
39F
100
AcDbEntity
  8
0
100
AcDbLine
 62
7
  6
BYLAYER
 10
129.3001232375
 20
169.1403867673
 11
129.3132400085
 21
169.1535035383
  0
LINE
  5
3A0
100
AcDbEntity
  8
0
100
AcDbLine
 62
7
  6
BYLAYER
 10
129.8212206654
 20
168.1678519497
 11
129.8037093325
 21
168.1503406168
  0
LINE
  5
3A1
100
AcDbEntity
  8
0
100
AcDbLine
 62
7
  6
BYLAYER
 10
130.3292013223
 20
167.6598712928
 11
130.3121056115
 21
167.642775582
  0
LINE
  5
3A2
100
AcDbEntity
  8
0
100
AcDbLine
 62
7
  6
BYLAYER
 10
132.103399296
 20
167.6510821689
 11
132.0643093325
 21
167.6119922054
  0
LINE
  5
3A3
100
AcDbEntity
  8
0
100
AcDbLine
 62
7
  6
BYLAYER
 10
34.2967884199
 20
67.3552712928
 11
34.2489093325
 21
67.3073922054
  0
LINE
  5
3A4
100
AcDbEntity
  8
0
100
AcDbLine
 62
7
  6
BYLAYER
 10
105.8769100834
 20
136.8363794338
 11
104.4989585816
 21
135.4853156515
  0
LINE
  5
3A5
100
AcDbEntity
  8
0
100
AcDbLine
 62
7
  6
BYLAYER
 10
104.2528975834
 20
135.6474432917
 11
105.4832093325
 21
136.8363794338
  0
LINE
  5
3A6
100
AcDbEntity
  8
0
100
AcDbLine
 62
7
  6
BYLAYER
 10
107.5009225834
 20
135.809570932
 11
107.6977718325
 21
135.9716985722
  0
LINE
  5
3A7
100
AcDbEntity
  8
0
100
AcDbLine
 62
7
  6
BYLAYER
 10
119.3854764029
 20
142.6324432918
 11
119.5971422621
 21
142.794570932
  0
LINE
  5
3A8
100
AcDbEntity
  8
0
100
AcDbLine
 62
7
  6
BYLAYER
 10
106.8119468325
 20
136.782336887
 11
106.6643093325
 21
136.6742517935
  0
LINE
  5
3A9
100
AcDbEntity
  8
0
100
AcDbLine
 62
7
  6
BYLAYER
 10
105.3355718325
 20
134.8908474858
 11
105.4832093325
 21
134.9989325794
  0
LINE
  5
3AA
100
AcDbEntity
  8
0
100
AcDbLine
 62
7
  6
BYLAYER
 10
119.3325593325
 20
143.8213794337
 11
119.4913093326
 21
143.9294645462
  0
LINE
  5
3AB
100
AcDbEntity
  8
0
100
AcDbLine
 62
7
  6
BYLAYER
 10
122.1900593325
 20
143.767336887
 11
122.0313093325
 21
143.6592517935
  0
LINE
  5
3AC
100
AcDbEntity
  8
0
100
AcDbLine
 62
7
  6
BYLAYER
 10
120.4967257973
 20
141.8758474858
 11
120.6554757973
 21
141.9839325793
  0
LINE
  5
3AD
100
AcDbEntity
  8
0
100
AcDbLine
 62
7
  6
BYLAYER
 10
122.7192257973
 20
141.8758474858
 11
122.8779757973
 21
141.9839325793
  0
LINE
  5
3AE
100
AcDbEntity
  8
0
100
AcDbLine
 62
7
  6
BYLAYER
 10
126.7408925649
 20
143.767336887
 11
126.5821425649
 21
143.6592517935
  0
LINE
  5
3AF
100
AcDbEntity
  8
0
100
AcDbLine
 62
7
  6
BYLAYER
 10
106.5166718325
 20
136.8904219994
 11
106.7627350834
 21
137.0525496539
  0
LINE
  5
3B0
100
AcDbEntity
  8
0
100
AcDbLine
 62
7
  6
BYLAYER
 10
107.7961975834
 20
135.7014858385
 11
107.5501343325
 21
135.5393581982
  0
LINE
  5
3B1
100
AcDbEntity
  8
0
100
AcDbLine
 62
7
  6
BYLAYER
 10
121.8725593325
 20
143.8754219995
 11
122.1371428677
 21
144.0375496539
  0
LINE
  5
3B2
100
AcDbEntity
  8
0
100
AcDbLine
 62
7
  6
BYLAYER
 10
126.4233925649
 20
143.8754219995
 11
126.6879761001
 21
144.0375496539
  0
LINE
  5
3B3
100
AcDbEntity
  8
0
100
AcDbLine
 62
7
  6
BYLAYER
 10
123.0367257973
 20
141.7677623924
 11
122.7721428676
 21
141.6056347521
  0
LINE
  5
3B4
100
AcDbEntity
  8
0
100
AcDbLine
 62
7
  6
BYLAYER
 10
128.7517259487
 20
143.8754219995
 11
129.0163093325
 21
144.0375496539
  0
LINE
  5
3B5
100
AcDbEntity
  8
0
100
AcDbLine
 62
7
  6
BYLAYER
 10
127.5875593325
 20
141.7677623924
 11
127.3229761001
 21
141.6056347521
  0
LINE
  5
3B6
100
AcDbEntity
  8
0
100
AcDbLine
 62
7
  6
BYLAYER
 10
129.9158926784
 20
141.7677623924
 11
129.6513093325
 21
141.6056347521
  0
LINE
  5
3B7
100
AcDbEntity
  8
0
100
AcDbLine
 62
7
  6
BYLAYER
 10
109.5186335815
 20
135.7555283852
 11
109.7154850834
 21
135.8636134787
  0
LINE
  5
3B8
100
AcDbEntity
  8
0
100
AcDbLine
 62
7
  6
BYLAYER
 10
117.1957847079
 20
136.9444645462
 11
117.392633957
 21
137.0525496539
  0
LINE
  5
3B9
100
AcDbEntity
  8
0
100
AcDbLine
 62
7
  6
BYLAYER
 10
118.5245222079
 20
134.7287198456
 11
118.3276718324
 21
134.6206347521
  0
LINE
  5
3BA
100
AcDbEntity
  8
0
100
AcDbLine
 62
7
  6
BYLAYER
 10
123.5441966447
 20
134.8368049391
 11
123.6918341447
 21
134.8908474858
  0
LINE
  5
3BB
100
AcDbEntity
  8
0
100
AcDbLine
 62
7
  6
BYLAYER
 10
127.6288343325
 20
135.6474432917
 11
127.4811968324
 21
135.593400745
  0
LINE
  5
3BC
100
AcDbEntity
  8
0
100
AcDbLine
 62
7
  6
BYLAYER
 10
34.2967884199
 20
154.6101131179
 11
34.2489093325
 21
154.6579922054
  0
LINE
  5
3BD
100
AcDbEntity
  8
0
100
AcDbLine
 62
7
  6
BYLAYER
 10
132.103399296
 20
60.9691022418
 11
132.0643093325
 21
61.0081922054
  0
LINE
  5
3BE
100
AcDbEntity
  8
0
100
AcDbLine
 62
7
  6
BYLAYER
 10
129.755830245
 20
67.3552712928
 11
129.8037093325
 21
67.3073922054
  0
LINE
  5
3BF
100
AcDbEntity
  8
0
100
AcDbLine
 62
7
  6
BYLAYER
 10
89.9215488445
 20
18.1329922054
 11
89.851060188
 21
26.2101922054
  0
LINE
  5
3C0
100
AcDbEntity
  8
0
100
AcDbLine
 62
7
  6
BYLAYER
 10
85.0738660076
 20
56.1471302387
 11
85.0738660076
 21
55.9535922054
  0
LINE
  5
3C1
100
AcDbEntity
  8
0
100
AcDbLine
 62
7
  6
BYLAYER
 10
85.0743093325
 20
56.1471302387
 11
85.0743093325
 21
55.9535922054
  0
LINE
  5
3C2
100
AcDbEntity
  8
0
100
AcDbLine
 62
7
  6
BYLAYER
 10
85.8363093325
 20
144.4725922054
 11
85.8363093325
 21
141.1705922054
  0
LINE
  5
3C3
100
AcDbEntity
  8
0
100
AcDbLine
 62
7
  6
BYLAYER
 10
86.5983093325
 20
22.4001922054
 11
86.5983093325
 21
26.2101922054
  0
LINE
  5
3C4
100
AcDbEntity
  8
0
100
AcDbLine
 62
7
  6
BYLAYER
 10
86.5983093325
 20
201.0637922054
 11
86.5983093325
 21
204.8737922054
  0
LINE
  5
3C5
100
AcDbEntity
  8
0
100
AcDbLine
 62
7
  6
BYLAYER
 10
86.9793093325
 20
55.9535922054
 11
86.9793093325
 21
56.0436545842
  0
LINE
  5
3C6
100
AcDbEntity
  8
0
100
AcDbLine
 62
7
  6
BYLAYER
 10
86.9797526573
 20
55.9535922054
 11
86.9797526573
 21
56.0435513821
  0
LINE
  5
3C7
100
AcDbEntity
  8
0
100
AcDbLine
 62
7
  6
BYLAYER
 10
88.4821422621
 20
143.3349964752
 11
88.4821422621
 21
143.010741119
  0
LINE
  5
3C8
100
AcDbEntity
  8
0
100
AcDbLine
 62
7
  6
BYLAYER
 10
88.6049093325
 20
160.5507922053
 11
88.6049093325
 21
168.6493316155
  0
LINE
  5
3C9
100
AcDbEntity
  8
0
100
AcDbLine
 62
7
  6
BYLAYER
 10
88.8843093325
 20
202.5877922054
 11
88.8843093325
 21
201.0637922054
  0
LINE
  5
3CA
100
AcDbEntity
  8
0
100
AcDbLine
 62
7
  6
BYLAYER
 10
88.8843093325
 20
26.2101922054
 11
88.8843093325
 21
24.6861922054
  0
LINE
  5
3CB
100
AcDbEntity
  8
0
100
AcDbLine
 62
7
  6
BYLAYER
 10
89.0113093325
 20
144.0915922054
 11
89.0113093325
 21
143.3349964752
  0
LINE
  5
3CC
100
AcDbEntity
  8
0
100
AcDbLine
 62
7
  6
BYLAYER
 10
89.0113093325
 20
143.010741119
 11
89.0113093325
 21
141.5515922054
  0
LINE
  5
3CD
100
AcDbEntity
  8
0
100
AcDbLine
 62
7
  6
BYLAYER
 10
89.3288093325
 20
141.9839325794
 11
89.3288093325
 21
143.010741119
  0
LINE
  5
3CE
100
AcDbEntity
  8
0
100
AcDbLine
 62
7
  6
BYLAYER
 10
89.3288093325
 20
143.3349964752
 11
89.3288093325
 21
144.0915922054
  0
LINE
  5
3CF
100
AcDbEntity
  8
0
100
AcDbLine
 62
7
  6
BYLAYER
 10
89.8472586996
 20
163.125516256
 11
89.8472586996
 21
168.643125067
  0
LINE
  5
3D0
100
AcDbEntity
  8
0
100
AcDbLine
 62
7
  6
BYLAYER
 10
89.8512818504
 20
201.0637922054
 11
89.9217705069
 21
209.1409922054
  0
LINE
  5
3D1
100
AcDbEntity
  8
0
100
AcDbLine
 62
7
  6
BYLAYER
 10
91.3396428677
 20
143.3349964752
 11
91.2867257973
 21
143.010741119
  0
LINE
  5
3D2
100
AcDbEntity
  8
0
100
AcDbLine
 62
7
  6
BYLAYER
 10
92.6096428677
 20
142.3081880112
 11
92.6625593325
 21
142.6324432917
  0
LINE
  5
3D3
100
AcDbEntity
  8
0
100
AcDbLine
 62
7
  6
BYLAYER
 10
91.0221428677
 20
143.0647836657
 11
91.0750593325
 21
143.3349964752
  0
LINE
  5
3D4
100
AcDbEntity
  8
0
100
AcDbLine
 62
7
  6
BYLAYER
 10
92.9271428677
 20
142.578400745
 11
92.8742257973
 21
142.3081880112
  0
LINE
  5
3D5
100
AcDbEntity
  8
0
100
AcDbLine
 62
7
  6
BYLAYER
 10
95.5729761001
 20
143.0647836657
 11
95.6258925649
 21
143.3349964752
  0
LINE
  5
3D6
100
AcDbEntity
  8
0
100
AcDbLine
 62
7
  6
BYLAYER
 10
92.8742257973
 20
142.3081880112
 11
92.8213093325
 21
142.1460602196
  0
LINE
  5
3D7
100
AcDbEntity
  8
0
100
AcDbLine
 62
7
  6
BYLAYER
 10
95.6258925649
 20
143.3349964752
 11
95.6788093325
 21
143.4971241155
  0
LINE
  5
3D8
100
AcDbEntity
  8
0
100
AcDbLine
 62
7
  6
BYLAYER
 10
97.4250593325
 20
142.3081880112
 11
97.3721427163
 21
142.1460602196
  0
LINE
  5
3D9
100
AcDbEntity
  8
0
100
AcDbLine
 62
7
  6
BYLAYER
 10
97.9542259487
 20
143.3349964751
 11
98.0071427163
 21
143.4971241155
  0
LINE
  5
3DA
100
AcDbEntity
  8
0
100
AcDbLine
 62
7
  6
BYLAYER
 10
99.7533926642
 20
142.3081880112
 11
99.700475996
 21
142.1460602196
  0
LINE
  5
3DB
100
AcDbEntity
  8
0
100
AcDbLine
 62
7
  6
BYLAYER
 10
98.0071427163
 20
143.4971241155
 11
98.1129759486
 21
143.7132943402
  0
LINE
  5
3DC
100
AcDbEntity
  8
0
100
AcDbLine
 62
7
  6
BYLAYER
 10
97.3721427163
 20
142.1460602196
 11
97.2663093325
 21
141.9298900326
  0
LINE
  5
3DD
100
AcDbEntity
  8
0
100
AcDbLine
 62
7
  6
BYLAYER
 10
99.700475996
 20
142.1460602196
 11
99.5946426595
 21
141.9298900326
  0
LINE
  5
3DE
100
AcDbEntity
  8
0
100
AcDbLine
 62
7
  6
BYLAYER
 10
101.8414835815
 20
136.1878688349
 11
101.9399093325
 21
136.3499964752
  0
LINE
  5
3DF
100
AcDbEntity
  8
0
100
AcDbLine
 62
7
  6
BYLAYER
 10
104.1544718325
 20
135.4853156515
 11
104.2528975834
 21
135.6474432917
  0
LINE
  5
3E0
100
AcDbEntity
  8
0
100
AcDbLine
 62
7
  6
BYLAYER
 10
106.3690343325
 20
136.6742517935
 11
106.5166718325
 21
136.8904219994
  0
LINE
  5
3E1
100
AcDbEntity
  8
0
100
AcDbLine
 62
7
  6
BYLAYER
 10
105.7784843325
 20
134.9448900326
 11
105.5816350834
 21
134.7287198456
  0
LINE
  5
3E2
100
AcDbEntity
  8
0
100
AcDbLine
 62
7
  6
BYLAYER
 10
109.7646968325
 20
135.593400745
 11
109.6662710815
 21
135.4853156515
  0
LINE
  5
3E3
100
AcDbEntity
  8
0
100
AcDbLine
 62
7
  6
BYLAYER
 10
119.5971422621
 20
143.7132943403
 11
119.4913093325
 21
143.6052092089
  0
LINE
  5
3E4
100
AcDbEntity
  8
0
100
AcDbLine
 62
7
  6
BYLAYER
 10
119.7029764028
 20
142.578400745
 11
119.5971422621
 21
142.4703156515
  0
LINE
  5
3E5
100
AcDbEntity
  8
0
100
AcDbLine
 62
7
  6
BYLAYER
 10
121.7138093325
 20
143.7132943403
 11
121.8725593325
 21
143.8754219995
  0
LINE
  5
3E6
100
AcDbEntity
  8
0
100
AcDbLine
 62
7
  6
BYLAYER
 10
120.9729757973
 20
141.9298900326
 11
120.7613093325
 21
141.7137198456
  0
LINE
  5
3E7
100
AcDbEntity
  8
0
100
AcDbLine
 62
7
  6
BYLAYER
 10
31.9492193689
 20
60.9691022418
 11
31.9883093325
 21
61.0081922054
  0
LINE
  5
3E8
100
AcDbEntity
  8
0
100
AcDbLine
 62
7
  6
BYLAYER
 10
129.755830245
 20
154.6101131179
 11
129.8037093325
 21
154.6579922054
  0
LINE
  5
3E9
100
AcDbEntity
  8
0
100
AcDbLine
 62
7
  6
BYLAYER
 10
117.4418468325
 20
136.7282943403
 11
117.2942093325
 21
136.6202092089
  0
LINE
  5
3EA
100
AcDbEntity
  8
0
100
AcDbLine
 62
7
  6
BYLAYER
 10
118.278458957
 20
134.9448900326
 11
118.426096457
 21
135.0529751261
  0
LINE
  5
3EB
100
AcDbEntity
  8
0
100
AcDbLine
 62
7
  6
BYLAYER
 10
120.8867216447
 20
136.782336887
 11
120.7390847079
 21
136.6742517935
  0
LINE
  5
3EC
100
AcDbEntity
  8
0
100
AcDbLine
 62
7
  6
BYLAYER
 10
121.5264845202
 20
135.809570932
 11
121.6741220202
 21
135.9176560255
  0
LINE
  5
3ED
100
AcDbEntity
  8
0
100
AcDbLine
 62
7
  6
BYLAYER
 10
123.0520718325
 20
136.782336887
 11
122.9044343325
 21
136.6742517935
  0
LINE
  5
3EE
100
AcDbEntity
  8
0
100
AcDbLine
 62
7
  6
BYLAYER
 10
121.8709718325
 20
135.7555283852
 11
121.5756968325
 21
135.5393581982
  0
LINE
  5
3EF
100
AcDbEntity
  8
0
100
AcDbLine
 62
7
  6
BYLAYER
 10
121.5264845202
 20
134.8908474858
 11
121.6741220202
 21
134.9989325793
  0
LINE
  5
3F0
100
AcDbEntity
  8
0
100
AcDbLine
 62
7
  6
BYLAYER
 10
123.6918341448
 20
135.809570932
 11
123.8394716447
 21
135.9176560255
  0
LINE
  5
3F1
100
AcDbEntity
  8
0
100
AcDbLine
 62
7
  6
BYLAYER
 10
124.0363220202
 20
135.7555283852
 11
123.7410470202
 21
135.5393581982
  0
LINE
  5
3F2
100
AcDbEntity
  8
0
100
AcDbLine
 62
7
  6
BYLAYER
 10
123.6918341447
 20
134.8908474858
 11
123.8394716447
 21
134.9989325793
  0
LINE
  5
3F3
100
AcDbEntity
  8
0
100
AcDbLine
 62
7
  6
BYLAYER
 10
129.0692260244
 20
143.767336887
 11
128.9104759487
 21
143.6592517935
  0
LINE
  5
3F4
100
AcDbEntity
  8
0
100
AcDbLine
 62
7
  6
BYLAYER
 10
127.2700593325
 20
141.8758474858
 11
127.4288093325
 21
141.9839325793
  0
LINE
  5
3F5
100
AcDbEntity
  8
0
100
AcDbLine
 62
7
  6
BYLAYER
 10
129.5983926406
 20
141.8758474858
 11
129.7571426784
 21
141.9839325794
  0
LINE
  5
3F6
100
AcDbEntity
  8
0
100
AcDbLine
 62
7
  6
BYLAYER
 10
120.5914472079
 20
136.8904219994
 11
120.8375093325
 21
137.0525496539
  0
LINE
  5
3F7
100
AcDbEntity
  8
0
100
AcDbLine
 62
7
  6
BYLAYER
 10
122.7567968325
 20
136.8904219994
 11
123.0028595202
 21
137.0525496539
  0
LINE
  5
3F8
100
AcDbEntity
  8
0
100
AcDbLine
 62
7
  6
BYLAYER
 10
121.8217595202
 20
134.7827623924
 11
121.5756968325
 21
134.6206347521
  0
LINE
  5
3F9
100
AcDbEntity
  8
0
100
AcDbLine
 62
7
  6
BYLAYER
 10
123.9871091447
 20
134.7827623924
 11
123.7410470202
 21
134.6206347521
  0
LINE
  5
3FA
100
AcDbEntity
  8
0
100
AcDbLine
 62
7
  6
BYLAYER
 10
129.2528468325
 20
135.809570932
 11
130.1878843295
 21
136.3499964752
  0
LINE
  5
3FB
100
AcDbEntity
  8
0
100
AcDbLine
 62
7
  6
BYLAYER
 10
130.2863093325
 20
136.1878688349
 11
129.5973343559
 21
135.809570932
  0
LINE
  5
3FC
100
AcDbEntity
  8
0
100
AcDbLine
 62
7
  6
BYLAYER
 10
66.2529093325
 20
120.4695922054
 11
69.0469093325
 21
120.4695922054
  0
LINE
  5
3FD
100
AcDbEntity
  8
0
100
AcDbLine
 62
7
  6
BYLAYER
 10
31.9492193689
 20
167.6510821689
 11
31.9883093325
 21
167.6119922054
  0
LINE
  5
3FE
100
AcDbEntity
  8
0
100
AcDbLine
 62
7
  6
BYLAYER
 10
33.7405130535
 20
167.642775582
 11
33.7234173426
 21
167.6598712928
  0
LINE
  5
3FF
100
AcDbEntity
  8
0
100
AcDbLine
 62
7
  6
BYLAYER
 10
70.8664562085
 20
131.675223756
 11
70.8211803718
 21
131.7204995927
  0
LINE
  5
400
100
AcDbEntity
  8
0
100
AcDbLine
 62
7
  6
BYLAYER
 10
71.3291610287
 20
132.2284802496
 11
71.3744368654
 21
132.1832044129
  0
LINE
  5
401
100
AcDbEntity
  8
0
100
AcDbLine
 62
7
  6
BYLAYER
 10
97.9536617512
 20
46.7699397867
 11
97.9537107874
 21
46.7594517774
  0
LINE
  5
402
100
AcDbEntity
  8
0
100
AcDbLine
 62
7
  6
BYLAYER
 10
90.5988093325
 20
143.010741119
 11
90.5988093325
 21
143.3349964752
  0
LINE
  5
403
100
AcDbEntity
  8
0
100
AcDbLine
 62
7
  6
BYLAYER
 10
91.0221428677
 20
143.0647836657
 11
91.0221428677
 21
142.578400745
  0
LINE
  5
404
100
AcDbEntity
  8
0
100
AcDbLine
 62
7
  6
BYLAYER
 10
91.2867257973
 20
142.6324432917
 11
91.2867257973
 21
143.010741119
  0
LINE
  5
405
100
AcDbEntity
  8
0
100
AcDbLine
 62
7
  6
BYLAYER
 10
92.6625593325
 20
143.010741119
 11
92.6625593325
 21
142.6324432917
  0
LINE
  5
406
100
AcDbEntity
  8
0
100
AcDbLine
 62
7
  6
BYLAYER
 10
92.9271428677
 20
142.578400745
 11
92.9271428677
 21
143.0647836657
  0
LINE
  5
407
100
AcDbEntity
  8
0
100
AcDbLine
 62
7
  6
BYLAYER
 10
93.3504757973
 20
143.1728688349
 11
93.3504757973
 21
142.9026560255
  0
LINE
  5
408
100
AcDbEntity
  8
0
100
AcDbLine
 62
7
  6
BYLAYER
 10
94.0913093325
 20
142.9026560255
 11
94.0913093325
 21
143.1728688349
  0
LINE
  5
409
100
AcDbEntity
  8
0
100
AcDbLine
 62
7
  6
BYLAYER
 10
94.2183093325
 20
126.3623922054
 11
94.2183093325
 21
93.5963922054
  0
LINE
  5
40A
100
AcDbEntity
  8
0
100
AcDbLine
 62
7
  6
BYLAYER
 10
94.4723093325
 20
26.9721922054
 11
94.4723065917
 21
47.8000013229
  0
LINE
  5
40B
100
AcDbEntity
  8
0
100
AcDbLine
 62
7
  6
BYLAYER
 10
94.4723065917
 20
179.473995237
 11
94.4723093325
 21
200.3017922054
  0
LINE
  5
40C
100
AcDbEntity
  8
0
100
AcDbLine
 62
7
  6
BYLAYER
 10
94.5146428677
 20
144.0915922054
 11
94.5146428677
 21
141.5515922054
  0
LINE
  5
40D
100
AcDbEntity
  8
0
100
AcDbLine
 62
7
  6
BYLAYER
 10
94.6847539142
 20
209.1409922054
 11
94.6847539142
 21
179.2705922054
  0
LINE
  5
40E
100
AcDbEntity
  8
0
100
AcDbLine
 62
7
  6
BYLAYER
 10
94.6847539142
 20
18.1329922054
 11
94.6847539142
 21
48.0033922053
  0
LINE
  5
40F
100
AcDbEntity
  8
0
100
AcDbLine
 62
7
  6
BYLAYER
 10
94.8321425649
 20
141.9839325794
 11
94.8321425649
 21
144.0915922054
  0
LINE
  5
410
100
AcDbEntity
  8
0
100
AcDbLine
 62
7
  6
BYLAYER
 10
95.1496425649
 20
141.9298900326
 11
95.1496425649
 21
142.362230558
  0
LINE
  5
411
100
AcDbEntity
  8
0
100
AcDbLine
 62
7
  6
BYLAYER
 10
95.4121093325
 20
209.1409922054
 11
95.4121093326
 21
180.9469922049
  0
LINE
  5
412
100
AcDbEntity
  8
0
100
AcDbLine
 62
7
  6
BYLAYER
 10
95.4121093325
 20
18.1329922054
 11
95.4121093325
 21
46.3269921645
  0
LINE
  5
413
100
AcDbEntity
  8
0
100
AcDbLine
 62
7
  6
BYLAYER
 10
95.5729761001
 20
143.0647836657
 11
95.5729761001
 21
142.578400745
  0
LINE
  5
414
100
AcDbEntity
  8
0
100
AcDbLine
 62
7
  6
BYLAYER
 10
95.8063964998
 20
158.6588811966
 11
95.8063964998
 21
155.4173915146
  0
LINE
  5
415
100
AcDbEntity
  8
0
100
AcDbLine
 62
7
  6
BYLAYER
 10
95.8375593325
 20
142.6324432917
 11
95.8375593325
 21
143.010741119
  0
LINE
  5
416
100
AcDbEntity
  8
0
100
AcDbLine
 62
7
  6
BYLAYER
 10
96.7329093325
 20
209.1409922054
 11
96.7329093325
 21
180.9469922462
  0
LINE
  5
417
100
AcDbEntity
  8
0
100
AcDbLine
 62
7
  6
BYLAYER
 10
96.7329093325
 20
18.1329922054
 11
96.7329093324
 21
46.3269922058
  0
LINE
  5
418
100
AcDbEntity
  8
0
100
AcDbLine
 62
7
  6
BYLAYER
 10
96.9585689229
 20
58.6678451715
 11
96.9585689702
 21
58.0720161677
  0
LINE
  5
419
100
AcDbEntity
  8
0
100
AcDbLine
 62
7
  6
BYLAYER
 10
97.2133925649
 20
143.010741119
 11
97.2133925649
 21
142.6324432917
  0
LINE
  5
41A
100
AcDbEntity
  8
0
100
AcDbLine
 62
7
  6
BYLAYER
 10
97.4665497352
 20
57.4056586346
 11
97.4665497354
 21
57.4521922049
  0
LINE
  5
41B
100
AcDbEntity
  8
0
100
AcDbLine
 62
7
  6
BYLAYER
 10
97.4779759487
 20
142.578400745
 11
97.4779759487
 21
143.0647836657
  0
LINE
  5
41C
100
AcDbEntity
  8
0
100
AcDbLine
 62
7
  6
BYLAYER
 10
97.4792231791
 20
57.4521922054
 11
97.4792231791
 21
60.3583881365
  0
LINE
  5
41D
100
AcDbEntity
  8
0
100
AcDbLine
 62
7
  6
BYLAYER
 10
97.527323929
 20
57.3769830265
 11
97.527323929
 21
57.4521922054
  0
LINE
  5
41E
100
AcDbEntity
  8
0
100
AcDbLine
 62
7
  6
BYLAYER
 10
97.5965093325
 20
69.4663922054
 11
97.5965093325
 21
134.4903922054
  0
LINE
  5
41F
100
AcDbEntity
  8
0
100
AcDbLine
 62
7
  6
BYLAYER
 10
97.6219093325
 20
180.453244624
 11
97.6219093325
 21
178.1528502668
  0
LINE
  5
420
100
AcDbEntity
  8
0
100
AcDbLine
 62
7
  6
BYLAYER
 10
97.6219093325
 20
174.0891341439
 11
97.6219093325
 21
171.8791922054
  0
LINE
  5
421
100
AcDbEntity
  8
0
100
AcDbLine
 62
7
  6
BYLAYER
 10
97.6219093325
 20
55.3693922054
 11
97.6219093325
 21
53.1427061139
  0
LINE
  5
422
100
AcDbEntity
  8
0
100
AcDbLine
 62
7
  6
BYLAYER
 10
97.6219093325
 20
49.1124782968
 11
97.6219093325
 21
46.7699397867
  0
LINE
  5
423
100
AcDbEntity
  8
0
100
AcDbLine
 62
7
  6
BYLAYER
 10
95.308856927
 20
163.125516256
 11
95.3026503786
 21
160.5507922053
  0
LINE
  5
424
100
AcDbEntity
  8
0
100
AcDbLine
 62
7
  6
BYLAYER
 10
95.8063964998
 20
158.6588811966
 11
95.8126030482
 21
161.2336052473
  0
LINE
  5
425
100
AcDbEntity
  8
0
100
AcDbLine
 62
7
  6
BYLAYER
 10
95.8904761001
 20
143.3349964752
 11
95.8375593325
 21
143.010741119
  0
LINE
  5
426
100
AcDbEntity
  8
0
100
AcDbLine
 62
7
  6
BYLAYER
 10
97.1604761001
 20
142.3081880112
 11
97.2133925649
 21
142.6324432917
  0
LINE
  5
427
100
AcDbEntity
  8
0
100
AcDbLine
 62
7
  6
BYLAYER
 10
98.2188093325
 20
143.3349964752
 11
98.1658927163
 21
143.010741119
  0
LINE
  5
428
100
AcDbEntity
  8
0
100
AcDbLine
 62
7
  6
BYLAYER
 10
99.4888093325
 20
142.3081880112
 11
99.5417260054
 21
142.6324432917
  0
LINE
  5
429
100
AcDbEntity
  8
0
100
AcDbLine
 62
7
  6
BYLAYER
 10
97.4779759487
 20
142.578400745
 11
97.4250593325
 21
142.3081880112
  0
LINE
  5
42A
100
AcDbEntity
  8
0
100
AcDbLine
 62
7
  6
BYLAYER
 10
97.9013093325
 20
143.0647836657
 11
97.9542259487
 21
143.3349964751
  0
LINE
  5
42B
100
AcDbEntity
  8
0
100
AcDbLine
 62
7
  6
BYLAYER
 10
99.8063093325
 20
142.578400745
 11
99.7533926642
 21
142.3081880112
  0
LINE
  5
42C
100
AcDbEntity
  8
0
100
AcDbLine
 62
7
  6
BYLAYER
 10
103.4162843325
 20
137.1606347568
 11
103.5147100834
 21
137.4308475237
  0
LINE
  5
42D
100
AcDbEntity
  8
0
100
AcDbLine
 62
7
  6
BYLAYER
 10
103.7115593325
 20
137.4308475237
 11
103.6131335815
 21
137.1606347568
  0
LINE
  5
42E
100
AcDbEntity
  8
0
100
AcDbLine
 62
7
  6
BYLAYER
 10
106.2706085815
 20
136.4040390219
 11
106.3690343325
 21
136.6742517935
  0
LINE
  5
42F
100
AcDbEntity
  8
0
100
AcDbLine
 62
7
  6
BYLAYER
 10
104.4989585816
 20
135.4853156515
 11
104.4005350834
 21
135.2691454645
  0
LINE
  5
430
100
AcDbEntity
  8
0
100
AcDbLine
 62
7
  6
BYLAYER
 10
105.4832093325
 20
134.9989325794
 11
105.5816350834
 21
135.1610602196
  0
LINE
  5
431
100
AcDbEntity
  8
0
100
AcDbLine
 62
7
  6
BYLAYER
 10
106.6643093325
 20
136.6742517935
 11
106.5658835815
 21
136.5121241154
  0
LINE
  5
432
100
AcDbEntity
  8
0
100
AcDbLine
 62
7
  6
BYLAYER
 10
119.2267264028
 20
143.6592517935
 11
119.3325593325
 21
143.8213794337
  0
LINE
  5
433
100
AcDbEntity
  8
0
100
AcDbLine
 62
7
  6
BYLAYER
 10
119.2796422621
 20
142.4703156515
 11
119.3854764029
 21
142.6324432918
  0
LINE
  5
434
100
AcDbEntity
  8
0
100
AcDbLine
 62
7
  6
BYLAYER
 10
57.642379331
 20
53.0325922054
 11
57.6426749504
 21
53.0330355302
  0
LINE
  5
435
100
AcDbEntity
  8
0
100
AcDbLine
 62
7
  6
BYLAYER
 10
109.3709960815
 20
135.5393581982
 11
109.5186335815
 21
135.7555283852
  0
LINE
  5
436
100
AcDbEntity
  8
0
100
AcDbLine
 62
7
  6
BYLAYER
 10
63.0702024845
 20
74.5510717124
 11
62.8593005865
 21
74.2997286177
  0
LINE
  5
437
100
AcDbEntity
  8
0
100
AcDbLine
 62
7
  6
BYLAYER
 10
65.9812161804
 20
77.6488910482
 11
66.1921180784
 21
77.9002341429
  0
LINE
  5
438
100
AcDbEntity
  8
0
100
AcDbLine
 62
7
  6
BYLAYER
 10
128.2225593325
 20
149.0959325794
 11
128.5400593325
 21
149.474230558
  0
LINE
  5
439
100
AcDbEntity
  8
0
100
AcDbLine
 62
7
  6
BYLAYER
 10
128.5400593325
 20
149.0418900326
 11
128.2225593325
 21
148.6635922054
  0
LINE
  5
43A
100
AcDbEntity
  8
0
100
AcDbLine
 62
7
  6
BYLAYER
 10
129.9688093325
 20
149.0959325794
 11
130.2863093325
 21
149.474230558
  0
LINE
  5
43B
100
AcDbEntity
  8
0
100
AcDbLine
 62
7
  6
BYLAYER
 10
130.2863093325
 20
149.0418900326
 11
129.9688093325
 21
148.6635922054
  0
LINE
  5
43C
100
AcDbEntity
  8
0
100
AcDbLine
 62
7
  6
BYLAYER
 10
125.3121425649
 20
141.9839325794
 11
125.6296425649
 21
142.362230558
  0
LINE
  5
43D
100
AcDbEntity
  8
0
100
AcDbLine
 62
7
  6
BYLAYER
 10
125.6296425649
 20
141.9298900326
 11
125.3121425649
 21
141.5515922054
  0
LINE
  5
43E
100
AcDbEntity
  8
0
100
AcDbLine
 62
7
  6
BYLAYER
 10
116.9989343325
 20
136.7282943402
 11
117.1957847079
 21
136.9444645462
  0
LINE
  5
43F
100
AcDbEntity
  8
0
100
AcDbLine
 62
7
  6
BYLAYER
 10
118.721371457
 20
134.9448900326
 11
118.5245222079
 21
134.7287198456
  0
LINE
  5
440
100
AcDbEntity
  8
0
100
AcDbLine
 62
7
  6
BYLAYER
 10
121.6741220202
 20
135.9176560255
 11
121.7725466447
 21
136.025741119
  0
LINE
  5
441
100
AcDbEntity
  8
0
100
AcDbLine
 62
7
  6
BYLAYER
 10
123.1954757973
 20
141.9298900326
 11
123.0367257973
 21
141.7677623924
  0
LINE
  5
442
100
AcDbEntity
  8
0
100
AcDbLine
 62
7
  6
BYLAYER
 10
126.2646425649
 20
143.7132943402
 11
126.4233925649
 21
143.8754219995
  0
LINE
  5
443
100
AcDbEntity
  8
0
100
AcDbLine
 62
7
  6
BYLAYER
 10
128.5929759487
 20
143.7132943403
 11
128.7517259487
 21
143.8754219995
  0
LINE
  5
444
100
AcDbEntity
  8
0
100
AcDbLine
 62
7
  6
BYLAYER
 10
127.7463093325
 20
141.9298900326
 11
127.5875593325
 21
141.7677623924
  0
LINE
  5
445
100
AcDbEntity
  8
0
100
AcDbLine
 62
7
  6
BYLAYER
 10
130.0746426595
 20
141.9298900326
 11
129.9158926784
 21
141.7677623924
  0
LINE
  5
446
100
AcDbEntity
  8
0
100
AcDbLine
 62
7
  6
BYLAYER
 10
65.6964114134
 20
83.3878398843
 11
65.7057215314
 21
83.3971500023
  0
LINE
  5
447
100
AcDbEntity
  8
0
100
AcDbLine
 62
7
  6
BYLAYER
 10
66.3313570114
 20
82.7528942863
 11
66.3406671294
 21
82.7622044043
  0
LINE
  5
448
100
AcDbEntity
  8
0
100
AcDbLine
 62
7
  6
BYLAYER
 10
127.2351344263
 20
135.7555283852
 11
127.4319842386
 21
135.9176560255
  0
LINE
  5
449
100
AcDbEntity
  8
0
100
AcDbLine
 62
7
  6
BYLAYER
 10
118.0816097079
 20
134.8908474858
 11
118.278458957
 21
134.9448900326
  0
LINE
  5
44A
100
AcDbEntity
  8
0
100
AcDbLine
 62
7
  6
BYLAYER
 10
117.6386972079
 20
136.782336887
 11
117.4418468325
 21
136.7282943403
  0
LINE
  5
44B
100
AcDbEntity
  8
0
100
AcDbLine
 62
7
  6
BYLAYER
 10
107.3040710815
 20
135.7555283852
 11
107.5009225834
 21
135.809570932
  0
LINE
  5
44C
100
AcDbEntity
  8
0
100
AcDbLine
 62
7
  6
BYLAYER
 10
123.7410470202
 20
134.6206347521
 11
123.4949843325
 21
134.5665922054
  0
LINE
  5
44D
100
AcDbEntity
  8
0
100
AcDbLine
 62
7
  6
BYLAYER
 10
121.5756968325
 20
134.6206347521
 11
121.3296341447
 21
134.5665922054
  0
LINE
  5
44E
100
AcDbEntity
  8
0
100
AcDbLine
 62
7
  6
BYLAYER
 10
127.4319842386
 20
135.9176560255
 11
127.6780469263
 21
135.9716985722
  0
LINE
  5
44F
100
AcDbEntity
  8
0
100
AcDbLine
 62
7
  6
BYLAYER
 10
123.7410470202
 20
135.5393581982
 11
123.4949843324
 21
135.4853156515
  0
LINE
  5
450
100
AcDbEntity
  8
0
100
AcDbLine
 62
7
  6
BYLAYER
 10
118.3276718324
 20
134.6206347521
 11
118.0816097079
 21
134.5665922054
  0
LINE
  5
451
100
AcDbEntity
  8
0
100
AcDbLine
 62
7
  6
BYLAYER
 10
121.5756968325
 20
135.5393581982
 11
121.3296341447
 21
135.4853156515
  0
LINE
  5
452
100
AcDbEntity
  8
0
100
AcDbLine
 62
7
  6
BYLAYER
 10
123.0028595202
 20
137.0525496539
 11
123.2489216447
 21
137.1065922054
  0
LINE
  5
453
100
AcDbEntity
  8
0
100
AcDbLine
 62
7
  6
BYLAYER
 10
120.8375093325
 20
137.0525496539
 11
121.0835720202
 21
137.1065922054
  0
LINE
  5
454
100
AcDbEntity
  8
0
100
AcDbLine
 62
7
  6
BYLAYER
 10
117.392633957
 20
137.0525496539
 11
117.6386972079
 21
137.1065922054
  0
LINE
  5
455
100
AcDbEntity
  8
0
100
AcDbLine
 62
7
  6
BYLAYER
 10
71.3280972113
 20
122.3832657704
 11
72.6350276106
 21
122.3832657704
  0
LINE
  5
456
100
AcDbEntity
  8
0
100
AcDbLine
 62
7
  6
BYLAYER
 10
73.289849875
 20
123.815049249
 11
71.3767619655
 21
123.815049249
  0
LINE
  5
457
100
AcDbEntity
  8
0
100
AcDbLine
 62
7
  6
BYLAYER
 10
73.6189093325
 20
124.322484179
 11
71.3756827641
 21
124.322484179
  0
LINE
  5
458
100
AcDbEntity
  8
0
100
AcDbLine
 62
7
  6
BYLAYER
 10
77.4543093325
 20
126.3623922054
 11
94.2183093325
 21
126.3623922054
  0
LINE
  5
459
100
AcDbEntity
  8
0
100
AcDbLine
 62
7
  6
BYLAYER
 10
77.7464093325
 20
128.9023922054
 11
93.5960093325
 21
128.9023922054
  0
LINE
  5
45A
100
AcDbEntity
  8
0
100
AcDbLine
 62
7
  6
BYLAYER
 10
74.2053599654
 20
163.125516256
 11
75.4477093325
 21
160.5507922054
  0
LINE
  5
45B
100
AcDbEntity
  8
0
100
AcDbLine
 62
7
  6
BYLAYER
 10
67.3035474402
 20
169.4598610081
 11
66.669628334
 21
170.9257989413
  0
LINE
  5
45C
100
AcDbEntity
  8
0
100
AcDbLine
 62
7
  6
BYLAYER
 10
91.0750593325
 20
142.3081880112
 11
91.0221428677
 21
142.578400745
  0
LINE
  5
45D
100
AcDbEntity
  8
0
100
AcDbLine
 62
7
  6
BYLAYER
 10
91.2867257973
 20
142.6324432917
 11
91.3396428677
 21
142.3081880112
  0
LINE
  5
45E
100
AcDbEntity
  8
0
100
AcDbLine
 62
7
  6
BYLAYER
 10
92.6625593325
 20
143.010741119
 11
92.6096428677
 21
143.3349964752
  0
LINE
  5
45F
100
AcDbEntity
  8
0
100
AcDbLine
 62
7
  6
BYLAYER
 10
100.7013892158
 20
18.1329922054
 11
100.6490728952
 21
21.1301922054
  0
LINE
  5
460
100
AcDbEntity
  8
0
100
AcDbLine
 62
7
  6
BYLAYER
 10
100.6056237476
 20
23.6193922054
 11
100.4665661964
 21
31.5859939769
  0
LINE
  5
461
100
AcDbEntity
  8
0
100
AcDbLine
 62
7
  6
BYLAYER
 10
98.3519860905
 20
209.1409922054
 11
98.4043024111
 21
206.1437922054
  0
LINE
  5
462
100
AcDbEntity
  8
0
100
AcDbLine
 62
7
  6
BYLAYER
 10
98.4477515587
 20
203.6545922054
 11
98.5872524686
 21
195.6625904338
  0
LINE
  5
463
100
AcDbEntity
  8
0
100
AcDbLine
 62
7
  6
BYLAYER
 10
101.1001569138
 20
180.453244624
 11
101.1001078776
 21
180.4637326333
  0
LINE
  5
464
100
AcDbEntity
  8
0
100
AcDbLine
 62
7
  6
BYLAYER
 10
103.2412156168
 20
161.2336052472
 11
103.2474221652
 21
158.6588811966
  0
LINE
  5
465
100
AcDbEntity
  8
0
100
AcDbLine
 62
7
  6
BYLAYER
 10
103.7511682863
 20
160.5507922054
 11
103.7449617379
 21
163.125516256
  0
LINE
  5
466
100
AcDbEntity
  8
0
100
AcDbLine
 62
7
  6
BYLAYER
 10
97.7119515355
 20
89.0106044043
 11
97.7119515355
 21
78.9137801312
  0
LINE
  5
467
100
AcDbEntity
  8
0
100
AcDbLine
 62
7
  6
BYLAYER
 10
97.7119515355
 20
74.4970042795
 11
97.7119515355
 21
71.8039625159
  0
LINE
  5
468
100
AcDbEntity
  8
0
100
AcDbLine
 62
7
  6
BYLAYER
 10
97.894145712
 20
180.1810082445
 11
97.894145712
 21
178.3883748635
  0
LINE
  5
469
100
AcDbEntity
  8
0
100
AcDbLine
 62
7
  6
BYLAYER
 10
97.894145712
 20
173.8536095472
 11
97.894145712
 21
172.1514285849
  0
LINE
  5
46A
100
AcDbEntity
  8
0
100
AcDbLine
 62
7
  6
BYLAYER
 10
97.894145712
 20
55.0971558258
 11
97.894145712
 21
53.3799342776
  0
LINE
  5
46B
100
AcDbEntity
  8
0
100
AcDbLine
 62
7
  6
BYLAYER
 10
97.894145712
 20
48.8752501331
 11
97.894145712
 21
47.0421761662
  0
LINE
  5
46C
100
AcDbEntity
  8
0
100
AcDbLine
 62
7
  6
BYLAYER
 10
97.9013093325
 20
143.0647836657
 11
97.9013093325
 21
142.578400745
  0
LINE
  5
46D
100
AcDbEntity
  8
0
100
AcDbLine
 62
7
  6
BYLAYER
 10
97.9536617512
 20
192.3119688013
 11
97.9536617512
 21
180.453244624
  0
LINE
  5
46E
100
AcDbEntity
  8
0
100
AcDbLine
 62
7
  6
BYLAYER
 10
97.9536617512
 20
46.7699397867
 11
97.9536617512
 21
34.9112156094
  0
LINE
  5
46F
100
AcDbEntity
  8
0
100
AcDbLine
 62
7
  6
BYLAYER
 10
98.1614174896
 20
192.1042130629
 11
98.1614174781
 21
181.4229696683
  0
LINE
  5
470
100
AcDbEntity
  8
0
100
AcDbLine
 62
7
  6
BYLAYER
 10
98.1614174784
 20
45.800218457
 11
98.1614174896
 21
35.1189713478
  0
LINE
  5
471
100
AcDbEntity
  8
0
100
AcDbLine
 62
7
  6
BYLAYER
 10
98.1658927163
 20
142.6324432917
 11
98.1658927163
 21
143.010741119
  0
LINE
  5
472
100
AcDbEntity
  8
0
100
AcDbLine
 62
7
  6
BYLAYER
 10
98.1688181622
 20
67.2430833756
 11
98.1688181622
 21
61.1592569137
  0
LINE
  5
473
100
AcDbEntity
  8
0
100
AcDbLine
 62
7
  6
BYLAYER
 10
98.2199515355
 20
75.5646177007
 11
98.2199515355
 21
77.84616671
  0
LINE
  5
474
100
AcDbEntity
  8
0
100
AcDbLine
 62
7
  6
BYLAYER
 10
98.5038947359
 20
57.1479634063
 11
98.5038947359
 21
57.4521922054
  0
LINE
  5
475
100
AcDbEntity
  8
0
100
AcDbLine
 62
7
  6
BYLAYER
 10
98.5519954858
 20
57.4521922054
 11
98.5519954858
 21
61.3424918315
  0
LINE
  5
476
100
AcDbEntity
  8
0
100
AcDbLine
 62
7
  6
BYLAYER
 10
98.5619702957
 20
63.4417983741
 11
98.5619702957
 21
66.3421922054
  0
LINE
  5
477
100
AcDbEntity
  8
0
100
AcDbLine
 62
7
  6
BYLAYER
 10
98.5646689308
 20
57.4521922054
 11
98.5646689319
 21
57.2195594371
  0
LINE
  5
478
100
AcDbEntity
  8
0
100
AcDbLine
 62
7
  6
BYLAYER
 10
98.6081147705
 20
66.3421922054
 11
98.6081147764
 21
65.8761861334
  0
LINE
  5
479
100
AcDbEntity
  8
0
100
AcDbLine
 62
7
  6
BYLAYER
 10
98.6353279848
 20
152.5979915146
 11
98.6353279848
 21
154.9094108577
  0
LINE
  5
47A
100
AcDbEntity
  8
0
100
AcDbLine
 62
7
  6
BYLAYER
 10
98.9233884749
 20
192.8661840482
 11
98.9233884749
 21
180.6610003625
  0
LINE
  5
47B
100
AcDbEntity
  8
0
100
AcDbLine
 62
7
  6
BYLAYER
 10
98.9233884749
 20
46.5621840482
 11
98.9233884749
 21
34.3570003625
  0
LINE
  5
47C
100
AcDbEntity
  8
0
100
AcDbLine
 62
7
  6
BYLAYER
 10
99.0726495888
 20
57.2829839121
 11
99.0726499574
 21
62.3479028809
  0
LINE
  5
47D
100
AcDbEntity
  8
0
100
AcDbLine
 62
7
  6
BYLAYER
 10
99.1160954274
 20
66.3421922054
 11
99.1160954151
 21
65.8761643953
  0
LINE
  5
47E
100
AcDbEntity
  8
0
100
AcDbLine
 62
7
  6
BYLAYER
 10
99.5417260054
 20
143.010741119
 11
99.5417260054
 21
142.6324432917
  0
LINE
  5
47F
100
AcDbEntity
  8
0
100
AcDbLine
 62
7
  6
BYLAYER
 10
99.8063093325
 20
137.4875922054
 11
99.8063093325
 21
134.1855922054
  0
LINE
  5
480
100
AcDbEntity
  8
0
100
AcDbLine
 62
7
  6
BYLAYER
 10
99.8063093325
 20
142.578400745
 11
99.8063093325
 21
143.0647836657
  0
LINE
  5
481
100
AcDbEntity
  8
0
100
AcDbLine
 62
7
  6
BYLAYER
 10
100.13043019
 20
34.3570003625
 11
100.13043019
 21
46.5621840482
  0
LINE
  5
482
100
AcDbEntity
  8
0
100
AcDbLine
 62
7
  6
BYLAYER
 10
100.13043019
 20
180.6610003625
 11
100.13043019
 21
192.8661840482
  0
LINE
  5
483
100
AcDbEntity
  8
0
100
AcDbLine
 62
7
  6
BYLAYER
 10
100.4184906802
 20
154.9094108577
 11
100.4184906802
 21
152.5979915146
  0
LINE
  5
484
100
AcDbEntity
  8
0
100
AcDbLine
 62
7
  6
BYLAYER
 10
100.8338671294
 20
77.84616671
 11
100.8338671294
 21
75.5646177007
  0
LINE
  5
485
100
AcDbEntity
  8
0
100
AcDbLine
 62
7
  6
BYLAYER
 10
100.8850005027
 20
61.1592569137
 11
100.8850005027
 21
67.2430833756
  0
LINE
  5
486
100
AcDbEntity
  8
0
100
AcDbLine
 62
7
  6
BYLAYER
 10
100.8924011754
 20
35.1189713478
 11
100.8924011868
 21
45.8002147424
  0
LINE
  5
487
100
AcDbEntity
  8
0
100
AcDbLine
 62
7
  6
BYLAYER
 10
100.8924011866
 20
181.4229659537
 11
100.8924011754
 21
192.1042130629
  0
LINE
  5
488
100
AcDbEntity
  8
0
100
AcDbLine
 62
7
  6
BYLAYER
 10
101.0763093325
 20
141.1705922054
 11
101.0763093325
 21
144.4725922054
  0
LINE
  5
489
100
AcDbEntity
  8
0
100
AcDbLine
 62
7
  6
BYLAYER
 10
101.1001569138
 20
34.9112156094
 11
101.1001569138
 21
46.7699397867
  0
LINE
  5
48A
100
AcDbEntity
  8
0
100
AcDbLine
 62
7
  6
BYLAYER
 10
101.1001569138
 20
180.453244624
 11
101.1001569138
 21
192.3119688013
  0
LINE
  5
48B
100
AcDbEntity
  8
0
100
AcDbLine
 62
7
  6
BYLAYER
 10
101.159672953
 20
47.0421761662
 11
101.159672953
 21
48.8752501331
  0
LINE
  5
48C
100
AcDbEntity
  8
0
100
AcDbLine
 62
7
  6
BYLAYER
 10
101.159672953
 20
53.3799342776
 11
101.159672953
 21
55.0971558258
  0
LINE
  5
48D
100
AcDbEntity
  8
0
100
AcDbLine
 62
7
  6
BYLAYER
 10
101.159672953
 20
172.1514285849
 11
101.159672953
 21
173.8536095472
  0
LINE
  5
48E
100
AcDbEntity
  8
0
100
AcDbLine
 62
7
  6
BYLAYER
 10
101.159672953
 20
178.3883748635
 11
101.159672953
 21
180.1810082445
  0
LINE
  5
48F
100
AcDbEntity
  8
0
100
AcDbLine
 62
7
  6
BYLAYER
 10
101.3418671294
 20
89.0106044043
 11
101.3418671294
 21
78.9137801312
  0
LINE
  5
490
100
AcDbEntity
  8
0
100
AcDbLine
 62
7
  6
BYLAYER
 10
101.3418671294
 20
74.4970042795
 11
101.3418671294
 21
71.8039625159
  0
LINE
  5
491
100
AcDbEntity
  8
0
100
AcDbLine
 62
7
  6
BYLAYER
 10
101.4319093325
 20
46.7699397867
 11
101.4319093325
 21
49.1124782968
  0
LINE
  5
492
100
AcDbEntity
  8
0
100
AcDbLine
 62
7
  6
BYLAYER
 10
101.4319093325
 20
53.1427061139
 11
101.4319093325
 21
55.3693922054
  0
LINE
  5
493
100
AcDbEntity
  8
0
100
AcDbLine
 62
7
  6
BYLAYER
 10
101.4319093325
 20
171.8791922054
 11
101.4319093325
 21
174.089134144
  0
LINE
  5
494
100
AcDbEntity
  8
0
100
AcDbLine
 62
7
  6
BYLAYER
 10
101.4319093325
 20
178.1528502668
 11
101.4319093325
 21
180.453244624
  0
LINE
  5
495
100
AcDbEntity
  8
0
100
AcDbLine
 62
7
  6
BYLAYER
 10
102.0669093325
 20
209.1409922054
 11
102.0669093326
 21
180.9469922049
  0
LINE
  5
496
100
AcDbEntity
  8
0
100
AcDbLine
 62
7
  6
BYLAYER
 10
102.0669093325
 20
18.1329922054
 11
102.0669093325
 21
46.3269921645
  0
LINE
  5
497
100
AcDbEntity
  8
0
100
AcDbLine
 62
7
  6
BYLAYER
 10
102.2397022771
 20
169.5946408251
 11
102.2397022771
 21
168.2392992607
  0
LINE
  5
498
100
AcDbEntity
  8
0
100
AcDbLine
 62
7
  6
BYLAYER
 10
103.2474221652
 20
158.6588811966
 11
103.2474221652
 21
155.4173915146
  0
LINE
  5
499
100
AcDbEntity
  8
0
100
AcDbLine
 62
7
  6
BYLAYER
 10
103.2686468325
 20
136.1878688349
 11
103.2686468325
 21
135.809570932
  0
LINE
  5
49A
100
AcDbEntity
  8
0
100
AcDbLine
 62
7
  6
BYLAYER
 10
103.3877093325
 20
209.1409922054
 11
103.3877093325
 21
180.9469922462
  0
LINE
  5
49B
100
AcDbEntity
  8
0
100
AcDbLine
 62
7
  6
BYLAYER
 10
103.3877093325
 20
18.1329922054
 11
103.3877093324
 21
46.3269922058
  0
LINE
  5
49C
100
AcDbEntity
  8
0
100
AcDbLine
 62
7
  6
BYLAYER
 10
103.4181163878
 20
168.2392992607
 11
103.4181163878
 21
169.1472969899
  0
LINE
  5
49D
100
AcDbEntity
  8
0
100
AcDbLine
 62
7
  6
BYLAYER
 10
103.4654960815
 20
135.809570932
 11
103.4654960815
 21
136.1878688349
  0
LINE
  5
49E
100
AcDbEntity
  8
0
100
AcDbLine
 62
7
  6
BYLAYER
 10
104.1052600834
 20
137.1065922054
 11
104.1052600834
 21
136.8363794338
  0
LINE
  5
49F
100
AcDbEntity
  8
0
100
AcDbLine
 62
7
  6
BYLAYER
 10
104.1052600834
 20
135.2691454645
 11
104.1052600834
 21
135.1610602196
  0
LINE
  5
4A0
100
AcDbEntity
  8
0
100
AcDbLine
 62
7
  6
BYLAYER
 10
104.3690647507
 20
209.1409922054
 11
104.3690647507
 21
179.2705922054
  0
LINE
  5
4A1
100
AcDbEntity
  8
0
100
AcDbLine
 62
7
  6
BYLAYER
 10
104.3690647507
 20
18.1329922054
 11
104.3690647507
 21
48.0033922054
  0
LINE
  5
4A2
100
AcDbEntity
  8
0
100
AcDbLine
 62
7
  6
BYLAYER
 10
104.4005350834
 20
135.1610602196
 11
104.4005350834
 21
135.2691454645
  0
LINE
  5
4A3
100
AcDbEntity
  8
0
100
AcDbLine
 62
7
  6
BYLAYER
 10
104.5815093325
 20
26.9721922054
 11
104.5815120733
 21
47.7999886245
  0
LINE
  5
4A4
100
AcDbEntity
  8
0
100
AcDbLine
 62
7
  6
BYLAYER
 10
104.5815120733
 20
179.4739836929
 11
104.5815093325
 21
200.3017922054
  0
LINE
  5
4A5
100
AcDbEntity
  8
0
100
AcDbLine
 62
7
  6
BYLAYER
 10
100.4665661964
 20
195.6625904338
 11
100.6060671062
 21
203.6545922054
  0
LINE
  5
4A6
100
AcDbEntity
  8
0
100
AcDbLine
 62
7
  6
BYLAYER
 10
100.6495162538
 20
206.1437922054
 11
100.7018325744
 21
209.1409922054
  0
LINE
  5
4A7
100
AcDbEntity
  8
0
100
AcDbLine
 62
7
  6
BYLAYER
 10
98.5872524686
 20
31.5859939769
 11
98.4481949174
 21
23.6193922054
  0
LINE
  5
4A8
100
AcDbEntity
  8
0
100
AcDbLine
 62
7
  6
BYLAYER
 10
98.4047457698
 20
21.1301922054
 11
98.3524294492
 21
18.1329922054
  0
LINE
  5
4A9
100
AcDbEntity
  8
0
100
AcDbLine
 62
7
  6
BYLAYER
 10
103.2686468325
 20
136.1878688349
 11
103.3178585815
 21
136.6742517935
  0
LINE
  5
4AA
100
AcDbEntity
  8
0
100
AcDbLine
 62
7
  6
BYLAYER
 10
103.5147100834
 20
136.6742517935
 11
103.4654960815
 21
136.1878688349
  0
LINE
  5
4AB
100
AcDbEntity
  8
0
100
AcDbLine
 62
7
  6
BYLAYER
 10
103.3178585815
 20
136.6742517935
 11
103.4162843325
 21
137.1606347568
  0
LINE
  5
4AC
100
AcDbEntity
  8
0
100
AcDbLine
 62
7
  6
BYLAYER
 10
103.6131335815
 20
137.1606347568
 11
103.5147100834
 21
136.6742517935
  0
LINE
  5
4AD
100
AcDbEntity
  8
0
100
AcDbLine
 62
7
  6
BYLAYER
 10
108.5343850834
 20
134.8368049391
 11
108.6328085815
 21
135.3231880112
  0
LINE
  5
4AE
100
AcDbEntity
  8
0
100
AcDbLine
 62
7
  6
BYLAYER
 10
108.8296600834
 20
135.3231880112
 11
108.7312343325
 21
134.8368049391
  0
LINE
  5
4AF
100
AcDbEntity
  8
0
100
AcDbLine
 62
7
  6
BYLAYER
 10
104.1052600834
 20
135.2691454645
 11
104.1544718325
 21
135.4853156515
  0
LINE
  5
4B0
100
AcDbEntity
  8
0
100
AcDbLine
 62
7
  6
BYLAYER
 10
105.8276960815
 20
135.1610602196
 11
105.7784843325
 21
134.9448900326
  0
LINE
  5
4B1
100
AcDbEntity
  8
0
100
AcDbLine
 62
7
  6
BYLAYER
 10
106.5658835815
 20
136.5121241154
 11
106.5166718325
 21
136.3499964752
  0
LINE
  5
4B2
100
AcDbEntity
  8
0
100
AcDbLine
 62
7
  6
BYLAYER
 10
109.3217843325
 20
135.377230558
 11
109.3709960815
 21
135.5393581982
  0
LINE
  5
4B3
100
AcDbEntity
  8
0
100
AcDbLine
 62
7
  6
BYLAYER
 10
109.6662710815
 20
135.4853156515
 11
109.6170593325
 21
135.3231880112
  0
LINE
  5
4B4
100
AcDbEntity
  8
0
100
AcDbLine
 62
7
  6
BYLAYER
 10
108.4359593325
 20
134.5665922054
 11
108.5343850834
 21
134.8368049391
  0
LINE
  5
4B5
100
AcDbEntity
  8
0
100
AcDbLine
 62
7
  6
BYLAYER
 10
108.7312343325
 20
134.8368049391
 11
108.6328085815
 21
134.5665922054
  0
LINE
  5
4B6
100
AcDbEntity
  8
0
100
AcDbLine
 62
7
  6
BYLAYER
 10
124.8484586996
 20
163.125516256
 11
123.6061093325
 21
160.5507922053
  0
LINE
  5
4B7
100
AcDbEntity
  8
0
100
AcDbLine
 62
7
  6
BYLAYER
 10
119.4913093325
 20
143.6052092089
 11
119.4383922621
 21
143.4971241154
  0
LINE
  5
4B8
100
AcDbEntity
  8
0
100
AcDbLine
 62
7
  6
BYLAYER
 10
119.5971422621
 20
142.4703156515
 11
119.4913093325
 21
142.2541454645
  0
LINE
  5
4B9
100
AcDbEntity
  8
0
100
AcDbLine
 62
7
  6
BYLAYER
 10
121.6079757972
 20
143.4971241153
 11
121.7138093325
 21
143.7132943403
  0
LINE
  5
4BA
100
AcDbEntity
  8
0
100
AcDbLine
 62
7
  6
BYLAYER
 10
118.426096457
 20
135.0529751261
 11
118.5245222079
 21
135.2151029177
  0
LINE
  5
4BB
100
AcDbEntity
  8
0
100
AcDbLine
 62
7
  6
BYLAYER
 10
120.7390847079
 20
136.6742517935
 11
120.640658957
 21
136.5121241154
  0
LINE
  5
4BC
100
AcDbEntity
  8
0
100
AcDbLine
 62
7
  6
BYLAYER
 10
121.6741220202
 20
134.9989325793
 11
121.7725466447
 21
135.1610602196
  0
LINE
  5
4BD
100
AcDbEntity
  8
0
100
AcDbLine
 62
7
  6
BYLAYER
 10
120.6554757973
 20
141.9839325793
 11
120.7613093325
 21
142.1460602196
  0
LINE
  5
4BE
100
AcDbEntity
  8
0
100
AcDbLine
 62
7
  6
BYLAYER
 10
122.0313093325
 20
143.6592517935
 11
121.8196428677
 21
143.3349964752
  0
LINE
  5
4BF
100
AcDbEntity
  8
0
100
AcDbLine
 62
7
  6
BYLAYER
 10
122.8779757973
 20
141.9839325793
 11
123.0896428677
 21
142.3081880113
  0
LINE
  5
4C0
100
AcDbEntity
  8
0
100
AcDbLine
 62
7
  6
BYLAYER
 10
126.5821425649
 20
143.6592517935
 11
126.3704761001
 21
143.3349964752
  0
LINE
  5
4C1
100
AcDbEntity
  8
0
100
AcDbLine
 62
7
  6
BYLAYER
 10
127.4288093325
 20
141.9839325793
 11
127.6404761001
 21
142.3081880112
  0
LINE
  5
4C2
100
AcDbEntity
  8
0
100
AcDbLine
 62
7
  6
BYLAYER
 10
128.9104759487
 20
143.6592517935
 11
128.6988093325
 21
143.3349964752
  0
LINE
  5
4C3
100
AcDbEntity
  8
0
100
AcDbLine
 62
7
  6
BYLAYER
 10
120.4438097079
 20
136.6742517935
 11
120.5914472079
 21
136.8904219994
  0
LINE
  5
4C4
100
AcDbEntity
  8
0
100
AcDbLine
 62
7
  6
BYLAYER
 10
122.6091593325
 20
136.6742517935
 11
122.7567968325
 21
136.8904219994
  0
LINE
  5
4C5
100
AcDbEntity
  8
0
100
AcDbLine
 62
7
  6
BYLAYER
 10
121.9693970202
 20
134.9989325793
 11
121.8217595202
 21
134.7827623924
  0
LINE
  5
4C6
100
AcDbEntity
  8
0
100
AcDbLine
 62
7
  6
BYLAYER
 10
124.1347466447
 20
134.9989325793
 11
123.9871091447
 21
134.7827623924
  0
LINE
  5
4C7
100
AcDbEntity
  8
0
100
AcDbLine
 62
7
  6
BYLAYER
 10
123.8394716447
 20
135.9176560255
 11
123.9378968325
 21
136.025741119
  0
LINE
  5
4C8
100
AcDbEntity
  8
0
100
AcDbLine
 62
7
  6
BYLAYER
 10
127.4811968324
 20
135.593400745
 11
127.3827719264
 21
135.4853156515
  0
LINE
  5
4C9
100
AcDbEntity
  8
0
100
AcDbLine
 62
7
  6
BYLAYER
 10
107.0087960816
 20
136.8363794338
 11
106.8119468325
 21
136.782336887
  0
LINE
  5
4CA
100
AcDbEntity
  8
0
100
AcDbLine
 62
7
  6
BYLAYER
 10
119.7029764028
 20
144.0375496539
 11
119.9146422621
 21
144.0915922054
  0
LINE
  5
4CB
100
AcDbEntity
  8
0
100
AcDbLine
 62
7
  6
BYLAYER
 10
105.0895085815
 20
134.8368049391
 11
105.3355718325
 21
134.8908474858
  0
LINE
  5
4CC
100
AcDbEntity
  8
0
100
AcDbLine
 62
7
  6
BYLAYER
 10
107.5501343325
 20
135.5393581982
 11
107.3040710816
 21
135.4853156515
  0
LINE
  5
4CD
100
AcDbEntity
  8
0
100
AcDbLine
 62
7
  6
BYLAYER
 10
106.7627350834
 20
137.0525496539
 11
107.0087960815
 21
137.1065922054
  0
LINE
  5
4CE
100
AcDbEntity
  8
0
100
AcDbLine
 62
7
  6
BYLAYER
 10
129.3338093325
 20
141.8218049391
 11
129.5983926406
 21
141.8758474858
  0
LINE
  5
4CF
100
AcDbEntity
  8
0
100
AcDbLine
 62
7
  6
BYLAYER
 10
127.0054761001
 20
141.8218049391
 11
127.2700593325
 21
141.8758474858
  0
LINE
  5
4D0
100
AcDbEntity
  8
0
100
AcDbLine
 62
7
  6
BYLAYER
 10
122.4546428677
 20
141.8218049391
 11
122.7192257973
 21
141.8758474858
  0
LINE
  5
4D1
100
AcDbEntity
  8
0
100
AcDbLine
 62
7
  6
BYLAYER
 10
120.2321428677
 20
141.8218049391
 11
120.4967257973
 21
141.8758474858
  0
LINE
  5
4D2
100
AcDbEntity
  8
0
100
AcDbLine
 62
7
  6
BYLAYER
 10
129.3338093325
 20
143.8213794338
 11
129.0692260244
 21
143.767336887
  0
LINE
  5
4D3
100
AcDbEntity
  8
0
100
AcDbLine
 62
7
  6
BYLAYER
 10
127.0054761001
 20
143.8213794338
 11
126.7408925649
 21
143.767336887
  0
LINE
  5
4D4
100
AcDbEntity
  8
0
100
AcDbLine
 62
7
  6
BYLAYER
 10
122.4546428677
 20
143.8213794338
 11
122.1900593325
 21
143.767336887
  0
LINE
  5
4D5
100
AcDbEntity
  8
0
100
AcDbLine
 62
7
  6
BYLAYER
 10
119.9675593325
 20
143.8213794338
 11
119.7029764029
 21
143.767336887
  0
LINE
  5
4D6
100
AcDbEntity
  8
0
100
AcDbLine
 62
7
  6
BYLAYER
 10
129.6513093325
 20
141.6056347521
 11
129.3338093325
 21
141.5515922054
  0
LINE
  5
4D7
100
AcDbEntity
  8
0
100
AcDbLine
 62
7
  6
BYLAYER
 10
127.3229761001
 20
141.6056347521
 11
127.0054761001
 21
141.5515922054
  0
LINE
  5
4D8
100
AcDbEntity
  8
0
100
AcDbLine
 62
7
  6
BYLAYER
 10
122.7721428676
 20
141.6056347521
 11
122.4546428677
 21
141.5515922054
  0
LINE
  5
4D9
100
AcDbEntity
  8
0
100
AcDbLine
 62
7
  6
BYLAYER
 10
129.0163093325
 20
144.0375496539
 11
129.3338093325
 21
144.0915922054
  0
LINE
  5
4DA
100
AcDbEntity
  8
0
100
AcDbLine
 62
7
  6
BYLAYER
 10
126.6879761001
 20
144.0375496539
 11
127.0054761001
 21
144.0915922054
  0
LINE
  5
4DB
100
AcDbEntity
  8
0
100
AcDbLine
 62
7
  6
BYLAYER
 10
105.3847835815
 20
134.6206347521
 11
105.0402968325
 21
134.5665922054
  0
LINE
  5
4DC
100
AcDbEntity
  8
0
100
AcDbLine
 62
7
  6
BYLAYER
 10
120.5496428676
 20
141.6056347521
 11
120.1792257973
 21
141.5515922054
  0
LINE
  5
4DD
100
AcDbEntity
  8
0
100
AcDbLine
 62
7
  6
BYLAYER
 10
73.6189093325
 20
131.6965417123
 11
71.3744368654
 21
131.6965417123
  0
LINE
  5
4DE
100
AcDbEntity
  8
0
100
AcDbLine
 62
7
  6
BYLAYER
 10
93.5960093325
 20
132.0773922054
 11
77.7464093325
 21
132.0773922054
  0
LINE
  5
4DF
100
AcDbEntity
  8
0
100
AcDbLine
 62
7
  6
BYLAYER
 10
73.6189093325
 20
132.183204413
 11
71.3744368654
 21
132.1832044129
  0
LINE
  5
4E0
100
AcDbEntity
  8
0
100
AcDbLine
 62
7
  6
BYLAYER
 10
71.3291610287
 20
132.2284802496
 11
73.6189093325
 21
132.2284802496
  0
LINE
  5
4E1
100
AcDbEntity
  8
0
100
AcDbLine
 62
7
  6
BYLAYER
 10
75.0767195049
 20
133.2993922054
 11
69.9766991601
 21
133.2993922054
  0
LINE
  5
4E2
100
AcDbEntity
  8
0
100
AcDbLine
 62
7
  6
BYLAYER
 10
99.8063093325
 20
134.1855922054
 11
131.5563093325
 21
134.1855922054
  0
LINE
  5
4E3
100
AcDbEntity
  8
0
100
AcDbLine
 62
7
  6
BYLAYER
 10
97.5965093325
 20
134.4903922054
 11
73.6189093325
 21
134.4903922054
  0
LINE
  5
4E4
100
AcDbEntity
  8
0
100
AcDbLine
 62
7
  6
BYLAYER
 10
103.5147100834
 20
134.5665922054
 11
103.7115593325
 21
134.5665922054
  0
LINE
  5
4E5
100
AcDbEntity
  8
0
100
AcDbLine
 62
7
  6
BYLAYER
 10
104.8434475834
 20
134.5665922054
 11
105.0402968325
 21
134.5665922054
  0
LINE
  5
4E6
100
AcDbEntity
  8
0
100
AcDbLine
 62
7
  6
BYLAYER
 10
106.3690343325
 20
134.5665922054
 11
108.0422585815
 21
134.5665922054
  0
LINE
  5
4E7
100
AcDbEntity
  8
0
100
AcDbLine
 62
7
  6
BYLAYER
 10
108.4359593325
 20
134.5665922054
 11
108.6328085815
 21
134.5665922054
  0
LINE
  5
4E8
100
AcDbEntity
  8
0
100
AcDbLine
 62
7
  6
BYLAYER
 10
109.9615460815
 20
134.5665922054
 11
111.1426460815
 21
134.5665922054
  0
LINE
  5
4E9
100
AcDbEntity
  8
0
100
AcDbLine
 62
7
  6
BYLAYER
 10
111.5363468325
 20
134.5665922054
 11
113.3079968325
 21
134.5665922054
  0
LINE
  5
4EA
100
AcDbEntity
  8
0
100
AcDbLine
 62
7
  6
BYLAYER
 10
114.7843718325
 20
134.5665922054
 11
116.5560218325
 21
134.5665922054
  0
LINE
  5
4EB
100
AcDbEntity
  8
0
100
AcDbLine
 62
7
  6
BYLAYER
 10
117.6386972079
 20
134.5665922054
 11
118.0816097079
 21
134.5665922054
  0
LINE
  5
4EC
100
AcDbEntity
  8
0
100
AcDbLine
 62
7
  6
BYLAYER
 10
121.1327843325
 20
134.5665922054
 11
121.3296341447
 21
134.5665922054
  0
LINE
  5
4ED
100
AcDbEntity
  8
0
100
AcDbLine
 62
7
  6
BYLAYER
 10
123.2981345202
 20
134.5665922054
 11
123.4949843325
 21
134.5665922054
  0
LINE
  5
4EE
100
AcDbEntity
  8
0
100
AcDbLine
 62
7
  6
BYLAYER
 10
125.4634841447
 20
134.5665922054
 11
125.8571843325
 21
134.5665922054
  0
LINE
  5
4EF
100
AcDbEntity
  8
0
100
AcDbLine
 62
7
  6
BYLAYER
 10
127.6780469263
 20
134.5665922054
 11
128.8591467855
 21
134.5665922054
  0
LINE
  5
4F0
100
AcDbEntity
  8
0
100
AcDbLine
 62
7
  6
BYLAYER
 10
128.5638717855
 20
134.8368049391
 11
127.6288343325
 21
134.8368049391
  0
LINE
  5
4F1
100
AcDbEntity
  8
0
100
AcDbLine
 62
7
  6
BYLAYER
 10
123.5441966447
 20
134.8368049391
 11
123.2489216447
 21
134.8368049391
  0
LINE
  5
4F2
100
AcDbEntity
  8
0
100
AcDbLine
 62
7
  6
BYLAYER
 10
121.3788470202
 20
134.8368049391
 11
121.0835720202
 21
134.8368049391
  0
LINE
  5
4F3
100
AcDbEntity
  8
0
100
AcDbLine
 62
7
  6
BYLAYER
 10
110.8473710815
 20
134.8368049391
 11
109.9123343325
 21
134.8368049391
  0
LINE
  5
4F4
100
AcDbEntity
  8
0
100
AcDbLine
 62
7
  6
BYLAYER
 10
107.7961975834
 20
134.8368049391
 11
106.3690343325
 21
134.8368049391
  0
LINE
  5
4F5
100
AcDbEntity
  8
0
100
AcDbLine
 62
7
  6
BYLAYER
 10
105.0895085815
 20
134.8368049391
 11
104.8926593325
 21
134.8368049391
  0
LINE
  5
4F6
100
AcDbEntity
  8
0
100
AcDbLine
 62
7
  6
BYLAYER
 10
118.0816097079
 20
134.8908474858
 11
117.6386972079
 21
134.8908474858
  0
LINE
  5
4F7
100
AcDbEntity
  8
0
100
AcDbLine
 62
7
  6
BYLAYER
 10
116.2607468325
 20
134.8908474858
 11
114.7843718325
 21
134.8908474858
  0
LINE
  5
4F8
100
AcDbEntity
  8
0
100
AcDbLine
 62
7
  6
BYLAYER
 10
113.0127218325
 20
134.8908474858
 11
111.5363468325
 21
134.8908474858
  0
LINE
  5
4F9
100
AcDbEntity
  8
0
100
AcDbLine
 62
7
  6
BYLAYER
 10
122.8552220202
 20
135.1610602196
 11
122.6091593325
 21
135.1610602196
  0
LINE
  5
4FA
100
AcDbEntity
  8
0
100
AcDbLine
 62
7
  6
BYLAYER
 10
120.6898718325
 20
135.1610602196
 11
120.4438097079
 21
135.1610602196
  0
LINE
  5
4FB
100
AcDbEntity
  8
0
100
AcDbLine
 62
7
  6
BYLAYER
 10
105.8276960815
 20
135.1610602196
 11
105.5816350834
 21
135.1610602196
  0
LINE
  5
4FC
100
AcDbEntity
  8
0
100
AcDbLine
 62
7
  6
BYLAYER
 10
117.244996457
 20
135.2151029177
 11
116.949721457
 21
135.2151029177
  0
LINE
  5
4FD
100
AcDbEntity
  8
0
100
AcDbLine
 62
7
  6
BYLAYER
 10
107.0087960815
 20
135.4853156515
 11
107.3040710815
 21
135.4853156515
  0
LINE
  5
4FE
100
AcDbEntity
  8
0
100
AcDbLine
 62
7
  6
BYLAYER
 10
121.0835720202
 20
135.4853156515
 11
121.3296341447
 21
135.4853156515
  0
LINE
  5
4FF
100
AcDbEntity
  8
0
100
AcDbLine
 62
7
  6
BYLAYER
 10
123.2489216447
 20
135.4853156515
 11
123.4949843325
 21
135.4853156515
  0
LINE
  5
500
100
AcDbEntity
  8
0
100
AcDbLine
 62
7
  6
BYLAYER
 10
111.7331972079
 20
135.593400745
 11
113.0127218325
 21
135.593400745
  0
LINE
  5
501
100
AcDbEntity
  8
0
100
AcDbLine
 62
7
  6
BYLAYER
 10
114.9812222079
 20
135.593400745
 11
116.2607468325
 21
135.593400745
  0
LINE
  5
502
100
AcDbEntity
  8
0
100
AcDbLine
 62
7
  6
BYLAYER
 10
109.9123343325
 20
135.6474432917
 11
110.8473710815
 21
135.6474432917
  0
LINE
  5
503
100
AcDbEntity
  8
0
100
AcDbLine
 62
7
  6
BYLAYER
 10
127.6288343325
 20
135.6474432917
 11
128.5638717855
 21
135.6474432917
  0
LINE
  5
504
100
AcDbEntity
  8
0
100
AcDbLine
 62
7
  6
BYLAYER
 10
116.949721457
 20
135.7014858385
 11
117.687908957
 21
135.7014858385
  0
LINE
  5
505
100
AcDbEntity
  8
0
100
AcDbLine
 62
7
  6
BYLAYER
 10
123.5441966447
 20
135.7555283852
 11
123.1997093325
 21
135.7555283852
  0
LINE
  5
506
100
AcDbEntity
  8
0
100
AcDbLine
 62
7
  6
BYLAYER
 10
121.3788470202
 20
135.7555283852
 11
121.0343591447
 21
135.7555283852
  0
LINE
  5
507
100
AcDbEntity
  8
0
100
AcDbLine
 62
7
  6
BYLAYER
 10
107.3040710815
 20
135.7555283852
 11
107.0087960815
 21
135.7555283852
  0
LINE
  5
508
100
AcDbEntity
  8
0
100
AcDbLine
 62
7
  6
BYLAYER
 10
73.9266991608
 20
135.868928632
 11
71.1266991608
 21
135.868928632
  0
LINE
  5
509
100
AcDbEntity
  8
0
100
AcDbLine
 62
7
  6
BYLAYER
 10
116.2607468325
 20
135.9176560255
 11
114.9812222079
 21
135.9176560255
  0
LINE
  5
50A
100
AcDbEntity
  8
0
100
AcDbLine
 62
7
  6
BYLAYER
 10
113.0127218325
 20
135.9176560255
 11
111.7331972079
 21
135.9176560255
  0
LINE
  5
50B
100
AcDbEntity
  8
0
100
AcDbLine
 62
7
  6
BYLAYER
 10
113.701696457
 20
135.9176560255
 11
114.3906722079
 21
135.9176560255
  0
LINE
  5
50C
100
AcDbEntity
  8
0
100
AcDbLine
 62
7
  6
BYLAYER
 10
119.2627097079
 20
135.9176560255
 11
119.9516843325
 21
135.9176560255
  0
LINE
  5
50D
100
AcDbEntity
  8
0
100
AcDbLine
 62
7
  6
BYLAYER
 10
128.5638717855
 20
135.9716985722
 11
127.6780469263
 21
135.9716985722
  0
LINE
  5
50E
100
AcDbEntity
  8
0
100
AcDbLine
 62
7
  6
BYLAYER
 10
110.8473710815
 20
135.9716985722
 11
110.0107600834
 21
135.9716985722
  0
LINE
  5
50F
100
AcDbEntity
  8
0
100
AcDbLine
 62
7
  6
BYLAYER
 10
108.0422585815
 20
135.9716985722
 11
107.6977718325
 21
135.9716985722
  0
LINE
  5
510
100
AcDbEntity
  8
0
100
AcDbLine
 62
7
  6
BYLAYER
 10
117.687908957
 20
136.025741119
 11
117.244996457
 21
136.025741119
  0
LINE
  5
511
100
AcDbEntity
  8
0
100
AcDbLine
 62
7
  6
BYLAYER
 10
119.9516843325
 20
136.1878688349
 11
119.2627097079
 21
136.1878688349
  0
LINE
  5
512
100
AcDbEntity
  8
0
100
AcDbLine
 62
7
  6
BYLAYER
 10
114.3906722079
 20
136.1878688349
 11
113.701696457
 21
136.1878688349
  0
LINE
  5
513
100
AcDbEntity
  8
0
100
AcDbLine
 62
7
  6
BYLAYER
 10
125.2174220202
 20
136.2419113817
 11
126.1032467386
 21
136.2419113817
  0
LINE
  5
514
100
AcDbEntity
  8
0
100
AcDbLine
 62
7
  6
BYLAYER
 10
91.2338093325
 20
141.9298900326
 11
91.1279757973
 21
142.1460602196
  0
LINE
  5
515
100
AcDbEntity
  8
0
100
AcDbLine
 62
7
  6
BYLAYER
 10
92.7154757973
 20
143.7132943402
 11
92.8213093324
 21
143.4971241155
  0
LINE
  5
516
100
AcDbEntity
  8
0
100
AcDbLine
 62
7
  6
BYLAYER
 10
91.1279757973
 20
142.1460602196
 11
91.0750593325
 21
142.3081880112
  0
LINE
  5
517
100
AcDbEntity
  8
0
100
AcDbLine
 62
7
  6
BYLAYER
 10
92.8213093324
 20
143.4971241155
 11
92.8742257973
 21
143.3349964751
  0
LINE
  5
518
100
AcDbEntity
  8
0
100
AcDbLine
 62
7
  6
BYLAYER
 10
95.6788093325
 20
142.1460602196
 11
95.6258925649
 21
142.3081880112
  0
LINE
  5
519
100
AcDbEntity
  8
0
100
AcDbLine
 62
7
  6
BYLAYER
 10
92.8742257973
 20
143.3349964751
 11
92.9271428677
 21
143.0647836657
  0
LINE
  5
51A
100
AcDbEntity
  8
0
100
AcDbLine
 62
7
  6
BYLAYER
 10
95.6258925649
 20
142.3081880112
 11
95.5729761001
 21
142.578400745
  0
LINE
  5
51B
100
AcDbEntity
  8
0
100
AcDbLine
 62
7
  6
BYLAYER
 10
97.4250593325
 20
143.3349964751
 11
97.4779759487
 21
143.0647836657
  0
LINE
  5
51C
100
AcDbEntity
  8
0
100
AcDbLine
 62
7
  6
BYLAYER
 10
97.9542259487
 20
142.3081880112
 11
97.9013093325
 21
142.578400745
  0
LINE
  5
51D
100
AcDbEntity
  8
0
100
AcDbLine
 62
7
  6
BYLAYER
 10
95.8375593325
 20
142.6324432917
 11
95.8904761001
 21
142.3081880112
  0
LINE
  5
51E
100
AcDbEntity
  8
0
100
AcDbLine
 62
7
  6
BYLAYER
 10
97.2133925649
 20
143.010741119
 11
97.1604761001
 21
143.3349964752
  0
LINE
  5
51F
100
AcDbEntity
  8
0
100
AcDbLine
 62
7
  6
BYLAYER
 10
98.1658927163
 20
142.6324432917
 11
98.2188093325
 21
142.3081880112
  0
LINE
  5
520
100
AcDbEntity
  8
0
100
AcDbLine
 62
7
  6
BYLAYER
 10
99.5417260054
 20
143.010741119
 11
99.4888093325
 21
143.3349964752
  0
LINE
  5
521
100
AcDbEntity
  8
0
100
AcDbLine
 62
7
  6
BYLAYER
 10
103.3178585815
 20
135.3231880112
 11
103.2686468325
 21
135.809570932
  0
LINE
  5
522
100
AcDbEntity
  8
0
100
AcDbLine
 62
7
  6
BYLAYER
 10
103.4654960815
 20
135.809570932
 11
103.5147100834
 21
135.3231880112
  0
LINE
  5
523
100
AcDbEntity
  8
0
100
AcDbLine
 62
7
  6
BYLAYER
 10
108.6820225834
 20
136.1878688349
 11
108.6328085815
 21
136.6742517935
  0
LINE
  5
524
100
AcDbEntity
  8
0
100
AcDbLine
 62
7
  6
BYLAYER
 10
108.8296600834
 20
136.6742517935
 11
108.8788718325
 21
136.1878688349
  0
LINE
  5
525
100
AcDbEntity
  8
0
100
AcDbLine
 62
7
  6
BYLAYER
 10
109.132048158
 20
209.1409922054
 11
109.2025368145
 21
201.0637922054
  0
LINE
  5
526
100
AcDbEntity
  8
0
100
AcDbLine
 62
7
  6
BYLAYER
 10
105.8769100834
 20
136.8363794338
 11
105.8769100834
 21
137.1065922054
  0
LINE
  5
527
100
AcDbEntity
  8
0
100
AcDbLine
 62
7
  6
BYLAYER
 10
106.2706085815
 20
136.4040390219
 11
106.2706085815
 21
136.1878688349
  0
LINE
  5
528
100
AcDbEntity
  8
0
100
AcDbLine
 62
7
  6
BYLAYER
 10
106.3690343325
 20
134.8368049391
 11
106.3690343325
 21
134.5665922054
  0
LINE
  5
529
100
AcDbEntity
  8
0
100
AcDbLine
 62
7
  6
BYLAYER
 10
106.5166718325
 20
136.2419113817
 11
106.5166718325
 21
136.3499964752
  0
LINE
  5
52A
100
AcDbEntity
  8
0
100
AcDbLine
 62
7
  6
BYLAYER
 10
107.1723093325
 20
142.0595922054
 11
107.1723093325
 21
142.6818922054
  0
LINE
  5
52B
100
AcDbEntity
  8
0
100
AcDbLine
 62
7
  6
BYLAYER
 10
107.1723093325
 20
143.4692922054
 11
107.1723093325
 21
144.0915922054
  0
LINE
  5
52C
100
AcDbEntity
  8
0
100
AcDbLine
 62
7
  6
BYLAYER
 10
107.7961975834
 20
135.7014858385
 11
107.7961975834
 21
134.8368049391
  0
LINE
  5
52D
100
AcDbEntity
  8
0
100
AcDbLine
 62
7
  6
BYLAYER
 10
108.0422585815
 20
134.5665922054
 11
108.0422585815
 21
135.9716985722
  0
LINE
  5
52E
100
AcDbEntity
  8
0
100
AcDbLine
 62
7
  6
BYLAYER
 10
108.6820225834
 20
136.1878688349
 11
108.6820225834
 21
135.809570932
  0
LINE
  5
52F
100
AcDbEntity
  8
0
100
AcDbLine
 62
7
  6
BYLAYER
 10
108.8788718325
 20
135.809570932
 11
108.8788718325
 21
136.1878688349
  0
LINE
  5
530
100
AcDbEntity
  8
0
100
AcDbLine
 62
7
  6
BYLAYER
 10
109.2065599654
 20
168.643125067
 11
109.2065599654
 21
163.125516256
  0
LINE
  5
531
100
AcDbEntity
  8
0
100
AcDbLine
 62
7
  6
BYLAYER
 10
109.3217843325
 20
135.377230558
 11
109.3217843325
 21
135.1610602196
  0
LINE
  5
532
100
AcDbEntity
  8
0
100
AcDbLine
 62
7
  6
BYLAYER
 10
109.6170593325
 20
135.1610602196
 11
109.6170593325
 21
135.3231880112
  0
LINE
  5
533
100
AcDbEntity
  8
0
100
AcDbLine
 62
7
  6
BYLAYER
 10
110.1695093325
 20
24.6861922054
 11
110.1695093325
 21
26.2101922054
  0
LINE
  5
534
100
AcDbEntity
  8
0
100
AcDbLine
 62
7
  6
BYLAYER
 10
110.1695093325
 20
201.0637922054
 11
110.1695093325
 21
202.5877922054
  0
LINE
  5
535
100
AcDbEntity
  8
0
100
AcDbLine
 62
7
  6
BYLAYER
 10
110.4489093325
 20
168.6493316155
 11
110.4489093325
 21
160.5507922054
  0
LINE
  5
536
100
AcDbEntity
  8
0
100
AcDbLine
 62
7
  6
BYLAYER
 10
110.8473710815
 20
137.1065922054
 11
110.8473710815
 21
135.9716985722
  0
LINE
  5
537
100
AcDbEntity
  8
0
100
AcDbLine
 62
7
  6
BYLAYER
 10
110.8473710815
 20
135.6474432917
 11
110.8473710815
 21
134.8368049391
  0
LINE
  5
538
100
AcDbEntity
  8
0
100
AcDbLine
 62
7
  6
BYLAYER
 10
111.1426460815
 20
134.5665922054
 11
111.1426460815
 21
137.1065922054
  0
LINE
  5
539
100
AcDbEntity
  8
0
100
AcDbLine
 62
7
  6
BYLAYER
 10
111.2363093325
 20
142.6818922054
 11
111.2363093325
 21
143.4692922054
  0
LINE
  5
53A
100
AcDbEntity
  8
0
100
AcDbLine
 62
7
  6
BYLAYER
 10
111.5363468325
 20
134.8908474858
 11
111.5363468325
 21
134.5665922054
  0
LINE
  5
53B
100
AcDbEntity
  8
0
100
AcDbLine
 62
7
  6
BYLAYER
 10
111.7331972079
 20
135.9176560255
 11
111.7331972079
 21
135.593400745
  0
LINE
  5
53C
100
AcDbEntity
  8
0
100
AcDbLine
 62
7
  6
BYLAYER
 10
109.202758477
 20
26.2101922054
 11
109.1322698205
 21
18.1329922054
  0
LINE
  5
53D
100
AcDbEntity
  8
0
100
AcDbLine
 62
7
  6
BYLAYER
 10
108.6328085815
 20
135.3231880112
 11
108.6820225834
 21
135.809570932
  0
LINE
  5
53E
100
AcDbEntity
  8
0
100
AcDbLine
 62
7
  6
BYLAYER
 10
108.8788718325
 20
135.809570932
 11
108.8296600834
 21
135.3231880112
  0
LINE
  5
53F
100
AcDbEntity
  8
0
100
AcDbLine
 62
7
  6
BYLAYER
 10
116.949721457
 20
136.5121241154
 11
116.9989343325
 21
136.7282943402
  0
LINE
  5
540
100
AcDbEntity
  8
0
100
AcDbLine
 62
7
  6
BYLAYER
 10
119.2267264029
 20
142.2541454645
 11
119.2796422621
 21
142.4703156515
  0
LINE
  5
541
100
AcDbEntity
  8
0
100
AcDbLine
 62
7
  6
BYLAYER
 10
117.2942093325
 20
136.6202092089
 11
117.244996457
 21
136.4580815687
  0
LINE
  5
542
100
AcDbEntity
  8
0
100
AcDbLine
 62
7
  6
BYLAYER
 10
119.1738093325
 20
143.4971241154
 11
119.2267264028
 21
143.6592517935
  0
LINE
  5
543
100
AcDbEntity
  8
0
100
AcDbLine
 62
7
  6
BYLAYER
 10
121.5550593325
 20
143.3349964752
 11
121.6079757972
 21
143.4971241153
  0
LINE
  5
544
100
AcDbEntity
  8
0
100
AcDbLine
 62
7
  6
BYLAYER
 10
120.345383957
 20
136.4040390219
 11
120.4438097079
 21
136.6742517935
  0
LINE
  5
545
100
AcDbEntity
  8
0
100
AcDbLine
 62
7
  6
BYLAYER
 10
118.8197972079
 20
135.1610602196
 11
118.721371457
 21
134.9448900326
  0
LINE
  5
546
100
AcDbEntity
  8
0
100
AcDbLine
 62
7
  6
BYLAYER
 10
123.3013093325
 20
142.1460602196
 11
123.1954757973
 21
141.9298900326
  0
LINE
  5
547
100
AcDbEntity
  8
0
100
AcDbLine
 62
7
  6
BYLAYER
 10
126.1588093325
 20
143.4971241154
 11
126.2646425649
 21
143.7132943402
  0
LINE
  5
548
100
AcDbEntity
  8
0
100
AcDbLine
 62
7
  6
BYLAYER
 10
128.4871427162
 20
143.4971241152
 11
128.5929759487
 21
143.7132943403
  0
LINE
  5
549
100
AcDbEntity
  8
0
100
AcDbLine
 62
7
  6
BYLAYER
 10
127.8521427162
 20
142.1460602195
 11
127.7463093325
 21
141.9298900326
  0
LINE
  5
54A
100
AcDbEntity
  8
0
100
AcDbLine
 62
7
  6
BYLAYER
 10
122.9044343325
 20
136.6742517935
 11
122.8060091447
 21
136.5121241154
  0
LINE
  5
54B
100
AcDbEntity
  8
0
100
AcDbLine
 62
7
  6
BYLAYER
 10
123.8394716447
 20
134.9989325793
 11
123.9378968325
 21
135.1610602196
  0
LINE
  5
54C
100
AcDbEntity
  8
0
100
AcDbLine
 62
7
  6
BYLAYER
 10
130.2863093325
 20
135.4312731047
 11
130.1878843295
 21
135.2691454645
  0
LINE
  5
54D
100
AcDbEntity
  8
0
100
AcDbLine
 62
7
  6
BYLAYER
 10
129.7571426784
 20
141.9839325794
 11
129.9688093325
 21
142.3081880112
  0
LINE
  5
54E
100
AcDbEntity
  8
0
100
AcDbLine
 62
7
  6
BYLAYER
 10
127.0874969263
 20
135.5393581982
 11
127.2351344263
 21
135.7555283852
  0
LINE
  5
54F
100
AcDbEntity
  8
0
100
AcDbLine
 62
7
  6
BYLAYER
 10
31.8491453507
 20
25.4614282236
 11
31.0871675649
 21
24.699386301
  0
LINE
  5
550
100
AcDbEntity
  8
0
100
AcDbLine
 62
7
  6
BYLAYER
 10
31.8491453507
 20
25.4614282236
 11
31.2209708851
 21
24.8332537255
  0
LINE
  5
551
100
AcDbEntity
  8
0
100
AcDbLine
 62
7
  6
BYLAYER
 10
30.6675093325
 20
24.2797922054
 11
31.0871675649
 21
24.6994499795
  0
LINE
  5
552
100
AcDbEntity
  8
0
100
AcDbLine
 62
7
  6
BYLAYER
 10
31.1755093325
 20
24.2797922054
 11
32.3571453507
 21
25.4614282236
  0
LINE
  5
553
100
AcDbEntity
  8
0
100
AcDbLine
 62
7
  6
BYLAYER
 10
63.2187515355
 20
77.240755885
 11
63.2280616535
 21
77.2441444908
  0
LINE
  5
554
100
AcDbEntity
  8
0
100
AcDbLine
 62
7
  6
BYLAYER
 10
98.8538093325
 20
141.8218049391
 11
99.1183926406
 21
141.8758474858
  0
LINE
  5
555
100
AcDbEntity
  8
0
100
AcDbLine
 62
7
  6
BYLAYER
 10
96.5254761001
 20
141.8218049391
 11
96.7900593325
 21
141.8758474858
  0
LINE
  5
556
100
AcDbEntity
  8
0
100
AcDbLine
 62
7
  6
BYLAYER
 10
91.9746428677
 20
141.8218049391
 11
92.2392257973
 21
141.8758474858
  0
LINE
  5
557
100
AcDbEntity
  8
0
100
AcDbLine
 62
7
  6
BYLAYER
 10
98.8538093325
 20
143.8213794338
 11
98.5892260244
 21
143.767336887
  0
LINE
  5
558
100
AcDbEntity
  8
0
100
AcDbLine
 62
7
  6
BYLAYER
 10
96.5254761001
 20
143.8213794338
 11
96.2608925649
 21
143.767336887
  0
LINE
  5
559
100
AcDbEntity
  8
0
100
AcDbLine
 62
7
  6
BYLAYER
 10
91.9746428677
 20
143.8213794338
 11
91.7100593325
 21
143.767336887
  0
LINE
  5
55A
100
AcDbEntity
  8
0
100
AcDbLine
 62
7
  6
BYLAYER
 10
122.1371428677
 20
144.0375496539
 11
122.4546428677
 21
144.0915922054
  0
LINE
  5
55B
100
AcDbEntity
  8
0
100
AcDbLine
 62
7
  6
BYLAYER
 10
99.1713093325
 20
141.6056347521
 11
98.8538093325
 21
141.5515922054
  0
LINE
  5
55C
100
AcDbEntity
  8
0
100
AcDbLine
 62
7
  6
BYLAYER
 10
96.8429761001
 20
141.6056347521
 11
96.5254761001
 21
141.5515922054
  0
LINE
  5
55D
100
AcDbEntity
  8
0
100
AcDbLine
 62
7
  6
BYLAYER
 10
92.2921428677
 20
141.6056347521
 11
91.9746428677
 21
141.5515922054
  0
LINE
  5
55E
100
AcDbEntity
  8
0
100
AcDbLine
 62
7
  6
BYLAYER
 10
98.5363093325
 20
144.0375496539
 11
98.8538093325
 21
144.0915922054
  0
LINE
  5
55F
100
AcDbEntity
  8
0
100
AcDbLine
 62
7
  6
BYLAYER
 10
96.2079761
 20
144.0375496539
 11
96.5254761001
 21
144.0915922054
  0
LINE
  5
560
100
AcDbEntity
  8
0
100
AcDbLine
 62
7
  6
BYLAYER
 10
91.6571428676
 20
144.0375496539
 11
91.9746428677
 21
144.0915922054
  0
LINE
  5
561
100
AcDbEntity
  8
0
100
AcDbLine
 62
7
  6
BYLAYER
 10
126.1524593325
 20
136.4580815687
 11
125.1682091447
 21
136.4580815687
  0
LINE
  5
562
100
AcDbEntity
  8
0
100
AcDbLine
 62
7
  6
BYLAYER
 10
107.7469835815
 20
136.4580815687
 11
108.0422585815
 21
136.4580815687
  0
LINE
  5
563
100
AcDbEntity
  8
0
100
AcDbLine
 62
7
  6
BYLAYER
 10
117.6386972079
 20
136.782336887
 11
118.0816097079
 21
136.782336887
  0
LINE
  5
564
100
AcDbEntity
  8
0
100
AcDbLine
 62
7
  6
BYLAYER
 10
104.1052600834
 20
136.8363794338
 11
105.4832093325
 21
136.8363794338
  0
LINE
  5
565
100
AcDbEntity
  8
0
100
AcDbLine
 62
7
  6
BYLAYER
 10
107.0087960815
 20
136.8363794338
 11
107.3040710815
 21
136.8363794338
  0
LINE
  5
566
100
AcDbEntity
  8
0
100
AcDbLine
 62
7
  6
BYLAYER
 10
121.0343591447
 20
136.8363794338
 11
121.3788470202
 21
136.8363794338
  0
LINE
  5
567
100
AcDbEntity
  8
0
100
AcDbLine
 62
7
  6
BYLAYER
 10
123.1997093325
 20
136.8363794338
 11
123.5441966447
 21
136.8363794338
  0
LINE
  5
568
100
AcDbEntity
  8
0
100
AcDbLine
 62
7
  6
BYLAYER
 10
128.8591467855
 20
137.1065922054
 11
128.5638717855
 21
137.1065922054
  0
LINE
  5
569
100
AcDbEntity
  8
0
100
AcDbLine
 62
7
  6
BYLAYER
 10
126.6445844263
 20
137.1065922054
 11
126.3493094263
 21
137.1065922054
  0
LINE
  5
56A
100
AcDbEntity
  8
0
100
AcDbLine
 62
7
  6
BYLAYER
 10
124.9713593325
 20
137.1065922054
 11
124.6760843325
 21
137.1065922054
  0
LINE
  5
56B
100
AcDbEntity
  8
0
100
AcDbLine
 62
7
  6
BYLAYER
 10
123.4949843325
 20
137.1065922054
 11
123.2489216447
 21
137.1065922054
  0
LINE
  5
56C
100
AcDbEntity
  8
0
100
AcDbLine
 62
7
  6
BYLAYER
 10
121.3296341447
 20
137.1065922054
 11
121.0835720202
 21
137.1065922054
  0
LINE
  5
56D
100
AcDbEntity
  8
0
100
AcDbLine
 62
7
  6
BYLAYER
 10
118.0816097079
 20
137.1065922054
 11
117.6386972079
 21
137.1065922054
  0
LINE
  5
56E
100
AcDbEntity
  8
0
100
AcDbLine
 62
7
  6
BYLAYER
 10
116.5560218325
 20
137.1065922054
 11
116.2607468325
 21
137.1065922054
  0
LINE
  5
56F
100
AcDbEntity
  8
0
100
AcDbLine
 62
7
  6
BYLAYER
 10
113.3079968325
 20
137.1065922054
 11
113.0127218325
 21
137.1065922054
  0
LINE
  5
570
100
AcDbEntity
  8
0
100
AcDbLine
 62
7
  6
BYLAYER
 10
111.1426460815
 20
137.1065922054
 11
110.8473710815
 21
137.1065922054
  0
LINE
  5
571
100
AcDbEntity
  8
0
100
AcDbLine
 62
7
  6
BYLAYER
 10
109.6170593325
 20
137.1065922054
 11
109.2725725834
 21
137.1065922054
  0
LINE
  5
572
100
AcDbEntity
  8
0
100
AcDbLine
 62
7
  6
BYLAYER
 10
107.3040710815
 20
137.1065922054
 11
107.0087960815
 21
137.1065922054
  0
LINE
  5
573
100
AcDbEntity
  8
0
100
AcDbLine
 62
7
  6
BYLAYER
 10
105.8769100834
 20
137.1065922054
 11
104.1052600834
 21
137.1065922054
  0
LINE
  5
574
100
AcDbEntity
  8
0
100
AcDbLine
 62
7
  6
BYLAYER
 10
71.1266991608
 20
137.4279026536
 11
73.9266991608
 21
137.4279026536
  0
LINE
  5
575
100
AcDbEntity
  8
0
100
AcDbLine
 62
7
  6
BYLAYER
 10
108.6328085815
 20
137.4308475237
 11
108.4359593325
 21
137.4308475237
  0
LINE
  5
576
100
AcDbEntity
  8
0
100
AcDbLine
 62
7
  6
BYLAYER
 10
103.7115593325
 20
137.4308475237
 11
103.5147100834
 21
137.4308475237
  0
LINE
  5
577
100
AcDbEntity
  8
0
100
AcDbLine
 62
7
  6
BYLAYER
 10
131.5563093325
 20
137.4875922054
 11
99.8063093325
 21
137.4875922054
  0
LINE
  5
578
100
AcDbEntity
  8
0
100
AcDbLine
 62
7
  6
BYLAYER
 10
69.9766991601
 20
139.9993922054
 11
75.0767195049
 21
139.9993922054
  0
LINE
  5
579
100
AcDbEntity
  8
0
100
AcDbLine
 62
7
  6
BYLAYER
 10
85.8363093325
 20
141.1705922054
 11
101.0763093325
 21
141.1705922054
  0
LINE
  5
57A
100
AcDbEntity
  8
0
100
AcDbLine
 62
7
  6
BYLAYER
 10
116.3163093325
 20
141.1705922054
 11
131.5563093325
 21
141.1705922054
  0
LINE
  5
57B
100
AcDbEntity
  8
0
100
AcDbLine
 62
7
  6
BYLAYER
 10
89.0113093325
 20
141.5515922054
 11
89.3288093325
 21
141.5515922054
  0
LINE
  5
57C
100
AcDbEntity
  8
0
100
AcDbLine
 62
7
  6
BYLAYER
 10
94.5146428677
 20
141.5515922054
 11
94.8321425649
 21
141.5515922054
  0
LINE
  5
57D
100
AcDbEntity
  8
0
100
AcDbLine
 62
7
  6
BYLAYER
 10
120.0733922621
 20
141.5515922054
 11
120.1792257973
 21
141.5515922054
  0
LINE
  5
57E
100
AcDbEntity
  8
0
100
AcDbLine
 62
7
  6
BYLAYER
 10
124.9946428677
 20
141.5515922054
 11
125.3121425649
 21
141.5515922054
  0
LINE
  5
57F
100
AcDbEntity
  8
0
100
AcDbLine
 62
7
  6
BYLAYER
 10
120.2321428677
 20
141.8218049391
 11
120.0204764029
 21
141.8218049391
  0
LINE
  5
580
100
AcDbEntity
  8
0
100
AcDbLine
 62
7
  6
BYLAYER
 10
121.0258928677
 20
142.1460602196
 11
120.7613093325
 21
142.1460602196
  0
LINE
  5
581
100
AcDbEntity
  8
0
100
AcDbLine
 62
7
  6
BYLAYER
 10
107.1723093325
 20
142.6818922054
 11
111.2363093325
 21
142.6818922054
  0
LINE
  5
582
100
AcDbEntity
  8
0
100
AcDbLine
 62
7
  6
BYLAYER
 10
120.0204764029
 20
142.6864858385
 11
120.2321428677
 21
142.6864858385
  0
LINE
  5
583
100
AcDbEntity
  8
0
100
AcDbLine
 62
7
  6
BYLAYER
 10
120.2321428677
 20
142.9026560255
 11
120.0204764029
 21
142.9026560255
  0
LINE
  5
584
100
AcDbEntity
  8
0
100
AcDbLine
 62
7
  6
BYLAYER
 10
93.3504757973
 20
142.9026560255
 11
94.0913093325
 21
142.9026560255
  0
LINE
  5
585
100
AcDbEntity
  8
0
100
AcDbLine
 62
7
  6
BYLAYER
 10
123.8304757973
 20
142.9026560255
 11
124.5713093325
 21
142.9026560255
  0
LINE
  5
586
100
AcDbEntity
  8
0
100
AcDbLine
 62
7
  6
BYLAYER
 10
88.4821422621
 20
143.010741119
 11
89.0113093325
 21
143.010741119
  0
LINE
  5
587
100
AcDbEntity
  8
0
100
AcDbLine
 62
7
  6
BYLAYER
 10
89.3288093325
 20
143.010741119
 11
90.2283928677
 21
143.010741119
  0
LINE
  5
588
100
AcDbEntity
  8
0
100
AcDbLine
 62
7
  6
BYLAYER
 10
62.1471173565
 20
143.0353455359
 11
73.1527306576
 21
143.0353455359
  0
LINE
  5
589
100
AcDbEntity
  8
0
100
AcDbLine
 62
7
  6
BYLAYER
 10
124.5713093325
 20
143.1728688349
 11
123.8304757973
 21
143.1728688349
  0
LINE
  5
58A
100
AcDbEntity
  8
0
100
AcDbLine
 62
7
  6
BYLAYER
 10
94.0913093325
 20
143.1728688349
 11
93.3504757973
 21
143.1728688349
  0
LINE
  5
58B
100
AcDbEntity
  8
0
100
AcDbLine
 62
7
  6
BYLAYER
 10
90.5988093325
 20
143.3349964752
 11
89.3288093325
 21
143.3349964752
  0
LINE
  5
58C
100
AcDbEntity
  8
0
100
AcDbLine
 62
7
  6
BYLAYER
 10
89.0113093325
 20
143.3349964752
 11
88.4821422621
 21
143.3349964752
  0
LINE
  5
58D
100
AcDbEntity
  8
0
100
AcDbLine
 62
7
  6
BYLAYER
 10
111.2363093325
 20
143.4692922054
 11
107.1723093325
 21
143.4692922054
  0
LINE
  5
58E
100
AcDbEntity
  8
0
100
AcDbLine
 62
7
  6
BYLAYER
 10
120.8142257973
 20
143.4971241154
 11
121.0788093325
 21
143.4971241154
  0
LINE
  5
58F
100
AcDbEntity
  8
0
100
AcDbLine
 62
7
  6
BYLAYER
 10
62.3725754181
 20
143.6637122054
 11
72.9271955666
 21
143.6637122054
  0
LINE
  5
590
100
AcDbEntity
  8
0
100
AcDbLine
 62
7
  6
BYLAYER
 10
134.3757093325
 20
143.6637122054
 11
134.4763093325
 21
143.6637122054
  0
LINE
  5
591
100
AcDbEntity
  8
0
100
AcDbLine
 62
7
  6
BYLAYER
 10
91.9746428677
 20
141.5515922054
 11
91.6571428676
 21
141.6056347521
  0
LINE
  5
592
100
AcDbEntity
  8
0
100
AcDbLine
 62
7
  6
BYLAYER
 10
96.5254761001
 20
141.5515922054
 11
96.2079761
 21
141.6056347521
  0
LINE
  5
593
100
AcDbEntity
  8
0
100
AcDbLine
 62
7
  6
BYLAYER
 10
104.8434475834
 20
134.5665922054
 11
104.5481725834
 21
134.6206347521
  0
LINE
  5
594
100
AcDbEntity
  8
0
100
AcDbLine
 62
7
  6
BYLAYER
 10
91.7100593325
 20
141.8758474858
 11
91.9746428677
 21
141.8218049391
  0
LINE
  5
595
100
AcDbEntity
  8
0
100
AcDbLine
 62
7
  6
BYLAYER
 10
104.6465960815
 20
134.8908474858
 11
104.8926593325
 21
134.8368049391
  0
LINE
  5
596
100
AcDbEntity
  8
0
100
AcDbLine
 62
7
  6
BYLAYER
 10
109.9615460815
 20
134.5665922054
 11
109.7154850834
 21
134.6206347521
  0
LINE
  5
597
100
AcDbEntity
  8
0
100
AcDbLine
 62
7
  6
BYLAYER
 10
107.0087960815
 20
135.4853156515
 11
106.7627350834
 21
135.5393581982
  0
LINE
  5
598
100
AcDbEntity
  8
0
100
AcDbLine
 62
7
  6
BYLAYER
 10
117.6386972079
 20
134.5665922054
 11
117.392633957
 21
134.6206347521
  0
LINE
  5
599
100
AcDbEntity
  8
0
100
AcDbLine
 62
7
  6
BYLAYER
 10
107.3040710815
 20
137.1065922054
 11
107.5501343325
 21
137.0525496539
  0
LINE
  5
59A
100
AcDbEntity
  8
0
100
AcDbLine
 62
7
  6
BYLAYER
 10
121.1327843325
 20
134.5665922054
 11
120.8867216447
 21
134.6206347521
  0
LINE
  5
59B
100
AcDbEntity
  8
0
100
AcDbLine
 62
7
  6
BYLAYER
 10
123.2981345202
 20
134.5665922054
 11
123.0520718325
 21
134.6206347521
  0
LINE
  5
59C
100
AcDbEntity
  8
0
100
AcDbLine
 62
7
  6
BYLAYER
 10
121.0835720202
 20
135.4853156515
 11
120.8375093325
 21
135.5393581982
  0
LINE
  5
59D
100
AcDbEntity
  8
0
100
AcDbLine
 62
7
  6
BYLAYER
 10
106.8119468325
 20
135.809570932
 11
107.0087960815
 21
135.7555283852
  0
LINE
  5
59E
100
AcDbEntity
  8
0
100
AcDbLine
 62
7
  6
BYLAYER
 10
107.5009225834
 20
136.782336887
 11
107.3040710815
 21
136.8363794338
  0
LINE
  5
59F
100
AcDbEntity
  8
0
100
AcDbLine
 62
7
  6
BYLAYER
 10
117.4418468325
 20
134.9448900326
 11
117.6386972079
 21
134.8908474858
  0
LINE
  5
5A0
100
AcDbEntity
  8
0
100
AcDbLine
 62
7
  6
BYLAYER
 10
109.7646968325
 20
134.8908474858
 11
109.9123343325
 21
134.8368049391
  0
LINE
  5
5A1
100
AcDbEntity
  8
0
100
AcDbLine
 62
7
  6
BYLAYER
 10
104.5481725834
 20
134.6206347521
 11
104.3513210816
 21
134.7287198456
  0
LINE
  5
5A2
100
AcDbEntity
  8
0
100
AcDbLine
 62
7
  6
BYLAYER
 10
102.5304593325
 20
135.809570932
 11
101.8414835815
 21
136.1878688349
  0
LINE
  5
5A3
100
AcDbEntity
  8
0
100
AcDbLine
 62
7
  6
BYLAYER
 10
101.9399093325
 20
136.3499964752
 11
102.8749460816
 21
135.809570932
  0
LINE
  5
5A4
100
AcDbEntity
  8
0
100
AcDbLine
 62
7
  6
BYLAYER
 10
91.6571428676
 20
141.6056347521
 11
91.3925593325
 21
141.7677623923
  0
LINE
  5
5A5
100
AcDbEntity
  8
0
100
AcDbLine
 62
7
  6
BYLAYER
 10
91.5513093325
 20
141.9839325793
 11
91.7100593325
 21
141.8758474858
  0
LINE
  5
5A6
100
AcDbEntity
  8
0
100
AcDbLine
 62
7
  6
BYLAYER
 10
31.0871675649
 20
202.5491980795
 11
31.8491453507
 21
201.7871561871
  0
LINE
  5
5A7
100
AcDbEntity
  8
0
100
AcDbLine
 62
7
  6
BYLAYER
 10
31.2251069387
 20
202.4111947379
 11
31.8491453507
 21
201.7871561871
  0
LINE
  5
5A8
100
AcDbEntity
  8
0
100
AcDbLine
 62
7
  6
BYLAYER
 10
30.6675093325
 20
202.9687922054
 11
31.0871671115
 21
202.5491980795
  0
LINE
  5
5A9
100
AcDbEntity
  8
0
100
AcDbLine
 62
7
  6
BYLAYER
 10
32.3571453507
 20
201.7871561871
 11
31.1755093325
 21
202.9687922054
  0
LINE
  5
5AA
100
AcDbEntity
  8
0
100
AcDbLine
 62
7
  6
BYLAYER
 10
91.3925593325
 20
141.7677623923
 11
91.2338093325
 21
141.9298900326
  0
LINE
  5
5AB
100
AcDbEntity
  8
0
100
AcDbLine
 62
7
  6
BYLAYER
 10
92.5567257973
 20
143.8754219994
 11
92.7154757973
 21
143.7132943402
  0
LINE
  5
5AC
100
AcDbEntity
  8
0
100
AcDbLine
 62
7
  6
BYLAYER
 10
95.9433925649
 20
141.7677623923
 11
95.7846425649
 21
141.9298900326
  0
LINE
  5
5AD
100
AcDbEntity
  8
0
100
AcDbLine
 62
7
  6
BYLAYER
 10
91.3396428677
 20
142.3081880112
 11
91.5513093325
 21
141.9839325793
  0
LINE
  5
5AE
100
AcDbEntity
  8
0
100
AcDbLine
 62
7
  6
BYLAYER
 10
92.6096428677
 20
143.3349964752
 11
92.3979757973
 21
143.6592517935
  0
LINE
  5
5AF
100
AcDbEntity
  8
0
100
AcDbLine
 62
7
  6
BYLAYER
 10
95.8904761001
 20
142.3081880112
 11
96.1021425649
 21
141.9839325793
  0
LINE
  5
5B0
100
AcDbEntity
  8
0
100
AcDbLine
 62
7
  6
BYLAYER
 10
97.1604761001
 20
143.3349964752
 11
96.9488093325
 21
143.6592517935
  0
LINE
  5
5B1
100
AcDbEntity
  8
0
100
AcDbLine
 62
7
  6
BYLAYER
 10
98.2188093325
 20
142.3081880112
 11
98.4304759487
 21
141.9839325793
  0
LINE
  5
5B2
100
AcDbEntity
  8
0
100
AcDbLine
 62
7
  6
BYLAYER
 10
101.9399093325
 20
135.2691454645
 11
101.8414835815
 21
135.4312731047
  0
LINE
  5
5B3
100
AcDbEntity
  8
0
100
AcDbLine
 62
7
  6
BYLAYER
 10
95.7846425649
 20
141.9298900326
 11
95.6788093325
 21
142.1460602196
  0
LINE
  5
5B4
100
AcDbEntity
  8
0
100
AcDbLine
 62
7
  6
BYLAYER
 10
98.1129759487
 20
141.9298900326
 11
98.0071427163
 21
142.1460602196
  0
LINE
  5
5B5
100
AcDbEntity
  8
0
100
AcDbLine
 62
7
  6
BYLAYER
 10
97.2663093325
 20
143.7132943402
 11
97.3721427163
 21
143.4971241155
  0
LINE
  5
5B6
100
AcDbEntity
  8
0
100
AcDbLine
 62
7
  6
BYLAYER
 10
99.5946426595
 20
143.7132943402
 11
99.700475996
 21
143.4971241155
  0
LINE
  5
5B7
100
AcDbEntity
  8
0
100
AcDbLine
 62
7
  6
BYLAYER
 10
103.5147100834
 20
134.5665922054
 11
103.4162843325
 21
134.8368049391
  0
LINE
  5
5B8
100
AcDbEntity
  8
0
100
AcDbLine
 62
7
  6
BYLAYER
 10
103.6131335815
 20
134.8368049391
 11
103.7115593325
 21
134.5665922054
  0
LINE
  5
5B9
100
AcDbEntity
  8
0
100
AcDbLine
 62
7
  6
BYLAYER
 10
97.3721427163
 20
143.4971241155
 11
97.4250593325
 21
143.3349964751
  0
LINE
  5
5BA
100
AcDbEntity
  8
0
100
AcDbLine
 62
7
  6
BYLAYER
 10
98.0071427163
 20
142.1460602196
 11
97.9542259487
 21
142.3081880112
  0
LINE
  5
5BB
100
AcDbEntity
  8
0
100
AcDbLine
 62
7
  6
BYLAYER
 10
99.700475996
 20
143.4971241155
 11
99.7533926642
 21
143.3349964751
  0
LINE
  5
5BC
100
AcDbEntity
  8
0
100
AcDbLine
 62
7
  6
BYLAYER
 10
106.5166718325
 20
136.2419113817
 11
106.5658835815
 21
136.0797836657
  0
LINE
  5
5BD
100
AcDbEntity
  8
0
100
AcDbLine
 62
7
  6
BYLAYER
 10
104.1544718325
 20
134.9448900326
 11
104.1052600834
 21
135.1610602196
  0
LINE
  5
5BE
100
AcDbEntity
  8
0
100
AcDbLine
 62
7
  6
BYLAYER
 10
103.4162843325
 20
134.8368049391
 11
103.3178585815
 21
135.3231880112
  0
LINE
  5
5BF
100
AcDbEntity
  8
0
100
AcDbLine
 62
7
  6
BYLAYER
 10
103.5147100834
 20
135.3231880112
 11
103.6131335815
 21
134.8368049391
  0
LINE
  5
5C0
100
AcDbEntity
  8
0
100
AcDbLine
 62
7
  6
BYLAYER
 10
99.7533926642
 20
143.3349964751
 11
99.8063093325
 21
143.0647836657
  0
LINE
  5
5C1
100
AcDbEntity
  8
0
100
AcDbLine
 62
7
  6
BYLAYER
 10
112.4555093325
 20
204.8737922054
 11
112.4555093325
 21
201.0637922054
  0
LINE
  5
5C2
100
AcDbEntity
  8
0
100
AcDbLine
 62
7
  6
BYLAYER
 10
112.4555093325
 20
26.2101922054
 11
112.4555093325
 21
22.4001922054
  0
LINE
  5
5C3
100
AcDbEntity
  8
0
100
AcDbLine
 62
7
  6
BYLAYER
 10
113.0127218325
 20
137.1065922054
 11
113.0127218325
 21
135.9176560255
  0
LINE
  5
5C4
100
AcDbEntity
  8
0
100
AcDbLine
 62
7
  6
BYLAYER
 10
113.0127218325
 20
135.593400745
 11
113.0127218325
 21
134.8908474858
  0
LINE
  5
5C5
100
AcDbEntity
  8
0
100
AcDbLine
 62
7
  6
BYLAYER
 10
113.1187909442
 20
55.9281949466
 11
113.1187909442
 21
56.1471302387
  0
LINE
  5
5C6
100
AcDbEntity
  8
0
100
AcDbLine
 62
7
  6
BYLAYER
 10
113.3079968325
 20
134.5665922054
 11
113.3079968325
 21
137.1065922054
  0
LINE
  5
5C7
100
AcDbEntity
  8
0
100
AcDbLine
 62
7
  6
BYLAYER
 10
113.701696457
 20
136.1878688349
 11
113.701696457
 21
135.9176560255
  0
LINE
  5
5C8
100
AcDbEntity
  8
0
100
AcDbLine
 62
7
  6
BYLAYER
 10
114.3906722079
 20
135.9176560255
 11
114.3906722079
 21
136.1878688349
  0
LINE
  5
5C9
100
AcDbEntity
  8
0
100
AcDbLine
 62
7
  6
BYLAYER
 10
114.7843718325
 20
134.8908474858
 11
114.7843718325
 21
134.5665922054
  0
LINE
  5
5CA
100
AcDbEntity
  8
0
100
AcDbLine
 62
7
  6
BYLAYER
 10
114.9812222079
 20
135.9176560255
 11
114.9812222079
 21
135.593400745
  0
LINE
  5
5CB
100
AcDbEntity
  8
0
100
AcDbLine
 62
7
  6
BYLAYER
 10
116.2607468325
 20
137.1065922054
 11
116.2607468325
 21
135.9176560255
  0
LINE
  5
5CC
100
AcDbEntity
  8
0
100
AcDbLine
 62
7
  6
BYLAYER
 10
116.2607468325
 20
135.593400745
 11
116.2607468325
 21
134.8908474858
  0
LINE
  5
5CD
100
AcDbEntity
  8
0
100
AcDbLine
 62
7
  6
BYLAYER
 10
116.3163093325
 20
144.4725922054
 11
116.3163093325
 21
141.1705922054
  0
LINE
  5
5CE
100
AcDbEntity
  8
0
100
AcDbLine
 62
7
  6
BYLAYER
 10
116.5560218325
 20
134.5665922054
 11
116.5560218325
 21
137.1065922054
  0
LINE
  5
5CF
100
AcDbEntity
  8
0
100
AcDbLine
 62
7
  6
BYLAYER
 10
116.949721457
 20
136.5121241154
 11
116.949721457
 21
135.7014858385
  0
LINE
  5
5D0
100
AcDbEntity
  8
0
100
AcDbLine
 62
7
  6
BYLAYER
 10
117.244996457
 20
136.025741119
 11
117.244996457
 21
136.4580815687
  0
LINE
  5
5D1
100
AcDbEntity
  8
0
100
AcDbLine
 62
7
  6
BYLAYER
 10
117.687908957
 20
135.7014858385
 11
117.687908957
 21
136.025741119
  0
LINE
  5
5D2
100
AcDbEntity
  8
0
100
AcDbLine
 62
7
  6
BYLAYER
 10
118.573733957
 20
136.2419113817
 11
118.573733957
 21
135.4312731047
  0
LINE
  5
5D3
100
AcDbEntity
  8
0
100
AcDbLine
 62
7
  6
BYLAYER
 10
118.869008957
 20
135.4312731047
 11
118.869008957
 21
136.2419113817
  0
LINE
  5
5D4
100
AcDbEntity
  8
0
100
AcDbLine
 62
7
  6
BYLAYER
 10
119.1738093325
 20
143.4971241154
 11
119.1738093325
 21
143.2809539284
  0
LINE
  5
5D5
100
AcDbEntity
  8
0
100
AcDbLine
 62
7
  6
BYLAYER
 10
119.2267264029
 20
142.2541454645
 11
119.2267264029
 21
142.1460602196
  0
LINE
  5
5D6
100
AcDbEntity
  8
0
100
AcDbLine
 62
7
  6
BYLAYER
 10
119.2627097079
 20
136.1878688349
 11
119.2627097079
 21
135.9176560255
  0
LINE
  5
5D7
100
AcDbEntity
  8
0
100
AcDbLine
 62
7
  6
BYLAYER
 10
119.4383922621
 20
143.2809539284
 11
119.4383922621
 21
143.4971241154
  0
LINE
  5
5D8
100
AcDbEntity
  8
0
100
AcDbLine
 62
7
  6
BYLAYER
 10
122.1170345202
 20
135.6474432917
 11
122.0678216447
 21
135.2691454645
  0
LINE
  5
5D9
100
AcDbEntity
  8
0
100
AcDbLine
 62
7
  6
BYLAYER
 10
121.8217595202
 20
135.3231880112
 11
121.8709718325
 21
135.6474432917
  0
LINE
  5
5DA
100
AcDbEntity
  8
0
100
AcDbLine
 62
7
  6
BYLAYER
 10
121.8196428677
 20
143.3349964752
 11
121.7667257973
 21
143.010741119
  0
LINE
  5
5DB
100
AcDbEntity
  8
0
100
AcDbLine
 62
7
  6
BYLAYER
 10
123.0896428677
 20
142.3081880113
 11
123.1425593325
 21
142.6324432917
  0
LINE
  5
5DC
100
AcDbEntity
  8
0
100
AcDbLine
 62
7
  6
BYLAYER
 10
118.869008957
 20
135.4312731047
 11
118.8197972079
 21
135.1610602196
  0
LINE
  5
5DD
100
AcDbEntity
  8
0
100
AcDbLine
 62
7
  6
BYLAYER
 10
121.5021428677
 20
143.0647836657
 11
121.5550593325
 21
143.3349964752
  0
LINE
  5
5DE
100
AcDbEntity
  8
0
100
AcDbLine
 62
7
  6
BYLAYER
 10
123.4071428677
 20
142.578400745
 11
123.3542257973
 21
142.3081880112
  0
LINE
  5
5DF
100
AcDbEntity
  8
0
100
AcDbLine
 62
7
  6
BYLAYER
 10
118.5245222079
 20
135.2151029177
 11
118.573733957
 21
135.4312731047
  0
LINE
  5
5E0
100
AcDbEntity
  8
0
100
AcDbLine
 62
7
  6
BYLAYER
 10
121.0258928677
 20
142.1460602196
 11
120.9729757973
 21
141.9298900326
  0
LINE
  5
5E1
100
AcDbEntity
  8
0
100
AcDbLine
 62
7
  6
BYLAYER
 10
120.640658957
 20
136.5121241154
 11
120.5914472079
 21
136.3499964752
  0
LINE
  5
5E2
100
AcDbEntity
  8
0
100
AcDbLine
 62
7
  6
BYLAYER
 10
121.7725466447
 20
136.025741119
 11
121.8217595202
 21
136.1878688349
  0
LINE
  5
5E3
100
AcDbEntity
  8
0
100
AcDbLine
 62
7
  6
BYLAYER
 10
121.7725466447
 20
135.1610602196
 11
121.8217595202
 21
135.3231880112
  0
LINE
  5
5E4
100
AcDbEntity
  8
0
100
AcDbLine
 62
7
  6
BYLAYER
 10
122.8060091447
 20
136.5121241154
 11
122.7567968325
 21
136.3499964752
  0
LINE
  5
5E5
100
AcDbEntity
  8
0
100
AcDbLine
 62
7
  6
BYLAYER
 10
123.9378968325
 20
136.025741119
 11
123.9871091447
 21
136.1878688349
  0
LINE
  5
5E6
100
AcDbEntity
  8
0
100
AcDbLine
 62
7
  6
BYLAYER
 10
123.9378968325
 20
135.1610602196
 11
123.9871091447
 21
135.3231880112
  0
LINE
  5
5E7
100
AcDbEntity
  8
0
100
AcDbLine
 62
7
  6
BYLAYER
 10
126.1524593325
 20
136.4580815687
 11
126.3493094263
 21
137.1065922054
  0
LINE
  5
5E8
100
AcDbEntity
  8
0
100
AcDbLine
 62
7
  6
BYLAYER
 10
125.6603342386
 20
134.7827623923
 11
126.1032467386
 21
136.2419113817
  0
LINE
  5
5E9
100
AcDbEntity
  8
0
100
AcDbLine
 62
7
  6
BYLAYER
 10
127.0382843325
 20
135.377230558
 11
127.0874969263
 21
135.5393581982
  0
LINE
  5
5EA
100
AcDbEntity
  8
0
100
AcDbLine
 62
7
  6
BYLAYER
 10
127.3827719264
 20
135.4853156515
 11
127.3335593325
 21
135.3231880112
  0
LINE
  5
5EB
100
AcDbEntity
  8
0
100
AcDbLine
 62
7
  6
BYLAYER
 10
126.6445844263
 20
137.1065922054
 11
125.8571843325
 21
134.5665922054
  0
LINE
  5
5EC
100
AcDbEntity
  8
0
100
AcDbLine
 62
7
  6
BYLAYER
 10
123.3542257973
 20
142.3081880112
 11
123.3013093325
 21
142.1460602196
  0
LINE
  5
5ED
100
AcDbEntity
  8
0
100
AcDbLine
 62
7
  6
BYLAYER
 10
126.1058925649
 20
143.3349964752
 11
126.1588093325
 21
143.4971241154
  0
LINE
  5
5EE
100
AcDbEntity
  8
0
100
AcDbLine
 62
7
  6
BYLAYER
 10
127.9050593325
 20
142.3081880113
 11
127.8521427162
 21
142.1460602195
  0
LINE
  5
5EF
100
AcDbEntity
  8
0
100
AcDbLine
 62
7
  6
BYLAYER
 10
128.4342259487
 20
143.3349964752
 11
128.4871427162
 21
143.4971241152
  0
LINE
  5
5F0
100
AcDbEntity
  8
0
100
AcDbLine
 62
7
  6
BYLAYER
 10
130.2333926642
 20
142.3081880113
 11
130.180475996
 21
142.1460602196
  0
LINE
  5
5F1
100
AcDbEntity
  8
0
100
AcDbLine
 62
7
  6
BYLAYER
 10
122.0678216447
 20
135.2691454645
 11
121.9693970202
 21
134.9989325793
  0
LINE
  5
5F2
100
AcDbEntity
  8
0
100
AcDbLine
 62
7
  6
BYLAYER
 10
122.5107341447
 20
136.4040390219
 11
122.6091593325
 21
136.6742517935
  0
LINE
  5
5F3
100
AcDbEntity
  8
0
100
AcDbLine
 62
7
  6
BYLAYER
 10
124.2331718325
 20
135.2691454645
 11
124.1347466447
 21
134.9989325793
  0
LINE
  5
5F4
100
AcDbEntity
  8
0
100
AcDbLine
 62
7
  6
BYLAYER
 10
130.180475996
 20
142.1460602196
 11
130.0746426595
 21
141.9298900326
  0
LINE
  5
5F5
100
AcDbEntity
  8
0
100
AcDbLine
 62
7
  6
BYLAYER
 10
98.0714024845
 20
75.1564825374
 11
97.8605005865
 21
74.9051394428
  0
LINE
  5
5F6
100
AcDbEntity
  8
0
100
AcDbLine
 62
7
  6
BYLAYER
 10
100.9824161804
 20
78.2543018732
 11
101.1933180784
 21
78.5056449679
  0
LINE
  5
5F7
100
AcDbEntity
  8
0
100
AcDbLine
 62
7
  6
BYLAYER
 10
66.4307093325
 20
55.3693922054
 11
66.158472953
 21
55.0971558258
  0
LINE
  5
5F8
100
AcDbEntity
  8
0
100
AcDbLine
 62
7
  6
BYLAYER
 10
100.6976114134
 20
89.6362398843
 11
100.7069215314
 21
89.6455500023
  0
LINE
  5
5F9
100
AcDbEntity
  8
0
100
AcDbLine
 62
7
  6
BYLAYER
 10
101.3325570114
 20
89.0012942863
 11
101.3418671294
 21
89.0106044043
  0
LINE
  5
5FA
100
AcDbEntity
  8
0
100
AcDbLine
 62
7
  6
BYLAYER
 10
62.6207093325
 20
46.7699397867
 11
62.892945712
 21
47.0421761662
  0
LINE
  5
5FB
100
AcDbEntity
  8
0
100
AcDbLine
 62
7
  6
BYLAYER
 10
65.8326671294
 20
74.9592068756
 11
65.8233570114
 21
74.9558182698
  0
LINE
  5
5FC
100
AcDbEntity
  8
0
100
AcDbLine
 62
7
  6
BYLAYER
 10
66.3313570114
 20
73.8882048487
 11
66.3406671294
 21
73.8915934545
  0
LINE
  5
5FD
100
AcDbEntity
  8
0
100
AcDbLine
 62
7
  6
BYLAYER
 10
119.9675593325
 20
143.8213794338
 11
120.2850593325
 21
143.8213794338
  0
LINE
  5
5FE
100
AcDbEntity
  8
0
100
AcDbLine
 62
7
  6
BYLAYER
 10
125.3121425649
 20
144.0915922054
 11
124.9946428677
 21
144.0915922054
  0
LINE
  5
5FF
100
AcDbEntity
  8
0
100
AcDbLine
 62
7
  6
BYLAYER
 10
120.3379757973
 20
144.0915922054
 11
119.9146422621
 21
144.0915922054
  0
LINE
  5
600
100
AcDbEntity
  8
0
100
AcDbLine
 62
7
  6
BYLAYER
 10
94.8321425649
 20
144.0915922054
 11
94.5146428677
 21
144.0915922054
  0
LINE
  5
601
100
AcDbEntity
  8
0
100
AcDbLine
 62
7
  6
BYLAYER
 10
89.3288093325
 20
144.0915922054
 11
89.0113093325
 21
144.0915922054
  0
LINE
  5
602
100
AcDbEntity
  8
0
100
AcDbLine
 62
7
  6
BYLAYER
 10
131.5563093325
 20
144.4725922054
 11
116.3163093325
 21
144.4725922054
  0
LINE
  5
603
100
AcDbEntity
  8
0
100
AcDbLine
 62
7
  6
BYLAYER
 10
101.0763093325
 20
144.4725922054
 11
85.8363093325
 21
144.4725922054
  0
LINE
  5
604
100
AcDbEntity
  8
0
100
AcDbLine
 62
7
  6
BYLAYER
 10
69.0469093325
 20
145.8695922054
 11
66.2529093325
 21
145.8695922054
  0
LINE
  5
605
100
AcDbEntity
  8
0
100
AcDbLine
 62
7
  6
BYLAYER
 10
126.4763093325
 20
148.2825922054
 11
131.5563093325
 21
148.2825922054
  0
LINE
  5
606
100
AcDbEntity
  8
0
100
AcDbLine
 62
7
  6
BYLAYER
 10
100.5258522938
 20
148.527320716
 11
99.9906785632
 21
148.527320716
  0
LINE
  5
607
100
AcDbEntity
  8
0
100
AcDbLine
 62
7
  6
BYLAYER
 10
127.9050593325
 20
148.6635922054
 11
128.2225593325
 21
148.6635922054
  0
LINE
  5
608
100
AcDbEntity
  8
0
100
AcDbLine
 62
7
  6
BYLAYER
 10
129.6513093325
 20
148.6635922054
 11
129.9688093325
 21
148.6635922054
  0
LINE
  5
609
100
AcDbEntity
  8
0
100
AcDbLine
 62
7
  6
BYLAYER
 10
134.6763093325
 20
149.6637122054
 11
134.3757093325
 21
149.6637122054
  0
LINE
  5
60A
100
AcDbEntity
  8
0
100
AcDbLine
 62
7
  6
BYLAYER
 10
128.9633927163
 20
150.9333794338
 11
129.2279760244
 21
150.9333794338
  0
LINE
  5
60B
100
AcDbEntity
  8
0
100
AcDbLine
 62
7
  6
BYLAYER
 10
120.0733922621
 20
141.5515922054
 11
119.7029764028
 21
141.6056347521
  0
LINE
  5
60C
100
AcDbEntity
  8
0
100
AcDbLine
 62
7
  6
BYLAYER
 10
98.8538093325
 20
141.5515922054
 11
98.5363093324
 21
141.6056347521
  0
LINE
  5
60D
100
AcDbEntity
  8
0
100
AcDbLine
 62
7
  6
BYLAYER
 10
91.9746428677
 20
144.0915922054
 11
92.2921428677
 21
144.0375496539
  0
LINE
  5
60E
100
AcDbEntity
  8
0
100
AcDbLine
 62
7
  6
BYLAYER
 10
96.5254761001
 20
144.0915922054
 11
96.8429761001
 21
144.0375496539
  0
LINE
  5
60F
100
AcDbEntity
  8
0
100
AcDbLine
 62
7
  6
BYLAYER
 10
98.8538093325
 20
144.0915922054
 11
99.1713093325
 21
144.0375496539
  0
LINE
  5
610
100
AcDbEntity
  8
0
100
AcDbLine
 62
7
  6
BYLAYER
 10
122.4546428677
 20
141.5515922054
 11
122.1371428677
 21
141.6056347521
  0
LINE
  5
611
100
AcDbEntity
  8
0
100
AcDbLine
 62
7
  6
BYLAYER
 10
127.0054761001
 20
141.5515922054
 11
126.6879761001
 21
141.6056347521
  0
LINE
  5
612
100
AcDbEntity
  8
0
100
AcDbLine
 62
7
  6
BYLAYER
 10
119.7029764029
 20
142.9566985722
 11
120.0204764029
 21
142.9026560255
  0
LINE
  5
613
100
AcDbEntity
  8
0
100
AcDbLine
 62
7
  6
BYLAYER
 10
129.3338093325
 20
141.5515922054
 11
129.0163093325
 21
141.6056347521
  0
LINE
  5
614
100
AcDbEntity
  8
0
100
AcDbLine
 62
7
  6
BYLAYER
 10
122.4546428677
 20
144.0915922054
 11
122.7721428677
 21
144.0375496539
  0
LINE
  5
615
100
AcDbEntity
  8
0
100
AcDbLine
 62
7
  6
BYLAYER
 10
96.2608925649
 20
141.8758474858
 11
96.5254761001
 21
141.8218049391
  0
LINE
  5
616
100
AcDbEntity
  8
0
100
AcDbLine
 62
7
  6
BYLAYER
 10
98.5892260244
 20
141.8758474858
 11
98.8538093325
 21
141.8218049391
  0
LINE
  5
617
100
AcDbEntity
  8
0
100
AcDbLine
 62
7
  6
BYLAYER
 10
92.2392257973
 20
143.767336887
 11
91.9746428677
 21
143.8213794338
  0
LINE
  5
618
100
AcDbEntity
  8
0
100
AcDbLine
 62
7
  6
BYLAYER
 10
96.7900593325
 20
143.767336887
 11
96.5254761001
 21
143.8213794338
  0
LINE
  5
619
100
AcDbEntity
  8
0
100
AcDbLine
 62
7
  6
BYLAYER
 10
99.1183926406
 20
143.767336887
 11
98.8538093325
 21
143.8213794338
  0
LINE
  5
61A
100
AcDbEntity
  8
0
100
AcDbLine
 62
7
  6
BYLAYER
 10
119.7558922621
 20
141.8758474858
 11
120.0204764029
 21
141.8218049391
  0
LINE
  5
61B
100
AcDbEntity
  8
0
100
AcDbLine
 62
7
  6
BYLAYER
 10
122.1900593325
 20
141.8758474858
 11
122.4546428677
 21
141.8218049391
  0
LINE
  5
61C
100
AcDbEntity
  8
0
100
AcDbLine
 62
7
  6
BYLAYER
 10
126.7408925649
 20
141.8758474858
 11
127.0054761001
 21
141.8218049391
  0
LINE
  5
61D
100
AcDbEntity
  8
0
100
AcDbLine
 62
7
  6
BYLAYER
 10
129.0692260244
 20
141.8758474858
 11
129.3338093325
 21
141.8218049391
  0
LINE
  5
61E
100
AcDbEntity
  8
0
100
AcDbLine
 62
7
  6
BYLAYER
 10
120.5496428677
 20
143.767336887
 11
120.2850593325
 21
143.8213794338
  0
LINE
  5
61F
100
AcDbEntity
  8
0
100
AcDbLine
 62
7
  6
BYLAYER
 10
123.2489216447
 20
135.4853156515
 11
123.0028595202
 21
135.5393581982
  0
LINE
  5
620
100
AcDbEntity
  8
0
100
AcDbLine
 62
7
  6
BYLAYER
 10
127.6780469263
 20
134.5665922054
 11
127.4319842386
 21
134.6206347521
  0
LINE
  5
621
100
AcDbEntity
  8
0
100
AcDbLine
 62
7
  6
BYLAYER
 10
118.0816097079
 20
137.1065922054
 11
118.3276718324
 21
137.0525496539
  0
LINE
  5
622
100
AcDbEntity
  8
0
100
AcDbLine
 62
7
  6
BYLAYER
 10
121.3296341447
 20
137.1065922054
 11
121.5756968325
 21
137.0525496539
  0
LINE
  5
623
100
AcDbEntity
  8
0
100
AcDbLine
 62
7
  6
BYLAYER
 10
123.4949843325
 20
137.1065922054
 11
123.7410470202
 21
137.0525496539
  0
LINE
  5
624
100
AcDbEntity
  8
0
100
AcDbLine
 62
7
  6
BYLAYER
 10
118.278458957
 20
136.7282943403
 11
118.0816097079
 21
136.782336887
  0
LINE
  5
625
100
AcDbEntity
  8
0
100
AcDbLine
 62
7
  6
BYLAYER
 10
120.9359345202
 20
134.8908474858
 11
121.0835720202
 21
134.8368049391
  0
LINE
  5
626
100
AcDbEntity
  8
0
100
AcDbLine
 62
7
  6
BYLAYER
 10
123.1012841447
 20
134.8908474858
 11
123.2489216447
 21
134.8368049391
  0
LINE
  5
627
100
AcDbEntity
  8
0
100
AcDbLine
 62
7
  6
BYLAYER
 10
120.8867216448
 20
135.809570932
 11
121.0343591447
 21
135.7555283852
  0
LINE
  5
628
100
AcDbEntity
  8
0
100
AcDbLine
 62
7
  6
BYLAYER
 10
123.0520718325
 20
135.809570932
 11
123.1997093325
 21
135.7555283852
  0
LINE
  5
629
100
AcDbEntity
  8
0
100
AcDbLine
 62
7
  6
BYLAYER
 10
121.5264845202
 20
136.782336887
 11
121.3788470202
 21
136.8363794338
  0
LINE
  5
62A
100
AcDbEntity
  8
0
100
AcDbLine
 62
7
  6
BYLAYER
 10
127.4811968325
 20
134.8908474858
 11
127.6288343325
 21
134.8368049391
  0
LINE
  5
62B
100
AcDbEntity
  8
0
100
AcDbLine
 62
7
  6
BYLAYER
 10
123.6918341447
 20
136.782336887
 11
123.5441966447
 21
136.8363794338
  0
LINE
  5
62C
100
AcDbEntity
  8
0
100
AcDbLine
 62
7
  6
BYLAYER
 10
117.392633957
 20
134.6206347521
 11
117.1957847079
 21
134.7287198456
  0
LINE
  5
62D
100
AcDbEntity
  8
0
100
AcDbLine
 62
7
  6
BYLAYER
 10
96.2079761
 20
141.6056347521
 11
95.9433925649
 21
141.7677623923
  0
LINE
  5
62E
100
AcDbEntity
  8
0
100
AcDbLine
 62
7
  6
BYLAYER
 10
92.2921428677
 20
144.0375496539
 11
92.5567257973
 21
143.8754219994
  0
LINE
  5
62F
100
AcDbEntity
  8
0
100
AcDbLine
 62
7
  6
BYLAYER
 10
98.5363093324
 20
141.6056347521
 11
98.2717259487
 21
141.7677623923
  0
LINE
  5
630
100
AcDbEntity
  8
0
100
AcDbLine
 62
7
  6
BYLAYER
 10
96.8429761001
 20
144.0375496539
 11
97.1075593325
 21
143.8754219994
  0
LINE
  5
631
100
AcDbEntity
  8
0
100
AcDbLine
 62
7
  6
BYLAYER
 10
99.1713093325
 20
144.0375496539
 11
99.4358926784
 21
143.8754219995
  0
LINE
  5
632
100
AcDbEntity
  8
0
100
AcDbLine
 62
7
  6
BYLAYER
 10
106.7627350834
 20
135.5393581982
 11
106.5166718325
 21
135.7014858385
  0
LINE
  5
633
100
AcDbEntity
  8
0
100
AcDbLine
 62
7
  6
BYLAYER
 10
107.5501343325
 20
137.0525496539
 11
107.7961975834
 21
136.8904219994
  0
LINE
  5
634
100
AcDbEntity
  8
0
100
AcDbLine
 62
7
  6
BYLAYER
 10
92.3979757973
 20
143.6592517935
 11
92.2392257973
 21
143.767336887
  0
LINE
  5
635
100
AcDbEntity
  8
0
100
AcDbLine
 62
7
  6
BYLAYER
 10
96.1021425649
 20
141.9839325793
 11
96.2608925649
 21
141.8758474858
  0
LINE
  5
636
100
AcDbEntity
  8
0
100
AcDbLine
 62
7
  6
BYLAYER
 10
98.4304759487
 20
141.9839325793
 11
98.5892260244
 21
141.8758474858
  0
LINE
  5
637
100
AcDbEntity
  8
0
100
AcDbLine
 62
7
  6
BYLAYER
 10
96.9488093325
 20
143.6592517935
 11
96.7900593325
 21
143.767336887
  0
LINE
  5
638
100
AcDbEntity
  8
0
100
AcDbLine
 62
7
  6
BYLAYER
 10
99.2771426784
 20
143.6592517935
 11
99.1183926406
 21
143.767336887
  0
LINE
  5
639
100
AcDbEntity
  8
0
100
AcDbLine
 62
7
  6
BYLAYER
 10
104.4989585815
 20
134.9989325793
 11
104.6465960815
 21
134.8908474858
  0
LINE
  5
63A
100
AcDbEntity
  8
0
100
AcDbLine
 62
7
  6
BYLAYER
 10
106.6643093325
 20
135.9176560255
 11
106.8119468325
 21
135.809570932
  0
LINE
  5
63B
100
AcDbEntity
  8
0
100
AcDbLine
 62
7
  6
BYLAYER
 10
107.6485600834
 20
136.6742517935
 11
107.5009225834
 21
136.782336887
  0
LINE
  5
63C
100
AcDbEntity
  8
0
100
AcDbLine
 62
7
  6
BYLAYER
 10
109.7154850834
 20
134.6206347521
 11
109.5186335815
 21
134.7827623924
  0
LINE
  5
63D
100
AcDbEntity
  8
0
100
AcDbLine
 62
7
  6
BYLAYER
 10
66.4307093325
 20
171.8791922053
 11
66.158472953
 21
172.1514285849
  0
LINE
  5
63E
100
AcDbEntity
  8
0
100
AcDbLine
 62
7
  6
BYLAYER
 10
62.6207093325
 20
180.453244624
 11
62.892945712
 21
180.1810082445
  0
LINE
  5
63F
100
AcDbEntity
  8
0
100
AcDbLine
 62
7
  6
BYLAYER
 10
98.2717259487
 20
141.7677623923
 11
98.1129759487
 21
141.9298900326
  0
LINE
  5
640
100
AcDbEntity
  8
0
100
AcDbLine
 62
7
  6
BYLAYER
 10
97.1075593325
 20
143.8754219994
 11
97.2663093325
 21
143.7132943402
  0
LINE
  5
641
100
AcDbEntity
  8
0
100
AcDbLine
 62
7
  6
BYLAYER
 10
99.4358926784
 20
143.8754219995
 11
99.5946426595
 21
143.7132943402
  0
LINE
  5
642
100
AcDbEntity
  8
0
100
AcDbLine
 62
7
  6
BYLAYER
 10
104.3513210816
 20
134.7287198456
 11
104.1544718325
 21
134.9448900326
  0
LINE
  5
643
100
AcDbEntity
  8
0
100
AcDbLine
 62
7
  6
BYLAYER
 10
109.6662710815
 20
134.9989325793
 11
109.7646968325
 21
134.8908474858
  0
LINE
  5
644
100
AcDbEntity
  8
0
100
AcDbLine
 62
7
  6
BYLAYER
 10
106.5166718325
 20
135.7014858385
 11
106.3690343325
 21
135.9176560255
  0
LINE
  5
645
100
AcDbEntity
  8
0
100
AcDbLine
 62
7
  6
BYLAYER
 10
107.7961975834
 20
136.8904219994
 11
107.9438350834
 21
136.6742517935
  0
LINE
  5
646
100
AcDbEntity
  8
0
100
AcDbLine
 62
7
  6
BYLAYER
 10
109.5186335815
 20
134.7827623924
 11
109.3709960815
 21
134.9989325793
  0
LINE
  5
647
100
AcDbEntity
  8
0
100
AcDbLine
 62
7
  6
BYLAYER
 10
99.4888093325
 20
143.3349964752
 11
99.2771426784
 21
143.6592517935
  0
LINE
  5
648
100
AcDbEntity
  8
0
100
AcDbLine
 62
7
  6
BYLAYER
 10
104.4005350834
 20
135.1610602196
 11
104.4989585815
 21
134.9989325793
  0
LINE
  5
649
100
AcDbEntity
  8
0
100
AcDbLine
 62
7
  6
BYLAYER
 10
106.5658835815
 20
136.0797836657
 11
106.6643093325
 21
135.9176560255
  0
LINE
  5
64A
100
AcDbEntity
  8
0
100
AcDbLine
 62
7
  6
BYLAYER
 10
107.7469835815
 20
136.4580815687
 11
107.6485600834
 21
136.6742517935
  0
LINE
  5
64B
100
AcDbEntity
  8
0
100
AcDbLine
 62
7
  6
BYLAYER
 10
107.9438350834
 20
136.6742517935
 11
108.0422585815
 21
136.4580815687
  0
LINE
  5
64C
100
AcDbEntity
  8
0
100
AcDbLine
 62
7
  6
BYLAYER
 10
106.3690343325
 20
135.9176560255
 11
106.2706085815
 21
136.1878688349
  0
LINE
  5
64D
100
AcDbEntity
  8
0
100
AcDbLine
 62
7
  6
BYLAYER
 10
108.5343850834
 20
137.1606347568
 11
108.4359593325
 21
137.4308475237
  0
LINE
  5
64E
100
AcDbEntity
  8
0
100
AcDbLine
 62
7
  6
BYLAYER
 10
108.6328085815
 20
137.4308475237
 11
108.7312343325
 21
137.1606347568
  0
LINE
  5
64F
100
AcDbEntity
  8
0
100
AcDbLine
 62
7
  6
BYLAYER
 10
109.7154850834
 20
135.8636134787
 11
109.2725725834
 21
137.1065922054
  0
LINE
  5
650
100
AcDbEntity
  8
0
100
AcDbLine
 62
7
  6
BYLAYER
 10
109.6170593325
 20
137.1065922054
 11
110.0107600834
 21
135.9716985722
  0
LINE
  5
651
100
AcDbEntity
  8
0
100
AcDbLine
 62
7
  6
BYLAYER
 10
109.3709960815
 20
134.9989325793
 11
109.3217843325
 21
135.1610602196
  0
LINE
  5
652
100
AcDbEntity
  8
0
100
AcDbLine
 62
7
  6
BYLAYER
 10
109.6170593325
 20
135.1610602196
 11
109.6662710815
 21
134.9989325793
  0
LINE
  5
653
100
AcDbEntity
  8
0
100
AcDbLine
 62
7
  6
BYLAYER
 10
108.6328085815
 20
136.6742517935
 11
108.5343850834
 21
137.1606347568
  0
LINE
  5
654
100
AcDbEntity
  8
0
100
AcDbLine
 62
7
  6
BYLAYER
 10
108.7312343325
 20
137.1606347568
 11
108.8296600834
 21
136.6742517935
  0
LINE
  5
655
100
AcDbEntity
  8
0
100
AcDbLine
 62
7
  6
BYLAYER
 10
124.9227488445
 20
18.1329922054
 11
124.852260188
 21
26.2101922054
  0
LINE
  5
656
100
AcDbEntity
  8
0
100
AcDbLine
 62
7
  6
BYLAYER
 10
119.4913093325
 20
142.1460602196
 11
119.4913093325
 21
142.2541454645
  0
LINE
  5
657
100
AcDbEntity
  8
0
100
AcDbLine
 62
7
  6
BYLAYER
 10
119.9516843325
 20
135.9176560255
 11
119.9516843325
 21
136.1878688349
  0
LINE
  5
658
100
AcDbEntity
  8
0
100
AcDbLine
 62
7
  6
BYLAYER
 10
120.2321428677
 20
142.6864858385
 11
120.2321428677
 21
142.9026560255
  0
LINE
  5
659
100
AcDbEntity
  8
0
100
AcDbLine
 62
7
  6
BYLAYER
 10
120.345383957
 20
136.4040390219
 11
120.345383957
 21
136.1338262125
  0
LINE
  5
65A
100
AcDbEntity
  8
0
100
AcDbLine
 62
7
  6
BYLAYER
 10
120.5914472079
 20
136.1878688349
 11
120.5914472079
 21
136.3499964752
  0
LINE
  5
65B
100
AcDbEntity
  8
0
100
AcDbLine
 62
7
  6
BYLAYER
 10
121.5021428677
 20
143.0647836657
 11
121.5021428677
 21
142.578400745
  0
LINE
  5
65C
100
AcDbEntity
  8
0
100
AcDbLine
 62
7
  6
BYLAYER
 10
121.5712277207
 20
55.9281949466
 11
121.5712277207
 21
56.1471302387
  0
LINE
  5
65D
100
AcDbEntity
  8
0
100
AcDbLine
 62
7
  6
BYLAYER
 10
121.5995093325
 20
22.4001922054
 11
121.5995093325
 21
26.2101922054
  0
LINE
  5
65E
100
AcDbEntity
  8
0
100
AcDbLine
 62
7
  6
BYLAYER
 10
121.5995093325
 20
201.0637922054
 11
121.5995093325
 21
204.8737922054
  0
LINE
  5
65F
100
AcDbEntity
  8
0
100
AcDbLine
 62
7
  6
BYLAYER
 10
121.7667257973
 20
142.6324432917
 11
121.7667257973
 21
143.010741119
  0
LINE
  5
660
100
AcDbEntity
  8
0
100
AcDbLine
 62
7
  6
BYLAYER
 10
121.8217595202
 20
136.3499964752
 11
121.8217595202
 21
136.1878688349
  0
LINE
  5
661
100
AcDbEntity
  8
0
100
AcDbLine
 62
7
  6
BYLAYER
 10
121.8709718325
 20
135.7555283852
 11
121.8709718325
 21
135.6474432917
  0
LINE
  5
662
100
AcDbEntity
  8
0
100
AcDbLine
 62
7
  6
BYLAYER
 10
122.1170345202
 20
135.6474432917
 11
122.1170345202
 21
136.025741119
  0
LINE
  5
663
100
AcDbEntity
  8
0
100
AcDbLine
 62
7
  6
BYLAYER
 10
122.5107341447
 20
136.4040390219
 11
122.5107341447
 21
136.1338262125
  0
LINE
  5
664
100
AcDbEntity
  8
0
100
AcDbLine
 62
7
  6
BYLAYER
 10
122.7567968325
 20
136.1878688349
 11
122.7567968325
 21
136.3499964752
  0
LINE
  5
665
100
AcDbEntity
  8
0
100
AcDbLine
 62
7
  6
BYLAYER
 10
123.1425593325
 20
143.010741119
 11
123.1425593325
 21
142.6324432917
  0
LINE
  5
666
100
AcDbEntity
  8
0
100
AcDbLine
 62
7
  6
BYLAYER
 10
123.1489093325
 20
171.4821649773
 11
123.1489093325
 21
171.5489821452
  0
LINE
  5
667
100
AcDbEntity
  8
0
100
AcDbLine
 62
7
  6
BYLAYER
 10
123.1808322148
 20
171.562432433
 11
123.1808322148
 21
171.4891973693
  0
LINE
  5
668
100
AcDbEntity
  8
0
100
AcDbLine
 62
7
  6
BYLAYER
 10
123.4071428677
 20
142.578400745
 11
123.4071428677
 21
143.0647836657
  0
LINE
  5
669
100
AcDbEntity
  8
0
100
AcDbLine
 62
7
  6
BYLAYER
 10
123.6061093325
 20
160.5507922053
 11
123.6061093325
 21
168.6493316155
  0
LINE
  5
66A
100
AcDbEntity
  8
0
100
AcDbLine
 62
7
  6
BYLAYER
 10
123.8304757973
 20
143.1728688349
 11
123.8304757973
 21
142.9026560255
  0
LINE
  5
66B
100
AcDbEntity
  8
0
100
AcDbLine
 62
7
  6
BYLAYER
 10
123.8855093325
 20
202.5877922054
 11
123.8855093325
 21
201.0637922054
  0
LINE
  5
66C
100
AcDbEntity
  8
0
100
AcDbLine
 62
7
  6
BYLAYER
 10
123.8855093325
 20
26.2101922054
 11
123.8855093325
 21
24.6861922054
  0
LINE
  5
66D
100
AcDbEntity
  8
0
100
AcDbLine
 62
7
  6
BYLAYER
 10
123.9871091447
 20
136.3499964752
 11
123.9871091447
 21
136.1878688349
  0
LINE
  5
66E
100
AcDbEntity
  8
0
100
AcDbLine
 62
7
  6
BYLAYER
 10
124.0363220202
 20
135.7555283852
 11
124.0363220202
 21
135.6474432917
  0
LINE
  5
66F
100
AcDbEntity
  8
0
100
AcDbLine
 62
7
  6
BYLAYER
 10
124.2823841447
 20
135.6474432917
 11
124.2823841447
 21
136.025741119
  0
LINE
  5
670
100
AcDbEntity
  8
0
100
AcDbLine
 62
7
  6
BYLAYER
 10
124.5713093325
 20
142.9026560255
 11
124.5713093325
 21
143.1728688349
  0
LINE
  5
671
100
AcDbEntity
  8
0
100
AcDbLine
 62
7
  6
BYLAYER
 10
124.8484586996
 20
163.125516256
 11
124.8484586996
 21
168.6431250671
  0
LINE
  5
672
100
AcDbEntity
  8
0
100
AcDbLine
 62
7
  6
BYLAYER
 10
124.9946428677
 20
144.0915922054
 11
124.9946428677
 21
141.5515922054
  0
LINE
  5
673
100
AcDbEntity
  8
0
100
AcDbLine
 62
7
  6
BYLAYER
 10
125.3121425649
 20
141.9839325794
 11
125.3121425649
 21
144.0915922054
  0
LINE
  5
674
100
AcDbEntity
  8
0
100
AcDbLine
 62
7
  6
BYLAYER
 10
125.6296425649
 20
141.9298900326
 11
125.6296425649
 21
142.362230558
  0
LINE
  5
675
100
AcDbEntity
  8
0
100
AcDbLine
 62
7
  6
BYLAYER
 10
126.0529761001
 20
143.0647836657
 11
126.0529761001
 21
142.578400745
  0
LINE
  5
676
100
AcDbEntity
  8
0
100
AcDbLine
 62
7
  6
BYLAYER
 10
126.3175593325
 20
142.6324432917
 11
126.3175593325
 21
143.010741119
  0
LINE
  5
677
100
AcDbEntity
  8
0
100
AcDbLine
 62
7
  6
BYLAYER
 10
126.4763093325
 20
151.5845922054
 11
126.4763093325
 21
148.2825922054
  0
LINE
  5
678
100
AcDbEntity
  8
0
100
AcDbLine
 62
7
  6
BYLAYER
 10
126.6751672644
 20
168.8194822982
 11
126.6751672644
 21
167.6711501373
  0
LINE
  5
679
100
AcDbEntity
  8
0
100
AcDbLine
 62
7
  6
BYLAYER
 10
124.8524818504
 20
201.0637922054
 11
124.9229705069
 21
209.1409922054
  0
LINE
  5
67A
100
AcDbEntity
  8
0
100
AcDbLine
 62
7
  6
BYLAYER
 10
133.3851093325
 20
182.7256324849
 11
133.4565758196
 21
183.4420988728
  0
LINE
  5
67B
100
AcDbEntity
  8
0
100
AcDbLine
 62
7
  6
BYLAYER
 10
124.2823841447
 20
135.6474432917
 11
124.2331718325
 21
135.2691454645
  0
LINE
  5
67C
100
AcDbEntity
  8
0
100
AcDbLine
 62
7
  6
BYLAYER
 10
123.9871091447
 20
135.3231880112
 11
124.0363220202
 21
135.6474432917
  0
LINE
  5
67D
100
AcDbEntity
  8
0
100
AcDbLine
 62
7
  6
BYLAYER
 10
126.3704761001
 20
143.3349964752
 11
126.3175593325
 21
143.010741119
  0
LINE
  5
67E
100
AcDbEntity
  8
0
100
AcDbLine
 62
7
  6
BYLAYER
 10
127.6404761001
 20
142.3081880112
 11
127.6933925649
 21
142.6324432917
  0
LINE
  5
67F
100
AcDbEntity
  8
0
100
AcDbLine
 62
7
  6
BYLAYER
 10
128.6988093325
 20
143.3349964752
 11
128.6458927163
 21
143.0107411189
  0
LINE
  5
680
100
AcDbEntity
  8
0
100
AcDbLine
 62
7
  6
BYLAYER
 10
129.9688093325
 20
142.3081880112
 11
130.0217260054
 21
142.6324432918
  0
LINE
  5
681
100
AcDbEntity
  8
0
100
AcDbLine
 62
7
  6
BYLAYER
 10
126.0529761001
 20
143.0647836657
 11
126.1058925649
 21
143.3349964752
  0
LINE
  5
682
100
AcDbEntity
  8
0
100
AcDbLine
 62
7
  6
BYLAYER
 10
127.9579759487
 20
142.578400745
 11
127.9050593325
 21
142.3081880113
  0
LINE
  5
683
100
AcDbEntity
  8
0
100
AcDbLine
 62
7
  6
BYLAYER
 10
128.3813093325
 20
143.0647836657
 11
128.4342259487
 21
143.3349964752
  0
LINE
  5
684
100
AcDbEntity
  8
0
100
AcDbLine
 62
7
  6
BYLAYER
 10
130.2863093325
 20
142.578400745
 11
130.2333926642
 21
142.3081880113
  0
LINE
  5
685
100
AcDbEntity
  8
0
100
AcDbLine
 62
7
  6
BYLAYER
 10
63.1602174896
 20
35.1189713478
 11
62.9524617512
 21
34.9112156094
  0
LINE
  5
686
100
AcDbEntity
  8
0
100
AcDbLine
 62
7
  6
BYLAYER
 10
63.7144327365
 20
34.149244624
 11
63.9221884749
 21
34.3570003625
  0
LINE
  5
687
100
AcDbEntity
  8
0
100
AcDbLine
 62
7
  6
BYLAYER
 10
98.2199515355
 20
77.84616671
 11
98.2292616535
 21
77.8495553159
  0
LINE
  5
688
100
AcDbEntity
  8
0
100
AcDbLine
 62
7
  6
BYLAYER
 10
100.8338671294
 20
75.5646177007
 11
100.8245570114
 21
75.5612290949
  0
LINE
  5
689
100
AcDbEntity
  8
0
100
AcDbLine
 62
7
  6
BYLAYER
 10
129.9688093325
 20
151.2035922054
 11
129.6513093325
 21
151.2035922054
  0
LINE
  5
68A
100
AcDbEntity
  8
0
100
AcDbLine
 62
7
  6
BYLAYER
 10
129.2279760244
 20
151.2035922054
 11
128.9633927163
 21
151.2035922054
  0
LINE
  5
68B
100
AcDbEntity
  8
0
100
AcDbLine
 62
7
  6
BYLAYER
 10
128.2225593325
 20
151.2035922054
 11
127.9050593325
 21
151.2035922054
  0
LINE
  5
68C
100
AcDbEntity
  8
0
100
AcDbLine
 62
7
  6
BYLAYER
 10
131.5563093325
 20
151.5845922054
 11
126.4763093325
 21
151.5845922054
  0
LINE
  5
68D
100
AcDbEntity
  8
0
100
AcDbLine
 62
7
  6
BYLAYER
 10
99.9105100232
 20
152.0900108577
 11
99.1433086417
 21
152.0900108577
  0
LINE
  5
68E
100
AcDbEntity
  8
0
100
AcDbLine
 62
7
  6
BYLAYER
 10
64.1421086418
 20
152.0900108577
 11
64.9093100231
 21
152.0900108577
  0
LINE
  5
68F
100
AcDbEntity
  8
0
100
AcDbLine
 62
7
  6
BYLAYER
 10
133.1193606099
 20
154.6101131179
 11
129.755830245
 21
154.6101131179
  0
LINE
  5
690
100
AcDbEntity
  8
0
100
AcDbLine
 62
7
  6
BYLAYER
 10
34.2967884199
 20
154.6101131179
 11
30.933258055
 21
154.6101131179
  0
LINE
  5
691
100
AcDbEntity
  8
0
100
AcDbLine
 62
7
  6
BYLAYER
 10
31.9883093325
 20
154.6579922054
 11
34.2489093325
 21
154.6579922054
  0
LINE
  5
692
100
AcDbEntity
  8
0
100
AcDbLine
 62
7
  6
BYLAYER
 10
129.8037093325
 20
154.6579922054
 11
132.0643093325
 21
154.6579922054
  0
LINE
  5
693
100
AcDbEntity
  8
0
100
AcDbLine
 62
7
  6
BYLAYER
 10
102.7394415082
 20
154.9094108577
 11
100.4184906802
 21
154.9094108577
  0
LINE
  5
694
100
AcDbEntity
  8
0
100
AcDbLine
 62
7
  6
BYLAYER
 10
98.6353279848
 20
154.9094108577
 11
96.3143771567
 21
154.9094108577
  0
LINE
  5
695
100
AcDbEntity
  8
0
100
AcDbLine
 62
7
  6
BYLAYER
 10
61.3131771567
 20
154.9094108577
 11
63.1077275139
 21
154.9094108577
  0
LINE
  5
696
100
AcDbEntity
  8
0
100
AcDbLine
 62
7
  6
BYLAYER
 10
65.943691151
 20
154.9094108577
 11
67.7382415081
 21
154.9094108577
  0
LINE
  5
697
100
AcDbEntity
  8
0
100
AcDbLine
 62
7
  6
BYLAYER
 10
127.0054761001
 20
144.0915922054
 11
127.3229761001
 21
144.0375496539
  0
LINE
  5
698
100
AcDbEntity
  8
0
100
AcDbLine
 62
7
  6
BYLAYER
 10
129.3338093325
 20
144.0915922054
 11
129.6513093325
 21
144.0375496539
  0
LINE
  5
699
100
AcDbEntity
  8
0
100
AcDbLine
 62
7
  6
BYLAYER
 10
122.7192257973
 20
143.767336887
 11
122.4546428677
 21
143.8213794338
  0
LINE
  5
69A
100
AcDbEntity
  8
0
100
AcDbLine
 62
7
  6
BYLAYER
 10
127.2700593325
 20
143.767336887
 11
127.0054761001
 21
143.8213794338
  0
LINE
  5
69B
100
AcDbEntity
  8
0
100
AcDbLine
 62
7
  6
BYLAYER
 10
129.5983926405
 20
143.767336887
 11
129.3338093325
 21
143.8213794338
  0
LINE
  5
69C
100
AcDbEntity
  8
0
100
AcDbLine
 62
7
  6
BYLAYER
 10
120.3379757973
 20
144.0915922054
 11
120.5496428676
 21
144.0375496539
  0
LINE
  5
69D
100
AcDbEntity
  8
0
100
AcDbLine
 62
7
  6
BYLAYER
 10
119.5971422621
 20
142.794570932
 11
119.3325593325
 21
142.9026560255
  0
LINE
  5
69E
100
AcDbEntity
  8
0
100
AcDbLine
 62
7
  6
BYLAYER
 10
119.7029764028
 20
141.6056347521
 11
119.4913093325
 21
141.7137198456
  0
LINE
  5
69F
100
AcDbEntity
  8
0
100
AcDbLine
 62
7
  6
BYLAYER
 10
120.6554757973
 20
143.7132943403
 11
120.5496428677
 21
143.767336887
  0
LINE
  5
6A0
100
AcDbEntity
  8
0
100
AcDbLine
 62
7
  6
BYLAYER
 10
120.5496428676
 20
144.0375496539
 11
120.7613093325
 21
143.9294645462
  0
LINE
  5
6A1
100
AcDbEntity
  8
0
100
AcDbLine
 62
7
  6
BYLAYER
 10
118.3276718324
 20
137.0525496539
 11
118.5245222079
 21
136.9444645462
  0
LINE
  5
6A2
100
AcDbEntity
  8
0
100
AcDbLine
 62
7
  6
BYLAYER
 10
129.5973343559
 20
135.809570932
 11
130.2863093325
 21
135.4312731047
  0
LINE
  5
6A3
100
AcDbEntity
  8
0
100
AcDbLine
 62
7
  6
BYLAYER
 10
130.1878843295
 20
135.2691454645
 11
129.2528468325
 21
135.809570932
  0
LINE
  5
6A4
100
AcDbEntity
  8
0
100
AcDbLine
 62
7
  6
BYLAYER
 10
120.8867216447
 20
134.6206347521
 11
120.640658957
 21
134.7827623924
  0
LINE
  5
6A5
100
AcDbEntity
  8
0
100
AcDbLine
 62
7
  6
BYLAYER
 10
120.8375093325
 20
135.5393581982
 11
120.591447208
 21
135.7014858384
  0
LINE
  5
6A6
100
AcDbEntity
  8
0
100
AcDbLine
 62
7
  6
BYLAYER
 10
123.0520718325
 20
134.6206347521
 11
122.8060091447
 21
134.7827623924
  0
LINE
  5
6A7
100
AcDbEntity
  8
0
100
AcDbLine
 62
7
  6
BYLAYER
 10
123.0028595202
 20
135.5393581982
 11
122.7567968325
 21
135.7014858384
  0
LINE
  5
6A8
100
AcDbEntity
  8
0
100
AcDbLine
 62
7
  6
BYLAYER
 10
121.5756968325
 20
137.0525496539
 11
121.8217595202
 21
136.8904219994
  0
LINE
  5
6A9
100
AcDbEntity
  8
0
100
AcDbLine
 62
7
  6
BYLAYER
 10
123.7410470202
 20
137.0525496539
 11
123.9871091447
 21
136.8904219994
  0
LINE
  5
6AA
100
AcDbEntity
  8
0
100
AcDbLine
 62
7
  6
BYLAYER
 10
107.1723093325
 20
142.0595922054
 11
105.6483093325
 21
143.0755922054
  0
LINE
  5
6AB
100
AcDbEntity
  8
0
100
AcDbLine
 62
7
  6
BYLAYER
 10
119.5971422621
 20
141.9839325793
 11
119.7558922621
 21
141.8758474858
  0
LINE
  5
6AC
100
AcDbEntity
  8
0
100
AcDbLine
 62
7
  6
BYLAYER
 10
117.2942093325
 20
135.0529751261
 11
117.4418468325
 21
134.9448900326
  0
LINE
  5
6AD
100
AcDbEntity
  8
0
100
AcDbLine
 62
7
  6
BYLAYER
 10
118.426096457
 20
136.6202092089
 11
118.278458957
 21
136.7282943403
  0
LINE
  5
6AE
100
AcDbEntity
  8
0
100
AcDbLine
 62
7
  6
BYLAYER
 10
120.788296457
 20
134.9989325794
 11
120.9359345202
 21
134.8908474858
  0
LINE
  5
6AF
100
AcDbEntity
  8
0
100
AcDbLine
 62
7
  6
BYLAYER
 10
120.7390847079
 20
135.9176560255
 11
120.8867216448
 21
135.809570932
  0
LINE
  5
6B0
100
AcDbEntity
  8
0
100
AcDbLine
 62
7
  6
BYLAYER
 10
122.9536466447
 20
134.9989325793
 11
123.1012841447
 21
134.8908474858
  0
LINE
  5
6B1
100
AcDbEntity
  8
0
100
AcDbLine
 62
7
  6
BYLAYER
 10
121.6741220202
 20
136.6742517935
 11
121.5264845202
 21
136.782336887
  0
LINE
  5
6B2
100
AcDbEntity
  8
0
100
AcDbLine
 62
7
  6
BYLAYER
 10
122.9044343324
 20
135.9176560255
 11
123.0520718325
 21
135.809570932
  0
LINE
  5
6B3
100
AcDbEntity
  8
0
100
AcDbLine
 62
7
  6
BYLAYER
 10
123.8394716447
 20
136.6742517935
 11
123.6918341447
 21
136.782336887
  0
LINE
  5
6B4
100
AcDbEntity
  8
0
100
AcDbLine
 62
7
  6
BYLAYER
 10
99.9043034749
 20
152.096217406
 11
99.9105100232
 21
152.0900108577
  0
LINE
  5
6B5
100
AcDbEntity
  8
0
100
AcDbLine
 62
7
  6
BYLAYER
 10
100.4122841318
 20
152.604198063
 11
100.4184906802
 21
152.5979915146
  0
LINE
  5
6B6
100
AcDbEntity
  8
0
100
AcDbLine
 62
7
  6
BYLAYER
 10
62.9524617512
 20
192.3119688013
 11
63.1602174896
 21
192.1042130629
  0
LINE
  5
6B7
100
AcDbEntity
  8
0
100
AcDbLine
 62
7
  6
BYLAYER
 10
100.4184906802
 20
154.9094108577
 11
100.4122841318
 21
154.915617406
  0
LINE
  5
6B8
100
AcDbEntity
  8
0
100
AcDbLine
 62
7
  6
BYLAYER
 10
63.9221884749
 20
192.8661840483
 11
63.7144327365
 21
193.0739397867
  0
LINE
  5
6B9
100
AcDbEntity
  8
0
100
AcDbLine
 62
7
  6
BYLAYER
 10
102.7394415082
 20
154.9094108577
 11
102.7332349599
 21
154.915617406
  0
LINE
  5
6BA
100
AcDbEntity
  8
0
100
AcDbLine
 62
7
  6
BYLAYER
 10
117.1957847079
 20
134.7287198456
 11
116.9989343325
 21
134.9448900326
  0
LINE
  5
6BB
100
AcDbEntity
  8
0
100
AcDbLine
 62
7
  6
BYLAYER
 10
118.5245222079
 20
136.9444645462
 11
118.721371457
 21
136.7282943403
  0
LINE
  5
6BC
100
AcDbEntity
  8
0
100
AcDbLine
 62
7
  6
BYLAYER
 10
120.591447208
 20
135.7014858384
 11
120.4438097079
 21
135.8636134787
  0
LINE
  5
6BD
100
AcDbEntity
  8
0
100
AcDbLine
 62
7
  6
BYLAYER
 10
120.640658957
 20
136.025741119
 11
120.7390847079
 21
135.9176560255
  0
LINE
  5
6BE
100
AcDbEntity
  8
0
100
AcDbLine
 62
7
  6
BYLAYER
 10
120.640658957
 20
134.7827623924
 11
120.493021457
 21
134.9989325793
  0
LINE
  5
6BF
100
AcDbEntity
  8
0
100
AcDbLine
 62
7
  6
BYLAYER
 10
96.2868956908
 20
169.1472969899
 11
96.2828176046
 21
169.1535035383
  0
LINE
  5
6C0
100
AcDbEntity
  8
0
100
AcDbLine
 62
7
  6
BYLAYER
 10
118.5245222079
 20
136.4580815687
 11
118.426096457
 21
136.6202092089
  0
LINE
  5
6C1
100
AcDbEntity
  8
0
100
AcDbLine
 62
7
  6
BYLAYER
 10
120.6898718325
 20
135.1610602196
 11
120.788296457
 21
134.9989325794
  0
LINE
  5
6C2
100
AcDbEntity
  8
0
100
AcDbLine
 62
7
  6
BYLAYER
 10
118.721371457
 20
136.7282943403
 11
118.8197972079
 21
136.5121241154
  0
LINE
  5
6C3
100
AcDbEntity
  8
0
100
AcDbLine
 62
7
  6
BYLAYER
 10
102.3047474403
 20
169.4598610081
 11
101.670828334
 21
170.9257989412
  0
LINE
  5
6C4
100
AcDbEntity
  8
0
100
AcDbLine
 62
7
  6
BYLAYER
 10
120.4438097079
 20
135.8636134787
 11
120.345383957
 21
136.1338262125
  0
LINE
  5
6C5
100
AcDbEntity
  8
0
100
AcDbLine
 62
7
  6
BYLAYER
 10
117.244996457
 20
135.2151029177
 11
117.2942093325
 21
135.0529751261
  0
LINE
  5
6C6
100
AcDbEntity
  8
0
100
AcDbLine
 62
7
  6
BYLAYER
 10
120.493021457
 20
134.9989325793
 11
120.4438097079
 21
135.1610602196
  0
LINE
  5
6C7
100
AcDbEntity
  8
0
100
AcDbLine
 62
7
  6
BYLAYER
 10
120.5914472079
 20
136.1878688349
 11
120.640658957
 21
136.025741119
  0
LINE
  5
6C8
100
AcDbEntity
  8
0
100
AcDbLine
 62
7
  6
BYLAYER
 10
121.8217595202
 20
136.3499964752
 11
121.7725466447
 21
136.5121241154
  0
LINE
  5
6C9
100
AcDbEntity
  8
0
100
AcDbLine
 62
7
  6
BYLAYER
 10
119.2796422621
 20
141.9298900326
 11
119.2267264029
 21
142.1460602196
  0
LINE
  5
6CA
100
AcDbEntity
  8
0
100
AcDbLine
 62
7
  6
BYLAYER
 10
119.2267264029
 20
143.0647836657
 11
119.1738093325
 21
143.2809539284
  0
LINE
  5
6CB
100
AcDbEntity
  8
0
100
AcDbLine
 62
7
  6
BYLAYER
 10
118.573733957
 20
136.2419113817
 11
118.5245222079
 21
136.4580815687
  0
LINE
  5
6CC
100
AcDbEntity
  8
0
100
AcDbLine
 62
7
  6
BYLAYER
 10
121.5550593325
 20
142.3081880112
 11
121.5021428677
 21
142.578400745
  0
LINE
  5
6CD
100
AcDbEntity
  8
0
100
AcDbLine
 62
7
  6
BYLAYER
 10
116.9989343325
 20
134.9448900326
 11
116.949721457
 21
135.2151029177
  0
LINE
  5
6CE
100
AcDbEntity
  8
0
100
AcDbLine
 62
7
  6
BYLAYER
 10
118.8197972079
 20
136.5121241154
 11
118.869008957
 21
136.2419113817
  0
LINE
  5
6CF
100
AcDbEntity
  8
0
100
AcDbLine
 62
7
  6
BYLAYER
 10
121.7667257973
 20
142.6324432917
 11
121.8196428677
 21
142.3081880112
  0
LINE
  5
6D0
100
AcDbEntity
  8
0
100
AcDbLine
 62
7
  6
BYLAYER
 10
122.0678216447
 20
136.4040390219
 11
122.1170345202
 21
136.025741119
  0
LINE
  5
6D1
100
AcDbEntity
  8
0
100
AcDbLine
 62
7
  6
BYLAYER
 10
133.3851093325
 20
24.2797922054
 11
133.3787595742
 21
25.8257859486
  0
LINE
  5
6D2
100
AcDbEntity
  8
0
100
AcDbLine
 62
7
  6
BYLAYER
 10
127.0382843325
 20
135.377230558
 11
127.0382843325
 21
135.1610602196
  0
LINE
  5
6D3
100
AcDbEntity
  8
0
100
AcDbLine
 62
7
  6
BYLAYER
 10
127.3335593325
 20
135.1610602196
 11
127.3335593325
 21
135.3231880112
  0
LINE
  5
6D4
100
AcDbEntity
  8
0
100
AcDbLine
 62
7
  6
BYLAYER
 10
127.5982514005
 20
168.2386342734
 11
127.5982514005
 21
169.141538471
  0
LINE
  5
6D5
100
AcDbEntity
  8
0
100
AcDbLine
 62
7
  6
BYLAYER
 10
127.6933925649
 20
143.010741119
 11
127.6933925649
 21
142.6324432917
  0
LINE
  5
6D6
100
AcDbEntity
  8
0
100
AcDbLine
 62
7
  6
BYLAYER
 10
127.7463093325
 20
169.141538471
 11
127.7463093325
 21
163.125516256
  0
LINE
  5
6D7
100
AcDbEntity
  8
0
100
AcDbLine
 62
7
  6
BYLAYER
 10
127.7463093325
 20
53.2511685287
 11
127.7463093325
 21
52.7722113056
  0
LINE
  5
6D8
100
AcDbEntity
  8
0
100
AcDbLine
 62
7
  6
BYLAYER
 10
127.7463093325
 20
174.0275306764
 11
127.7463093325
 21
174.2921922054
  0
LINE
  5
6D9
100
AcDbEntity
  8
0
100
AcDbLine
 62
7
  6
BYLAYER
 10
127.9050593325
 20
151.2035922054
 11
127.9050593325
 21
148.6635922054
  0
LINE
  5
6DA
100
AcDbEntity
  8
0
100
AcDbLine
 62
7
  6
BYLAYER
 10
127.9579759487
 20
142.578400745
 11
127.9579759487
 21
143.0647836657
  0
LINE
  5
6DB
100
AcDbEntity
  8
0
100
AcDbLine
 62
7
  6
BYLAYER
 10
128.2225593325
 20
149.0959325794
 11
128.2225593325
 21
151.2035922054
  0
LINE
  5
6DC
100
AcDbEntity
  8
0
100
AcDbLine
 62
7
  6
BYLAYER
 10
128.3813093325
 20
143.0647836657
 11
128.3813093325
 21
142.578400745
  0
LINE
  5
6DD
100
AcDbEntity
  8
0
100
AcDbLine
 62
7
  6
BYLAYER
 10
128.5400593325
 20
149.0418900326
 11
128.5400593325
 21
149.474230558
  0
LINE
  5
6DE
100
AcDbEntity
  8
0
100
AcDbLine
 62
7
  6
BYLAYER
 10
128.5638717855
 20
137.1065922054
 11
128.5638717855
 21
135.9716985722
  0
LINE
  5
6DF
100
AcDbEntity
  8
0
100
AcDbLine
 62
7
  6
BYLAYER
 10
128.5638717855
 20
135.6474432917
 11
128.5638717855
 21
134.8368049391
  0
LINE
  5
6E0
100
AcDbEntity
  8
0
100
AcDbLine
 62
7
  6
BYLAYER
 10
128.6458927163
 20
142.6324432918
 11
128.6458927163
 21
143.010741119
  0
LINE
  5
6E1
100
AcDbEntity
  8
0
100
AcDbLine
 62
7
  6
BYLAYER
 10
128.8591467855
 20
134.5665922054
 11
128.8591467855
 21
137.1065922054
  0
LINE
  5
6E2
100
AcDbEntity
  8
0
100
AcDbLine
 62
7
  6
BYLAYER
 10
128.9633927163
 20
151.2035922054
 11
128.9633927163
 21
150.9333794338
  0
LINE
  5
6E3
100
AcDbEntity
  8
0
100
AcDbLine
 62
7
  6
BYLAYER
 10
129.2279760244
 20
150.9333794338
 11
129.2279760244
 21
151.2035922054
  0
LINE
  5
6E4
100
AcDbEntity
  8
0
100
AcDbLine
 62
7
  6
BYLAYER
 10
129.4735093325
 20
26.9721922054
 11
129.4735065917
 21
47.8000013228
  0
LINE
  5
6E5
100
AcDbEntity
  8
0
100
AcDbLine
 62
7
  6
BYLAYER
 10
129.4735065917
 20
179.4739952369
 11
129.4735093325
 21
200.3017922054
  0
LINE
  5
6E6
100
AcDbEntity
  8
0
100
AcDbLine
 62
7
  6
BYLAYER
 10
129.6513093325
 20
151.2035922054
 11
129.6513093325
 21
148.6635922054
  0
LINE
  5
6E7
100
AcDbEntity
  8
0
100
AcDbLine
 62
7
  6
BYLAYER
 10
129.6859539142
 20
209.1409922054
 11
129.6859539142
 21
179.2705922053
  0
LINE
  5
6E8
100
AcDbEntity
  8
0
100
AcDbLine
 62
7
  6
BYLAYER
 10
129.6859539142
 20
18.1329922054
 11
129.6859539142
 21
48.0033922055
  0
LINE
  5
6E9
100
AcDbEntity
  8
0
100
AcDbLine
 62
7
  6
BYLAYER
 10
129.755830245
 20
158.6588811965
 11
129.755830245
 21
154.6101131179
  0
LINE
  5
6EA
100
AcDbEntity
  8
0
100
AcDbLine
 62
7
  6
BYLAYER
 10
129.755830245
 20
67.3552712928
 11
129.755830245
 21
60.9603131179
  0
LINE
  5
6EB
100
AcDbEntity
  8
0
100
AcDbLine
 62
7
  6
BYLAYER
 10
129.8037093325
 20
167.6119922054
 11
129.8037093325
 21
154.6579922054
  0
LINE
  5
6EC
100
AcDbEntity
  8
0
100
AcDbLine
 62
7
  6
BYLAYER
 10
129.8037093325
 20
67.3073922054
 11
129.8037093325
 21
61.0081922054
  0
LINE
  5
6ED
100
AcDbEntity
  8
0
100
AcDbLine
 62
7
  6
BYLAYER
 10
129.8212206654
 20
168.6455228813
 11
129.8212206654
 21
168.1678519497
  0
LINE
  5
6EE
100
AcDbEntity
  8
0
100
AcDbLine
 62
7
  6
BYLAYER
 10
129.9688093325
 20
149.0959325794
 11
129.9688093325
 21
151.2035922054
  0
LINE
  5
6EF
100
AcDbEntity
  8
0
100
AcDbLine
 62
7
  6
BYLAYER
 10
130.0217260054
 20
143.010741119
 11
130.0217260054
 21
142.6324432917
  0
LINE
  5
6F0
100
AcDbEntity
  8
0
100
AcDbLine
 62
7
  6
BYLAYER
 10
130.2863093325
 20
142.5784007449
 11
130.2863093325
 21
143.0647836657
  0
LINE
  5
6F1
100
AcDbEntity
  8
0
100
AcDbLine
 62
7
  6
BYLAYER
 10
130.2863093325
 20
149.0418900326
 11
130.2863093325
 21
149.474230558
  0
LINE
  5
6F2
100
AcDbEntity
  8
0
100
AcDbLine
 62
7
  6
BYLAYER
 10
131.5563093325
 20
134.1855922054
 11
131.5563093325
 21
137.4875922054
  0
LINE
  5
6F3
100
AcDbEntity
  8
0
100
AcDbLine
 62
7
  6
BYLAYER
 10
131.5563093325
 20
141.1705922054
 11
131.5563093325
 21
144.4725922054
  0
LINE
  5
6F4
100
AcDbEntity
  8
0
100
AcDbLine
 62
7
  6
BYLAYER
 10
131.5563093325
 20
148.2825922054
 11
131.5563093325
 21
151.5845922054
  0
LINE
  5
6F5
100
AcDbEntity
  8
0
100
AcDbLine
 62
7
  6
BYLAYER
 10
131.6954733143
 20
18.1329922054
 11
131.6954733143
 21
25.4614282236
  0
LINE
  5
6F6
100
AcDbEntity
  8
0
100
AcDbLine
 62
7
  6
BYLAYER
 10
131.6954733143
 20
201.7871561871
 11
131.6954733143
 21
209.1409922054
  0
LINE
  5
6F7
100
AcDbEntity
  8
0
100
AcDbLine
 62
7
  6
BYLAYER
 10
132.0643093325
 20
61.0081922054
 11
132.0643093325
 21
67.3073922054
  0
LINE
  5
6F8
100
AcDbEntity
  8
0
100
AcDbLine
 62
7
  6
BYLAYER
 10
132.0643093325
 20
154.6579922054
 11
132.0643093325
 21
167.6119922054
  0
LINE
  5
6F9
100
AcDbEntity
  8
0
100
AcDbLine
 62
7
  6
BYLAYER
 10
132.103399296
 20
60.9691022418
 11
132.103399296
 21
67.3464821689
  0
LINE
  5
6FA
100
AcDbEntity
  8
0
100
AcDbLine
 62
7
  6
BYLAYER
 10
132.103399296
 20
154.6189022418
 11
132.103399296
 21
167.6510821689
  0
LINE
  5
6FB
100
AcDbEntity
  8
0
100
AcDbLine
 62
7
  6
BYLAYER
 10
132.2034733143
 20
25.4614282236
 11
132.2034733143
 21
49.1865526094
  0
LINE
  5
6FC
100
AcDbEntity
  8
0
100
AcDbLine
 62
7
  6
BYLAYER
 10
132.2034733143
 20
178.0612900739
 11
132.2034733143
 21
201.7871561871
  0
LINE
  5
6FD
100
AcDbEntity
  8
0
100
AcDbLine
 62
7
  6
BYLAYER
 10
132.4574442996
 20
209.1409922054
 11
132.4574442996
 21
202.5491271725
  0
LINE
  5
6FE
100
AcDbEntity
  8
0
100
AcDbLine
 62
7
  6
BYLAYER
 10
132.4574442996
 20
24.6994572382
 11
132.4574442996
 21
18.1329922054
  0
LINE
  5
6FF
100
AcDbEntity
  8
0
100
AcDbLine
 62
7
  6
BYLAYER
 10
132.8771093325
 20
18.1329922054
 11
132.8771093325
 21
24.2797922054
  0
LINE
  5
700
100
AcDbEntity
  8
0
100
AcDbLine
 62
7
  6
BYLAYER
 10
132.8771093325
 20
202.9687922054
 11
132.8771093325
 21
209.1409922054
  0
LINE
  5
701
100
AcDbEntity
  8
0
100
AcDbLine
 62
7
  6
BYLAYER
 10
132.9654515534
 20
24.6993863312
 11
132.9654805702
 21
49.4828023737
  0
LINE
  5
702
100
AcDbEntity
  8
0
100
AcDbLine
 62
7
  6
BYLAYER
 10
132.9654805702
 20
177.7657761432
 11
132.9654515534
 21
202.5491981097
  0
LINE
  5
703
100
AcDbEntity
  8
0
100
AcDbLine
 62
7
  6
BYLAYER
 10
133.1193606099
 20
167.6598712928
 11
133.1193606099
 21
154.6101131179
  0
LINE
  5
704
100
AcDbEntity
  8
0
100
AcDbLine
 62
7
  6
BYLAYER
 10
133.1193606099
 20
67.3552712928
 11
133.1193606099
 21
60.9603131179
  0
LINE
  5
705
100
AcDbEntity
  8
0
100
AcDbLine
 62
7
  6
BYLAYER
 10
133.1940733143
 20
53.855469381
 11
133.1940733143
 21
173.3929457042
  0
LINE
  5
706
100
AcDbEntity
  8
0
100
AcDbLine
 62
7
  6
BYLAYER
 10
133.3724100578
 20
25.8257859486
 11
133.3724100578
 21
45.3940936562
  0
LINE
  5
707
100
AcDbEntity
  8
0
100
AcDbLine
 62
7
  6
BYLAYER
 10
133.3851093273
 20
178.0856905313
 11
133.3851093325
 21
202.9687922054
  0
LINE
  5
708
100
AcDbEntity
  8
0
100
AcDbLine
 62
7
  6
BYLAYER
 10
133.4565967039
 20
201.4729655406
 11
133.4565758196
 21
183.4420988728
  0
LINE
  5
709
100
AcDbEntity
  8
0
100
AcDbLine
 62
7
  6
BYLAYER
 10
133.9560878301
 20
173.9144094164
 11
133.9560878301
 21
53.3341747728
  0
LINE
  5
70A
100
AcDbEntity
  8
0
100
AcDbLine
 62
7
  6
BYLAYER
 10
129.8038163979
 20
168.6302087138
 11
129.8037093325
 21
168.1503406168
  0
LINE
  5
70B
100
AcDbEntity
  8
0
100
AcDbLine
 62
7
  6
BYLAYER
 10
133.3850675838
 20
46.6696741301
 11
133.3851093273
 21
49.1628938794
  0
LINE
  5
70C
100
AcDbEntity
  8
0
100
AcDbLine
 62
7
  6
BYLAYER
 10
133.3787595742
 20
45.3940936561
 11
133.3788751196
 21
45.5013015512
  0
LINE
  5
70D
100
AcDbEntity
  8
0
100
AcDbLine
 62
7
  6
BYLAYER
 10
129.2691798347
 20
167.642775582
 11
129.2520841239
 21
160.5507922053
  0
LINE
  5
70E
100
AcDbEntity
  8
0
100
AcDbLine
 62
7
  6
BYLAYER
 10
129.755830245
 20
158.6588811966
 11
129.7774755696
 21
167.6382259683
  0
LINE
  5
70F
100
AcDbEntity
  8
0
100
AcDbLine
 62
7
  6
BYLAYER
 10
133.3787595742
 20
45.3940936561
 11
133.3792678545
 21
45.5013007285
  0
LINE
  5
710
100
AcDbEntity
  8
0
100
AcDbLine
 62
7
  6
BYLAYER
 10
133.3848072398
 20
46.6696744657
 11
133.3851093325
 21
46.7333922054
  0
LINE
  5
711
100
AcDbEntity
  8
0
100
AcDbLine
 62
7
  6
BYLAYER
 10
98.5906876585
 20
65.3551487425
 11
98.6037200526
 21
65.3681835814
  0
LINE
  5
712
100
AcDbEntity
  8
0
100
AcDbLine
 62
7
  6
BYLAYER
 10
134.6763093325
 20
159.0637122053
 11
134.3757093325
 21
159.0637122053
  0
LINE
  5
713
100
AcDbEntity
  8
0
100
AcDbLine
 62
7
  6
BYLAYER
 10
129.2520841239
 20
160.5507922053
 11
123.6061093325
 21
160.5507922054
  0
LINE
  5
714
100
AcDbEntity
  8
0
100
AcDbLine
 62
7
  6
BYLAYER
 10
110.4489093325
 20
160.5507922054
 11
103.7511682863
 21
160.5507922054
  0
LINE
  5
715
100
AcDbEntity
  8
0
100
AcDbLine
 62
7
  6
BYLAYER
 10
95.3026503786
 20
160.5507922053
 11
88.6049093325
 21
160.5507922054
  0
LINE
  5
716
100
AcDbEntity
  8
0
100
AcDbLine
 62
7
  6
BYLAYER
 10
34.800534541
 20
160.5507922053
 11
40.4465093325
 21
160.5507922054
  0
LINE
  5
717
100
AcDbEntity
  8
0
100
AcDbLine
 62
7
  6
BYLAYER
 10
53.6037093325
 20
160.5507922054
 11
60.3014503786
 21
160.5507922054
  0
LINE
  5
718
100
AcDbEntity
  8
0
100
AcDbLine
 62
7
  6
BYLAYER
 10
68.7499682864
 20
160.5507922053
 11
75.4477093325
 21
160.5507922054
  0
LINE
  5
719
100
AcDbEntity
  8
0
100
AcDbLine
 62
7
  6
BYLAYER
 10
98.3078474645
 20
162.8621922054
 11
95.5633034502
 21
162.8621922054
  0
LINE
  5
71A
100
AcDbEntity
  8
0
100
AcDbLine
 62
7
  6
BYLAYER
 10
68.4887883158
 20
162.862192202
 11
67.7703534951
 21
162.8621921991
  0
LINE
  5
71B
100
AcDbEntity
  8
0
100
AcDbLine
 62
7
  6
BYLAYER
 10
60.5621034502
 20
162.8621922054
 11
67.7617875881
 21
162.8621922054
  0
LINE
  5
71C
100
AcDbEntity
  8
0
100
AcDbLine
 62
7
  6
BYLAYER
 10
98.3426642744
 20
162.8621922054
 11
100.0146997771
 21
162.8621922054
  0
LINE
  5
71D
100
AcDbEntity
  8
0
100
AcDbLine
 62
7
  6
BYLAYER
 10
100.0245803486
 20
162.8621922054
 11
103.4899883171
 21
162.8621922054
  0
LINE
  5
71E
100
AcDbEntity
  8
0
100
AcDbLine
 62
7
  6
BYLAYER
 10
109.2065599654
 20
163.125516256
 11
103.744961738
 21
163.125516256
  0
LINE
  5
71F
100
AcDbEntity
  8
0
100
AcDbLine
 62
7
  6
BYLAYER
 10
95.3088569269
 20
163.125516256
 11
89.8472586996
 21
163.125516256
  0
LINE
  5
720
100
AcDbEntity
  8
0
100
AcDbLine
 62
7
  6
BYLAYER
 10
39.2041599654
 20
163.125516256
 11
36.3063093325
 21
163.125516256
  0
LINE
  5
721
100
AcDbEntity
  8
0
100
AcDbLine
 62
7
  6
BYLAYER
 10
54.8460586996
 20
163.125516256
 11
60.307656927
 21
163.125516256
  0
LINE
  5
722
100
AcDbEntity
  8
0
100
AcDbLine
 62
7
  6
BYLAYER
 10
68.7437617379
 20
163.125516256
 11
74.2053599654
 21
163.125516256
  0
LINE
  5
723
100
AcDbEntity
  8
0
100
AcDbLine
 62
7
  6
BYLAYER
 10
124.8484586996
 20
163.125516256
 11
127.7463093325
 21
163.125516256
  0
LINE
  5
724
100
AcDbEntity
  8
0
100
AcDbLine
 62
7
  6
BYLAYER
 10
38.8437258074
 20
164.6656410912
 11
36.3063093325
 21
164.6656410911
  0
LINE
  5
725
100
AcDbEntity
  8
0
100
AcDbLine
 62
7
  6
BYLAYER
 10
54.8460586996
 20
164.6656410914
 11
74.2053599654
 21
164.6656410913
  0
LINE
  5
726
100
AcDbEntity
  8
0
100
AcDbLine
 62
7
  6
BYLAYER
 10
89.8472586996
 20
164.6656410912
 11
109.2065599654
 21
164.6656410911
  0
LINE
  5
727
100
AcDbEntity
  8
0
100
AcDbLine
 62
7
  6
BYLAYER
 10
124.8484586996
 20
164.6656410909
 11
127.7463093325
 21
164.6656410909
  0
LINE
  5
728
100
AcDbEntity
  8
0
100
AcDbLine
 62
7
  6
BYLAYER
 10
122.1371428677
 20
141.6056347521
 11
121.8725593324
 21
141.7677623924
  0
LINE
  5
729
100
AcDbEntity
  8
0
100
AcDbLine
 62
7
  6
BYLAYER
 10
126.6879761001
 20
141.6056347521
 11
126.4233925648
 21
141.7677623924
  0
LINE
  5
72A
100
AcDbEntity
  8
0
100
AcDbLine
 62
7
  6
BYLAYER
 10
122.7721428677
 20
144.0375496539
 11
123.0367257973
 21
143.8754219994
  0
LINE
  5
72B
100
AcDbEntity
  8
0
100
AcDbLine
 62
7
  6
BYLAYER
 10
129.0163093325
 20
141.6056347521
 11
128.7517259487
 21
141.7677623924
  0
LINE
  5
72C
100
AcDbEntity
  8
0
100
AcDbLine
 62
7
  6
BYLAYER
 10
127.3229761001
 20
144.0375496539
 11
127.5875593325
 21
143.8754219994
  0
LINE
  5
72D
100
AcDbEntity
  8
0
100
AcDbLine
 62
7
  6
BYLAYER
 10
129.6513093325
 20
144.0375496539
 11
129.9158926784
 21
143.8754219994
  0
LINE
  5
72E
100
AcDbEntity
  8
0
100
AcDbLine
 62
7
  6
BYLAYER
 10
119.5442264028
 20
143.0647836657
 11
119.7029764029
 21
142.9566985722
  0
LINE
  5
72F
100
AcDbEntity
  8
0
100
AcDbLine
 62
7
  6
BYLAYER
 10
122.0313093325
 20
141.9839325793
 11
122.1900593325
 21
141.8758474858
  0
LINE
  5
730
100
AcDbEntity
  8
0
100
AcDbLine
 62
7
  6
BYLAYER
 10
120.7613093325
 20
143.9294645462
 11
120.9200593325
 21
143.8213794338
  0
LINE
  5
731
100
AcDbEntity
  8
0
100
AcDbLine
 62
7
  6
BYLAYER
 10
122.8779757973
 20
143.6592517935
 11
122.7192257973
 21
143.767336887
  0
LINE
  5
732
100
AcDbEntity
  8
0
100
AcDbLine
 62
7
  6
BYLAYER
 10
126.5821425649
 20
141.9839325793
 11
126.7408925649
 21
141.8758474858
  0
LINE
  5
733
100
AcDbEntity
  8
0
100
AcDbLine
 62
7
  6
BYLAYER
 10
128.9104759487
 20
141.9839325793
 11
129.0692260244
 21
141.8758474858
  0
LINE
  5
734
100
AcDbEntity
  8
0
100
AcDbLine
 62
7
  6
BYLAYER
 10
127.4288093325
 20
143.6592517935
 11
127.2700593325
 21
143.767336887
  0
LINE
  5
735
100
AcDbEntity
  8
0
100
AcDbLine
 62
7
  6
BYLAYER
 10
129.7571426784
 20
143.6592517935
 11
129.5983926405
 21
143.767336887
  0
LINE
  5
736
100
AcDbEntity
  8
0
100
AcDbLine
 62
7
  6
BYLAYER
 10
127.4319842386
 20
134.6206347521
 11
127.2351344263
 21
134.7827623924
  0
LINE
  5
737
100
AcDbEntity
  8
0
100
AcDbLine
 62
7
  6
BYLAYER
 10
119.4913093325
 20
141.7137198456
 11
119.2796422621
 21
141.9298900326
  0
LINE
  5
738
100
AcDbEntity
  8
0
100
AcDbLine
 62
7
  6
BYLAYER
 10
121.8725593324
 20
141.7677623924
 11
121.7138093325
 21
141.9298900326
  0
LINE
  5
739
100
AcDbEntity
  8
0
100
AcDbLine
 62
7
  6
BYLAYER
 10
120.7613093325
 20
143.6052092089
 11
120.6554757973
 21
143.7132943403
  0
LINE
  5
73A
100
AcDbEntity
  8
0
100
AcDbLine
 62
7
  6
BYLAYER
 10
123.0367257973
 20
143.8754219994
 11
123.1954757973
 21
143.7132943403
  0
LINE
  5
73B
100
AcDbEntity
  8
0
100
AcDbLine
 62
7
  6
BYLAYER
 10
126.4233925648
 20
141.7677623924
 11
126.2646425649
 21
141.9298900326
  0
LINE
  5
73C
100
AcDbEntity
  8
0
100
AcDbLine
 62
7
  6
BYLAYER
 10
122.7567968325
 20
135.7014858384
 11
122.6091593325
 21
135.8636134787
  0
LINE
  5
73D
100
AcDbEntity
  8
0
100
AcDbLine
 62
7
  6
BYLAYER
 10
122.8060091447
 20
136.025741119
 11
122.9044343324
 21
135.9176560255
  0
LINE
  5
73E
100
AcDbEntity
  8
0
100
AcDbLine
 62
7
  6
BYLAYER
 10
127.3827719263
 20
134.9989325794
 11
127.4811968325
 21
134.8908474858
  0
LINE
  5
73F
100
AcDbEntity
  8
0
100
AcDbLine
 62
7
  6
BYLAYER
 10
122.8060091447
 20
134.7827623924
 11
122.6583716447
 21
134.9989325793
  0
LINE
  5
740
100
AcDbEntity
  8
0
100
AcDbLine
 62
7
  6
BYLAYER
 10
121.8217595202
 20
136.8904219994
 11
121.9693970202
 21
136.6742517935
  0
LINE
  5
741
100
AcDbEntity
  8
0
100
AcDbLine
 62
7
  6
BYLAYER
 10
123.9871091447
 20
136.8904219994
 11
124.1347466447
 21
136.6742517935
  0
LINE
  5
742
100
AcDbEntity
  8
0
100
AcDbLine
 62
7
  6
BYLAYER
 10
127.2351344263
 20
134.7827623924
 11
127.0874969263
 21
134.9989325793
  0
LINE
  5
743
100
AcDbEntity
  8
0
100
AcDbLine
 62
7
  6
BYLAYER
 10
97.8533220372
 20
171.2259498627
 11
97.849243951
 21
171.2321564111
  0
LINE
  5
744
100
AcDbEntity
  8
0
100
AcDbLine
 62
7
  6
BYLAYER
 10
119.4913093325
 20
142.1460602196
 11
119.5971422621
 21
141.9839325793
  0
LINE
  5
745
100
AcDbEntity
  8
0
100
AcDbLine
 62
7
  6
BYLAYER
 10
119.3325593325
 20
142.9026560255
 11
119.2267264029
 21
143.0647836657
  0
LINE
  5
746
100
AcDbEntity
  8
0
100
AcDbLine
 62
7
  6
BYLAYER
 10
121.8196428677
 20
142.3081880112
 11
122.0313093325
 21
141.9839325793
  0
LINE
  5
747
100
AcDbEntity
  8
0
100
AcDbLine
 62
7
  6
BYLAYER
 10
120.9200593325
 20
143.8213794338
 11
121.0258928677
 21
143.6592517935
  0
LINE
  5
748
100
AcDbEntity
  8
0
100
AcDbLine
 62
7
  6
BYLAYER
 10
123.0896428677
 20
143.3349964752
 11
122.8779757973
 21
143.6592517935
  0
LINE
  5
749
100
AcDbEntity
  8
0
100
AcDbLine
 62
7
  6
BYLAYER
 10
121.7725466447
 20
136.5121241154
 11
121.6741220202
 21
136.6742517935
  0
LINE
  5
74A
100
AcDbEntity
  8
0
100
AcDbLine
 62
7
  6
BYLAYER
 10
122.8552220202
 20
135.1610602196
 11
122.9536466447
 21
134.9989325793
  0
LINE
  5
74B
100
AcDbEntity
  8
0
100
AcDbLine
 62
7
  6
BYLAYER
 10
123.9378968325
 20
136.5121241154
 11
123.8394716447
 21
136.6742517935
  0
LINE
  5
74C
100
AcDbEntity
  8
0
100
AcDbLine
 62
7
  6
BYLAYER
 10
119.4383922621
 20
143.2809539284
 11
119.5442264028
 21
143.0647836657
  0
LINE
  5
74D
100
AcDbEntity
  8
0
100
AcDbLine
 62
7
  6
BYLAYER
 10
120.8142257973
 20
143.4971241154
 11
120.7613093325
 21
143.6052092089
  0
LINE
  5
74E
100
AcDbEntity
  8
0
100
AcDbLine
 62
7
  6
BYLAYER
 10
121.7138093325
 20
141.9298900326
 11
121.6079757973
 21
142.1460602196
  0
LINE
  5
74F
100
AcDbEntity
  8
0
100
AcDbLine
 62
7
  6
BYLAYER
 10
123.1954757973
 20
143.7132943403
 11
123.3013093325
 21
143.4971241154
  0
LINE
  5
750
100
AcDbEntity
  8
0
100
AcDbLine
 62
7
  6
BYLAYER
 10
109.2065599654
 20
163.125516256
 11
110.4489093325
 21
160.5507922054
  0
LINE
  5
751
100
AcDbEntity
  8
0
100
AcDbLine
 62
7
  6
BYLAYER
 10
121.9693970202
 20
136.6742517935
 11
122.0678216447
 21
136.4040390219
  0
LINE
  5
752
100
AcDbEntity
  8
0
100
AcDbLine
 62
7
  6
BYLAYER
 10
122.6091593325
 20
135.8636134787
 11
122.5107341447
 21
136.1338262125
  0
LINE
  5
753
100
AcDbEntity
  8
0
100
AcDbLine
 62
7
  6
BYLAYER
 10
124.1347466447
 20
136.6742517935
 11
124.2331718325
 21
136.4040390219
  0
LINE
  5
754
100
AcDbEntity
  8
0
100
AcDbLine
 62
7
  6
BYLAYER
 10
121.0258928677
 20
143.6592517935
 11
121.0788093325
 21
143.4971241154
  0
LINE
  5
755
100
AcDbEntity
  8
0
100
AcDbLine
 62
7
  6
BYLAYER
 10
121.6079757973
 20
142.1460602196
 11
121.5550593325
 21
142.3081880112
  0
LINE
  5
756
100
AcDbEntity
  8
0
100
AcDbLine
 62
7
  6
BYLAYER
 10
123.3013093325
 20
143.4971241154
 11
123.3542257973
 21
143.3349964752
  0
LINE
  5
757
100
AcDbEntity
  8
0
100
AcDbLine
 62
7
  6
BYLAYER
 10
126.1588093325
 20
142.1460602196
 11
126.1058925649
 21
142.3081880112
  0
LINE
  5
758
100
AcDbEntity
  8
0
100
AcDbLine
 62
7
  6
BYLAYER
 10
125.4634841447
 20
134.5665922054
 11
124.6760843325
 21
137.1065922054
  0
LINE
  5
759
100
AcDbEntity
  8
0
100
AcDbLine
 62
7
  6
BYLAYER
 10
122.6583716447
 20
134.9989325793
 11
122.6091593325
 21
135.1610602196
  0
LINE
  5
75A
100
AcDbEntity
  8
0
100
AcDbLine
 62
7
  6
BYLAYER
 10
122.7567968325
 20
136.1878688349
 11
122.8060091447
 21
136.025741119
  0
LINE
  5
75B
100
AcDbEntity
  8
0
100
AcDbLine
 62
7
  6
BYLAYER
 10
123.9871091447
 20
136.3499964752
 11
123.9378968325
 21
136.5121241154
  0
LINE
  5
75C
100
AcDbEntity
  8
0
100
AcDbLine
 62
7
  6
BYLAYER
 10
125.2174220202
 20
136.2419113817
 11
125.6603342386
 21
134.7827623923
  0
LINE
  5
75D
100
AcDbEntity
  8
0
100
AcDbLine
 62
7
  6
BYLAYER
 10
124.9713593325
 20
137.1065922054
 11
125.1682091447
 21
136.4580815687
  0
LINE
  5
75E
100
AcDbEntity
  8
0
100
AcDbLine
 62
7
  6
BYLAYER
 10
127.0874969263
 20
134.9989325793
 11
127.0382843325
 21
135.1610602196
  0
LINE
  5
75F
100
AcDbEntity
  8
0
100
AcDbLine
 62
7
  6
BYLAYER
 10
127.3335593325
 20
135.1610602196
 11
127.3827719263
 21
134.9989325794
  0
LINE
  5
760
100
AcDbEntity
  8
0
100
AcDbLine
 62
7
  6
BYLAYER
 10
123.3542257973
 20
143.3349964752
 11
123.4071428677
 21
143.0647836657
  0
LINE
  5
761
100
AcDbEntity
  8
0
100
AcDbLine
 62
7
  6
BYLAYER
 10
126.1058925649
 20
142.3081880112
 11
126.0529761001
 21
142.578400745
  0
LINE
  5
762
100
AcDbEntity
  8
0
100
AcDbLine
 62
7
  6
BYLAYER
 10
127.9050593325
 20
143.3349964749
 11
127.9579759487
 21
143.0647836658
  0
LINE
  5
763
100
AcDbEntity
  8
0
100
AcDbLine
 62
7
  6
BYLAYER
 10
128.4342259486
 20
142.3081880113
 11
128.3813093325
 21
142.5784007449
  0
LINE
  5
764
100
AcDbEntity
  8
0
100
AcDbLine
 62
7
  6
BYLAYER
 10
123.1425593325
 20
143.010741119
 11
123.0896428677
 21
143.3349964752
  0
LINE
  5
765
100
AcDbEntity
  8
0
100
AcDbLine
 62
7
  6
BYLAYER
 10
126.3175593325
 20
142.6324432917
 11
126.3704761001
 21
142.3081880112
  0
LINE
  5
766
100
AcDbEntity
  8
0
100
AcDbLine
 62
7
  6
BYLAYER
 10
127.6933925649
 20
143.010741119
 11
127.6404761001
 21
143.3349964752
  0
LINE
  5
767
100
AcDbEntity
  8
0
100
AcDbLine
 62
7
  6
BYLAYER
 10
128.6458927163
 20
142.6324432917
 11
128.6988093325
 21
142.3081880113
  0
LINE
  5
768
100
AcDbEntity
  8
0
100
AcDbLine
 62
7
  6
BYLAYER
 10
124.2331718325
 20
136.4040390219
 11
124.2823841447
 21
136.025741119
  0
LINE
  5
769
100
AcDbEntity
  8
0
100
AcDbLine
 62
7
  6
BYLAYER
 10
134.3757093325
 20
53.4066672721
 11
134.3757093325
 21
173.8419171386
  0
LINE
  5
76A
100
AcDbEntity
  8
0
100
AcDbLine
 62
7
  6
BYLAYER
 10
134.6763093325
 20
143.8637122054
 11
134.6763093325
 21
159.0637122053
  0
LINE
  5
76B
100
AcDbEntity
  8
0
100
AcDbLine
 62
7
  6
BYLAYER
 10
101.4319093325
 20
55.3693922054
 11
101.159672953
 21
55.0971558258
  0
LINE
  5
76C
100
AcDbEntity
  8
0
100
AcDbLine
 62
7
  6
BYLAYER
 10
97.6219093325
 20
46.7699397867
 11
97.894145712
 21
47.0421761662
  0
LINE
  5
76D
100
AcDbEntity
  8
0
100
AcDbLine
 62
7
  6
BYLAYER
 10
109.2065599654
 20
168.6431250671
 11
110.4489093325
 21
168.6493316155
  0
LINE
  5
76E
100
AcDbEntity
  8
0
100
AcDbLine
 62
7
  6
BYLAYER
 10
75.4477093325
 20
168.6493316155
 11
74.2053599654
 21
168.6431250671
  0
LINE
  5
76F
100
AcDbEntity
  8
0
100
AcDbLine
 62
7
  6
BYLAYER
 10
40.4465093325
 20
168.6493316155
 11
39.2041599654
 21
168.6431250671
  0
LINE
  5
770
100
AcDbEntity
  8
0
100
AcDbLine
 62
7
  6
BYLAYER
 10
109.434141932
 20
169.1535035383
 11
108.1917925649
 21
169.1472969899
  0
LINE
  5
771
100
AcDbEntity
  8
0
100
AcDbLine
 62
7
  6
BYLAYER
 10
34.2488028538
 20
168.6302087144
 11
36.3063093325
 21
168.6324061104
  0
LINE
  5
772
100
AcDbEntity
  8
0
100
AcDbLine
 62
7
  6
BYLAYER
 10
38.8434097878
 20
166.1641802192
 11
36.3063093325
 21
166.1641819655
  0
LINE
  5
773
100
AcDbEntity
  8
0
100
AcDbLine
 62
7
  6
BYLAYER
 10
127.7463093325
 20
166.1641837823
 11
124.8484586996
 21
166.1641835659
  0
LINE
  5
774
100
AcDbEntity
  8
0
100
AcDbLine
 62
7
  6
BYLAYER
 10
109.2065599654
 20
166.1641823981
 11
89.8472586996
 21
166.1641809528
  0
LINE
  5
775
100
AcDbEntity
  8
0
100
AcDbLine
 62
7
  6
BYLAYER
 10
74.2053599654
 20
166.164179785
 11
54.8460586996
 21
166.1641783397
  0
LINE
  5
776
100
AcDbEntity
  8
0
100
AcDbLine
 62
7
  6
BYLAYER
 10
132.0643093325
 20
167.6119922054
 11
129.8037093325
 21
167.6119922054
  0
LINE
  5
777
100
AcDbEntity
  8
0
100
AcDbLine
 62
7
  6
BYLAYER
 10
34.2489093325
 20
167.6119922054
 11
31.9883093325
 21
167.6119922054
  0
LINE
  5
778
100
AcDbEntity
  8
0
100
AcDbLine
 62
7
  6
BYLAYER
 10
130.3121056115
 20
167.642775582
 11
129.2691798347
 21
167.642775582
  0
LINE
  5
779
100
AcDbEntity
  8
0
100
AcDbLine
 62
7
  6
BYLAYER
 10
33.7405130535
 20
167.642775582
 11
34.7834388301
 21
167.642775582
  0
LINE
  5
77A
100
AcDbEntity
  8
0
100
AcDbLine
 62
7
  6
BYLAYER
 10
30.933258055
 20
167.6598712928
 11
33.7234173426
 21
167.6598712928
  0
LINE
  5
77B
100
AcDbEntity
  8
0
100
AcDbLine
 62
7
  6
BYLAYER
 10
130.3292013223
 20
167.6598712928
 11
133.1193606099
 21
167.6598712928
  0
LINE
  5
77C
100
AcDbEntity
  8
0
100
AcDbLine
 62
7
  6
BYLAYER
 10
36.5634055566
 20
167.6704851584
 11
39.2041599654
 21
167.6704851573
  0
LINE
  5
77D
100
AcDbEntity
  8
0
100
AcDbLine
 62
7
  6
BYLAYER
 10
54.8460586996
 20
167.6704851504
 11
55.8300131083
 21
167.67048515
  0
LINE
  5
77E
100
AcDbEntity
  8
0
100
AcDbLine
 62
7
  6
BYLAYER
 10
59.4709863737
 20
167.6711501373
 11
55.8304564332
 21
167.6711501373
  0
LINE
  5
77F
100
AcDbEntity
  8
0
100
AcDbLine
 62
7
  6
BYLAYER
 10
126.6751672644
 20
167.6711501373
 11
127.7463093325
 21
167.6711501373
  0
LINE
  5
780
100
AcDbEntity
  8
0
100
AcDbLine
 62
7
  6
BYLAYER
 10
68.5339022771
 20
167.68478515
 11
74.2053599654
 21
167.6847851509
  0
LINE
  5
781
100
AcDbEntity
  8
0
100
AcDbLine
 62
7
  6
BYLAYER
 10
89.8472586996
 20
167.6847851533
 11
109.2065599654
 21
167.6847851563
  0
LINE
  5
782
100
AcDbEntity
  8
0
100
AcDbLine
 62
7
  6
BYLAYER
 10
129.9299528898
 20
167.8151922054
 11
127.7463093325
 21
167.8151922054
  0
LINE
  5
783
100
AcDbEntity
  8
0
100
AcDbLine
 62
7
  6
BYLAYER
 10
34.1226657752
 20
167.8151922054
 11
36.3063093325
 21
167.8151922054
  0
LINE
  5
784
100
AcDbEntity
  8
0
100
AcDbLine
 62
7
  6
BYLAYER
 10
127.5982514005
 20
168.2386342734
 11
127.7463093325
 21
168.2386342734
  0
LINE
  5
785
100
AcDbEntity
  8
0
100
AcDbLine
 62
7
  6
BYLAYER
 10
109.2065599654
 20
168.2392992607
 11
103.4181163878
 21
168.2392992607
  0
LINE
  5
786
100
AcDbEntity
  8
0
100
AcDbLine
 62
7
  6
BYLAYER
 10
102.2397022771
 20
168.2392992607
 11
89.8472586996
 21
168.2392992607
  0
LINE
  5
787
100
AcDbEntity
  8
0
100
AcDbLine
 62
7
  6
BYLAYER
 10
74.2053599654
 20
168.2392992607
 11
69.7123163878
 21
168.2392992607
  0
LINE
  5
788
100
AcDbEntity
  8
0
100
AcDbLine
 62
7
  6
BYLAYER
 10
55.8299022771
 20
168.2392992607
 11
54.8460586996
 21
168.2392992607
  0
LINE
  5
789
100
AcDbEntity
  8
0
100
AcDbLine
 62
7
  6
BYLAYER
 10
39.2041599654
 20
168.2392992607
 11
36.5635163878
 21
168.2392992607
  0
LINE
  5
78A
100
AcDbEntity
  8
0
100
AcDbLine
 62
7
  6
BYLAYER
 10
36.5794370547
 20
168.7632199275
 11
39.1680252916
 21
168.7632199275
  0
LINE
  5
78B
100
AcDbEntity
  8
0
100
AcDbLine
 62
7
  6
BYLAYER
 10
54.8819684362
 20
168.7632199275
 11
55.8139816103
 21
168.7632199275
  0
LINE
  5
78C
100
AcDbEntity
  8
0
100
AcDbLine
 62
7
  6
BYLAYER
 10
69.7282370547
 20
168.7632199275
 11
74.1692252916
 21
168.7632199275
  0
LINE
  5
78D
100
AcDbEntity
  8
0
100
AcDbLine
 62
7
  6
BYLAYER
 10
89.8831684362
 20
168.7632199275
 11
102.2237816103
 21
168.7632199275
  0
LINE
  5
78E
100
AcDbEntity
  8
0
100
AcDbLine
 62
7
  6
BYLAYER
 10
103.4340370547
 20
168.7632199275
 11
109.1706469532
 21
168.7632199275
  0
LINE
  5
78F
100
AcDbEntity
  8
0
100
AcDbLine
 62
7
  6
BYLAYER
 10
36.5839093325
 20
168.7676922054
 11
39.1666796529
 21
168.7676922054
  0
LINE
  5
790
100
AcDbEntity
  8
0
100
AcDbLine
 62
7
  6
BYLAYER
 10
74.4329419326
 20
169.1535035382
 11
67.7698010605
 21
169.1535035382
  0
LINE
  5
791
100
AcDbEntity
  8
0
100
AcDbLine
 62
7
  6
BYLAYER
 10
61.2816176045
 20
169.1535035383
 11
54.618476733
 21
169.1535035382
  0
LINE
  5
792
100
AcDbEntity
  8
0
100
AcDbLine
 62
7
  6
BYLAYER
 10
39.4317419324
 20
169.1535035383
 11
34.7393786565
 21
169.1535035382
  0
LINE
  5
793
100
AcDbEntity
  8
0
100
AcDbLine
 62
7
  6
BYLAYER
 10
89.619676733
 20
169.1535035383
 11
96.2828176046
 21
169.1535035383
  0
LINE
  5
794
100
AcDbEntity
  8
0
100
AcDbLine
 62
7
  6
BYLAYER
 10
102.7710010603
 20
169.1535035383
 11
109.434141932
 21
169.1535035383
  0
LINE
  5
795
100
AcDbEntity
  8
0
100
AcDbLine
 62
7
  6
BYLAYER
 10
124.620876733
 20
169.1535035383
 11
129.3132400085
 21
169.1535035383
  0
LINE
  5
796
100
AcDbEntity
  8
0
100
AcDbLine
 62
7
  6
BYLAYER
 10
62.1967223901
 20
170.4821922054
 11
63.0521559432
 21
170.4821922054
  0
LINE
  5
797
100
AcDbEntity
  8
0
100
AcDbLine
 62
7
  6
BYLAYER
 10
65.99925614
 20
170.4821922054
 11
66.8546962749
 21
170.4821922054
  0
LINE
  5
798
100
AcDbEntity
  8
0
100
AcDbLine
 62
7
  6
BYLAYER
 10
65.8604344
 20
170.4821936125
 11
63.1909933869
 21
170.4821918478
  0
LINE
  5
799
100
AcDbEntity
  8
0
100
AcDbLine
 62
7
  6
BYLAYER
 10
121.5360093325
 20
171.1206476236
 11
112.5190093325
 21
171.1206476236
  0
LINE
  5
79A
100
AcDbEntity
  8
0
100
AcDbLine
 62
7
  6
BYLAYER
 10
86.5348093325
 20
171.1206476236
 11
77.5178093324
 21
171.1206476236
  0
LINE
  5
79B
100
AcDbEntity
  8
0
100
AcDbLine
 62
7
  6
BYLAYER
 10
51.5336093325
 20
171.1206476236
 11
42.5166093325
 21
171.1206476236
  0
LINE
  5
79C
100
AcDbEntity
  8
0
100
AcDbLine
 62
7
  6
BYLAYER
 10
66.2033747138
 20
171.2321564111
 11
62.8480439511
 21
171.2321564111
  0
LINE
  5
79D
100
AcDbEntity
  8
0
100
AcDbLine
 62
7
  6
BYLAYER
 10
97.849243951
 20
171.2321564111
 11
101.204574714
 21
171.2321564111
  0
LINE
  5
79E
100
AcDbEntity
  8
0
100
AcDbLine
 62
7
  6
BYLAYER
 10
121.3457001505
 20
171.3457894641
 11
112.7093058131
 21
171.3457894641
  0
LINE
  5
79F
100
AcDbEntity
  8
0
100
AcDbLine
 62
7
  6
BYLAYER
 10
86.3445001506
 20
171.3457894641
 11
77.7081058132
 21
171.3457894641
  0
LINE
  5
7A0
100
AcDbEntity
  8
0
100
AcDbLine
 62
7
  6
BYLAYER
 10
51.3433001506
 20
171.3457894641
 11
42.706905813
 21
171.3457894641
  0
LINE
  5
7A1
100
AcDbEntity
  8
0
100
AcDbLine
 62
7
  6
BYLAYER
 10
62.6207093325
 20
171.8791922054
 11
66.4307093325
 21
171.8791922054
  0
LINE
  5
7A2
100
AcDbEntity
  8
0
100
AcDbLine
 62
7
  6
BYLAYER
 10
97.6219093325
 20
171.8791922054
 11
101.4319093325
 21
171.8791922054
  0
LINE
  5
7A3
100
AcDbEntity
  8
0
100
AcDbLine
 62
7
  6
BYLAYER
 10
62.892945712
 20
172.1514285849
 11
66.158472953
 21
172.1514285849
  0
LINE
  5
7A4
100
AcDbEntity
  8
0
100
AcDbLine
 62
7
  6
BYLAYER
 10
97.894145712
 20
172.1514285849
 11
101.159672953
 21
172.1514285849
  0
LINE
  5
7A5
100
AcDbEntity
  8
0
100
AcDbLine
 62
7
  6
BYLAYER
 10
36.5629622318
 20
167.6710393061
 11
36.3063093325
 21
167.6711501373
  0
LINE
  5
7A6
100
AcDbEntity
  8
0
100
AcDbLine
 62
7
  6
BYLAYER
 10
127.7463093325
 20
168.6324061104
 11
129.8038163979
 21
168.6302087138
  0
LINE
  5
7A7
100
AcDbEntity
  8
0
100
AcDbLine
 62
7
  6
BYLAYER
 10
53.6037093325
 20
168.6493316155
 11
54.8460586996
 21
168.6431250671
  0
LINE
  5
7A8
100
AcDbEntity
  8
0
100
AcDbLine
 62
7
  6
BYLAYER
 10
89.8472586996
 20
168.6431250671
 11
88.6049093325
 21
168.6493316155
  0
LINE
  5
7A9
100
AcDbEntity
  8
0
100
AcDbLine
 62
7
  6
BYLAYER
 10
124.8484586996
 20
168.6431250671
 11
123.6061093325
 21
168.6493316155
  0
LINE
  5
7AA
100
AcDbEntity
  8
0
100
AcDbLine
 62
7
  6
BYLAYER
 10
90.8620261001
 20
169.1472969899
 11
89.619676733
 21
169.1535035383
  0
LINE
  5
7AB
100
AcDbEntity
  8
0
100
AcDbLine
 62
7
  6
BYLAYER
 10
125.8632261001
 20
169.1472969899
 11
124.620876733
 21
169.1535035383
  0
LINE
  5
7AC
100
AcDbEntity
  8
0
100
AcDbLine
 62
7
  6
BYLAYER
 10
101.4319093325
 20
171.8791922053
 11
101.159672953
 21
172.1514285849
  0
LINE
  5
7AD
100
AcDbEntity
  8
0
100
AcDbLine
 62
7
  6
BYLAYER
 10
97.6219093325
 20
180.453244624
 11
97.894145712
 21
180.1810082445
  0
LINE
  5
7AE
100
AcDbEntity
  8
0
100
AcDbLine
 62
7
  6
BYLAYER
 10
128.7517259487
 20
141.7677623924
 11
128.5929759487
 21
141.9298900326
  0
LINE
  5
7AF
100
AcDbEntity
  8
0
100
AcDbLine
 62
7
  6
BYLAYER
 10
127.5875593325
 20
143.8754219994
 11
127.7463093325
 21
143.7132943403
  0
LINE
  5
7B0
100
AcDbEntity
  8
0
100
AcDbLine
 62
7
  6
BYLAYER
 10
129.9158926784
 20
143.8754219994
 11
130.0746426595
 21
143.7132943403
  0
LINE
  5
7B1
100
AcDbEntity
  8
0
100
AcDbLine
 62
7
  6
BYLAYER
 10
126.3704761001
 20
142.3081880112
 11
126.5821425649
 21
141.9839325793
  0
LINE
  5
7B2
100
AcDbEntity
  8
0
100
AcDbLine
 62
7
  6
BYLAYER
 10
127.6404761001
 20
143.3349964752
 11
127.4288093325
 21
143.6592517935
  0
LINE
  5
7B3
100
AcDbEntity
  8
0
100
AcDbLine
 62
7
  6
BYLAYER
 10
128.6988093325
 20
142.3081880113
 11
128.9104759487
 21
141.9839325793
  0
LINE
  5
7B4
100
AcDbEntity
  8
0
100
AcDbLine
 62
7
  6
BYLAYER
 10
129.9688093325
 20
143.3349964752
 11
129.7571426784
 21
143.6592517935
  0
LINE
  5
7B5
100
AcDbEntity
  8
0
100
AcDbLine
 62
7
  6
BYLAYER
 10
130.1878843295
 20
136.3499964752
 11
130.2863093325
 21
136.1878688349
  0
LINE
  5
7B6
100
AcDbEntity
  8
0
100
AcDbLine
 62
7
  6
BYLAYER
 10
126.2646425649
 20
141.9298900326
 11
126.1588093325
 21
142.1460602196
  0
LINE
  5
7B7
100
AcDbEntity
  8
0
100
AcDbLine
 62
7
  6
BYLAYER
 10
128.5929759487
 20
141.9298900326
 11
128.4871427163
 21
142.1460602196
  0
LINE
  5
7B8
100
AcDbEntity
  8
0
100
AcDbLine
 62
7
  6
BYLAYER
 10
127.7463093325
 20
143.7132943403
 11
127.8521427162
 21
143.4971241155
  0
LINE
  5
7B9
100
AcDbEntity
  8
0
100
AcDbLine
 62
7
  6
BYLAYER
 10
130.0746426595
 20
143.7132943403
 11
130.180475996
 21
143.4971241153
  0
LINE
  5
7BA
100
AcDbEntity
  8
0
100
AcDbLine
 62
7
  6
BYLAYER
 10
127.8521427162
 20
143.4971241155
 11
127.9050593325
 21
143.3349964749
  0
LINE
  5
7BB
100
AcDbEntity
  8
0
100
AcDbLine
 62
7
  6
BYLAYER
 10
128.4871427163
 20
142.1460602196
 11
128.4342259486
 21
142.3081880113
  0
LINE
  5
7BC
100
AcDbEntity
  8
0
100
AcDbLine
 62
7
  6
BYLAYER
 10
130.180475996
 20
143.4971241153
 11
130.2333926642
 21
143.3349964752
  0
LINE
  5
7BD
100
AcDbEntity
  8
0
100
AcDbLine
 62
7
  6
BYLAYER
 10
130.2333926642
 20
143.3349964752
 11
130.2863093325
 21
143.0647836658
  0
LINE
  5
7BE
100
AcDbEntity
  8
0
100
AcDbLine
 62
7
  6
BYLAYER
 10
130.0217260054
 20
143.010741119
 11
129.9688093325
 21
143.3349964752
  0
LINE
  5
7BF
100
AcDbEntity
  8
0
100
AcDbLine
 62
7
  6
BYLAYER
 10
101.6193786893
 20
174.2921922054
 11
101.3078551065
 21
174.2921922054
  0
LINE
  5
7C0
100
AcDbEntity
  8
0
100
AcDbLine
 62
7
  6
BYLAYER
 10
97.7459635584
 20
174.2921922054
 11
97.4344399757
 21
174.2921922054
  0
LINE
  5
7C1
100
AcDbEntity
  8
0
100
AcDbLine
 62
7
  6
BYLAYER
 10
66.6181786893
 20
174.2921922054
 11
66.3066551065
 21
174.2921922054
  0
LINE
  5
7C2
100
AcDbEntity
  8
0
100
AcDbLine
 62
7
  6
BYLAYER
 10
62.7447635584
 20
174.2921922054
 11
62.4332399757
 21
174.2921922054
  0
LINE
  5
7C3
100
AcDbEntity
  8
0
100
AcDbLine
 62
7
  6
BYLAYER
 10
36.3063093325
 20
174.2921922054
 11
36.4662491758
 21
174.2921922054
  0
LINE
  5
7C4
100
AcDbEntity
  8
0
100
AcDbLine
 62
7
  6
BYLAYER
 10
57.5839698009
 20
174.2921922054
 11
57.9585542692
 21
174.2921922054
  0
LINE
  5
7C5
100
AcDbEntity
  8
0
100
AcDbLine
 62
7
  6
BYLAYER
 10
71.0928643957
 20
174.2921922054
 11
71.4674491758
 21
174.2921922054
  0
LINE
  5
7C6
100
AcDbEntity
  8
0
100
AcDbLine
 62
7
  6
BYLAYER
 10
92.5851698009
 20
174.2921922054
 11
92.9597542692
 21
174.2921922054
  0
LINE
  5
7C7
100
AcDbEntity
  8
0
100
AcDbLine
 62
7
  6
BYLAYER
 10
106.0940643957
 20
174.2921922054
 11
106.4686491758
 21
174.2921922054
  0
LINE
  5
7C8
100
AcDbEntity
  8
0
100
AcDbLine
 62
7
  6
BYLAYER
 10
127.5863698009
 20
174.2921922054
 11
127.7463093325
 21
174.2921922054
  0
LINE
  5
7C9
100
AcDbEntity
  8
0
100
AcDbLine
 62
7
  6
BYLAYER
 10
101.9145093325
 20
175.1430922054
 11
97.2783787726
 21
175.1430922054
  0
LINE
  5
7CA
100
AcDbEntity
  8
0
100
AcDbLine
 62
7
  6
BYLAYER
 10
101.8147051046
 20
175.2145461322
 11
97.2391135603
 21
175.2145461322
  0
LINE
  5
7CB
100
AcDbEntity
  8
0
100
AcDbLine
 62
7
  6
BYLAYER
 10
101.9305093573
 20
176.6518516249
 11
97.1233093228
 21
176.6518517928
  0
LINE
  5
7CC
100
AcDbEntity
  8
0
100
AcDbLine
 62
7
  6
BYLAYER
 10
101.9180597096
 20
176.7899776094
 11
97.1357589553
 21
176.7899776093
  0
LINE
  5
7CD
100
AcDbEntity
  8
0
100
AcDbLine
 62
7
  6
BYLAYER
 10
132.103399296
 20
154.6189022418
 11
132.0643093325
 21
154.6579922054
  0
LINE
  5
7CE
100
AcDbEntity
  8
0
100
AcDbLine
 62
7
  6
BYLAYER
 10
98.1614174896
 20
35.1189713478
 11
97.9536617512
 21
34.9112156094
  0
LINE
  5
7CF
100
AcDbEntity
  8
0
100
AcDbLine
 62
7
  6
BYLAYER
 10
98.7156327365
 20
34.149244624
 11
98.9233884749
 21
34.3570003625
  0
LINE
  5
7D0
100
AcDbEntity
  8
0
100
AcDbLine
 62
7
  6
BYLAYER
 10
132.103399296
 20
67.3464821689
 11
132.0643093325
 21
67.3073922054
  0
LINE
  5
7D1
100
AcDbEntity
  8
0
100
AcDbLine
 62
7
  6
BYLAYER
 10
129.755830245
 20
60.9603131179
 11
129.8037093325
 21
61.0081922054
  0
LWPOLYLINE
  5
7D2
100
AcDbEntity
  8
0
100
AcDbPolyline
 62
7
  6
BYLAYER
 90
3
 70
0
 10
98.7173125742
 20
180.4605222133
 10
98.706513704
 20
180.4603375781
 10
98.7001803862
 20
180.4603765615
  0
LINE
  5
7D3
100
AcDbEntity
  8
0
100
AcDbLine
 62
7
  6
BYLAYER
 10
97.9536617512
 20
180.453244624
 11
97.9640528681
 21
180.4532952415
  0
LINE
  5
7D4
100
AcDbEntity
  8
0
100
AcDbLine
 62
7
  6
BYLAYER
 10
101.159672953
 20
180.1810082445
 11
97.894145712
 21
180.1810082445
  0
LINE
  5
7D5
100
AcDbEntity
  8
0
100
AcDbLine
 62
7
  6
BYLAYER
 10
66.158472953
 20
180.1810082445
 11
62.892945712
 21
180.1810082445
  0
LINE
  5
7D6
100
AcDbEntity
  8
0
100
AcDbLine
 62
7
  6
BYLAYER
 10
101.4319093325
 20
180.453244624
 11
97.6219093325
 21
180.453244624
  0
LINE
  5
7D7
100
AcDbEntity
  8
0
100
AcDbLine
 62
7
  6
BYLAYER
 10
66.4307093325
 20
180.453244624
 11
62.6207093325
 21
180.453244624
  0
LINE
  5
7D8
100
AcDbEntity
  8
0
100
AcDbLine
 62
7
  6
BYLAYER
 10
100.130431825
 20
180.661000351
 11
98.9233828826
 21
180.6610003513
  0
LINE
  5
7D9
100
AcDbEntity
  8
0
100
AcDbLine
 62
7
  6
BYLAYER
 10
65.1292301958
 20
180.6610003508
 11
63.922187567
 21
180.6610003509
  0
LINE
  5
7DA
100
AcDbEntity
  8
0
100
AcDbLine
 62
7
  6
BYLAYER
 10
60.6649093328
 20
181.0485922053
 11
61.9857093325
 21
181.0485922053
  0
LINE
  5
7DB
100
AcDbEntity
  8
0
100
AcDbLine
 62
7
  6
BYLAYER
 10
67.3197093328
 20
181.0485922053
 11
68.6405093325
 21
181.0485922053
  0
LINE
  5
7DC
100
AcDbEntity
  8
0
100
AcDbLine
 62
7
  6
BYLAYER
 10
95.4121093328
 20
181.0485922053
 11
96.7329093325
 21
181.0485922053
  0
LINE
  5
7DD
100
AcDbEntity
  8
0
100
AcDbLine
 62
7
  6
BYLAYER
 10
102.0669093328
 20
181.0485922053
 11
103.3877093325
 21
181.0485922053
  0
LINE
  5
7DE
100
AcDbEntity
  8
0
100
AcDbLine
 62
7
  6
BYLAYER
 10
63.1602174896
 20
181.4229713478
 11
65.8912011754
 21
181.4229713478
  0
LINE
  5
7DF
100
AcDbEntity
  8
0
100
AcDbLine
 62
7
  6
BYLAYER
 10
98.1614174896
 20
181.4229713478
 11
100.8924011754
 21
181.4229713478
  0
LINE
  5
7E0
100
AcDbEntity
  8
0
100
AcDbLine
 62
7
  6
BYLAYER
 10
129.6640093325
 20
182.4215158405
 11
129.4735085311
 21
182.4215158405
  0
LINE
  5
7E1
100
AcDbEntity
  8
0
100
AcDbLine
 62
7
  6
BYLAYER
 10
104.5815101338
 20
182.4215158405
 11
104.3910093325
 21
182.4215158405
  0
LINE
  5
7E2
100
AcDbEntity
  8
0
100
AcDbLine
 62
7
  6
BYLAYER
 10
94.6628093325
 20
182.4215158405
 11
94.4723085311
 21
182.4215158405
  0
LINE
  5
7E3
100
AcDbEntity
  8
0
100
AcDbLine
 62
7
  6
BYLAYER
 10
69.5803101338
 20
182.4215158405
 11
69.3898093325
 21
182.4215158405
  0
LINE
  5
7E4
100
AcDbEntity
  8
0
100
AcDbLine
 62
7
  6
BYLAYER
 10
59.6616093325
 20
182.4215158405
 11
59.4711085311
 21
182.4215158405
  0
LINE
  5
7E5
100
AcDbEntity
  8
0
100
AcDbLine
 62
7
  6
BYLAYER
 10
34.5791101338
 20
182.4215158405
 11
34.3886093325
 21
182.4215158405
  0
LINE
  5
7E6
100
AcDbEntity
  8
0
100
AcDbLine
 62
7
  6
BYLAYER
 10
30.5960428454
 20
183.4420988728
 11
30.6675093325
 21
183.4420988728
  0
LINE
  5
7E7
100
AcDbEntity
  8
0
100
AcDbLine
 62
7
  6
BYLAYER
 10
133.3851093325
 20
183.4420988728
 11
133.4565758196
 21
183.4420988728
  0
LINE
  5
7E8
100
AcDbEntity
  8
0
100
AcDbLine
 62
7
  6
BYLAYER
 10
129.4735093325
 20
183.6393922054
 11
104.5815093325
 21
183.6393922054
  0
LINE
  5
7E9
100
AcDbEntity
  8
0
100
AcDbLine
 62
7
  6
BYLAYER
 10
94.4723093325
 20
183.6393922054
 11
69.5803093325
 21
183.6393922054
  0
LINE
  5
7EA
100
AcDbEntity
  8
0
100
AcDbLine
 62
7
  6
BYLAYER
 10
59.4711093325
 20
183.6393922054
 11
34.5791093325
 21
183.6393922054
  0
LINE
  5
7EB
100
AcDbEntity
  8
0
100
AcDbLine
 62
7
  6
BYLAYER
 10
34.3886093325
 20
184.8572685702
 11
34.5791093325
 21
184.8572685702
  0
LINE
  5
7EC
100
AcDbEntity
  8
0
100
AcDbLine
 62
7
  6
BYLAYER
 10
59.4711093325
 20
184.8572685702
 11
59.6616093325
 21
184.8572685702
  0
LINE
  5
7ED
100
AcDbEntity
  8
0
100
AcDbLine
 62
7
  6
BYLAYER
 10
69.3898093325
 20
184.8572685702
 11
69.5803093325
 21
184.8572685702
  0
LINE
  5
7EE
100
AcDbEntity
  8
0
100
AcDbLine
 62
7
  6
BYLAYER
 10
94.4723093325
 20
184.8572685702
 11
94.6628093325
 21
184.8572685702
  0
LINE
  5
7EF
100
AcDbEntity
  8
0
100
AcDbLine
 62
7
  6
BYLAYER
 10
104.3910093325
 20
184.8572685702
 11
104.5815093325
 21
184.8572685702
  0
LINE
  5
7F0
100
AcDbEntity
  8
0
100
AcDbLine
 62
7
  6
BYLAYER
 10
129.4735093325
 20
184.8572685702
 11
129.6640093325
 21
184.8572685702
  0
LINE
  5
7F1
100
AcDbEntity
  8
0
100
AcDbLine
 62
7
  6
BYLAYER
 10
97.9536617512
 20
192.3119688013
 11
98.1614174896
 21
192.1042130629
  0
LINE
  5
7F2
100
AcDbEntity
  8
0
100
AcDbLine
 62
7
  6
BYLAYER
 10
98.9233884749
 20
192.8661840483
 11
98.7156327365
 21
193.0739397867
  0
LINE
  5
7F3
100
AcDbEntity
  8
0
100
AcDbLine
 62
7
  6
BYLAYER
 10
100.8924011754
 20
192.1042130629
 11
98.1614174896
 21
192.1042130629
  0
LINE
  5
7F4
100
AcDbEntity
  8
0
100
AcDbLine
 62
7
  6
BYLAYER
 10
65.8912011754
 20
192.1042130629
 11
63.1602174896
 21
192.1042130629
  0
LINE
  5
7F5
100
AcDbEntity
  8
0
100
AcDbLine
 62
7
  6
BYLAYER
 10
63.9221884749
 20
192.8661840483
 11
65.12923019
 21
192.8661840483
  0
LINE
  5
7F6
100
AcDbEntity
  8
0
100
AcDbLine
 62
7
  6
BYLAYER
 10
98.9233884749
 20
192.8661840483
 11
100.13043019
 21
192.8661840483
  0
LINE
  5
7F7
100
AcDbEntity
  8
0
100
AcDbLine
 62
7
  6
BYLAYER
 10
100.3381859284
 20
193.0739397867
 11
98.7156327365
 21
193.0739397867
  0
LINE
  5
7F8
100
AcDbEntity
  8
0
100
AcDbLine
 62
7
  6
BYLAYER
 10
63.7144327365
 20
193.0739397867
 11
65.3369859284
 21
193.0739397867
  0
LINE
  5
7F9
100
AcDbEntity
  8
0
100
AcDbLine
 62
7
  6
BYLAYER
 10
128.7115093325
 20
201.0637922054
 11
105.3435093325
 21
201.0637922054
  0
LINE
  5
7FA
100
AcDbEntity
  8
0
100
AcDbLine
 62
7
  6
BYLAYER
 10
93.7103093325
 20
201.0637922054
 11
70.3423093325
 21
201.0637922054
  0
LINE
  5
7FB
100
AcDbEntity
  8
0
100
AcDbLine
 62
7
  6
BYLAYER
 10
58.7091093325
 20
201.0637922054
 11
35.3411093325
 21
201.0637922054
  0
LINE
  5
7FC
100
AcDbEntity
  8
0
100
AcDbLine
 62
7
  6
BYLAYER
 10
132.2034733143
 20
201.7871561871
 11
131.6954733143
 21
201.7871561871
  0
LINE
  5
7FD
100
AcDbEntity
  8
0
100
AcDbLine
 62
7
  6
BYLAYER
 10
32.3571453507
 20
201.7871561871
 11
31.8491453507
 21
201.7871561871
  0
LINE
  5
7FE
100
AcDbEntity
  8
0
100
AcDbLine
 62
7
  6
BYLAYER
 10
132.9654511001
 20
202.5491344312
 11
132.4574442996
 21
202.5491271725
  0
LINE
  5
7FF
100
AcDbEntity
  8
0
100
AcDbLine
 62
7
  6
BYLAYER
 10
31.5951743653
 20
202.5491271725
 11
31.0871675649
 21
202.5491344312
  0
LINE
  5
800
100
AcDbEntity
  8
0
100
AcDbLine
 62
7
  6
BYLAYER
 10
123.8855093325
 20
202.5877922054
 11
110.1695093325
 21
202.5877922054
  0
LINE
  5
801
100
AcDbEntity
  8
0
100
AcDbLine
 62
7
  6
BYLAYER
 10
88.8843093325
 20
202.5877922054
 11
75.1683093325
 21
202.5877922054
  0
LINE
  5
802
100
AcDbEntity
  8
0
100
AcDbLine
 62
7
  6
BYLAYER
 10
53.8831093325
 20
202.5877922054
 11
40.1671093325
 21
202.5877922054
  0
LINE
  5
803
100
AcDbEntity
  8
0
100
AcDbLine
 62
7
  6
BYLAYER
 10
133.3851093325
 20
202.9687922054
 11
132.8771093325
 21
202.9687922054
  0
LINE
  5
804
100
AcDbEntity
  8
0
100
AcDbLine
 62
7
  6
BYLAYER
 10
31.1755093325
 20
202.9687922054
 11
30.6675093325
 21
202.9687922054
  0
LINE
  5
805
100
AcDbEntity
  8
0
100
AcDbLine
 62
7
  6
BYLAYER
 10
100.6060671062
 20
203.6545922054
 11
98.4477515587
 21
203.6545922054
  0
LINE
  5
806
100
AcDbEntity
  8
0
100
AcDbLine
 62
7
  6
BYLAYER
 10
63.4465515587
 20
203.6545922054
 11
65.6048671062
 21
203.6545922054
  0
LINE
  5
807
100
AcDbEntity
  8
0
100
AcDbLine
 62
7
  6
BYLAYER
 10
42.4531093325
 20
204.8737922054
 11
51.5971093325
 21
204.8737922054
  0
LINE
  5
808
100
AcDbEntity
  8
0
100
AcDbLine
 62
7
  6
BYLAYER
 10
77.4543093325
 20
204.8737922054
 11
86.5983093325
 21
204.8737922054
  0
LINE
  5
809
100
AcDbEntity
  8
0
100
AcDbLine
 62
7
  6
BYLAYER
 10
112.4555093325
 20
204.8737922054
 11
121.5995093325
 21
204.8737922054
  0
LINE
  5
80A
100
AcDbEntity
  8
0
100
AcDbLine
 62
7
  6
BYLAYER
 10
65.6483162538
 20
206.1437922054
 11
63.4031024111
 21
206.1437922054
  0
LINE
  5
80B
100
AcDbEntity
  8
0
100
AcDbLine
 62
7
  6
BYLAYER
 10
98.4043024111
 20
206.1437922054
 11
100.6495162538
 21
206.1437922054
  0
LINE
  5
80C
100
AcDbEntity
  8
0
100
AcDbLine
 62
7
  6
BYLAYER
 10
132.8771093325
 20
209.1409922054
 11
129.6859539142
 21
209.1409922054
  0
LINE
  5
80D
100
AcDbEntity
  8
0
100
AcDbLine
 62
7
  6
BYLAYER
 10
104.3690647507
 20
209.1409922054
 11
100.7018325744
 21
209.1409922054
  0
LINE
  5
80E
100
AcDbEntity
  8
0
100
AcDbLine
 62
7
  6
BYLAYER
 10
98.3519860905
 20
209.1409922054
 11
94.6847539142
 21
209.1409922054
  0
LINE
  5
80F
100
AcDbEntity
  8
0
100
AcDbLine
 62
7
  6
BYLAYER
 10
94.6628093325
 20
209.1409922054
 11
69.3898093325
 21
209.1409922054
  0
LINE
  5
810
100
AcDbEntity
  8
0
100
AcDbLine
 62
7
  6
BYLAYER
 10
69.3678647507
 20
209.1409922054
 11
65.7006325744
 21
209.1409922054
  0
LINE
  5
811
100
AcDbEntity
  8
0
100
AcDbLine
 62
7
  6
BYLAYER
 10
63.3507860905
 20
209.1409922054
 11
59.6835539142
 21
209.1409922054
  0
LINE
  5
812
100
AcDbEntity
  8
0
100
AcDbLine
 62
7
  6
BYLAYER
 10
59.6616093325
 20
209.1409922054
 11
34.3886093325
 21
209.1409922054
  0
LINE
  5
813
100
AcDbEntity
  8
0
100
AcDbLine
 62
7
  6
BYLAYER
 10
34.3666647507
 20
209.1409922054
 11
31.1755093325
 21
209.1409922054
  0
LINE
  5
814
100
AcDbEntity
  8
0
100
AcDbLine
 62
7
  6
BYLAYER
 10
104.3910093325
 20
209.1409922054
 11
129.6640093325
 21
209.1409922054
  0
ARC
  5
815
100
AcDbEntity
  8
0
100
AcDbCircle
 62
7
  6
BYLAYER
 10
42.4531093325
 20
24.6861922054
 40
2.286
100
AcDbArc
 50
180.0
 51
270.0
  0
ARC
  5
816
100
AcDbEntity
  8
0
100
AcDbCircle
 62
7
  6
BYLAYER
 10
35.3411093325
 20
26.9721922054
 40
0.762
100
AcDbArc
 50
180.0
 51
270.0
  0
ARC
  5
817
100
AcDbEntity
  8
0
100
AcDbCircle
 62
7
  6
BYLAYER
 10
42.5166093325
 20
48.0033922054
 40
8.1499445817
100
AcDbArc
 50
90.0000000003
 51
179.9999999991
  0
ARC
  5
818
100
AcDbEntity
  8
0
100
AcDbCircle
 62
7
  6
BYLAYER
 10
42.7071093325
 20
47.8001922054
 40
8.128
100
AcDbArc
 50
90.0013494256
 51
180.0014350791
  0
ARC
  5
819
100
AcDbEntity
  8
0
100
AcDbCircle
 62
7
  6
BYLAYER
 10
29.4991093325
 20
51.1275922054
 40
3.048
100
AcDbArc
 50
320.4553518744
 51
63.512075307
  0
ARC
  5
81A
100
AcDbEntity
  8
0
100
AcDbCircle
 62
7
  6
BYLAYER
 10
29.4991093325
 20
51.1275922054
 40
2.286
100
AcDbArc
 50
300.7396914795
 51
85.5391563021
  0
CIRCLE
  5
81B
100
AcDbEntity
  8
0
100
AcDbCircle
 62
7
  6
BYLAYER
 10
43.4183093325
 20
59.0269922054
 40
1.905
  0
CIRCLE
  5
81C
100
AcDbEntity
  8
0
100
AcDbCircle
 62
7
  6
BYLAYER
 10
43.4183093325
 20
59.0269922054
 40
1.6327636205
  0
ARC
  5
81D
100
AcDbEntity
  8
0
100
AcDbCircle
 62
7
  6
BYLAYER
 10
64.5257093325
 20
23.6193922054
 40
2.6736231516
100
AcDbArc
 50
66.3714384423
 51
113.672127259
  0
ARC
  5
81E
100
AcDbEntity
  8
0
100
AcDbCircle
 62
7
  6
BYLAYER
 10
64.5257093325
 20
23.6193922054
 40
2.4936719357
100
AcDbArc
 50
63.880900123
 51
115.1307023942
  0
ARC
  5
81F
100
AcDbEntity
  8
0
100
AcDbCircle
 62
7
  6
BYLAYER
 10
51.5971093325
 20
24.6861922054
 40
2.286
100
AcDbArc
 50
269.9999999998
 51
360.0
  0
ARC
  5
820
100
AcDbEntity
  8
0
100
AcDbCircle
 62
7
  6
BYLAYER
 10
64.5257093325
 20
31.5695922054
 40
0.9398
100
AcDbArc
 50
0.9999999997
 51
179.0000000004
  0
ARC
  5
821
100
AcDbEntity
  8
0
100
AcDbCircle
 62
7
  6
BYLAYER
 10
63.9222585222
 20
35.1190413951
 40
0.7620410359
100
AcDbArc
 50
180.0052666623
 51
269.9947333373
  0
ARC
  5
822
100
AcDbEntity
  8
0
100
AcDbCircle
 62
7
  6
BYLAYER
 10
65.1291601427
 20
35.1190413951
 40
0.7620410359
100
AcDbArc
 50
270.0052666627
 51
359.9947333373
  0
ARC
  5
823
100
AcDbEntity
  8
0
100
AcDbCircle
 62
7
  6
BYLAYER
 10
70.3423093325
 20
26.9721922054
 40
0.762
100
AcDbArc
 50
180.0
 51
270.0
  0
ARC
  5
824
100
AcDbEntity
  8
0
100
AcDbCircle
 62
7
  6
BYLAYER
 10
58.7091093325
 20
26.9721922054
 40
0.762
100
AcDbArc
 50
270.0
 51
360.0
  0
ARC
  5
825
100
AcDbEntity
  8
0
100
AcDbCircle
 62
7
  6
BYLAYER
 10
51.5336093325
 20
48.0033922054
 40
8.1499445817
100
AcDbArc
 50
0.0
 51
89.9999999997
  0
ARC
  5
826
100
AcDbEntity
  8
0
100
AcDbCircle
 62
7
  6
BYLAYER
 10
51.3431093325
 20
47.8001922054
 40
8.128
100
AcDbArc
 50
359.9986544337
 51
89.9985692731
  0
ARC
  5
827
100
AcDbEntity
  8
0
100
AcDbCircle
 62
7
  6
BYLAYER
 10
64.5257093325
 20
59.8397922054
 40
3.2189803443
100
AcDbArc
 50
227.8786150252
 51
312.1213849748
  0
ARC
  5
828
100
AcDbEntity
  8
0
100
AcDbCircle
 62
7
  6
BYLAYER
 10
64.5257093325
 20
51.1275922054
 40
2.7818989649
100
AcDbArc
 50
234.0609626371
 51
305.9433346615
  0
ARC
  5
829
100
AcDbEntity
  8
0
100
AcDbCircle
 62
7
  6
BYLAYER
 10
64.5257093325
 20
51.1275922054
 40
2.7818989649
100
AcDbArc
 50
54.0609626371
 51
125.9433346615
  0
ARC
  5
82A
100
AcDbEntity
  8
0
100
AcDbCircle
 62
7
  6
BYLAYER
 10
64.5257093325
 20
51.1275922054
 40
2.7730324672
100
AcDbArc
 50
313.3910152014
 51
46.6089847986
  0
ARC
  5
82B
100
AcDbEntity
  8
0
100
AcDbCircle
 62
7
  6
BYLAYER
 10
64.5257093325
 20
51.1275922054
 40
2.7730324672
100
AcDbArc
 50
133.3910152014
 51
226.6089847986
  0
CIRCLE
  5
82C
100
AcDbEntity
  8
0
100
AcDbCircle
 62
7
  6
BYLAYER
 10
64.5257093325
 20
58.8237922054
 40
2.7016304393
  0
ARC
  5
82D
100
AcDbEntity
  8
0
100
AcDbCircle
 62
7
  6
BYLAYER
 10
64.5257093325
 20
51.1275922054
 40
2.5527
100
AcDbArc
 50
174.2894777718
 51
5.7105222282
  0
ARC
  5
82E
100
AcDbEntity
  8
0
100
AcDbCircle
 62
7
  6
BYLAYER
 10
64.5257093325
 20
51.1275922054
 40
2.4600969793
100
AcDbArc
 50
174.0737664622
 51
5.9262335378
  0
ARC
  5
82F
100
AcDbEntity
  8
0
100
AcDbCircle
 62
7
  6
BYLAYER
 10
64.5257093325
 20
51.1275922054
 40
2.2938501479
100
AcDbArc
 50
173.6425518412
 51
6.3574481588
  0
ARC
  5
830
100
AcDbEntity
  8
0
100
AcDbCircle
 62
7
  6
BYLAYER
 10
70.4947093325
 20
53.0325922054
 40
0.9144
100
AcDbArc
 50
270.0000000006
 51
288.7395922524
  0
ARC
  5
831
100
AcDbEntity
  8
0
100
AcDbCircle
 62
7
  6
BYLAYER
 10
58.5567093325
 20
53.0325922054
 40
0.9139566751
100
AcDbArc
 50
251.2189102325
 51
269.9999999967
  0
ARC
  5
832
100
AcDbEntity
  8
0
100
AcDbCircle
 62
7
  6
BYLAYER
 10
65.1354618402
 20
45.7994401099
 40
0.7557396755
100
AcDbArc
 50
0.0542016144
 51
8.5830820705
  0
ARC
  5
833
100
AcDbEntity
  8
0
100
AcDbCircle
 62
7
  6
BYLAYER
 10
67.9801093325
 20
46.3269922054
 40
0.6604
100
AcDbArc
 50
0.0000000409
 51
180.0
  0
ARC
  5
834
100
AcDbEntity
  8
0
100
AcDbCircle
 62
7
  6
BYLAYER
 10
61.3253093325
 20
46.3269922054
 40
0.6604
100
AcDbArc
 50
0.0000000409
 51
180.0
  0
ARC
  5
835
100
AcDbEntity
  8
0
100
AcDbCircle
 62
7
  6
BYLAYER
 10
64.9408711462
 20
65.3682303659
 40
0.5080272873
100
AcDbArc
 50
270.0052616726
 51
359.9946297633
  0
ARC
  5
836
100
AcDbEntity
  8
0
100
AcDbCircle
 62
7
  6
BYLAYER
 10
64.9539854302
 20
65.3549268549
 40
0.5079893976
100
AcDbArc
 50
270.0062860196
 51
0.0149433649
  0
CIRCLE
  5
837
100
AcDbEntity
  8
0
100
AcDbCircle
 62
7
  6
BYLAYER
 10
41.0307093325
 20
101.6227922054
 40
3.8608
  0
CIRCLE
  5
838
100
AcDbEntity
  8
0
100
AcDbCircle
 62
7
  6
BYLAYER
 10
33.1313093325
 20
96.3395922054
 40
1.5116780841
  0
CIRCLE
  5
839
100
AcDbEntity
  8
0
100
AcDbCircle
 62
7
  6
BYLAYER
 10
64.5257093325
 20
108.1759922054
 40
1.5096831221
  0
CIRCLE
  5
83A
100
AcDbEntity
  8
0
100
AcDbCircle
 62
7
  6
BYLAYER
 10
33.1313093325
 20
96.3395922054
 40
1.5
  0
CIRCLE
  5
83B
100
AcDbEntity
  8
0
100
AcDbCircle
 62
7
  6
BYLAYER
 10
41.0307093325
 20
101.6227922054
 40
1.0148139743
  0
ARC
  5
83C
100
AcDbEntity
  8
0
100
AcDbCircle
 62
7
  6
BYLAYER
 10
86.5983093325
 20
24.6861922054
 40
2.286
100
AcDbArc
 50
270.0
 51
360.0
  0
ARC
  5
83D
100
AcDbEntity
  8
0
100
AcDbCircle
 62
7
  6
BYLAYER
 10
77.4543093325
 20
24.6861922054
 40
2.286
100
AcDbArc
 50
180.0
 51
270.0
  0
ARC
  5
83E
100
AcDbEntity
  8
0
100
AcDbCircle
 62
7
  6
BYLAYER
 10
98.9234585222
 20
35.1190413951
 40
0.7620410359
100
AcDbArc
 50
180.0052666627
 51
269.9947333373
  0
ARC
  5
83F
100
AcDbEntity
  8
0
100
AcDbCircle
 62
7
  6
BYLAYER
 10
93.7103093325
 20
26.9721922054
 40
0.762
100
AcDbArc
 50
270.0
 51
360.0
  0
ARC
  5
840
100
AcDbEntity
  8
0
100
AcDbCircle
 62
7
  6
BYLAYER
 10
86.5348093325
 20
48.0033922054
 40
8.1499445817
100
AcDbArc
 50
0.0
 51
89.9999999997
  0
ARC
  5
841
100
AcDbEntity
  8
0
100
AcDbCircle
 62
7
  6
BYLAYER
 10
77.5178093325
 20
48.0033922054
 40
8.1499445817
100
AcDbArc
 50
90.0000000003
 51
180.0000000002
  0
ARC
  5
842
100
AcDbEntity
  8
0
100
AcDbCircle
 62
7
  6
BYLAYER
 10
86.3443093325
 20
47.8001922054
 40
8.128
100
AcDbArc
 50
359.9986544338
 51
89.9985692731
  0
ARC
  5
843
100
AcDbEntity
  8
0
100
AcDbCircle
 62
7
  6
BYLAYER
 10
77.7083093325
 20
47.8001922054
 40
8.128
100
AcDbArc
 50
90.0013494243
 51
180.0014350808
  0
ARC
  5
844
100
AcDbEntity
  8
0
100
AcDbCircle
 62
7
  6
BYLAYER
 10
82.0263093325
 20
56.6393922054
 40
1.1421845737
100
AcDbArc
 50
207.5561967384
 51
219.7440103503
  0
ARC
  5
845
100
AcDbEntity
  8
0
100
AcDbCircle
 62
7
  6
BYLAYER
 10
82.0263093325
 20
56.6393922054
 40
1.1421845737
100
AcDbArc
 50
320.2172906425
 51
332.5198779384
  0
ARC
  5
846
100
AcDbEntity
  8
0
100
AcDbCircle
 62
7
  6
BYLAYER
 10
98.9234372057
 20
45.8001705281
 40
0.7620106547
100
AcDbArc
 50
90.0036634952
 51
179.9968029516
  0
ARC
  5
847
100
AcDbEntity
  8
0
100
AcDbCircle
 62
7
  6
BYLAYER
 10
96.0725093325
 20
46.3269922054
 40
0.6604
100
AcDbArc
 50
0.0000000409
 51
180.0
  0
ARC
  5
848
100
AcDbEntity
  8
0
100
AcDbCircle
 62
7
  6
BYLAYER
 10
99.1117475361
 20
65.3682303708
 40
0.5080273019
100
AcDbArc
 50
180.0053941063
 51
269.9947352661
  0
ARC
  5
849
100
AcDbEntity
  8
0
100
AcDbCircle
 62
7
  6
BYLAYER
 10
99.0987210976
 20
65.3550144642
 40
0.5079894718
100
AcDbArc
 50
179.9850481323
 51
269.9937174489
  0
ARC
  5
84A
100
AcDbEntity
  8
0
100
AcDbCircle
 62
7
  6
BYLAYER
 10
99.5269093325
 20
23.6193922054
 40
2.6736231516
100
AcDbArc
 50
69.3068441633
 51
109.2076731772
  0
ARC
  5
84B
100
AcDbEntity
  8
0
100
AcDbCircle
 62
7
  6
BYLAYER
 10
99.5269093325
 20
23.6193922054
 40
2.4936719357
100
AcDbArc
 50
63.880900123
 51
115.1307023942
  0
ARC
  5
84C
100
AcDbEntity
  8
0
100
AcDbCircle
 62
7
  6
BYLAYER
 10
121.5995093325
 20
24.6861922054
 40
2.286
100
AcDbArc
 50
269.9999999998
 51
360.0
  0
ARC
  5
84D
100
AcDbEntity
  8
0
100
AcDbCircle
 62
7
  6
BYLAYER
 10
112.4555093325
 20
24.6861922054
 40
2.286
100
AcDbArc
 50
180.0
 51
270.0
  0
ARC
  5
84E
100
AcDbEntity
  8
0
100
AcDbCircle
 62
7
  6
BYLAYER
 10
99.5269093325
 20
31.5695922054
 40
0.9398
100
AcDbArc
 50
0.9999999997
 51
179.0000000004
  0
ARC
  5
84F
100
AcDbEntity
  8
0
100
AcDbCircle
 62
7
  6
BYLAYER
 10
100.1303601427
 20
35.1190413951
 40
0.7620410359
100
AcDbArc
 50
270.0052666627
 51
359.9947333371
  0
ARC
  5
850
100
AcDbEntity
  8
0
100
AcDbCircle
 62
7
  6
BYLAYER
 10
105.3435093325
 20
26.9721922054
 40
0.762
100
AcDbArc
 50
180.0
 51
270.0
  0
ARC
  5
851
100
AcDbEntity
  8
0
100
AcDbCircle
 62
7
  6
BYLAYER
 10
121.5360093325
 20
48.0033922054
 40
8.1499445817
100
AcDbArc
 50
0.0000000008
 51
89.9999999997
  0
ARC
  5
852
100
AcDbEntity
  8
0
100
AcDbCircle
 62
7
  6
BYLAYER
 10
112.5190093325
 20
48.0033922054
 40
8.1499445817
100
AcDbArc
 50
90.0000000003
 51
180.0000000002
  0
ARC
  5
853
100
AcDbEntity
  8
0
100
AcDbCircle
 62
7
  6
BYLAYER
 10
112.7095093325
 20
47.8001922054
 40
8.128
100
AcDbArc
 50
90.0013494252
 51
180.0014350799
  0
ARC
  5
854
100
AcDbEntity
  8
0
100
AcDbCircle
 62
7
  6
BYLAYER
 10
121.3455093325
 20
47.8001922054
 40
8.128
100
AcDbArc
 50
359.9986544333
 51
89.9985692732
  0
ARC
  5
855
100
AcDbEntity
  8
0
100
AcDbCircle
 62
7
  6
BYLAYER
 10
99.5269093325
 20
51.1529922054
 40
6.1468
100
AcDbArc
 50
78.5240611895
 51
94.238126451
  0
ARC
  5
856
100
AcDbEntity
  8
0
100
AcDbCircle
 62
7
  6
BYLAYER
 10
99.5269093325
 20
51.1529922054
 40
6.0816312421
100
AcDbArc
 50
79.5126253535
 51
99.6839846471
  0
ARC
  5
857
100
AcDbEntity
  8
0
100
AcDbCircle
 62
7
  6
BYLAYER
 10
99.5269093325
 20
59.8397922054
 40
3.2189803443
100
AcDbArc
 50
227.8786150252
 51
312.1213849748
  0
ARC
  5
858
100
AcDbEntity
  8
0
100
AcDbCircle
 62
7
  6
BYLAYER
 10
99.5269093325
 20
51.1275922054
 40
2.7818989649
100
AcDbArc
 50
54.0609626371
 51
125.9433346615
  0
ARC
  5
859
100
AcDbEntity
  8
0
100
AcDbCircle
 62
7
  6
BYLAYER
 10
99.5269093325
 20
51.1275922054
 40
2.7818989649
100
AcDbArc
 50
234.0609626371
 51
305.9433346615
  0
ARC
  5
85A
100
AcDbEntity
  8
0
100
AcDbCircle
 62
7
  6
BYLAYER
 10
99.5269093325
 20
51.1275922054
 40
2.7730324672
100
AcDbArc
 50
313.3910152014
 51
46.6089847986
  0
ARC
  5
85B
100
AcDbEntity
  8
0
100
AcDbCircle
 62
7
  6
BYLAYER
 10
99.5269093325
 20
51.1275922054
 40
2.7730324672
100
AcDbArc
 50
133.3910152014
 51
226.6089847986
  0
ARC
  5
85C
100
AcDbEntity
  8
0
100
AcDbCircle
 62
7
  6
BYLAYER
 10
99.5269093325
 20
58.8237922054
 40
2.7016304393
100
AcDbArc
 50
120.1783392372
 51
59.8216607628
  0
ARC
  5
85D
100
AcDbEntity
  8
0
100
AcDbCircle
 62
7
  6
BYLAYER
 10
99.5269093325
 20
51.1275922054
 40
2.5527
100
AcDbArc
 50
174.2894777718
 51
5.7105222282
  0
CIRCLE
  5
85E
100
AcDbEntity
  8
0
100
AcDbCircle
 62
7
  6
BYLAYER
 10
120.6343093325
 20
59.0269922054
 40
1.905
  0
CIRCLE
  5
85F
100
AcDbEntity
  8
0
100
AcDbCircle
 62
7
  6
BYLAYER
 10
120.6343093325
 20
59.0269922054
 40
1.6327636205
  0
ARC
  5
860
100
AcDbEntity
  8
0
100
AcDbCircle
 62
7
  6
BYLAYER
 10
100.1296019204
 20
45.7908744973
 40
0.7713005795
100
AcDbArc
 50
81.5763512772
 51
89.9384734496
  0
ARC
  5
861
100
AcDbEntity
  8
0
100
AcDbCircle
 62
7
  6
BYLAYER
 10
100.130418826
 20
45.8001999827
 40
0.7619736744
100
AcDbArc
 50
0.0009829626
 51
81.5343913558
  0
ARC
  5
862
100
AcDbEntity
  8
0
100
AcDbCircle
 62
7
  6
BYLAYER
 10
102.7273093325
 20
46.3269922054
 40
0.6604
100
AcDbArc
 50
0.0000000409
 51
180.0
  0
CIRCLE
  5
863
100
AcDbEntity
  8
0
100
AcDbCircle
 62
7
  6
BYLAYER
 10
123.0219093325
 20
101.6227922054
 40
3.8608
  0
ARC
  5
864
100
AcDbEntity
  8
0
100
AcDbCircle
 62
7
  6
BYLAYER
 10
77.7464093325
 20
73.4668922054
 40
1.5875
100
AcDbArc
 50
90.0
 51
270.0
  0
ARC
  5
865
100
AcDbEntity
  8
0
100
AcDbCircle
 62
7
  6
BYLAYER
 10
93.5960093325
 20
73.4668922054
 40
1.5875
100
AcDbArc
 50
270.0
 51
90.0
  0
CIRCLE
  5
866
100
AcDbEntity
  8
0
100
AcDbCircle
 62
7
  6
BYLAYER
 10
99.5269093325
 20
69.6187922054
 40
1.5096831221
  0
CIRCLE
  5
867
100
AcDbEntity
  8
0
100
AcDbCircle
 62
7
  6
BYLAYER
 10
123.0219093325
 20
101.6227922054
 40
1.0148139743
  0
ARC
  5
868
100
AcDbEntity
  8
0
100
AcDbCircle
 62
7
  6
BYLAYER
 10
43.8755093325
 20
157.5138922054
 40
8.8011
100
AcDbArc
 50
136.7263904285
 51
140.3835458026
  0
ARC
  5
869
100
AcDbEntity
  8
0
100
AcDbCircle
 62
7
  6
BYLAYER
 10
43.8755093325
 20
157.5138922054
 40
8.7543292248
100
AcDbArc
 50
137.0644221654
 51
140.1284047912
  0
ARC
  5
86A
100
AcDbEntity
  8
0
100
AcDbCircle
 62
7
  6
BYLAYER
 10
43.8755093325
 20
157.5138922054
 40
8.205
100
AcDbArc
 50
126.5727307907
 51
128.8744861636
  0
ARC
  5
86B
100
AcDbEntity
  8
0
100
AcDbCircle
 62
7
  6
BYLAYER
 10
43.8755093325
 20
157.5138922054
 40
8.172415621
100
AcDbArc
 50
124.9064448515
 51
129.0768805902
  0
ARC
  5
86C
100
AcDbEntity
  8
0
100
AcDbCircle
 62
7
  6
BYLAYER
 10
71.3329093325
 20
157.5154922054
 40
6.4939768272
100
AcDbArc
 50
63.6481849107
 51
121.8054454901
  0
ARC
  5
86D
100
AcDbEntity
  8
0
100
AcDbCircle
 62
7
  6
BYLAYER
 10
71.3329093325
 20
157.5154922054
 40
5.7020085657
100
AcDbArc
 50
81.0021333913
 51
98.9978666087
  0
ARC
  5
86E
100
AcDbEntity
  8
0
100
AcDbCircle
 62
7
  6
BYLAYER
 10
69.0469093325
 20
141.2975922054
 40
4.572
100
AcDbArc
 50
0.0
 51
90.0
  0
ARC
  5
86F
100
AcDbEntity
  8
0
100
AcDbCircle
 62
7
  6
BYLAYER
 10
66.2529093325
 20
141.2975922054
 40
4.572
100
AcDbArc
 50
90.0
 51
180.0
  0
ARC
  5
870
100
AcDbEntity
  8
0
100
AcDbCircle
 62
7
  6
BYLAYER
 10
66.2529093325
 20
125.0415922054
 40
4.572
100
AcDbArc
 50
180.0
 51
270.0
  0
ARC
  5
871
100
AcDbEntity
  8
0
100
AcDbCircle
 62
7
  6
BYLAYER
 10
69.0469093325
 20
125.0415922054
 40
4.572
100
AcDbArc
 50
270.0
 51
360.0
  0
ARC
  5
872
100
AcDbEntity
  8
0
100
AcDbCircle
 62
7
  6
BYLAYER
 10
72.5267093325
 20
136.6493922054
 40
2.2347566751
100
AcDbArc
 50
108.0323774203
 51
153.858623966
  0
ARC
  5
873
100
AcDbEntity
  8
0
100
AcDbCircle
 62
7
  6
BYLAYER
 10
72.5267093325
 20
136.6493922054
 40
2.2347566751
100
AcDbArc
 50
60.5003392602
 51
71.9322587046
  0
ARC
  5
874
100
AcDbEntity
  8
0
100
AcDbCircle
 62
7
  6
BYLAYER
 10
72.5267093325
 20
136.6493922054
 40
2.2347566751
100
AcDbArc
 50
206.1413909508
 51
297.8304924397
  0
ARC
  5
875
100
AcDbEntity
  8
0
100
AcDbCircle
 62
7
  6
BYLAYER
 10
64.5257093325
 20
155.6231922054
 40
1.5875
100
AcDbArc
 50
206.719693969
 51
235.8316756043
  0
ARC
  5
876
100
AcDbEntity
  8
0
100
AcDbCircle
 62
7
  6
BYLAYER
 10
64.5257093325
 20
155.6231922054
 40
1.5875
100
AcDbArc
 50
304.1683243956
 51
333.2803060307
  0
ARC
  5
877
100
AcDbEntity
  8
0
100
AcDbCircle
 62
7
  6
BYLAYER
 10
77.7464093325
 20
130.4898922054
 40
1.5875
100
AcDbArc
 50
90.0
 51
270.0
  0
CIRCLE
  5
878
100
AcDbEntity
  8
0
100
AcDbCircle
 62
7
  6
BYLAYER
 10
64.5257093325
 20
114.1703922054
 40
1.5748
  0
CIRCLE
  5
879
100
AcDbEntity
  8
0
100
AcDbCircle
 62
7
  6
BYLAYER
 10
64.5257093325
 20
149.6287922054
 40
1.5096831221
  0
ARC
  5
87A
100
AcDbEntity
  8
0
100
AcDbCircle
 62
7
  6
BYLAYER
 10
72.5267093325
 20
138.9353922054
 40
0.7116433249
100
AcDbArc
 50
193.0873681503
 51
346.8881645686
  0
ARC
  5
87B
100
AcDbEntity
  8
0
100
AcDbCircle
 62
7
  6
BYLAYER
 10
71.3744835636
 20
131.6751770578
 40
0.5080273572
100
AcDbArc
 50
90.0052666636
 51
179.9947333373
  0
ARC
  5
87C
100
AcDbEntity
  8
0
100
AcDbCircle
 62
7
  6
BYLAYER
 10
69.9766991599
 20
133.5993922054
 40
0.3
100
AcDbArc
 50
180.0000000418
 51
270.0000000391
  0
ARC
  5
87D
100
AcDbEntity
  8
0
100
AcDbCircle
 62
7
  6
BYLAYER
 10
69.9766991599
 20
139.6993922053
 40
0.3
100
AcDbArc
 50
89.9999999587
 51
179.9999999573
  0
ARC
  5
87E
100
AcDbEntity
  8
0
100
AcDbCircle
 62
7
  6
BYLAYER
 10
75.076719505
 20
139.6993922053
 40
0.3
100
AcDbArc
 50
0.0000000086
 51
90.0000000247
  0
ARC
  5
87F
100
AcDbEntity
  8
0
100
AcDbCircle
 62
7
  6
BYLAYER
 10
75.076719505
 20
133.5993922054
 40
0.3
100
AcDbArc
 50
269.9999999715
 51
359.9999999684
  0
ARC
  5
880
100
AcDbEntity
  8
0
100
AcDbCircle
 62
7
  6
BYLAYER
 10
42.5166093325
 20
179.2705922054
 40
8.1499445817
100
AcDbArc
 50
180.0000000008
 51
269.9999999991
  0
ARC
  5
881
100
AcDbEntity
  8
0
100
AcDbCircle
 62
7
  6
BYLAYER
 10
51.5336093325
 20
179.2705922054
 40
8.1499445817
100
AcDbArc
 50
270.0000000008
 51
360.0
  0
ARC
  5
882
100
AcDbEntity
  8
0
100
AcDbCircle
 62
7
  6
BYLAYER
 10
42.7071093325
 20
179.4737922054
 40
8.128
100
AcDbArc
 50
179.9986501682
 51
269.9985653541
  0
ARC
  5
883
100
AcDbEntity
  8
0
100
AcDbCircle
 62
7
  6
BYLAYER
 10
51.3431093325
 20
179.4737922054
 40
8.128
100
AcDbArc
 50
270.0013451117
 51
0.0014312079
  0
ARC
  5
884
100
AcDbEntity
  8
0
100
AcDbCircle
 62
7
  6
BYLAYER
 10
29.4991093325
 20
176.1209922054
 40
3.048
100
AcDbArc
 50
296.4893443893
 51
39.555399868
  0
ARC
  5
885
100
AcDbEntity
  8
0
100
AcDbCircle
 62
7
  6
BYLAYER
 10
29.4991093325
 20
176.1209922054
 40
2.286
100
AcDbArc
 50
274.4608436979
 51
59.2603186491
  0
CIRCLE
  5
886
100
AcDbEntity
  8
0
100
AcDbCircle
 62
7
  6
BYLAYER
 10
43.4183093325
 20
168.2469922054
 40
1.905
  0
ARC
  5
887
100
AcDbEntity
  8
0
100
AcDbCircle
 62
7
  6
BYLAYER
 10
38.8419052824
 20
164.3472295568
 40
1.8169512853
100
AcDbArc
 50
77.9945623178
 51
89.952556892
  0
CIRCLE
  5
888
100
AcDbEntity
  8
0
100
AcDbCircle
 62
7
  6
BYLAYER
 10
43.4183093325
 20
168.2469922054
 40
1.6327636205
  0
ARC
  5
889
100
AcDbEntity
  8
0
100
AcDbCircle
 62
7
  6
BYLAYER
 10
38.3960338989
 20
162.6119989609
 40
1.2699897096
100
AcDbArc
 50
50.000632264
 51
137.0617702632
  0
ARC
  5
88A
100
AcDbEntity
  8
0
100
AcDbCircle
 62
7
  6
BYLAYER
 10
51.5971093325
 20
202.5877922054
 40
2.286
100
AcDbArc
 50
0.0
 51
90.0
  0
ARC
  5
88B
100
AcDbEntity
  8
0
100
AcDbCircle
 62
7
  6
BYLAYER
 10
42.4531093325
 20
202.5877922054
 40
2.286
100
AcDbArc
 50
89.9999999998
 51
180.0
  0
ARC
  5
88C
100
AcDbEntity
  8
0
100
AcDbCircle
 62
7
  6
BYLAYER
 10
35.3411093325
 20
200.3017922054
 40
0.762
100
AcDbArc
 50
90.0
 51
180.0
  0
ARC
  5
88D
100
AcDbEntity
  8
0
100
AcDbCircle
 62
7
  6
BYLAYER
 10
77.5178093325
 20
179.2705922054
 40
8.1499445817
100
AcDbArc
 50
179.9999999998
 51
269.9999999992
  0
ARC
  5
88E
100
AcDbEntity
  8
0
100
AcDbCircle
 62
7
  6
BYLAYER
 10
77.7083093325
 20
179.4737922054
 40
8.128
100
AcDbArc
 50
179.9986501673
 51
269.9985653554
  0
ARC
  5
88F
100
AcDbEntity
  8
0
100
AcDbCircle
 62
7
  6
BYLAYER
 10
64.5257093325
 20
176.1352922054
 40
6.9342
100
AcDbArc
 50
195.7177383691
 51
196.1724285777
  0
ARC
  5
890
100
AcDbEntity
  8
0
100
AcDbCircle
 62
7
  6
BYLAYER
 10
64.5257093325
 20
176.1352922054
 40
6.9242251901
100
AcDbArc
 50
343.8561576977
 51
344.2621706525
  0
ARC
  5
891
100
AcDbEntity
  8
0
100
AcDbCircle
 62
7
  6
BYLAYER
 10
64.5257093325
 20
176.1352922054
 40
6.913142068
100
AcDbArc
 50
246.6806230569
 51
294.6152765939
  0
ARC
  5
892
100
AcDbEntity
  8
0
100
AcDbCircle
 62
7
  6
BYLAYER
 10
64.5257093325
 20
176.1352922054
 40
6.9022771176
100
AcDbArc
 50
195.7067514237
 51
196.0601471937
  0
ARC
  5
893
100
AcDbEntity
  8
0
100
AcDbCircle
 62
7
  6
BYLAYER
 10
64.5257093325
 20
176.1352922054
 40
5.8419965093
100
AcDbArc
 50
248.791906836
 51
255.390214606
  0
ARC
  5
894
100
AcDbEntity
  8
0
100
AcDbCircle
 62
7
  6
BYLAYER
 10
64.5257093325
 20
176.1352922054
 40
5.8419965093
100
AcDbArc
 50
284.6098739022
 51
291.2083030007
  0
ARC
  5
895
100
AcDbEntity
  8
0
100
AcDbCircle
 62
7
  6
BYLAYER
 10
64.5257093325
 20
176.1352922054
 40
5.8085289713
100
AcDbArc
 50
247.5313159527
 51
256.7155545862
  0
ARC
  5
896
100
AcDbEntity
  8
0
100
AcDbCircle
 62
7
  6
BYLAYER
 10
64.5257093325
 20
176.1352922054
 40
5.8085289713
100
AcDbArc
 50
283.2845369858
 51
292.4686993532
  0
ARC
  5
897
100
AcDbEntity
  8
0
100
AcDbCircle
 62
7
  6
BYLAYER
 10
64.5257093325
 20
176.1209922054
 40
2.7940903992
100
AcDbArc
 50
54.2419839116
 51
125.7747477279
  0
ARC
  5
898
100
AcDbEntity
  8
0
100
AcDbCircle
 62
7
  6
BYLAYER
 10
64.5257093325
 20
176.1209922054
 40
2.7940903992
100
AcDbArc
 50
234.2419839116
 51
305.7747477279
  0
ARC
  5
899
100
AcDbEntity
  8
0
100
AcDbCircle
 62
7
  6
BYLAYER
 10
64.5257093325
 20
176.1209922054
 40
2.7852239015
100
AcDbArc
 50
133.154386751
 51
226.845613249
  0
ARC
  5
89A
100
AcDbEntity
  8
0
100
AcDbCircle
 62
7
  6
BYLAYER
 10
64.5257093325
 20
176.1209922054
 40
2.7852239015
100
AcDbArc
 50
313.154386751
 51
46.845613249
  0
ARC
  5
89B
100
AcDbEntity
  8
0
100
AcDbCircle
 62
7
  6
BYLAYER
 10
64.5257093325
 20
176.1209922054
 40
2.5527
100
AcDbArc
 50
314.2404771013
 51
225.7595228987
  0
ARC
  5
89C
100
AcDbEntity
  8
0
100
AcDbCircle
 62
7
  6
BYLAYER
 10
58.3241093325
 20
169.8852922054
 40
2.493542068
100
AcDbArc
 50
297.3831660746
 51
342.1105144481
  0
ARC
  5
89D
100
AcDbEntity
  8
0
100
AcDbCircle
 62
7
  6
BYLAYER
 10
58.3241093325
 20
169.8852922054
 40
1.3441612062
100
AcDbArc
 50
210.8119304388
 51
329.1784630555
  0
ARC
  5
89E
100
AcDbEntity
  8
0
100
AcDbCircle
 62
7
  6
BYLAYER
 10
58.3241093325
 20
169.8852922054
 40
1.32
100
AcDbArc
 50
211.39167887
 51
328.6210377432
  0
ARC
  5
89F
100
AcDbEntity
  8
0
100
AcDbCircle
 62
7
  6
BYLAYER
 10
63.9233676826
 20
181.4240568162
 40
0.7631509668
100
AcDbArc
 50
180.0814940037
 51
191.2515416194
  0
ARC
  5
8A0
100
AcDbEntity
  8
0
100
AcDbCircle
 62
7
  6
BYLAYER
 10
65.1291609354
 20
181.4230406013
 40
0.7620402438
100
AcDbArc
 50
270.0052063469
 51
359.9947937561
  0
ARC
  5
8A1
100
AcDbEntity
  8
0
100
AcDbCircle
 62
7
  6
BYLAYER
 10
61.3253093325
 20
180.9469922054
 40
0.6604
100
AcDbArc
 50
180.0000000409
 51
360.0
  0
ARC
  5
8A2
100
AcDbEntity
  8
0
100
AcDbCircle
 62
7
  6
BYLAYER
 10
67.9801093325
 20
180.9469922054
 40
0.6604
100
AcDbArc
 50
180.0000000409
 51
360.0
  0
ARC
  5
8A3
100
AcDbEntity
  8
0
100
AcDbCircle
 62
7
  6
BYLAYER
 10
64.5257093325
 20
203.6404922054
 40
2.5194113329
100
AcDbArc
 50
244.6182549513
 51
295.482126878
  0
ARC
  5
8A4
100
AcDbEntity
  8
0
100
AcDbCircle
 62
7
  6
BYLAYER
 10
77.4543093325
 20
202.5877922054
 40
2.286
100
AcDbArc
 50
90.0
 51
180.0
  0
ARC
  5
8A5
100
AcDbEntity
  8
0
100
AcDbCircle
 62
7
  6
BYLAYER
 10
64.5257093325
 20
195.6789922054
 40
0.9398
100
AcDbArc
 50
180.9999999996
 51
358.9999999989
  0
ARC
  5
8A6
100
AcDbEntity
  8
0
100
AcDbCircle
 62
7
  6
BYLAYER
 10
65.1291601427
 20
192.1041430156
 40
0.7620410359
100
AcDbArc
 50
0.0052666625
 51
89.9947333373
  0
ARC
  5
8A7
100
AcDbEntity
  8
0
100
AcDbCircle
 62
7
  6
BYLAYER
 10
63.9222585222
 20
192.1041430156
 40
0.7620410359
100
AcDbArc
 50
90.0052666627
 51
179.9947333373
  0
ARC
  5
8A8
100
AcDbEntity
  8
0
100
AcDbCircle
 62
7
  6
BYLAYER
 10
70.3423093325
 20
200.3017922054
 40
0.762
100
AcDbArc
 50
90.0
 51
180.0
  0
ARC
  5
8A9
100
AcDbEntity
  8
0
100
AcDbCircle
 62
7
  6
BYLAYER
 10
58.7091093325
 20
200.3017922054
 40
0.762
100
AcDbArc
 50
0.0
 51
90.0
  0
ARC
  5
8AA
100
AcDbEntity
  8
0
100
AcDbCircle
 62
7
  6
BYLAYER
 10
96.3265093325
 20
157.5154922054
 40
6.4939768272
100
AcDbArc
 50
55.4235949146
 51
118.9948145581
  0
ARC
  5
8AB
100
AcDbEntity
  8
0
100
AcDbCircle
 62
7
  6
BYLAYER
 10
96.3265093325
 20
157.5154922054
 40
5.7020085657
100
AcDbArc
 50
69.6666971381
 51
99.9099773984
  0
CIRCLE
  5
8AC
100
AcDbEntity
  8
0
100
AcDbCircle
 62
7
  6
BYLAYER
 10
118.8563093325
 20
150.1875922054
 40
3.9624
  0
CIRCLE
  5
8AD
100
AcDbEntity
  8
0
100
AcDbCircle
 62
7
  6
BYLAYER
 10
108.6963093325
 20
143.0755922054
 40
3.9624
  0
ARC
  5
8AE
100
AcDbEntity
  8
0
100
AcDbCircle
 62
7
  6
BYLAYER
 10
103.5511787839
 20
148.2327137668
 40
3.5655131782
100
AcDbArc
 50
179.0104637248
 51
179.9603307343
  0
CIRCLE
  5
8AF
100
AcDbEntity
  8
0
100
AcDbCircle
 62
7
  6
BYLAYER
 10
99.5269093325
 20
123.9493922054
 40
1.8796
  0
ARC
  5
8B0
100
AcDbEntity
  8
0
100
AcDbCircle
 62
7
  6
BYLAYER
 10
93.5960093325
 20
130.4898922054
 40
1.5875
100
AcDbArc
 50
270.0
 51
90.0
  0
CIRCLE
  5
8B1
100
AcDbEntity
  8
0
100
AcDbCircle
 62
7
  6
BYLAYER
 10
99.5269093325
 20
149.6287922054
 40
1.5096831221
  0
ARC
  5
8B2
100
AcDbEntity
  8
0
100
AcDbCircle
 62
7
  6
BYLAYER
 10
86.5348093325
 20
179.2705922054
 40
8.1499445817
100
AcDbArc
 50
270.0000000008
 51
360.0
  0
ARC
  5
8B3
100
AcDbEntity
  8
0
100
AcDbCircle
 62
7
  6
BYLAYER
 10
86.3443093325
 20
179.4737922054
 40
8.128
100
AcDbArc
 50
270.0013451117
 51
0.0014312079
  0
ARC
  5
8B4
100
AcDbEntity
  8
0
100
AcDbCircle
 62
7
  6
BYLAYER
 10
99.5269093325
 20
176.1209922054
 40
2.7940903992
100
AcDbArc
 50
54.2419839117
 51
125.7747477279
  0
ARC
  5
8B5
100
AcDbEntity
  8
0
100
AcDbCircle
 62
7
  6
BYLAYER
 10
99.5269093325
 20
176.1209922054
 40
2.7940903992
100
AcDbArc
 50
234.2419839117
 51
305.7747477279
  0
ARC
  5
8B6
100
AcDbEntity
  8
0
100
AcDbCircle
 62
7
  6
BYLAYER
 10
99.5269093325
 20
176.1209922054
 40
2.7852239015
100
AcDbArc
 50
133.154386751
 51
226.845613249
  0
ARC
  5
8B7
100
AcDbEntity
  8
0
100
AcDbCircle
 62
7
  6
BYLAYER
 10
99.5269093325
 20
176.1209922054
 40
2.7852239015
100
AcDbArc
 50
313.154386751
 51
46.845613249
  0
ARC
  5
8B8
100
AcDbEntity
  8
0
100
AcDbCircle
 62
7
  6
BYLAYER
 10
99.5269093325
 20
176.1209922054
 40
2.5527
100
AcDbArc
 50
314.2404771013
 51
225.7595228987
  0
ARC
  5
8B9
100
AcDbEntity
  8
0
100
AcDbCircle
 62
7
  6
BYLAYER
 10
98.9242167445
 20
181.4323099133
 40
0.7713005794
100
AcDbArc
 50
261.5763513191
 51
269.9384734531
  0
ARC
  5
8BA
100
AcDbEntity
  8
0
100
AcDbCircle
 62
7
  6
BYLAYER
 10
100.1303814593
 20
181.4230138826
 40
0.7620106547
100
AcDbArc
 50
270.003663494
 51
359.9968029526
  0
ARC
  5
8BB
100
AcDbEntity
  8
0
100
AcDbCircle
 62
7
  6
BYLAYER
 10
98.9233820459
 20
181.4229691509
 40
0.7619528327
100
AcDbArc
 50
179.9998342201
 51
261.5355456871
  0
ARC
  5
8BC
100
AcDbEntity
  8
0
100
AcDbCircle
 62
7
  6
BYLAYER
 10
96.0725093325
 20
180.9469922054
 40
0.6604
100
AcDbArc
 50
180.0000000409
 51
360.0
  0
ARC
  5
8BD
100
AcDbEntity
  8
0
100
AcDbCircle
 62
7
  6
BYLAYER
 10
102.7273093325
 20
180.9469922054
 40
0.6604
100
AcDbArc
 50
180.0000000409
 51
360.0
  0
ARC
  5
8BE
100
AcDbEntity
  8
0
100
AcDbCircle
 62
7
  6
BYLAYER
 10
99.5269093325
 20
203.6404922054
 40
2.5194113329
100
AcDbArc
 50
244.540629466
 51
295.459370534
  0
ARC
  5
8BF
100
AcDbEntity
  8
0
100
AcDbCircle
 62
7
  6
BYLAYER
 10
86.5983093325
 20
202.5877922054
 40
2.286
100
AcDbArc
 50
0.0
 51
90.0
  0
ARC
  5
8C0
100
AcDbEntity
  8
0
100
AcDbCircle
 62
7
  6
BYLAYER
 10
99.5269093325
 20
195.6789922054
 40
0.9398
100
AcDbArc
 50
180.9999999996
 51
358.9999999989
  0
ARC
  5
8C1
100
AcDbEntity
  8
0
100
AcDbCircle
 62
7
  6
BYLAYER
 10
98.9234585222
 20
192.1041430156
 40
0.7620410359
100
AcDbArc
 50
90.0052666627
 51
179.9947333373
  0
ARC
  5
8C2
100
AcDbEntity
  8
0
100
AcDbCircle
 62
7
  6
BYLAYER
 10
100.1303601427
 20
192.1041430156
 40
0.7620410359
100
AcDbArc
 50
0.0052666627
 51
89.9947333373
  0
ARC
  5
8C3
100
AcDbEntity
  8
0
100
AcDbCircle
 62
7
  6
BYLAYER
 10
105.3435093325
 20
200.3017922054
 40
0.762
100
AcDbArc
 50
90.0
 51
180.0
  0
ARC
  5
8C4
100
AcDbEntity
  8
0
100
AcDbCircle
 62
7
  6
BYLAYER
 10
93.7103093325
 20
200.3017922054
 40
0.762
100
AcDbArc
 50
0.0
 51
90.0
  0
ARC
  5
8C5
100
AcDbEntity
  8
0
100
AcDbCircle
 62
7
  6
BYLAYER
 10
112.5190093325
 20
179.2705922054
 40
8.1499445817
100
AcDbArc
 50
179.9999999998
 51
269.9999999991
  0
ARC
  5
8C6
100
AcDbEntity
  8
0
100
AcDbCircle
 62
7
  6
BYLAYER
 10
121.5360093325
 20
179.2705922054
 40
8.1499445817
100
AcDbArc
 50
270.0000000008
 51
359.9999999991
  0
ARC
  5
8C7
100
AcDbEntity
  8
0
100
AcDbCircle
 62
7
  6
BYLAYER
 10
112.7095093325
 20
179.4737922054
 40
8.128
100
AcDbArc
 50
179.9986501682
 51
269.9985653544
  0
ARC
  5
8C8
100
AcDbEntity
  8
0
100
AcDbCircle
 62
7
  6
BYLAYER
 10
121.3455093325
 20
179.4737922054
 40
8.128
100
AcDbArc
 50
270.0013451115
 51
0.0014312076
  0
ARC
  5
8C9
100
AcDbEntity
  8
0
100
AcDbCircle
 62
7
  6
BYLAYER
 10
125.3841093325
 20
171.3838922054
 40
2.4638
100
AcDbArc
 50
49.243861468
 51
55.9711892721
  0
ARC
  5
8CA
100
AcDbEntity
  8
0
100
AcDbCircle
 62
7
  6
BYLAYER
 10
125.3841093325
 20
171.3838922054
 40
2.442742068
100
AcDbArc
 50
262.9692280225
 51
291.0363074834
  0
ARC
  5
8CB
100
AcDbEntity
  8
0
100
AcDbCircle
 62
7
  6
BYLAYER
 10
125.3841093325
 20
171.3838922054
 40
2.4318771176
100
AcDbArc
 50
49.4905921399
 51
56.1288752446
  0
ARC
  5
8CC
100
AcDbEntity
  8
0
100
AcDbCircle
 62
7
  6
BYLAYER
 10
125.3841093325
 20
171.3838922054
 40
1.9380261566
100
AcDbArc
 50
52.4907549409
 51
56.9273066666
  0
ARC
  5
8CD
100
AcDbEntity
  8
0
100
AcDbCircle
 62
7
  6
BYLAYER
 10
125.3841093325
 20
171.3838922054
 40
1.9380261566
100
AcDbArc
 50
174.7062715675
 51
180.0
  0
CIRCLE
  5
8CE
100
AcDbEntity
  8
0
100
AcDbCircle
 62
7
  6
BYLAYER
 10
120.6343093325
 20
168.2469922054
 40
1.905
  0
CIRCLE
  5
8CF
100
AcDbEntity
  8
0
100
AcDbCircle
 62
7
  6
BYLAYER
 10
120.6343093325
 20
168.2469922054
 40
1.6327636205
  0
ARC
  5
8D0
100
AcDbEntity
  8
0
100
AcDbCircle
 62
7
  6
BYLAYER
 10
125.3841093325
 20
171.3838922054
 40
1.4255538787
100
AcDbArc
 50
59.4365203435
 51
70.1834967656
  0
ARC
  5
8D1
100
AcDbEntity
  8
0
100
AcDbCircle
 62
7
  6
BYLAYER
 10
125.3841093325
 20
171.3838922054
 40
1.395
100
AcDbArc
 50
60.0562446461
 51
71.3839944547
  0
ARC
  5
8D2
100
AcDbEntity
  8
0
100
AcDbCircle
 62
7
  6
BYLAYER
 10
126.3493189381
 20
168.7889988254
 40
0.3047918873
100
AcDbArc
 50
0.0007685659
 51
110.4065921855
  0
ARC
  5
8D3
100
AcDbEntity
  8
0
100
AcDbCircle
 62
7
  6
BYLAYER
 10
126.3703789532
 20
168.8194811857
 40
0.3047897079
100
AcDbArc
 50
0.0002091417
 51
111.0397333414
  0
ARC
  5
8D4
100
AcDbEntity
  8
0
100
AcDbCircle
 62
7
  6
BYLAYER
 10
121.5995093325
 20
202.5877922054
 40
2.286
100
AcDbArc
 50
0.0
 51
90.0
  0
ARC
  5
8D5
100
AcDbEntity
  8
0
100
AcDbCircle
 62
7
  6
BYLAYER
 10
112.4555093325
 20
202.5877922054
 40
2.286
100
AcDbArc
 50
89.9999999998
 51
180.0
  0
ARC
  5
8D6
100
AcDbEntity
  8
0
100
AcDbCircle
 62
7
  6
BYLAYER
 10
223.7337647051
 20
45.2684813688
 40
90.3551895425
100
AcDbArc
 50
179.5815913745
 51
179.8523645552
  0
ARC
  5
8D7
100
AcDbEntity
  8
0
100
AcDbCircle
 62
7
  6
BYLAYER
 10
134.5535093325
 20
51.1275922054
 40
3.048
100
AcDbArc
 50
116.4893443893
 51
219.5553998679
  0
ARC
  5
8D8
100
AcDbEntity
  8
0
100
AcDbCircle
 62
7
  6
BYLAYER
 10
134.5535093325
 20
51.1275922054
 40
2.286
100
AcDbArc
 50
94.4608436979
 51
239.2601731138
  0
CIRCLE
  5
8D9
100
AcDbEntity
  8
0
100
AcDbCircle
 62
7
  6
BYLAYER
 10
130.9213093325
 20
96.3395922054
 40
1.5105697719
  0
CIRCLE
  5
8DA
100
AcDbEntity
  8
0
100
AcDbCircle
 62
7
  6
BYLAYER
 10
130.9213093325
 20
96.3395922054
 40
1.5
  0
ARC
  5
8DB
100
AcDbEntity
  8
0
100
AcDbCircle
 62
7
  6
BYLAYER
 10
128.7115093325
 20
26.9721922054
 40
0.762
100
AcDbArc
 50
270.0
 51
360.0
  0
ARC
  5
8DC
100
AcDbEntity
  8
0
100
AcDbCircle
 62
7
  6
BYLAYER
 10
134.5535093325
 20
176.1209922054
 40
3.048
100
AcDbArc
 50
140.4553518744
 51
243.5120753071
  0
ARC
  5
8DD
100
AcDbEntity
  8
0
100
AcDbCircle
 62
7
  6
BYLAYER
 10
134.5535093325
 20
176.1209922054
 40
2.286
100
AcDbArc
 50
120.7398659842
 51
265.5391563021
  0
ARC
  5
8DE
100
AcDbEntity
  8
0
100
AcDbCircle
 62
7
  6
BYLAYER
 10
128.7115093325
 20
200.3017922054
 40
0.762
100
AcDbArc
 50
0.0
 51
90.0
  0
ARC
  5
8DF
100
AcDbEntity
  8
0
100
AcDbCircle
 62
7
  6
BYLAYER
 10
134.4763093325
 20
143.8637122054
 40
0.2
100
AcDbArc
 50
269.9999999995
 51
360.0
  0
SPLINE
  5
8E0
100
AcDbEntity
  8
0
100
AcDbSpline
 62
7
  6
BYLAYER
 70
0
 71
3
 72
8
 73
4
 74
0
 42
0.0000001
 43
0.0000001
 44
0.0000000001
 40
0.0
 40
0.0
 40
0.0
 40
0.0
 40
1.0
 40
1.0
 40
1.0
 40
1.0
 10
30.6675093325
 20
201.7591964943
 30
0.0
 10
30.6212947543
 20
201.6724036609
 30
0.0
 10
30.596049114
 20
201.5713296686
 30
0.0
 10
30.596021961
 20
201.4729997015
 30
0.0
  0
SPLINE
  5
8E1
100
AcDbEntity
  8
0
100
AcDbSpline
 62
7
  6
BYLAYER
 70
0
 71
3
 72
8
 73
4
 74
0
 42
0.0000001
 43
0.0000001
 44
0.0000000001
 40
0.0
 40
0.0
 40
0.0
 40
0.0
 40
1.0
 40
1.0
 40
1.0
 40
1.0
 10
133.4565967039
 20
201.4729655406
 30
0.0
 10
133.456569552
 20
201.5713042692
 30
0.0
 10
133.4313280284
 20
201.6723888583
 30
0.0
 10
133.3851093325
 20
201.7591894252
 30
0.0
  0
SPLINE
  5
8E2
100
AcDbEntity
  8
0
100
AcDbSpline
 62
7
  6
BYLAYER
 70
0
 71
3
 72
8
 73
4
 74
0
 42
0.0000001
 43
0.0000001
 44
0.0000000001
 40
0.0
 40
0.0
 40
0.0
 40
0.0
 40
1.0
 40
1.0
 40
1.0
 40
1.0
 10
99.9906785632
 20
148.527320716
 30
0.0
 10
99.9906785632
 20
148.4496292806
 30
0.0
 10
99.9874853017
 20
148.3719702519
 30
0.0
 10
99.9861973458
 20
148.2942894931
 30
0.0
  0
SPLINE
  5
8E3
100
AcDbEntity
  8
0
100
AcDbSpline
 62
7
  6
BYLAYER
 70
0
 71
3
 72
12
 73
8
 74
0
 42
0.0000001
 43
0.0000001
 44
0.0000000001
 40
0.0
 40
0.0
 40
0.0
 40
0.0
 40
0.2088839446
 40
0.4543501753
 40
0.5884782348
 40
0.7263189511
 40
1.0
 40
1.0
 40
1.0
 40
1.0
 10
63.1602174876
 20
45.8002130532
 30
0.0
 10
63.160223799
 20
45.8831208738
 30
0.0
 10
63.1900681115
 20
46.0645980975
 30
0.0
 10
63.3093921098
 20
46.2727608282
 30
0.0
 10
63.4610098707
 20
46.4133126511
 30
0.0
 10
63.6473700283
 20
46.5260112754
 30
0.0
 10
63.8135621402
 20
46.5621757797
 30
0.0
 10
63.9221884845
 20
46.5621840502
 30
0.0
  0
SPLINE
  5
8E4
100
AcDbEntity
  8
0
100
AcDbSpline
 62
7
  6
BYLAYER
 70
0
 71
3
 72
8
 73
4
 74
0
 42
0.0000001
 43
0.0000001
 44
0.0000000001
 40
0.0
 40
0.0
 40
0.0
 40
0.0
 40
1.0
 40
1.0
 40
1.0
 40
1.0
 10
30.6675510639
 20
46.6696875141
 30
0.0
 10
30.6680529721
 20
46.2802195771
 30
0.0
 10
30.6729277166
 20
45.8907665488
 30
0.0
 10
30.6737435504
 20
45.5012991428
 30
0.0
  0
SPLINE
  5
8E5
100
AcDbEntity
  8
0
100
AcDbSpline
 62
7
  6
BYLAYER
 70
0
 71
3
 72
9
 73
5
 74
0
 42
0.0000001
 43
0.0000001
 44
0.0000000001
 40
0.0
 40
0.0
 40
0.0
 40
0.0
 40
0.4615835596
 40
1.0
 40
1.0
 40
1.0
 40
1.0
 10
63.9221884847
 20
180.6610003606
 30
0.0
 10
63.8307182388
 20
180.6610073249
 30
0.0
 10
63.631157227
 20
180.6972211872
 30
0.0
 10
63.4587319037
 20
180.8086247624
 30
0.0
 10
63.3834839337
 20
180.8842670995
 30
0.0
  0
SPLINE
  5
8E6
100
AcDbEntity
  8
0
100
AcDbSpline
 62
7
  6
BYLAYER
 70
0
 71
3
 72
9
 73
5
 74
0
 42
0.0000001
 43
0.0000001
 44
0.0000000001
 40
0.0
 40
0.0
 40
0.0
 40
0.0
 40
0.4984933507
 40
1.0
 40
1.0
 40
1.0
 40
1.0
 10
63.3834839337
 20
180.8842670995
 30
0.0
 10
63.3309900938
 20
180.9370360543
 30
0.0
 10
63.2402025999
 20
181.0586035746
 30
0.0
 10
63.1894305345
 20
181.2016974839
 30
0.0
 10
63.1748844538
 20
181.2751533093
 30
0.0
  0
SPLINE
  5
8E7
100
AcDbEntity
  8
0
100
AcDbSpline
 62
7
  6
BYLAYER
 70
0
 71
3
 72
8
 73
4
 74
0
 42
0.0000001
 43
0.0000001
 44
0.0000000001
 40
0.0
 40
0.0
 40
0.0
 40
0.0
 40
1.0
 40
1.0
 40
1.0
 40
1.0
 10
133.3809843866
 20
45.9283040463
 30
0.0
 10
133.3826699467
 20
46.1754254073
 30
0.0
 10
133.3847490472
 20
46.422547226
 30
0.0
 10
133.3850675838
 20
46.6696741301
 30
0.0
  0
SPLINE
  5
8E8
100
AcDbEntity
  8
0
100
AcDbSpline
 62
7
  6
BYLAYER
 70
0
 71
3
 72
20
 73
16
 74
0
 42
0.0000001
 43
0.0000001
 44
0.0000000001
 40
0.0
 40
0.0
 40
0.0
 40
0.0
 40
0.1876118967
 40
0.3698980682
 40
0.5400217761
 40
0.6919178818
 40
0.8196730304
 40
0.8725836464
 40
0.917147918
 40
0.952635416
 40
0.9785515638
 40
0.9877891377
 40
0.9944765321
 40
0.9985620509
 40
1.0
 40
1.0
 40
1.0
 40
1.0
 10
31.8491453507
 20
49.1854480337
 30
0.0
 10
31.8010034672
 20
49.2027689618
 30
0.0
 10
31.7063548324
 20
49.2376669423
 30
0.0
 10
31.5687037131
 20
49.2900129567
 30
0.0
 10
31.4404134401
 20
49.3395691251
 30
0.0
 10
31.3262804311
 20
49.3844923959
 30
0.0
 10
31.2422092949
 20
49.4185274384
 30
0.0
 10
31.1854359417
 20
49.4419424215
 30
0.0
 10
31.1519607526
 20
49.4559328405
 30
0.0
 10
31.1253564088
 20
49.4670695026
 30
0.0
 10
31.1075616628
 20
49.4747629732
 30
0.0
 10
31.0971257914
 20
49.4789518624
 30
0.0
 10
31.0919537584
 20
49.481454746
 30
0.0
 10
31.0891062068
 20
49.4819623955
 30
0.0
 10
31.0874315549
 20
49.4832679349
 30
0.0
 10
31.0871494297
 20
49.4829955788
 30
0.0
  0
SPLINE
  5
8E9
100
AcDbEntity
  8
0
100
AcDbSpline
 62
7
  6
BYLAYER
 70
0
 71
3
 72
11
 73
7
 74
0
 42
0.0000001
 43
0.0000001
 44
0.0000000001
 40
0.0
 40
0.0
 40
0.0
 40
0.0
 40
0.2500729512
 40
0.5000002054
 40
0.749925977
 40
1.0
 40
1.0
 40
1.0
 40
1.0
 10
38.9866197354
 20
164.1033372869
 30
0.0
 10
39.0368720513
 20
164.1406172914
 30
0.0
 10
39.1156790261
 20
164.2501708862
 30
0.0
 10
39.1136160919
 20
164.4500982296
 30
0.0
 10
38.9961298763
 20
164.6118723691
 30
0.0
 10
38.8675646849
 20
164.6528965195
 30
0.0
 10
38.8049937049
 20
164.6528922054
 30
0.0
  0
SPLINE
  5
8EA
100
AcDbEntity
  8
0
100
AcDbSpline
 62
7
  6
BYLAYER
 70
0
 71
3
 72
11
 73
7
 74
0
 42
0.0000001
 43
0.0000001
 44
0.0000000001
 40
0.0
 40
0.0
 40
0.0
 40
0.0
 40
0.2502630038
 40
0.4999985807
 40
0.749733678
 40
1.0
 40
1.0
 40
1.0
 40
1.0
 10
38.843722711
 20
164.6656359154
 30
0.0
 10
38.9065433632
 20
164.6656941362
 30
0.0
 10
39.0355734232
 20
164.6247859669
 30
0.0
 10
39.1536711892
 20
164.4624931716
 30
0.0
 10
39.1546171126
 20
164.2617823931
 30
0.0
 10
39.0748722991
 20
164.1524040667
 30
0.0
 10
39.0242148325
 20
164.1152508237
 30
0.0
  0
LINE
  5
8EB
100
AcDbEntity
  8
0
100
AcDbLine
 62
7
  6
BYLAYER
 10
71.4090393339
 20
53.0325922054
 11
71.408773265
 21
53.033035519
  0
LINE
  5
8EC
100
AcDbEntity
  8
0
100
AcDbLine
 62
7
  6
BYLAYER
 10
36.5629622318
 20
167.6711501289
 11
36.5634055566
 21
167.6704851584
  0
SPLINE
  5
8ED
100
AcDbEntity
  8
0
100
AcDbSpline
 62
7
  6
BYLAYER
 70
0
 71
3
 72
24
 73
20
 74
0
 42
0.0000001
 43
0.0000001
 44
0.0000000001
 40
0.0
 40
0.0
 40
0.0
 40
0.0
 40
0.0710480391
 40
0.1420960783
 40
0.1776200978
 40
0.2131441174
 40
0.2486681171
 40
0.2575500987
 40
0.2665088285
 40
0.2685776994
 40
0.2749344168
 40
0.2957365814
 40
0.3297762338
 40
0.3729792492
 40
0.4230088061
 40
0.478072505
 40
0.5982698006
 40
0.7272344685
 40
1.0
 40
1.0
 40
1.0
 40
1.0
 10
98.1614203513
 20
181.4225693458
 30
0.0
 10
98.1437989382
 20
181.4049479327
 30
0.0
 10
98.1085606086
 20
181.3697015573
 30
0.0
 10
98.0644902131
 20
181.3256613333
 30
0.0
 10
98.029281112
 20
181.2903918893
 30
0.0
 10
98.0027461354
 20
181.2640409586
 30
0.0
 10
97.9832114266
 20
181.243988049
 30
0.0
 10
97.9695971095
 20
181.2310514044
 30
0.0
 10
97.9652868458
 20
181.22561726
 30
0.0
 10
97.9600539893
 20
181.2220056758
 30
0.0
 10
97.9616225402
 20
181.2102217418
 30
0.0
 10
97.9589466697
 20
181.1902042571
 30
0.0
 10
97.959399916
 20
181.1550278333
 30
0.0
 10
97.958300867
 20
181.1107034832
 30
0.0
 10
97.9578340877
 20
181.0585867491
 30
0.0
 10
97.9569858973
 20
180.9796098677
 30
0.0
 10
97.9561509383
 20
180.8728824804
 30
0.0
 10
97.9548983288
 20
180.6898279518
 30
0.0
 10
97.9541397097
 20
180.5489172523
 30
0.0
 10
97.9536617512
 20
180.453244624
 30
0.0
  0
SPLINE
  5
8EE
100
AcDbEntity
  8
0
100
AcDbSpline
 62
7
  6
BYLAYER
 70
0
 71
3
 72
25
 73
21
 74
0
 42
0.0000001
 43
0.0000001
 44
0.0000000001
 40
0.0
 40
0.0
 40
0.0
 40
0.0
 40
0.071036471
 40
0.1420729419
 40
0.1775911774
 40
0.2131094129
 40
0.2486276144
 40
0.2575087829
 40
0.2665454656
 40
0.2683489675
 40
0.2749101076
 40
0.2835908087
 40
0.2959873914
 40
0.3298637977
 40
0.3730619098
 40
0.4231046216
 40
0.4781516708
 40
0.5983328974
 40
0.727277565
 40
1.0
 40
1.0
 40
1.0
 40
1.0
 10
100.1308296925
 20
180.6610031442
 30
0.0
 10
100.1484511508
 20
180.643381686
 30
0.0
 10
100.1837034952
 20
180.608147476
 30
0.0
 10
100.227721786
 20
180.5640611812
 30
0.0
 10
100.263035412
 20
180.5288835632
 30
0.0
 10
100.2892519268
 20
180.5022522241
 30
0.0
 10
100.3096836884
 20
180.4829884536
 30
0.0
 10
100.3221438654
 20
180.4689985654
 30
0.0
 10
100.3283454311
 20
180.465316102
 30
0.0
 10
100.330782099
 20
180.4592877739
 30
0.0
 10
100.3383888432
 20
180.4608904957
 30
0.0
 10
100.3472800658
 20
180.4595212705
 30
0.0
 10
100.3670104028
 20
180.4595316412
 30
0.0
 10
100.3980692728
 20
180.4585262808
 30
0.0
 10
100.4427984577
 20
180.4580407487
 30
0.0
 10
100.4947692941
 20
180.4573687034
 30
0.0
 10
100.5738116354
 20
180.4566004504
 30
0.0
 10
100.6805060269
 20
180.4557221412
 30
0.0
 10
100.863577365
 20
180.4544888201
 30
0.0
 10
101.0044835791
 20
180.453722578
 30
0.0
 10
101.1001569138
 20
180.453244624
 30
0.0
  0
SPLINE
  5
8EF
100
AcDbEntity
  8
0
100
AcDbSpline
 62
7
  6
BYLAYER
 70
0
 71
3
 72
11
 73
7
 74
0
 42
0.0000001
 43
0.0000001
 44
0.0000000001
 40
0.0
 40
0.0
 40
0.0
 40
0.0
 40
0.2946246705
 40
0.5536281492
 40
0.7836605874
 40
1.0
 40
1.0
 40
1.0
 40
1.0
 10
129.8037046023
 20
168.6302082304
 30
0.0
 10
129.8033664897
 20
168.707722572
 30
0.0
 10
129.7685511668
 20
168.8554696538
 30
0.0
 10
129.6385108639
 20
169.0222592979
 30
0.0
 10
129.4752391132
 20
169.1183883293
 30
0.0
 10
129.3570394384
 20
169.1398857328
 30
0.0
 10
129.3001232375
 20
169.1403867673
 30
0.0
  0
SPLINE
  5
8F0
100
AcDbEntity
  8
0
100
AcDbSpline
 62
7
  6
BYLAYER
 70
0
 71
3
 72
20
 73
16
 74
0
 42
0.0000001
 43
0.0000001
 44
0.0000000001
 40
0.0
 40
0.0
 40
0.0
 40
0.0
 40
0.0849822782
 40
0.1316766476
 40
0.1505422961
 40
0.1554223648
 40
0.1608631705
 40
0.1673120414
 40
0.1812157366
 40
0.1940123959
 40
0.2478583827
 40
0.3015779448
 40
0.3553021509
 40
0.5702014742
 40
1.0
 40
1.0
 40
1.0
 40
1.0
 10
62.9595590873
 20
181.1769636701
 30
0.0
 10
62.9597640896
 20
181.1863153976
 30
0.0
 10
62.959891059
 20
181.2003735131
 30
0.0
 10
62.9610667938
 20
181.2179677523
 30
0.0
 10
62.9611752256
 20
181.2244954977
 30
0.0
 10
62.9625113994
 20
181.2287653878
 30
0.0
 10
62.9644275023
 20
181.2262760881
 30
0.0
 10
62.9663313207
 20
181.2297021488
 30
0.0
 10
62.9687556678
 20
181.2317500979
 30
0.0
 10
62.9755267706
 20
181.2378544462
 30
0.0
 10
62.9844647932
 20
181.2473908223
 30
0.0
 10
62.9971724822
 20
181.2598825341
 30
0.0
 10
63.0221912459
 20
181.2849983657
 30
0.0
 10
63.0766210237
 20
181.3393292315
 30
0.0
 10
63.1267658213
 20
181.389519671
 30
0.0
 10
63.160217478
 20
181.422971342
 30
0.0
  0
SPLINE
  5
8F1
100
AcDbEntity
  8
0
100
AcDbSpline
 62
7
  6
BYLAYER
 70
0
 71
3
 72
22
 73
18
 74
0
 42
0.0000001
 43
0.0000001
 44
0.0000000001
 40
0.0
 40
0.0
 40
0.0
 40
0.0
 40
0.0072212212
 40
0.01211911
 40
0.0241285627
 40
0.0338420747
 40
0.0487038012
 40
0.0645568068
 40
0.0794447155
 40
0.1103338445
 40
0.1410271208
 40
0.2024790762
 40
0.2639257084
 40
0.3868178962
 40
0.5097105319
 40
0.7554937375
 40
1.0
 40
1.0
 40
1.0
 40
1.0
 10
98.726975413
 20
180.4604237613
 30
0.0
 10
98.7276672442
 20
180.4604845531
 30
0.0
 10
98.7299799203
 20
180.4607229196
 30
0.0
 10
98.7267255452
 20
180.461457732
 30
0.0
 10
98.7227467797
 20
180.4616213376
 30
0.0
 10
98.7276665815
 20
180.4638013435
 30
0.0
 10
98.7292924431
 20
180.4668704582
 30
0.0
 10
98.7329420527
 20
180.4696732717
 30
0.0
 10
98.7367521527
 20
180.4741598393
 30
0.0
 10
98.7421914103
 20
180.479163327
 30
0.0
 10
98.7504522823
 20
180.4876200038
 30
0.0
 10
98.7609507006
 20
180.4980198312
 30
0.0
 10
98.7776452535
 20
180.5147524342
 30
0.0
 10
98.7985472851
 20
180.5356387727
 30
0.0
 10
98.8319808
 20
180.5690639015
 30
0.0
 10
98.8736218575
 20
180.6108190931
 30
0.0
 10
98.9071290585
 20
180.6440068115
 30
0.0
 10
98.9233828826
 20
180.6610003513
 30
0.0
  0
SPLINE
  5
8F2
100
AcDbEntity
  8
0
100
AcDbSpline
 62
7
  6
BYLAYER
 70
0
 71
3
 72
24
 73
20
 74
0
 42
0.0000001
 43
0.0000001
 44
0.0000000001
 40
0.0
 40
0.0
 40
0.0
 40
0.0
 40
0.0710480391
 40
0.1420960783
 40
0.1776200978
 40
0.2131441174
 40
0.2486681171
 40
0.2575500987
 40
0.2665088285
 40
0.2685776994
 40
0.2749344168
 40
0.2957365814
 40
0.3297762338
 40
0.3729792492
 40
0.4230088061
 40
0.478072505
 40
0.5982698006
 40
0.7272344685
 40
1.0
 40
1.0
 40
1.0
 40
1.0
 10
100.8923983136
 20
45.8006150649
 30
0.0
 10
100.9100197268
 20
45.818236478
 30
0.0
 10
100.9452580564
 20
45.8534828534
 30
0.0
 10
100.9893284518
 20
45.8975230774
 30
0.0
 10
101.024537553
 20
45.9327925214
 30
0.0
 10
101.0510725295
 20
45.9591434521
 30
0.0
 10
101.0706072383
 20
45.9791963617
 30
0.0
 10
101.0842215554
 20
45.9921330063
 30
0.0
 10
101.0885318191
 20
45.9975671507
 30
0.0
 10
101.0937646756
 20
46.0011787349
 30
0.0
 10
101.0921961248
 20
46.0129626689
 30
0.0
 10
101.0948719953
 20
46.0329801536
 30
0.0
 10
101.0944187489
 20
46.0681565774
 30
0.0
 10
101.095517798
 20
46.1124809275
 30
0.0
 10
101.0959845772
 20
46.1645976616
 30
0.0
 10
101.0968327676
 20
46.243574543
 30
0.0
 10
101.0976677266
 20
46.3503019303
 30
0.0
 10
101.0989203361
 20
46.5333564589
 30
0.0
 10
101.0996789552
 20
46.6742671584
 30
0.0
 10
101.1001569138
 20
46.7699397867
 30
0.0
  0
SPLINE
  5
8F3
100
AcDbEntity
  8
0
100
AcDbSpline
 62
7
  6
BYLAYER
 70
0
 71
3
 72
25
 73
21
 74
0
 42
0.0000001
 43
0.0000001
 44
0.0000000001
 40
0.0
 40
0.0
 40
0.0
 40
0.0
 40
0.071036471
 40
0.1420729419
 40
0.1775911774
 40
0.2131094129
 40
0.2486276144
 40
0.2575087829
 40
0.2665454656
 40
0.2683489675
 40
0.2749101076
 40
0.2835908087
 40
0.2959873914
 40
0.3298637977
 40
0.3730619098
 40
0.4231046216
 40
0.4781516708
 40
0.5983328974
 40
0.727277565
 40
1.0
 40
1.0
 40
1.0
 40
1.0
 10
98.9229889724
 20
46.5621812665
 30
0.0
 10
98.9053675142
 20
46.5798027247
 30
0.0
 10
98.8701151698
 20
46.6150369347
 30
0.0
 10
98.826096879
 20
46.6591232295
 30
0.0
 10
98.7907832529
 20
46.6943008476
 30
0.0
 10
98.7645667382
 20
46.7209321866
 30
0.0
 10
98.7441349766
 20
46.7401959571
 30
0.0
 10
98.7316747996
 20
46.7541858453
 30
0.0
 10
98.7254732338
 20
46.7578683087
 30
0.0
 10
98.723036566
 20
46.7638966368
 30
0.0
 10
98.7154298218
 20
46.762293915
 30
0.0
 10
98.7065385991
 20
46.7636631402
 30
0.0
 10
98.6868082621
 20
46.7636527695
 30
0.0
 10
98.6557493921
 20
46.7646581299
 30
0.0
 10
98.6110202073
 20
46.7651436621
 30
0.0
 10
98.5590493708
 20
46.7658157073
 30
0.0
 10
98.4800070296
 20
46.7665839603
 30
0.0
 10
98.373312638
 20
46.7674622695
 30
0.0
 10
98.1902412999
 20
46.7686955906
 30
0.0
 10
98.0493350858
 20
46.7694618327
 30
0.0
 10
97.9536617512
 20
46.7699397867
 30
0.0
  0
SPLINE
  5
8F4
100
AcDbEntity
  8
0
100
AcDbSpline
 62
7
  6
BYLAYER
 70
0
 71
3
 72
9
 73
5
 74
0
 42
0.0000001
 43
0.0000001
 44
0.0000000001
 40
0.0
 40
0.0
 40
0.0
 40
0.0
 40
0.499999909
 40
1.0
 40
1.0
 40
1.0
 40
1.0
 10
37.4675288633
 20
163.5468973973
 30
0.0
 10
37.6225340883
 20
163.7115372504
 30
0.0
 10
38.0299529102
 20
163.9611145194
 30
0.0
 10
38.5077405539
 20
163.9611036012
 30
0.0
 10
38.7259164087
 20
163.9016709956
 30
0.0
  0
SPLINE
  5
8F5
100
AcDbEntity
  8
0
100
AcDbSpline
 62
7
  6
BYLAYER
 70
0
 71
3
 72
10
 73
6
 74
0
 42
0.0000001
 43
0.0000001
 44
0.0000000001
 40
0.0
 40
0.0
 40
0.0
 40
0.0
 40
0.2622236612
 40
0.6137380067
 40
1.0
 40
1.0
 40
1.0
 40
1.0
 10
37.4675155011
 20
163.546890952
 30
0.0
 10
37.4674034738
 20
163.5407856971
 30
0.0
 10
37.4653795739
 20
163.5265423726
 30
0.0
 10
37.4686258253
 20
163.5032552238
 30
0.0
 10
37.4664244945
 20
163.4861079847
 30
0.0
 10
37.4662681429
 20
163.4771146372
 30
0.0
  0
SPLINE
  5
8F6
100
AcDbEntity
  8
0
100
AcDbSpline
 62
7
  6
BYLAYER
 70
0
 71
3
 72
20
 73
16
 74
0
 42
0.0000001
 43
0.0000001
 44
0.0000000001
 40
0.0
 40
0.0
 40
0.0
 40
0.0
 40
0.1876813491
 40
0.3700700063
 40
0.5402654837
 40
0.6921524149
 40
0.8198342602
 40
0.8727079896
 40
0.9172488345
 40
0.9527175069
 40
0.9785995704
 40
0.9878194408
 40
0.9944915208
 40
0.9985662275
 40
1.0
 40
1.0
 40
1.0
 40
1.0
 10
31.8491453507
 20
178.0620318013
 30
0.0
 10
31.801005171
 20
178.0447214324
 30
0.0
 10
31.7062338594
 20
178.0101660702
 30
0.0
 10
31.5683175028
 20
177.958528076
 30
0.0
 10
31.4400122342
 20
177.9090615683
 30
0.0
 10
31.326012665
 20
177.8639655532
 30
0.0
 10
31.2420235585
 20
177.8299296496
 30
0.0
 10
31.1853008961
 20
177.8065632246
 30
0.0
 10
31.1518522231
 20
177.7926096816
 30
0.0
 10
31.1252746715
 20
177.7814980355
 30
0.0
 10
31.1075067353
 20
177.7738141609
 30
0.0
 10
31.0970945068
 20
177.7696294479
 30
0.0
 10
31.0919375749
 20
177.7671297321
 30
0.0
 10
31.0890994788
 20
177.7666213221
 30
0.0
 10
31.0874306022
 20
177.7653184182
 30
0.0
 10
31.0871494297
 20
177.7655898561
 30
0.0
  0
SPLINE
  5
8F7
100
AcDbEntity
  8
0
100
AcDbSpline
 62
7
  6
BYLAYER
 70
0
 71
3
 72
14
 73
10
 74
0
 42
0.0000001
 43
0.0000001
 44
0.0000000001
 40
0.0
 40
0.0
 40
0.0
 40
0.0
 40
0.6086470491
 40
0.6348708865
 40
0.6870261627
 40
0.7391885135
 40
0.7913508072
 40
0.8956754009
 40
1.0
 40
1.0
 40
1.0
 40
1.0
 10
63.3008827861
 20
46.7679794202
 30
0.0
 10
63.4432717511
 20
46.7670167888
 30
0.0
 10
63.6323440801
 20
46.8553246017
 30
0.0
 10
63.7452332857
 20
46.7389535707
 30
0.0
 10
63.7668799211
 20
46.7175554038
 30
0.0
 10
63.7927494566
 20
46.6916066114
 30
0.0
 10
63.8272710061
 20
46.6571110431
 30
0.0
 10
63.8704135115
 20
46.6139555485
 30
0.0
 10
63.9049303859
 20
46.5794421355
 30
0.0
 10
63.9221884691
 20
46.5621840599
 30
0.0
  0
SPLINE
  5
8F8
100
AcDbEntity
  8
0
100
AcDbSpline
 62
7
  6
BYLAYER
 70
0
 71
3
 72
22
 73
18
 74
0
 42
0.0000001
 43
0.0000001
 44
0.0000000001
 40
0.0
 40
0.0
 40
0.0
 40
0.0
 40
0.0072212843
 40
0.0121190681
 40
0.0241284713
 40
0.0338419146
 40
0.0487036559
 40
0.064556655
 40
0.0794445672
 40
0.1103337017
 40
0.1410269833
 40
0.2024789484
 40
0.2639255905
 40
0.3868177979
 40
0.5097104533
 40
0.7554936984
 40
1.0
 40
1.0
 40
1.0
 40
1.0
 10
100.3268432949
 20
46.7627606493
 30
0.0
 10
100.3261514578
 20
46.762699857
 30
0.0
 10
100.3238387743
 20
46.7624615004
 30
0.0
 10
100.3270931114
 20
46.7617266699
 30
0.0
 10
100.331071853
 20
46.7615630788
 30
0.0
 10
100.3261520842
 20
46.7593830537
 30
0.0
 10
100.3245262178
 20
46.7563139577
 30
0.0
 10
100.3208766133
 20
46.7535111367
 30
0.0
 10
100.3170665117
 20
46.7490245723
 30
0.0
 10
100.3116272549
 20
46.7440210833
 30
0.0
 10
100.3033663823
 20
46.7355644071
 30
0.0
 10
100.2928679643
 20
46.7251645792
 30
0.0
 10
100.2761734112
 20
46.7084319764
 30
0.0
 10
100.2552713798
 20
46.6875456379
 30
0.0
 10
100.2218378649
 20
46.6541205092
 30
0.0
 10
100.1801968073
 20
46.6123653176
 30
0.0
 10
100.1466896066
 20
46.5791775991
 30
0.0
 10
100.1304357823
 20
46.5621840594
 30
0.0
  0
SPLINE
  5
8F9
100
AcDbEntity
  8
0
100
AcDbSpline
 62
7
  6
BYLAYER
 70
0
 71
3
 72
9
 73
5
 74
0
 42
0.0000001
 43
0.0000001
 44
0.0000000001
 40
0.0
 40
0.0
 40
0.0
 40
0.0
 40
0.4995342126
 40
1.0
 40
1.0
 40
1.0
 40
1.0
 10
67.9103460662
 20
163.0343504044
 30
0.0
 10
67.8785412095
 20
163.0146263726
 30
0.0
 10
67.8224314177
 20
162.9630302147
 30
0.0
 10
67.782593455
 20
162.8976322676
 30
0.0
 10
67.7703534951
 20
162.8621921991
 30
0.0
  0
SPLINE
  5
8FA
100
AcDbEntity
  8
0
100
AcDbSpline
 62
7
  6
BYLAYER
 70
0
 71
3
 72
20
 73
16
 74
0
 42
0.0000001
 43
0.0000001
 44
0.0000000001
 40
0.0
 40
0.0
 40
0.0
 40
0.0
 40
0.177602336
 40
0.3515932364
 40
0.5170025896
 40
0.6685906081
 40
0.8008436337
 40
0.8574640775
 40
0.9061799051
 40
0.9457985199
 40
0.9752387633
 40
0.9858596832
 40
0.9936004123
 40
0.9983504221
 40
1.0
 40
1.0
 40
1.0
 40
1.0
 10
30.8585453507
 20
53.8556387065
 30
0.0
 10
30.8120473917
 20
53.8268581198
 30
0.0
 10
30.7204170097
 20
53.7692007828
 30
0.0
 10
30.5869160336
 20
53.6824837644
 30
0.0
 10
30.461474333
 20
53.5980977262
 30
0.0
 10
30.3478917743
 20
53.5191419896
 30
0.0
 10
30.2627079605
 20
53.4580305792
 30
0.0
 10
30.2037243606
 20
53.414769185
 30
0.0
 10
30.1679028525
 20
53.3881166433
 30
0.0
 10
30.1388989702
 20
53.3664264409
 30
0.0
 10
30.1193943571
 20
53.3513762734
 30
0.0
 10
30.1076512867
 20
53.3427372699
 30
0.0
 10
30.1020736838
 20
53.3379160644
 30
0.0
 10
30.0984687663
 20
53.3361894666
 30
0.0
 10
30.097037442
 20
53.3340423813
 30
0.0
 10
30.0965471635
 20
53.334175048
 30
0.0
  0
SPLINE
  5
8FB
100
AcDbEntity
  8
0
100
AcDbSpline
 62
7
  6
BYLAYER
 70
0
 71
3
 72
20
 73
16
 74
0
 42
0.0000001
 43
0.0000001
 44
0.0000000001
 40
0.0
 40
0.0
 40
0.0
 40
0.0
 40
0.1775581195
 40
0.3514929832
 40
0.5168581049
 40
0.6684432861
 40
0.8007661085
 40
0.8574078225
 40
0.9061357478
 40
0.9457629268
 40
0.9752173083
 40
0.985846028
 40
0.9935936346
 40
0.9983485465
 40
1.0
 40
1.0
 40
1.0
 40
1.0
 10
30.8585453507
 20
173.3922538528
 30
0.0
 10
30.8120434952
 20
173.4210443897
 30
0.0
 10
30.7204890897
 20
173.4788493508
 30
0.0
 10
30.5871828315
 20
173.5659010283
 30
0.0
 10
30.4617886646
 20
173.6504077821
 30
0.0
 10
30.3480999816
 20
173.7293206257
 30
0.0
 10
30.2628346503
 20
173.7904385773
 30
0.0
 10
30.2038039085
 20
173.8337396105
 30
0.0
 10
30.1679623386
 20
173.8604171713
 30
0.0
 10
30.1389426628
 20
173.8821286344
 30
0.0
 10
30.1194232276
 20
173.8971913522
 30
0.0
 10
30.1076676458
 20
173.9058382267
 30
0.0
 10
30.1020823422
 20
173.9106645014
 30
0.0
 10
30.0984720347
 20
173.9123929157
 30
0.0
 10
30.0970381985
 20
173.9145425695
 30
0.0
 10
30.0965471635
 20
173.9144096984
 30
0.0
  0
SPLINE
  5
8FC
100
AcDbEntity
  8
0
100
AcDbSpline
 62
7
  6
BYLAYER
 70
0
 71
3
 72
18
 73
14
 74
0
 42
0.0000001
 43
0.0000001
 44
0.0000000001
 40
0.0
 40
0.0
 40
0.0
 40
0.0
 40
0.0055603025
 40
0.0193637466
 40
0.0413875198
 40
0.0715409161
 40
0.1097236353
 40
0.155832579
 40
0.2712516539
 40
0.4158218156
 40
0.5871935663
 40
0.7829468137
 40
1.0
 40
1.0
 40
1.0
 40
1.0
 10
64.9540415454
 20
64.8469374623
 30
0.0
 10
64.9556881413
 20
64.845577366
 30
0.0
 10
64.9554380478
 20
64.8368951509
 30
0.0
 10
64.9580823746
 20
64.8221978106
 30
0.0
 10
64.9589269687
 20
64.7962876007
 30
0.0
 10
64.9607384817
 20
64.7618751359
 30
0.0
 10
64.9621548361
 20
64.717844344
 30
0.0
 10
64.9643724864
 20
64.641212958
 30
0.0
 10
64.9668224033
 20
64.5236377073
 30
0.0
 10
64.9694963411
 20
64.3579878541
 30
0.0
 10
64.9719361469
 20
64.1614589532
 30
0.0
 10
64.9741174783
 20
63.9370910893
 30
0.0
 10
64.9753150304
 20
63.7785383813
 30
0.0
 10
64.9758731674
 20
63.6951712811
 30
0.0
  0
SPLINE
  5
8FD
100
AcDbEntity
  8
0
100
AcDbSpline
 62
7
  6
BYLAYER
 70
0
 71
3
 72
18
 73
14
 74
0
 42
0.0000001
 43
0.0000001
 44
0.0000000001
 40
0.0
 40
0.0
 40
0.0
 40
0.0
 40
0.1936254166
 40
0.3806702591
 40
0.5529194105
 40
0.7040209442
 40
0.8283548994
 40
0.8790438501
 40
0.9213659552
 40
0.9548433747
 40
0.9792311309
 40
0.9943432127
 40
1.0
 40
1.0
 40
1.0
 40
1.0
 10
64.9365236418
 20
65.8761643953
 30
0.0
 10
64.9365238741
 20
65.8105901924
 30
0.0
 10
64.9365790561
 20
65.6816702967
 30
0.0
 10
64.9368205823
 20
65.4944162348
 30
0.0
 10
64.9372083632
 20
65.321562096
 30
0.0
 10
64.9377438745
 20
65.1699517195
 30
0.0
 10
64.9382682448
 20
65.0594961986
 30
0.0
 10
64.938835427
 20
64.9859064627
 30
0.0
 10
64.9391084872
 20
64.9430366402
 30
0.0
 10
64.9397796153
 20
64.9091994155
 30
0.0
 10
64.9395196792
 20
64.8842769332
 30
0.0
 10
64.9410814915
 20
64.8693741307
 30
0.0
 10
64.9400610902
 20
64.861916642
 30
0.0
 10
64.9409177321
 20
64.8602030811
 30
0.0
  0
SPLINE
  5
8FE
100
AcDbEntity
  8
0
100
AcDbSpline
 62
7
  6
BYLAYER
 70
0
 71
3
 72
16
 73
12
 74
0
 42
0.0000001
 43
0.0000001
 44
0.0000000001
 40
0.0
 40
0.0
 40
0.0
 40
0.0
 40
0.0063522007
 40
0.021714199
 40
0.0462280494
 40
0.0797662775
 40
0.1727730952
 40
0.2969911118
 40
0.4478961267
 40
0.6199003836
 40
1.0
 40
1.0
 40
1.0
 40
1.0
 10
70.8687813085
 20
124.3070894936
 30
0.0
 10
70.869079266
 20
124.308124785
 30
0.0
 10
70.873668312
 20
124.3089191965
 30
0.0
 10
70.8805169426
 20
124.3104803371
 30
0.0
 10
70.8933669342
 20
124.311710264
 30
0.0
 10
70.9186319039
 20
124.3138377145
 30
0.0
 10
70.9613071164
 20
124.3159607116
 30
0.0
 10
71.023612204
 20
124.3182048953
 30
0.0
 10
71.0994554506
 20
124.3200243049
 30
0.0
 10
71.2186555687
 20
124.3219339564
 30
0.0
 10
71.3122981825
 20
124.3224660049
 30
0.0
 10
71.3767619654
 20
124.3224851216
 30
0.0
  0
SPLINE
  5
8FF
100
AcDbEntity
  8
0
100
AcDbSpline
 62
7
  6
BYLAYER
 70
0
 71
3
 72
11
 73
7
 74
0
 42
0.0000001
 43
0.0000001
 44
0.0000000001
 40
0.0
 40
0.0
 40
0.0
 40
0.0
 40
0.2535904089
 40
0.5051948721
 40
0.7537590671
 40
1.0
 40
1.0
 40
1.0
 40
1.0
 10
71.3767619655
 20
123.8150492499
 30
0.0
 10
71.3108355541
 20
123.8151878338
 30
0.0
 10
71.1781886791
 20
123.8407520675
 30
0.0
 10
71.0096070005
 20
123.9496969387
 30
0.0
 10
70.8959073987
 20
124.1130444728
 30
0.0
 10
70.8689247363
 20
124.2430737617
 30
0.0
 10
70.8687813086
 20
124.3070894957
 30
0.0
  0
SPLINE
  5
900
100
AcDbEntity
  8
0
100
AcDbSpline
 62
7
  6
BYLAYER
 70
0
 71
3
 72
16
 73
12
 74
0
 42
0.0000001
 43
0.0000001
 44
0.0000000001
 40
0.0
 40
0.0
 40
0.0
 40
0.0
 40
0.3795586517
 40
0.5513441753
 40
0.7020920338
 40
0.8262211658
 40
0.9192356635
 40
0.9528339288
 40
0.9774682034
 40
0.993061947
 40
1.0
 40
1.0
 40
1.0
 40
1.0
 10
71.3744368654
 20
131.6965418425
 30
0.0
 10
71.30997535
 20
131.6965215734
 30
0.0
 10
71.2163311336
 20
131.695775935
 30
0.0
 10
71.0971314689
 20
131.6931368204
 30
0.0
 10
71.0212875284
 20
131.6906042205
 30
0.0
 10
70.9589519894
 20
131.6875366125
 30
0.0
 10
70.9163110354
 20
131.6845070703
 30
0.0
 10
70.8909906802
 20
131.681683711
 30
0.0
 10
70.8782223087
 20
131.6797652618
 30
0.0
 10
70.8711180145
 20
131.6779807823
 30
0.0
 10
70.8666958934
 20
131.67637743
 30
0.0
 10
70.8664562085
 20
131.675223756
 30
0.0
  0
LINE
  5
901
100
AcDbEntity
  8
0
100
AcDbLine
 62
7
  6
BYLAYER
 10
70.8664562085
 20
131.675223756
 11
70.8687813085
 21
124.3070894943
  0
SPLINE
  5
902
100
AcDbEntity
  8
0
100
AcDbSpline
 62
7
  6
BYLAYER
 70
0
 71
3
 72
20
 73
16
 74
0
 42
0.0000001
 43
0.0000001
 44
0.0000000001
 40
0.0
 40
0.0
 40
0.0
 40
0.0
 40
0.1876691974
 40
0.3700554044
 40
0.540258737
 40
0.6921414906
 40
0.8197933205
 40
0.8726548652
 40
0.9171962543
 40
0.9526807109
 40
0.9785807588
 40
0.987808573
 40
0.9944869401
 40
0.9985655197
 40
1.0
 40
1.0
 40
1.0
 40
1.0
 10
132.2034733143
 20
49.1865526094
 30
0.0
 10
132.2516146149
 20
49.2038633814
 30
0.0
 10
132.3463910064
 20
49.2384190998
 30
0.0
 10
132.4843180408
 20
49.2900603563
 30
0.0
 10
132.6126316737
 20
49.3395398801
 30
0.0
 10
132.7266323833
 20
49.3846425312
 30
0.0
 10
132.8106286914
 20
49.4186481751
 30
0.0
 10
132.8673497286
 20
49.4420029261
 30
0.0
 10
132.9007986102
 20
49.4559674169
 30
0.0
 10
132.9273717278
 20
49.4671199519
 30
0.0
 10
132.9451301773
 20
49.4748604819
 30
0.0
 10
132.9555341218
 20
49.4790883272
 30
0.0
 10
132.9606861664
 20
49.4816162041
 30
0.0
 10
132.9635212497
 20
49.4821361244
 30
0.0
 10
132.9651879198
 20
49.4834533298
 30
0.0
 10
132.9654692346
 20
49.4831817119
 30
0.0
  0
SPLINE
  5
903
100
AcDbEntity
  8
0
100
AcDbSpline
 62
7
  6
BYLAYER
 70
0
 71
3
 72
20
 73
16
 74
0
 42
0.0000001
 43
0.0000001
 44
0.0000000001
 40
0.0
 40
0.0
 40
0.0
 40
0.0
 40
0.1775581403
 40
0.3514930401
 40
0.5168581999
 40
0.6684433924
 40
0.8007661785
 40
0.8574078843
 40
0.9061358041
 40
0.9457629735
 40
0.9752173363
 40
0.9858460458
 40
0.9935936433
 40
0.9983485488
 40
1.0
 40
1.0
 40
1.0
 40
1.0
 10
133.1940733143
 20
53.8563305579
 30
0.0
 10
133.2405751734
 20
53.8275400188
 30
0.0
 10
133.3321295914
 20
53.7697350527
 30
0.0
 10
133.4654358718
 20
53.6826833672
 30
0.0
 10
133.5908300537
 20
53.5981765989
 30
0.0
 10
133.7045187301
 20
53.5192637486
 30
0.0
 10
133.7897840491
 20
53.4581458044
 30
0.0
 10
133.8488147729
 20
53.4148447777
 30
0.0
 10
133.8846563359
 20
53.3881672225
 30
0.0
 10
133.9136760076
 20
53.3664557736
 30
0.0
 10
133.9331954424
 20
53.3513930768
 30
0.0
 10
133.9449510226
 20
53.3427462201
 30
0.0
 10
133.9505363251
 20
53.337919958
 30
0.0
 10
133.9541466303
 20
53.3361915488
 30
0.0
 10
133.9555804671
 20
53.3340419019
 30
0.0
 10
133.9560715014
 20
53.3341747727
 30
0.0
  0
SPLINE
  5
904
100
AcDbEntity
  8
0
100
AcDbSpline
 62
7
  6
BYLAYER
 70
0
 71
3
 72
20
 73
16
 74
0
 42
0.0000001
 43
0.0000001
 44
0.0000000001
 40
0.0
 40
0.0
 40
0.0
 40
0.0
 40
0.177602485
 40
0.3515937045
 40
0.5170033825
 40
0.6685914583
 40
0.8008440051
 40
0.8574643058
 40
0.9061800665
 40
0.9457986543
 40
0.9752388479
 40
0.9858597377
 40
0.9936004397
 40
0.9983504298
 40
1.0
 40
1.0
 40
1.0
 40
1.0
 10
133.1940733143
 20
173.3929457042
 30
0.0
 10
133.2405713139
 20
173.421726316
 30
0.0
 10
133.3322018108
 20
173.4793837484
 30
0.0
 10
133.4657029919
 20
173.5661009086
 30
0.0
 10
133.5911448998
 20
173.6504870358
 30
0.0
 10
133.7047273925
 20
173.7294428234
 30
0.0
 10
133.7899110927
 20
173.7905540997
 30
0.0
 10
133.8488945239
 20
173.8338153698
 30
0.0
 10
133.8847159704
 20
173.8604678744
 30
0.0
 10
133.913719813
 20
173.8821580582
 30
0.0
 10
133.9332243916
 20
173.897208218
 30
0.0
 10
133.9449674283
 20
173.9058472125
 30
0.0
 10
133.950545008
 20
173.9106684088
 30
0.0
 10
133.9541499091
 20
173.9123950032
 30
0.0
 10
133.9555812252
 20
173.9145420824
 30
0.0
 10
133.9560715014
 20
173.9144094163
 30
0.0
  0
SPLINE
  5
905
100
AcDbEntity
  8
0
100
AcDbSpline
 62
7
  6
BYLAYER
 70
0
 71
3
 72
20
 73
16
 74
0
 42
0.0000001
 43
0.0000001
 44
0.0000000001
 40
0.0
 40
0.0
 40
0.0
 40
0.0
 40
0.1875949661
 40
0.3698607557
 40
0.5399628223
 40
0.6918383535
 40
0.819575391
 40
0.8724834136
 40
0.9170540475
 40
0.9525628337
 40
0.9785110582
 40
0.9877643879
 40
0.9944649858
 40
0.9985593547
 40
1.0
 40
1.0
 40
1.0
 40
1.0
 10
132.2034733143
 20
178.063136377
 30
0.0
 10
132.2516150939
 20
178.0458154865
 30
0.0
 10
132.3462624775
 20
178.0109178322
 30
0.0
 10
132.483910316
 20
177.9585719315
 30
0.0
 10
132.6121944788
 20
177.9090136242
 30
0.0
 10
132.7263221562
 20
177.8640925066
 30
0.0
 10
132.8104005636
 20
177.8300841464
 30
0.0
 10
132.8671765688
 20
177.8066716206
 30
0.0
 10
132.9006548174
 20
177.7926622936
 30
0.0
 10
132.927259235
 20
177.7814776092
 30
0.0
 10
132.9450528771
 20
177.7737280819
 30
0.0
 10
132.9554895445
 20
177.7694973815
 30
0.0
 10
132.9606629845
 20
177.7669668966
 30
0.0
 10
132.9635115837
 20
177.7664488019
 30
0.0
 10
132.9651865764
 20
177.7651287473
 30
0.0
 10
132.9654692346
 20
177.7654016599
 30
0.0
  0
SPLINE
  5
906
100
AcDbEntity
  8
0
100
AcDbSpline
 62
7
  6
BYLAYER
 70
0
 71
3
 72
18
 73
14
 74
0
 42
0.0000001
 43
0.0000001
 44
0.0000000001
 40
0.0
 40
0.0
 40
0.0
 40
0.0
 40
0.0056568362
 40
0.0207689114
 40
0.0451566363
 40
0.0786340242
 40
0.120956115
 40
0.1716450662
 40
0.2959790396
 40
0.4470805829
 40
0.6193297353
 40
0.8063745795
 40
1.0
 40
1.0
 40
1.0
 40
1.0
 10
99.1117030029
 20
64.8602030811
 30
0.0
 10
99.1125598795
 20
64.8619165431
 30
0.0
 10
99.1115389434
 20
64.8693743084
 30
0.0
 10
99.113100777
 20
64.8842768938
 30
0.0
 10
99.1128401789
 20
64.9091994833
 30
0.0
 10
99.113510941
 20
64.9430366324
 30
0.0
 10
99.1137836762
 20
64.9859064609
 30
0.0
 10
99.1143506059
 20
65.0594961887
 30
0.0
 10
99.1148748343
 20
65.1699517223
 30
0.0
 10
99.1154101237
 20
65.3215621026
 30
0.0
 10
99.1157979205
 20
65.4944162412
 30
0.0
 10
99.1160399299
 20
65.681670299
 30
0.0
 10
99.1160952692
 20
65.810590193
 30
0.0
 10
99.116095421
 20
65.8761643953
 30
0.0
  0
SPLINE
  5
907
100
AcDbEntity
  8
0
100
AcDbSpline
 62
7
  6
BYLAYER
 70
0
 71
3
 72
21
 73
17
 74
0
 42
0.0000001
 43
0.0000001
 44
0.0000000001
 40
0.0
 40
0.0
 40
0.0
 40
0.0
 40
0.1940547177
 40
0.3807172639
 40
0.5528103569
 40
0.7039485815
 40
0.7697673315
 40
0.8282741133
 40
0.8789425492
 40
0.9212465303
 40
0.9547168206
 40
0.9791107259
 40
0.9878470724
 40
0.9942475079
 40
0.9982949357
 40
1.0
 40
1.0
 40
1.0
 40
1.0
 10
99.0726506668
 20
62.3479028208
 30
0.0
 10
99.0726507744
 20
62.5095933811
 30
0.0
 10
99.0729743279
 20
62.8268152545
 30
0.0
 10
99.0743963953
 20
63.2874269876
 30
0.0
 10
99.0767180192
 20
63.7122752955
 30
0.0
 10
99.0793957281
 20
64.0364305341
 30
0.0
 10
99.0820049499
 20
64.2659369928
 30
0.0
 10
99.0840192699
 20
64.4117349599
 30
0.0
 10
99.0861730638
 20
64.5379236521
 30
0.0
 10
99.0883865904
 20
64.6432809077
 30
0.0
 10
99.0907718768
 20
64.726643994
 30
0.0
 10
99.0927284233
 20
64.7822427467
 30
0.0
 10
99.0947429407
 20
64.81493487
 30
0.0
 10
99.0956246591
 20
64.8312131381
 30
0.0
 10
99.097343512
 20
64.840638383
 30
0.0
 10
99.0975701566
 20
64.8461196164
 30
0.0
 10
99.0986649933
 20
64.8470249949
 30
0.0
  0
SPLINE
  5
908
100
AcDbEntity
  8
0
100
AcDbSpline
 62
7
  6
BYLAYER
 70
0
 71
3
 72
16
 73
12
 74
0
 42
0.0000001
 43
0.0000001
 44
0.0000000001
 40
0.0
 40
0.0
 40
0.0
 40
0.0
 40
0.3806627399
 40
0.5528876758
 40
0.7039503469
 40
0.8282655946
 40
0.9212733861
 40
0.9547565137
 40
0.9791588482
 40
0.9942937675
 40
1.0
 40
1.0
 40
1.0
 40
1.0
 10
98.6081147764
 20
65.8761861334
 30
0.0
 10
98.6081146116
 20
65.8117181957
 30
0.0
 10
98.6079729112
 20
65.7180792262
 30
0.0
 10
98.6074201393
 20
65.5988695386
 30
0.0
 10
98.6069304265
 20
65.5230471355
 30
0.0
 10
98.6062103
 20
65.4607155026
 30
0.0
 10
98.6057756441
 20
65.4181255307
 30
0.0
 10
98.6049235742
 20
65.392742137
 30
0.0
 10
98.6049831706
 20
65.3800998497
 30
0.0
 10
98.6037792143
 20
65.3729667398
 30
0.0
 10
98.6044039089
 20
65.3688664079
 30
0.0
 10
98.6037200526
 20
65.3681835814
 30
0.0
  0
SPLINE
  5
909
100
AcDbEntity
  8
0
100
AcDbSpline
 62
7
  6
BYLAYER
 70
0
 71
3
 72
10
 73
6
 74
0
 42
0.0000001
 43
0.0000001
 44
0.0000000001
 40
0.0
 40
0.0
 40
0.0
 40
0.0
 40
0.6620573023
 40
0.8874719404
 40
1.0
 40
1.0
 40
1.0
 40
1.0
 10
99.0726495888
 20
57.2829839121
 30
0.0
 10
98.9609763407
 20
57.2747084261
 30
0.0
 10
98.8114593702
 20
57.2595437714
 30
0.0
 10
98.6443003981
 20
57.2340313434
 30
0.0
 10
98.5878091809
 20
57.2250057071
 30
0.0
 10
98.5692361039
 20
57.2208476058
 30
0.0
  0
SPLINE
  5
90A
100
AcDbEntity
  8
0
100
AcDbSpline
 62
7
  6
BYLAYER
 70
0
 71
3
 72
9
 73
5
 74
0
 42
0.0000001
 43
0.0000001
 44
0.0000000001
 40
0.0
 40
0.0
 40
0.0
 40
0.0
 40
0.7110298909
 40
1.0
 40
1.0
 40
1.0
 40
1.0
 10
98.5692361039
 20
57.2208476058
 30
0.0
 10
98.5681368915
 20
57.2206015165
 30
0.0
 10
98.5667244827
 20
57.2201016147
 30
0.0
 10
98.5649661416
 20
57.2199075603
 30
0.0
 10
98.5646689191
 20
57.2195593784
 30
0.0
  0
SPLINE
  5
90B
100
AcDbEntity
  8
0
100
AcDbSpline
 62
7
  6
BYLAYER
 70
0
 71
3
 72
16
 73
12
 74
0
 42
0.0000001
 43
0.0000001
 44
0.0000000001
 40
0.0
 40
0.0
 40
0.0
 40
0.0
 40
0.0057048547
 40
0.0208394318
 40
0.0452420533
 40
0.0787256892
 40
0.1717340417
 40
0.2960492505
 40
0.4471116171
 40
0.6193363589
 40
1.0
 40
1.0
 40
1.0
 40
1.0
 10
65.4488985698
 20
65.3681840461
 30
0.0
 10
65.4482141439
 20
65.3688659434
 30
0.0
 10
65.4488403316
 20
65.3729675175
 30
0.0
 10
65.4476349747
 20
65.3800987268
 30
0.0
 10
65.4476953376
 20
65.3927416672
 30
0.0
 10
65.4468427712
 20
65.4181242859
 30
0.0
 10
65.446408462
 20
65.4607139182
 30
0.0
 10
65.4456882126
 20
65.5230441644
 30
0.0
 10
65.4451985428
 20
65.598864995
 30
0.0
 10
65.4446457469
 20
65.7180723083
 30
0.0
 10
65.4445041234
 20
65.8117095077
 30
0.0
 10
65.4445038944
 20
65.8761762901
 30
0.0
  0
SPLINE
  5
90C
100
AcDbEntity
  8
0
100
AcDbSpline
 62
7
  6
BYLAYER
 70
0
 71
3
 72
11
 73
7
 74
0
 42
0.0000001
 43
0.0000001
 44
0.0000000001
 40
0.0
 40
0.0
 40
0.0
 40
0.0
 40
0.2946189591
 40
0.5536082491
 40
0.783659215
 40
1.0
 40
1.0
 40
1.0
 40
1.0
 10
34.2484686003
 20
168.6302083728
 30
0.0
 10
34.2488067406
 20
168.7077289711
 30
0.0
 10
34.2843155323
 20
168.8553034433
 30
0.0
 10
34.4140037647
 20
169.0222659458
 30
0.0
 10
34.5773736191
 20
169.1183741567
 30
0.0
 10
34.6955731679
 20
169.1398856795
 30
0.0
 10
34.7524954275
 20
169.1403867673
 30
0.0
  0
SPLINE
  5
90D
100
AcDbEntity
  8
0
100
AcDbSpline
 62
7
  6
BYLAYER
 70
0
 71
3
 72
28
 73
24
 74
0
 42
0.0000001
 43
0.0000001
 44
0.0000000001
 40
0.0
 40
0.0
 40
0.0
 40
0.0
 40
0.2448349825
 40
0.3558337181
 40
0.458130881
 40
0.5491986955
 40
0.6245530815
 40
0.6796540818
 40
0.6990009615
 40
0.7136686917
 40
0.7319213826
 40
0.7403260604
 40
0.7435853599
 40
0.7451409515
 40
0.7482537077
 40
0.7531837672
 40
0.7622032222
 40
0.7709695371
 40
0.7885940425
 40
0.8238317036
 40
0.8590652723
 40
0.9295326352
 40
1.0
 40
1.0
 40
1.0
 40
1.0
 10
66.0989569138
 20
180.453244624
 30
0.0
 10
66.0130707652
 20
180.4539580268
 30
0.0
 10
65.8882473315
 20
180.4550906083
 30
0.0
 10
65.7275440609
 20
180.456852692
 30
0.0
 10
65.6207769699
 20
180.4581847946
 30
0.0
 10
65.5265292978
 20
180.4595538701
 30
0.0
 10
65.4488017369
 20
180.4609614573
 30
0.0
 10
65.3963274593
 20
180.4622446119
 30
0.0
 10
65.3650008782
 20
180.4634206545
 30
0.0
 10
65.3468716903
 20
180.46437396
 30
0.0
 10
65.3317600855
 20
180.4653695974
 30
0.0
 10
65.3224812822
 20
180.466996155
 30
0.0
 10
65.3168024494
 20
180.4684912915
 30
0.0
 10
65.3172753044
 20
180.4715021679
 30
0.0
 10
65.3176127471
 20
180.4751221095
 30
0.0
 10
65.3112130751
 20
180.4779671927
 30
0.0
 10
65.3064245857
 20
180.4840538546
 30
0.0
 10
65.2973872744
 20
180.4927310919
 30
0.0
 10
65.2822475745
 20
180.5080745293
 30
0.0
 10
65.2603083206
 20
180.5298915829
 30
0.0
 10
65.2253818875
 20
180.564866413
 30
0.0
 10
65.1816651825
 20
180.6085589187
 30
0.0
 10
65.1467100446
 20
180.643520502
 30
0.0
 10
65.1292301958
 20
180.6610003508
 30
0.0
  0
SPLINE
  5
90E
100
AcDbEntity
  8
0
100
AcDbSpline
 62
7
  6
BYLAYER
 70
0
 71
3
 72
24
 73
20
 74
0
 42
0.0000001
 43
0.0000001
 44
0.0000000001
 40
0.0
 40
0.0
 40
0.0
 40
0.0
 40
0.2298923316
 40
0.3361159905
 40
0.4346161813
 40
0.5238265041
 40
0.6016399084
 40
0.6652507077
 40
0.7095995116
 40
0.7317297603
 40
0.7393547303
 40
0.7432705461
 40
0.7521122315
 40
0.7698108386
 40
0.7875177393
 40
0.8229314463
 40
0.858345157
 40
0.9291725785
 40
1.0
 40
1.0
 40
1.0
 40
1.0
 10
66.0989569138
 20
180.453244624
 30
0.0
 10
66.0982791789
 20
180.5337178323
 30
0.0
 10
66.0972223525
 20
180.6513765208
 30
0.0
 10
66.0955888293
 20
180.8035028375
 30
0.0
 10
66.0943544308
 20
180.906407212
 30
0.0
 10
66.0929787486
 20
180.9992911733
 30
0.0
 10
66.0917785126
 20
181.0801847174
 30
0.0
 10
66.0898936028
 20
181.1447431674
 30
0.0
 10
66.0895776159
 20
181.1912584773
 30
0.0
 10
66.0866198376
 20
181.2156470117
 30
0.0
 10
66.0868141657
 20
181.2290289275
 30
0.0
 10
66.0801041958
 20
181.2325946434
 30
0.0
 10
66.0734851675
 20
181.2409491873
 30
0.0
 10
66.0620027546
 20
181.2514306645
 30
0.0
 10
66.0446812405
 20
181.2691457103
 30
0.0
 10
66.0226648473
 20
181.2909703367
 30
0.0
 10
65.9876410178
 20
181.3260696154
 30
0.0
 10
65.9437913281
 20
181.3698815805
 30
0.0
 10
65.9087328797
 20
181.4049500888
 30
0.0
 10
65.8912009926
 20
181.422481976
 30
0.0
  0
SPLINE
  5
90F
100
AcDbEntity
  8
0
100
AcDbSpline
 62
7
  6
BYLAYER
 70
0
 71
3
 72
22
 73
18
 74
0
 42
0.0000001
 43
0.0000001
 44
0.0000000001
 40
0.0
 40
0.0
 40
0.0
 40
0.0
 40
0.2587401399
 40
0.3799353427
 40
0.4924487437
 40
0.5923663555
 40
0.6720682806
 40
0.7014994477
 40
0.7216596474
 40
0.7347395925
 40
0.7429386152
 40
0.7517959735
 40
0.7872538435
 40
0.8227115363
 40
0.858169229
 40
0.9290846145
 40
1.0
 40
1.0
 40
1.0
 40
1.0
 10
62.9524617512
 20
180.453244624
 30
0.0
 10
63.0432068162
 20
180.4537959767
 30
0.0
 10
63.1764478274
 20
180.4546853204
 30
0.0
 10
63.3491795363
 20
180.4560417351
 30
0.0
 10
63.4661256063
 20
180.4572309117
 30
0.0
 10
63.5687617998
 20
180.458184831
 30
0.0
 10
63.641635667
 20
180.4599047312
 30
0.0
 10
63.6875967294
 20
180.4601312609
 30
0.0
 10
63.7085311838
 20
180.4622491941
 30
0.0
 10
63.7251480129
 20
180.460311903
 30
0.0
 10
63.7307622406
 20
180.4703804028
 30
0.0
 10
63.7445438035
 20
180.4823406222
 30
0.0
 10
63.7637396267
 20
180.5029490878
 30
0.0
 10
63.7903290429
 20
180.5290367369
 30
0.0
 10
63.8254346542
 20
180.5643068617
 30
0.0
 10
63.8694364804
 20
180.6082264312
 30
0.0
 10
63.9046014273
 20
180.6434133132
 30
0.0
 10
63.9221884649
 20
180.6610003508
 30
0.0
  0
SPLINE
  5
910
100
AcDbEntity
  8
0
100
AcDbSpline
 62
7
  6
BYLAYER
 70
0
 71
3
 72
20
 73
16
 74
0
 42
0.0000001
 43
0.0000001
 44
0.0000000001
 40
0.0
 40
0.0
 40
0.0
 40
0.0
 40
0.0118096699
 40
0.0205697791
 40
0.037249198
 40
0.0523597577
 40
0.0676980042
 40
0.0988236073
 40
0.1298542852
 40
0.192012238
 40
0.2541626275
 40
0.3784626442
 40
0.5027629283
 40
0.7513634552
 40
1.0
 40
1.0
 40
1.0
 40
1.0
 10
66.0918279223
 20
45.996864411
 30
0.0
 10
66.0916903931
 20
45.9957496739
 30
0.0
 10
66.0904289692
 20
46.0020045582
 30
0.0
 10
66.0882303744
 20
45.9963764448
 30
0.0
 10
66.0857389875
 20
45.9946244223
 30
0.0
 10
66.0823765092
 20
45.9913009745
 30
0.0
 10
66.0782163393
 20
45.9872924405
 30
0.0
 10
66.0730323844
 20
45.9819972953
 30
0.0
 10
66.0646433322
 20
45.9736877797
 30
0.0
 10
66.0542129041
 20
45.9632140207
 30
0.0
 10
66.0374873954
 20
45.9465053226
 30
0.0
 10
66.0165920559
 20
45.9256019013
 30
0.0
 10
65.9831533932
 20
45.8921666731
 30
0.0
 10
65.9413559085
 20
45.8503654988
 30
0.0
 10
65.9079130256
 20
45.8169289107
 30
0.0
 10
65.8912011765
 20
45.8001985564
 30
0.0
  0
SPLINE
  5
911
100
AcDbEntity
  8
0
100
AcDbSpline
 62
7
  6
BYLAYER
 70
0
 71
3
 72
27
 73
23
 74
0
 42
0.0000001
 43
0.0000001
 44
0.0000000001
 40
0.0
 40
0.0
 40
0.0
 40
0.0
 40
0.2724865956
 40
0.4016457639
 40
0.5214433124
 40
0.5762698463
 40
0.6264953353
 40
0.6703850506
 40
0.7035685952
 40
0.7226639949
 40
0.7308763169
 40
0.7329342852
 40
0.7338896238
 40
0.7383547216
 40
0.7427901623
 40
0.7516601998
 40
0.7693987342
 40
0.7871372931
 40
0.8226144109
 40
0.8580915287
 40
0.9290457644
 40
1.0
 40
1.0
 40
1.0
 40
1.0
 10
66.0989569138
 20
46.7699397867
 30
0.0
 10
66.0032554796
 20
46.7694622704
 30
0.0
 10
65.8621976974
 20
46.7686955003
 30
0.0
 10
65.6790454278
 20
46.7674642025
 30
0.0
 10
65.5723884903
 20
46.7665982174
 30
0.0
 10
65.4933578219
 20
46.7657991012
 30
0.0
 10
65.4412132533
 20
46.765199222
 30
0.0
 10
65.3960207257
 20
46.7644999479
 30
0.0
 10
65.3634339468
 20
46.763983228
 30
0.0
 10
65.3400860329
 20
46.7630568691
 30
0.0
 10
65.332441784
 20
46.7626335227
 30
0.0
 10
65.3262885181
 20
46.7616758533
 30
0.0
 10
65.3288991101
 20
46.7592836395
 30
0.0
 10
65.3232952056
 20
46.7572423365
 30
0.0
 10
65.32026453
 20
46.7526519238
 30
0.0
 10
65.3116926574
 20
46.7450535052
 30
0.0
 10
65.3011590305
 20
46.7339778874
 30
0.0
 10
65.2833490483
 20
46.7163807873
 30
0.0
 10
65.2614140677
 20
46.6943420861
 30
0.0
 10
65.2261349971
 20
46.6591038237
 30
0.0
 10
65.1820994013
 20
46.6150478238
 30
0.0
 10
65.1468516507
 20
46.5798055143
 30
0.0
 10
65.1292301847
 20
46.5621840483
 30
0.0
  0
SPLINE
  5
912
100
AcDbEntity
  8
0
100
AcDbSpline
 62
7
  6
BYLAYER
 70
0
 71
3
 72
8
 73
4
 74
0
 42
0.0000001
 43
0.0000001
 44
0.0000000001
 40
0.0
 40
0.0
 40
0.0
 40
0.0
 40
1.0
 40
1.0
 40
1.0
 40
1.0
 10
66.0989569138
 20
46.7699397867
 30
0.0
 10
66.097987762
 20
46.6082068115
 30
0.0
 10
66.0971982677
 20
46.44647258
 30
0.0
 10
66.0959851077
 20
46.2847412512
 30
0.0
  0
SPLINE
  5
913
100
AcDbEntity
  8
0
100
AcDbSpline
 62
7
  6
BYLAYER
 70
0
 71
3
 72
11
 73
7
 74
0
 42
0.0000001
 43
0.0000001
 44
0.0000000001
 40
0.0
 40
0.0
 40
0.0
 40
0.0
 40
0.277941036
 40
0.547333073
 40
0.79087766
 40
1.0
 40
1.0
 40
1.0
 40
1.0
 10
65.882737603
 20
45.9122292559
 30
0.0
 10
65.8678994143
 20
46.011035364
 30
0.0
 10
65.7995073562
 20
46.2019823655
 30
0.0
 10
65.6040715079
 20
46.4178473481
 30
0.0
 10
65.3680742623
 20
46.5378142363
 30
0.0
 10
65.2044053483
 20
46.5621783244
 30
0.0
 10
65.12923019
 20
46.5621840483
 30
0.0
  0
SPLINE
  5
914
100
AcDbEntity
  8
0
100
AcDbSpline
 62
7
  6
BYLAYER
 70
0
 71
3
 72
27
 73
23
 74
0
 42
0.0000001
 43
0.0000001
 44
0.0000000001
 40
0.0
 40
0.0
 40
0.0
 40
0.0
 40
0.2724865854
 40
0.4016457495
 40
0.5214432956
 40
0.5762698293
 40
0.6264953191
 40
0.6703850373
 40
0.7035685888
 40
0.7226639971
 40
0.7308763253
 40
0.7329342964
 40
0.7338896349
 40
0.7383547316
 40
0.7427901724
 40
0.7516602095
 40
0.7693987432
 40
0.7871373014
 40
0.8226144179
 40
0.8580915343
 40
0.9290457671
 40
1.0
 40
1.0
 40
1.0
 40
1.0
 10
62.9524617512
 20
46.7699397867
 30
0.0
 10
62.9529392674
 20
46.6742383576
 30
0.0
 10
62.9537060374
 20
46.5331805827
 30
0.0
 10
62.9549373352
 20
46.3500283218
 30
0.0
 10
62.9558033203
 20
46.2433713883
 30
0.0
 10
62.9566024363
 20
46.1643407218
 30
0.0
 10
62.9572023157
 20
46.1121961529
 30
0.0
 10
62.9579015891
 20
46.0670036219
 30
0.0
 10
62.9584183105
 20
46.0344168382
 30
0.0
 10
62.9593446666
 20
46.0110689145
 30
0.0
 10
62.9597680162
 20
46.0034246636
 30
0.0
 10
62.9607256828
 20
45.9972713904
 30
0.0
 10
62.9631178974
 20
45.9998819818
 30
0.0
 10
62.965159201
 20
45.99427808
 30
0.0
 10
62.9697496124
 20
45.9912474036
 30
0.0
 10
62.9773480313
 20
45.9826755322
 30
0.0
 10
62.9884236482
 20
45.9721419054
 30
0.0
 10
63.0060207474
 20
45.9543319244
 30
0.0
 10
63.0280594473
 20
45.9323969449
 30
0.0
 10
63.0632977079
 20
45.8971178763
 30
0.0
 10
63.1073537054
 20
45.8530822829
 30
0.0
 10
63.1425960129
 20
45.8178345343
 30
0.0
 10
63.160217478
 20
45.8002130692
 30
0.0
  0
SPLINE
  5
915
100
AcDbEntity
  8
0
100
AcDbSpline
 62
7
  6
BYLAYER
 70
0
 71
3
 72
11
 73
7
 74
0
 42
0.0000001
 43
0.0000001
 44
0.0000000001
 40
0.0
 40
0.0
 40
0.0
 40
0.0
 40
0.3295395043
 40
0.5678935021
 40
0.8018915136
 40
1.0
 40
1.0
 40
1.0
 40
1.0
 10
70.3609892387
 20
134.5936501299
 30
0.0
 10
70.3645927136
 20
134.570832738
 30
0.0
 10
70.3714327696
 20
134.5315162371
 30
0.0
 10
70.3884657182
 20
134.4778221038
 30
0.0
 10
70.4080139651
 20
134.4348771533
 30
0.0
 10
70.4265192571
 20
134.4103818903
 30
0.0
 10
70.4365066294
 20
134.400732878
 30
0.0
  0
SPLINE
  5
916
100
AcDbEntity
  8
0
100
AcDbSpline
 62
7
  6
BYLAYER
 70
0
 71
3
 72
11
 73
7
 74
0
 42
0.0000001
 43
0.0000001
 44
0.0000000001
 40
0.0
 40
0.0
 40
0.0
 40
0.0
 40
0.3081244805
 40
0.5228865389
 40
0.7334373183
 40
1.0
 40
1.0
 40
1.0
 40
1.0
 10
70.4365066294
 20
134.400732878
 30
0.0
 10
70.4483921514
 20
134.3882062569
 30
0.0
 10
70.4691762083
 20
134.3673768304
 30
0.0
 10
70.5040055819
 20
134.3447723028
 30
0.0
 10
70.541420172
 20
134.333207472
 30
0.0
 10
70.5681461262
 20
134.3305849213
 30
0.0
 10
70.5830653473
 20
134.3298216504
 30
0.0
  0
SPLINE
  5
917
100
AcDbEntity
  8
0
100
AcDbSpline
 62
7
  6
BYLAYER
 70
0
 71
3
 72
14
 73
10
 74
0
 42
0.0000001
 43
0.0000001
 44
0.0000000001
 40
0.0
 40
0.0
 40
0.0
 40
0.0
 40
0.1105371969
 40
0.2306421878
 40
0.349627635
 40
0.4882660624
 40
0.6343418689
 40
0.7892417623
 40
1.0
 40
1.0
 40
1.0
 40
1.0
 10
70.5830653473
 20
134.3298216504
 30
0.0
 10
70.5949753435
 20
134.3288409099
 30
0.0
 10
70.620225921
 20
134.330629135
 30
0.0
 10
70.6563265047
 20
134.3430239844
 30
0.0
 10
70.6911591713
 20
134.3649268956
 30
0.0
 10
70.7225562426
 20
134.3957240798
 30
0.0
 10
70.749375205
 20
134.4352911425
 30
0.0
 10
70.7716269539
 20
134.4863270295
 30
0.0
 10
70.7793894468
 20
134.5253279808
 30
0.0
 10
70.7832426009
 20
134.5477851444
 30
0.0
  0
SPLINE
  5
918
100
AcDbEntity
  8
0
100
AcDbSpline
 62
7
  6
BYLAYER
 70
0
 71
3
 72
14
 73
10
 74
0
 42
0.0000001
 43
0.0000001
 44
0.0000000001
 40
0.0
 40
0.0
 40
0.0
 40
0.0
 40
0.2159149852
 40
0.3764352583
 40
0.5011187328
 40
0.6525860709
 40
0.7801383971
 40
0.8945694513
 40
1.0
 40
1.0
 40
1.0
 40
1.0
 10
70.7832426009
 20
134.5477851444
 30
0.0
 10
70.7877720889
 20
134.5833094834
 30
0.0
 10
70.7945358038
 20
134.6454916655
 30
0.0
 10
70.7933869332
 20
134.7288072817
 30
0.0
 10
70.7842320378
 20
134.8007767483
 30
0.0
 10
70.7663192947
 20
134.8657093394
 30
0.0
 10
70.7363040565
 20
134.924262938
 30
0.0
 10
70.6976145942
 20
134.9679434054
 30
0.0
 10
70.6655858178
 20
134.9869174717
 30
0.0
 10
70.6492451492
 20
134.9931442179
 30
0.0
  0
SPLINE
  5
919
100
AcDbEntity
  8
0
100
AcDbSpline
 62
7
  6
BYLAYER
 70
0
 71
3
 72
14
 73
10
 74
0
 42
0.0000001
 43
0.0000001
 44
0.0000000001
 40
0.0
 40
0.0
 40
0.0
 40
0.0
 40
0.1556077013
 40
0.2908853729
 40
0.4216705714
 40
0.5547841076
 40
0.6865702204
 40
0.8269465338
 40
1.0
 40
1.0
 40
1.0
 40
1.0
 10
70.6492451492
 20
134.9931442179
 30
0.0
 10
70.632223593
 20
134.9989113932
 30
0.0
 10
70.5992804137
 20
135.0073599177
 30
0.0
 10
70.5500715165
 20
135.0056026574
 30
0.0
 10
70.5051895787
 20
134.9933865392
 30
0.0
 10
70.4650300227
 20
134.9705530072
 30
0.0
 10
70.4305377429
 20
134.9384423195
 30
0.0
 10
70.4001576297
 20
134.8964908859
 30
0.0
 10
70.3860833122
 20
134.8628475744
 30
0.0
 10
70.3792540764
 20
134.8440635608
 30
0.0
  0
SPLINE
  5
91A
100
AcDbEntity
  8
0
100
AcDbSpline
 62
7
  6
BYLAYER
 70
0
 71
3
 72
10
 73
6
 74
0
 42
0.0000001
 43
0.0000001
 44
0.0000000001
 40
0.0
 40
0.0
 40
0.0
 40
0.0
 40
0.3195135834
 40
0.6474171718
 40
1.0
 40
1.0
 40
1.0
 40
1.0
 10
70.3792540764
 20
134.8440635608
 30
0.0
 10
70.3714355572
 20
134.8182995412
 30
0.0
 10
70.3595481229
 20
134.7648214175
 30
0.0
 10
70.3531109742
 20
134.6805275239
 30
0.0
 10
70.357214734
 20
134.6231202445
 30
0.0
 10
70.3609892387
 20
134.5936501299
 30
0.0
  0
SPLINE
  5
91B
100
AcDbEntity
  8
0
100
AcDbSpline
 62
7
  6
BYLAYER
 70
0
 71
3
 72
11
 73
7
 74
0
 42
0.0000001
 43
0.0000001
 44
0.0000000001
 40
0.0
 40
0.0
 40
0.0
 40
0.0
 40
0.3295395043
 40
0.5678935021
 40
0.8018915135
 40
1.0
 40
1.0
 40
1.0
 40
1.0
 10
73.4131664468
 20
138.5529855868
 30
0.0
 10
73.4167699218
 20
138.5301681949
 30
0.0
 10
73.4236099777
 20
138.4908516939
 30
0.0
 10
73.4406429264
 20
138.4371575606
 30
0.0
 10
73.4601911732
 20
138.3942126102
 30
0.0
 10
73.4786964652
 20
138.3697173471
 30
0.0
 10
73.4886838375
 20
138.3600683348
 30
0.0
  0
SPLINE
  5
91C
100
AcDbEntity
  8
0
100
AcDbSpline
 62
7
  6
BYLAYER
 70
0
 71
3
 72
11
 73
7
 74
0
 42
0.0000001
 43
0.0000001
 44
0.0000000001
 40
0.0
 40
0.0
 40
0.0
 40
0.0
 40
0.3081244805
 40
0.5228865389
 40
0.7334373183
 40
1.0
 40
1.0
 40
1.0
 40
1.0
 10
73.4886838375
 20
138.3600683348
 30
0.0
 10
73.5005693595
 20
138.3475417137
 30
0.0
 10
73.5213534164
 20
138.3267122872
 30
0.0
 10
73.55618279
 20
138.3041077596
 30
0.0
 10
73.5935973801
 20
138.2925429289
 30
0.0
 10
73.6203233343
 20
138.2899203781
 30
0.0
 10
73.6352425554
 20
138.2891571073
 30
0.0
  0
SPLINE
  5
91D
100
AcDbEntity
  8
0
100
AcDbSpline
 62
7
  6
BYLAYER
 70
0
 71
3
 72
14
 73
10
 74
0
 42
0.0000001
 43
0.0000001
 44
0.0000000001
 40
0.0
 40
0.0
 40
0.0
 40
0.0
 40
0.1105371969
 40
0.230642188
 40
0.3496276352
 40
0.4882660626
 40
0.6343418691
 40
0.7892417624
 40
1.0
 40
1.0
 40
1.0
 40
1.0
 10
73.6352425554
 20
138.2891571073
 30
0.0
 10
73.6471525516
 20
138.2881763667
 30
0.0
 10
73.6724031292
 20
138.2899645918
 30
0.0
 10
73.7085037129
 20
138.3023594413
 30
0.0
 10
73.7433363795
 20
138.3242623525
 30
0.0
 10
73.7747334508
 20
138.3550595367
 30
0.0
 10
73.8015524132
 20
138.3946265994
 30
0.0
 10
73.823804162
 20
138.4456624864
 30
0.0
 10
73.8315666549
 20
138.4846634377
 30
0.0
 10
73.835419809
 20
138.5071206013
 30
0.0
  0
SPLINE
  5
91E
100
AcDbEntity
  8
0
100
AcDbSpline
 62
7
  6
BYLAYER
 70
0
 71
3
 72
14
 73
10
 74
0
 42
0.0000001
 43
0.0000001
 44
0.0000000001
 40
0.0
 40
0.0
 40
0.0
 40
0.0
 40
0.2159149851
 40
0.3764352582
 40
0.5011187327
 40
0.6525860707
 40
0.7801383971
 40
0.8945694513
 40
1.0
 40
1.0
 40
1.0
 40
1.0
 10
73.835419809
 20
138.5071206013
 30
0.0
 10
73.8399492971
 20
138.5426449402
 30
0.0
 10
73.8467130119
 20
138.6048271223
 30
0.0
 10
73.8455641413
 20
138.6881427384
 30
0.0
 10
73.836409246
 20
138.7601122051
 30
0.0
 10
73.8184965029
 20
138.8250447962
 30
0.0
 10
73.7884812646
 20
138.8835983948
 30
0.0
 10
73.7497918024
 20
138.9272788622
 30
0.0
 10
73.7177630259
 20
138.9462529286
 30
0.0
 10
73.7014223573
 20
138.9524796747
 30
0.0
  0
SPLINE
  5
91F
100
AcDbEntity
  8
0
100
AcDbSpline
 62
7
  6
BYLAYER
 70
0
 71
3
 72
14
 73
10
 74
0
 42
0.0000001
 43
0.0000001
 44
0.0000000001
 40
0.0
 40
0.0
 40
0.0
 40
0.0
 40
0.1556077016
 40
0.2908853733
 40
0.4216705718
 40
0.5547841079
 40
0.6865702206
 40
0.8269465339
 40
1.0
 40
1.0
 40
1.0
 40
1.0
 10
73.7014223573
 20
138.9524796747
 30
0.0
 10
73.6844008011
 20
138.95824685
 30
0.0
 10
73.6514576217
 20
138.9666953745
 30
0.0
 10
73.6022487245
 20
138.9649381142
 30
0.0
 10
73.5573667867
 20
138.952721996
 30
0.0
 10
73.5172072307
 20
138.929888464
 30
0.0
 10
73.4827149509
 20
138.8977777763
 30
0.0
 10
73.4523348378
 20
138.8558263427
 30
0.0
 10
73.4382605203
 20
138.8221830312
 30
0.0
 10
73.4314312846
 20
138.8033990177
 30
0.0
  0
SPLINE
  5
920
100
AcDbEntity
  8
0
100
AcDbSpline
 62
7
  6
BYLAYER
 70
0
 71
3
 72
10
 73
6
 74
0
 42
0.0000001
 43
0.0000001
 44
0.0000000001
 40
0.0
 40
0.0
 40
0.0
 40
0.0
 40
0.3195135828
 40
0.6474171712
 40
1.0
 40
1.0
 40
1.0
 40
1.0
 10
73.4314312846
 20
138.8033990177
 30
0.0
 10
73.4236127653
 20
138.7776349981
 30
0.0
 10
73.411725331
 20
138.7241568744
 30
0.0
 10
73.4052881823
 20
138.6398629808
 30
0.0
 10
73.4093919421
 20
138.5824557014
 30
0.0
 10
73.4131664468
 20
138.5529855868
 30
0.0
  0
SPLINE
  5
921
100
AcDbEntity
  8
0
100
AcDbSpline
 62
7
  6
BYLAYER
 70
0
 71
3
 72
13
 73
9
 74
0
 42
0.0000001
 43
0.0000001
 44
0.0000000001
 40
0.0
 40
0.0
 40
0.0
 40
0.0
 40
0.1348831656
 40
0.2874853251
 40
0.5117655785
 40
0.7102937459
 40
0.8922007981
 40
1.0
 40
1.0
 40
1.0
 40
1.0
 10
72.8228317492
 20
136.8811674414
 30
0.0
 10
72.8152797334
 20
136.8631011384
 30
0.0
 10
72.8027240045
 20
136.823146851
 30
0.0
 10
72.7884244769
 20
136.7500013918
 30
0.0
 10
72.7885319173
 20
136.6659544481
 30
0.0
 10
72.8051592153
 20
136.5785555459
 30
0.0
 10
72.8356968387
 20
136.5152581913
 30
0.0
 10
72.860151595
 20
136.4784377157
 30
0.0
 10
72.8736583214
 20
136.4705337964
 30
0.0
  0
SPLINE
  5
922
100
AcDbEntity
  8
0
100
AcDbSpline
 62
7
  6
BYLAYER
 70
0
 71
3
 72
10
 73
6
 74
0
 42
0.0000001
 43
0.0000001
 44
0.0000000001
 40
0.0
 40
0.0
 40
0.0
 40
0.0
 40
0.3120507002
 40
0.64252832
 40
1.0
 40
1.0
 40
1.0
 40
1.0
 10
72.8736583214
 20
136.4705337964
 30
0.0
 10
72.8832744282
 20
136.4609562305
 30
0.0
 10
72.9060318237
 20
136.4440631605
 30
0.0
 10
72.9468674923
 20
136.4277702182
 30
0.0
 10
72.9769530251
 20
136.4244051377
 30
0.0
 10
72.9924986834
 20
136.4241661225
 30
0.0
  0
SPLINE
  5
923
100
AcDbEntity
  8
0
100
AcDbSpline
 62
7
  6
BYLAYER
 70
0
 71
3
 72
14
 73
10
 74
0
 42
0.0000001
 43
0.0000001
 44
0.0000000001
 40
0.0
 40
0.0
 40
0.0
 40
0.0
 40
0.1334634796
 40
0.2589833702
 40
0.378882922
 40
0.5175777034
 40
0.6481564935
 40
0.794889486
 40
1.0
 40
1.0
 40
1.0
 40
1.0
 10
72.9924986834
 20
136.4241661225
 30
0.0
 10
73.0074983759
 20
136.4237761892
 30
0.0
 10
73.0369408407
 20
136.4260788783
 30
0.0
 10
73.077097679
 20
136.4417815803
 30
0.0
 10
73.1127744534
 20
136.4667261146
 30
0.0
 10
73.1420383727
 20
136.4998095196
 30
0.0
 10
73.1655771613
 20
136.5404728285
 30
0.0
 10
73.184389896
 20
136.5916741607
 30
0.0
 10
73.1903774256
 20
136.6309764846
 30
0.0
 10
73.1933659083
 20
136.6538417616
 30
0.0
  0
SPLINE
  5
924
100
AcDbEntity
  8
0
100
AcDbSpline
 62
7
  6
BYLAYER
 70
0
 71
3
 72
14
 73
10
 74
0
 42
0.0000001
 43
0.0000001
 44
0.0000000001
 40
0.0
 40
0.0
 40
0.0
 40
0.0
 40
0.240499835
 40
0.4240913084
 40
0.5715394615
 40
0.6888988044
 40
0.7816119516
 40
0.894479216
 40
1.0
 40
1.0
 40
1.0
 40
1.0
 10
73.1933659083
 20
136.6538417616
 30
0.0
 10
73.1955810157
 20
136.6822440858
 30
0.0
 10
73.1981683512
 20
136.7325874285
 30
0.0
 10
73.1906064592
 20
136.8001306422
 30
0.0
 10
73.1774406513
 20
136.8517590884
 30
0.0
 10
73.1612051895
 20
136.8910311927
 30
0.0
 10
73.142002657
 20
136.9242078788
 30
0.0
 10
73.1184405702
 20
136.95295911
 30
0.0
 10
73.0969408531
 20
136.9680584848
 30
0.0
 10
73.0858036655
 20
136.9737331179
 30
0.0
  0
SPLINE
  5
925
100
AcDbEntity
  8
0
100
AcDbSpline
 62
7
  6
BYLAYER
 70
0
 71
3
 72
11
 73
7
 74
0
 42
0.0000001
 43
0.0000001
 44
0.0000000001
 40
0.0
 40
0.0
 40
0.0
 40
0.0
 40
0.2322518358
 40
0.4921346169
 40
0.7457531223
 40
1.0
 40
1.0
 40
1.0
 40
1.0
 10
73.0858036655
 20
136.9737331179
 30
0.0
 10
73.075506608
 20
136.9804215421
 30
0.0
 10
73.0515194159
 20
136.9913191031
 30
0.0
 10
73.0126284766
 20
136.999327989
 30
0.0
 10
72.9717201708
 20
136.9989679362
 30
0.0
 10
72.9453703313
 20
136.9925821225
 30
0.0
 10
72.9327099431
 20
136.9880669305
 30
0.0
  0
SPLINE
  5
926
100
AcDbEntity
  8
0
100
AcDbSpline
 62
7
  6
BYLAYER
 70
0
 71
3
 72
11
 73
7
 74
0
 42
0.0000001
 43
0.0000001
 44
0.0000000001
 40
0.0
 40
0.0
 40
0.0
 40
0.0
 40
0.2611381342
 40
0.5170555775
 40
0.7763103555
 40
1.0
 40
1.0
 40
1.0
 40
1.0
 10
72.9327099431
 20
136.9880669305
 30
0.0
 10
72.9197427831
 20
136.9834603719
 30
0.0
 10
72.8948725167
 20
136.9716893079
 30
0.0
 10
72.8627132259
 20
136.9458470683
 30
0.0
 10
72.838063734
 20
136.9153892741
 30
0.0
 10
72.8264070291
 20
136.8923998429
 30
0.0
 10
72.8228317492
 20
136.8811674414
 30
0.0
  0
ELLIPSE
  5
927
100
AcDbEntity
  8
0
100
AcDbEllipse
 62
7
  6
BYLAYER
 10
38.1816487035
 20
168.6392776461
 30
0.0
 11
1.0225081124
 21
0.005108262
 31
0.0
 40
0.4968113745
 41
-0.0024819733
 42
1.5607409064
  0
ELLIPSE
  5
928
100
AcDbEntity
  8
0
100
AcDbEllipse
 62
7
  6
BYLAYER
 10
60.3033837043
 20
161.2175563752
 30
0.0
 11
-0.0045992668
 21
-1.9079594878
 31
0.0
 40
0.2662522592
 41
1.5798497805
 42
3.142234473
  0
ELLIPSE
  5
929
100
AcDbEntity
  8
0
100
AcDbEllipse
 62
7
  6
BYLAYER
 10
73.1828487035
 20
168.6392776461
 30
0.0
 11
1.0225081124
 21
0.005108262
 31
0.0
 40
0.4968113745
 41
-0.0024819732
 42
1.5607409063
  0
ELLIPSE
  5
92A
100
AcDbEntity
  8
0
100
AcDbEllipse
 62
7
  6
BYLAYER
 10
95.3045837043
 20
161.2175563752
 30
0.0
 11
-0.0045992668
 21
-1.9079594878
 31
0.0
 40
0.2662522592
 41
1.5798497805
 42
3.142234473
  0
ELLIPSE
  5
92B
100
AcDbEntity
  8
0
100
AcDbEllipse
 62
7
  6
BYLAYER
 10
90.8697699614
 20
168.6392776461
 30
0.0
 11
-1.0225081124
 21
0.005108262
 31
0.0
 40
0.4968113745
 41
-1.5607409062
 42
0.0024819731
  0
ELLIPSE
  5
92C
100
AcDbEntity
  8
0
100
AcDbEllipse
 62
7
  6
BYLAYER
 10
108.1840487035
 20
168.6392776461
 30
0.0
 11
1.0225081124
 21
0.005108262
 31
0.0
 40
0.4968113745
 41
-0.0024819733
 42
1.5607409064
  0
ELLIPSE
  5
92D
100
AcDbEntity
  8
0
100
AcDbEllipse
 62
7
  6
BYLAYER
 10
103.7492349606
 20
161.2175563752
 30
0.0
 11
-0.0045992668
 21
1.9079594878
 31
0.0
 40
0.2662522592
 41
-0.0006418194
 42
1.561742873
  0
ELLIPSE
  5
92E
100
AcDbEntity
  8
0
100
AcDbEllipse
 62
7
  6
BYLAYER
 10
55.8685699614
 20
168.6392776461
 30
0.0
 11
1.0225081124
 21
-0.005108262
 31
0.0
 40
0.4968113745
 41
1.5808517472
 42
3.1440746265
  0
ELLIPSE
  5
92F
100
AcDbEntity
  8
0
100
AcDbEllipse
 62
7
  6
BYLAYER
 10
68.7480349606
 20
161.2175563752
 30
0.0
 11
-0.0045992668
 21
1.9079594878
 31
0.0
 40
0.2662522592
 41
-0.0006418194
 42
1.561742873
  0
ELLIPSE
  5
930
100
AcDbEntity
  8
0
100
AcDbEllipse
 62
7
  6
BYLAYER
 10
125.8709699614
 20
168.6392776461
 30
0.0
 11
-1.0225081124
 21
0.005108262
 31
0.0
 40
0.4968113745
 41
-1.5607409064
 42
0.0024819729
  0
ELLIPSE
  5
931
100
AcDbEntity
  8
0
100
AcDbEllipse
 62
7
  6
BYLAYER
 10
64.6181433155
 20
51.1275922054
 30
0.0
 11
2.8380871223
 21
0.0
 31
0.0
 40
0.9994694857
 41
-2.3515230427
 42
-2.2241759114
  0
ELLIPSE
  5
932
100
AcDbEntity
  8
0
100
AcDbEllipse
 62
7
  6
BYLAYER
 10
94.674114117
 20
43.6345922054
 30
0.0
 11
-0.0
 21
1.778
 31
0.0
 40
0.0087268678
 41
0.8162340331
 42
2.3253586205
  0
ELLIPSE
  5
933
100
AcDbEntity
  8
0
100
AcDbEllipse
 62
7
  6
BYLAYER
 10
104.3797045479
 20
183.6393922054
 30
0.0
 11
-0.0
 21
1.778
 31
0.0
 40
0.0087268678
 41
3.9578266867
 42
5.4669512741
  0
ELLIPSE
  5
934
100
AcDbEntity
  8
0
100
AcDbEllipse
 62
7
  6
BYLAYER
 10
94.674114117
 20
183.6393922054
 30
0.0
 11
-0.0
 21
1.778
 31
0.0
 40
0.0087268678
 41
0.8162340331
 42
2.3253586205
  0
ELLIPSE
  5
935
100
AcDbEntity
  8
0
100
AcDbEllipse
 62
7
  6
BYLAYER
 10
69.3785045479
 20
183.6393922054
 30
0.0
 11
-0.0
 21
1.778
 31
0.0
 40
0.0087268678
 41
3.9578266867
 42
5.4669512741
  0
ELLIPSE
  5
936
100
AcDbEntity
  8
0
100
AcDbEllipse
 62
7
  6
BYLAYER
 10
59.672914117
 20
183.6393922054
 30
0.0
 11
-0.0
 21
1.778
 31
0.0
 40
0.0087268678
 41
0.8162340331
 42
2.3253586205
  0
ELLIPSE
  5
937
100
AcDbEntity
  8
0
100
AcDbEllipse
 62
7
  6
BYLAYER
 10
34.3773045479
 20
183.6393922054
 30
0.0
 11
0.0
 21
1.778
 31
0.0
 40
0.0087268678
 41
3.9578266867
 42
5.4669512741
  0
ELLIPSE
  5
938
100
AcDbEntity
  8
0
100
AcDbEllipse
 62
7
  6
BYLAYER
 10
99.4340778636
 20
176.1209922054
 30
0.0
 11
2.8502915024
 21
0.0
 31
0.0
 40
0.9994694857
 41
0.794107225
 42
0.9205153802
  0
ELLIPSE
  5
939
100
AcDbEntity
  8
0
100
AcDbEllipse
 62
7
  6
BYLAYER
 10
100.338127898
 20
192.3119107709
 30
0.0
 11
0.5388564009
 21
0.5388564009
 31
0.0
 40
0.9999238505
 41
-0.7853600872
 42
0.7853600872
  0
ELLIPSE
  5
93A
100
AcDbEntity
  8
0
100
AcDbEllipse
 62
7
  6
BYLAYER
 10
98.7156907669
 20
192.3119107709
 30
0.0
 11
-0.5388564009
 21
0.5388564009
 31
0.0
 40
0.9999238505
 41
-0.7853600872
 42
0.7853600872
  0
ELLIPSE
  5
93B
100
AcDbEntity
  8
0
100
AcDbEllipse
 62
7
  6
BYLAYER
 10
99.6197408013
 20
176.1209922054
 30
0.0
 11
2.8502915024
 21
-0.0
 31
0.0
 40
0.9994694857
 41
2.2210772734
 42
2.3474854286
  0
ELLIPSE
  5
93C
100
AcDbEntity
  8
0
100
AcDbEllipse
 62
7
  6
BYLAYER
 10
99.6197408013
 20
176.1209922054
 30
0.0
 11
2.8502915024
 21
0.0
 31
0.0
 40
0.9994694857
 41
-2.3474854286
 42
-2.2210772734
  0
ELLIPSE
  5
93D
100
AcDbEntity
  8
0
100
AcDbEllipse
 62
7
  6
BYLAYER
 10
99.4340778636
 20
176.1209922054
 30
0.0
 11
2.8502915024
 21
0.0
 31
0.0
 40
0.9994694857
 41
-0.9205153802
 42
-0.794107225
  0
ELLIPSE
  5
93E
100
AcDbEntity
  8
0
100
AcDbEllipse
 62
7
  6
BYLAYER
 10
129.2478109012
 20
158.6428323246
 30
0.0
 11
-0.0045992668
 21
-1.9079594878
 31
0.0
 40
0.2662522592
 41
1.5798497805
 42
3.1422344727
  0
ELLIPSE
  5
93F
100
AcDbEntity
  8
0
100
AcDbEllipse
 62
7
  6
BYLAYER
 10
129.2694948196
 20
167.6381873744
 30
0.0
 11
0.508001469
 21
-0.0000028451
 31
0.0
 40
0.0090318768
 41
0.0090317324
 42
1.5714164246
  0
ELLIPSE
  5
940
100
AcDbEntity
  8
0
100
AcDbEllipse
 62
7
  6
BYLAYER
 10
130.3109226279
 20
168.1495732553
 30
0.0
 11
0.4712305056
 21
-0.1904446365
 31
0.0
 40
0.9966541357
 41
-2.0358119669
 42
-1.1855575671
  0
ELLIPSE
  5
941
100
AcDbEntity
  8
0
100
AcDbEllipse
 62
7
  6
BYLAYER
 10
130.3292400092
 20
168.1678906366
 30
0.0
 11
-0.3592376006
 21
-0.3592376006
 31
0.0
 40
0.9999238505
 41
5.49782522
 42
7.0685453944
  0
ELLIPSE
  5
942
100
AcDbEntity
  8
0
100
AcDbEllipse
 62
7
  6
BYLAYER
 10
129.3132013216
 20
168.6454841945
 30
0.0
 11
0.3592376006
 21
0.3592376006
 31
0.0
 40
0.9999238505
 41
-0.785360087
 42
0.785360087
  0
ELLIPSE
  5
943
100
AcDbEntity
  8
0
100
AcDbEllipse
 62
7
  6
BYLAYER
 10
124.6286205943
 20
168.6454841944
 30
0.0
 11
1.0225081124
 21
-0.005108262
 31
0.0
 40
0.4968113745
 41
1.5808517473
 42
3.1440746265
  0
ELLIPSE
  5
944
100
AcDbEntity
  8
0
100
AcDbEllipse
 62
7
  6
BYLAYER
 10
104.3797045479
 20
43.6345922054
 30
0.0
 11
-0.0
 21
1.778
 31
0.0
 40
0.0087268678
 41
3.9578266867
 42
5.4669512741
  0
ELLIPSE
  5
945
100
AcDbEntity
  8
0
100
AcDbEllipse
 62
7
  6
BYLAYER
 10
129.675314117
 20
43.6345922054
 30
0.0
 11
0.0
 21
1.778
 31
0.0
 40
0.0087268678
 41
0.8162340331
 42
2.3253586205
  0
ELLIPSE
  5
946
100
AcDbEntity
  8
0
100
AcDbEllipse
 62
7
  6
BYLAYER
 10
99.4344753495
 20
51.1275922054
 30
0.0
 11
2.8380871223
 21
0.0
 31
0.0
 40
0.9994694857
 41
0.7900696109
 42
0.9174167422
  0
ELLIPSE
  5
947
100
AcDbEntity
  8
0
100
AcDbEllipse
 62
7
  6
BYLAYER
 10
99.6193433155
 20
51.1275922054
 30
0.0
 11
2.8380871223
 21
0.0
 31
0.0
 40
0.9994694857
 41
2.2241759114
 42
2.3515230427
  0
ELLIPSE
  5
948
100
AcDbEntity
  8
0
100
AcDbEllipse
 62
7
  6
BYLAYER
 10
99.6193433155
 20
51.1275922054
 30
0.0
 11
2.8380871223
 21
0.0
 31
0.0
 40
0.9994694857
 41
-2.3515230427
 42
-2.2241759114
  0
ELLIPSE
  5
949
100
AcDbEntity
  8
0
100
AcDbEllipse
 62
7
  6
BYLAYER
 10
98.7156907669
 20
34.9112736398
 30
0.0
 11
0.5388564009
 21
0.5388564009
 31
0.0
 40
0.9999238505
 41
2.3562325664
 42
3.9269527408
  0
ELLIPSE
  5
94A
100
AcDbEntity
  8
0
100
AcDbEllipse
 62
7
  6
BYLAYER
 10
100.338127898
 20
34.9112736398
 30
0.0
 11
-0.5388564009
 21
0.5388564009
 31
0.0
 40
0.9999238505
 41
-3.9269527408
 42
-2.3562325664
  0
ELLIPSE
  5
94B
100
AcDbEntity
  8
0
100
AcDbEllipse
 62
7
  6
BYLAYER
 10
99.4344753495
 20
51.1275922054
 30
0.0
 11
2.8380871223
 21
-0.0
 31
0.0
 40
0.9994694857
 41
-0.9174167422
 42
-0.7900696109
  0
ELLIPSE
  5
94C
100
AcDbEntity
  8
0
100
AcDbEllipse
 62
7
  6
BYLAYER
 10
69.3785045479
 20
43.6345922054
 30
0.0
 11
-0.0
 21
1.778
 31
0.0
 40
0.0087268678
 41
3.9578266867
 42
5.4669512741
  0
ELLIPSE
  5
94D
100
AcDbEntity
  8
0
100
AcDbEllipse
 62
7
  6
BYLAYER
 10
34.8048077637
 20
158.6428323246
 30
0.0
 11
-0.0045992668
 21
1.9079594878
 31
0.0
 40
0.2662522592
 41
-0.0006418191
 42
1.561742873
  0
ELLIPSE
  5
94E
100
AcDbEntity
  8
0
100
AcDbEllipse
 62
7
  6
BYLAYER
 10
68.754241509
 20
158.6428323246
 30
0.0
 11
-0.0045992668
 21
1.9079594878
 31
0.0
 40
0.2662522592
 41
-0.0006418194
 42
1.561742873
  0
ELLIPSE
  5
94F
100
AcDbEntity
  8
0
100
AcDbEllipse
 62
7
  6
BYLAYER
 10
133.1193606099
 20
60.9691796156
 30
0.0
 11
1.016
 21
0.0
 31
0.0
 40
0.0087268678
 41
-3.1328660073
 42
-1.5707963268
  0
ELLIPSE
  5
950
100
AcDbEntity
  8
0
100
AcDbEllipse
 62
7
  6
BYLAYER
 10
30.933258055
 20
60.9691796156
 30
0.0
 11
1.016
 21
-0.0
 31
0.0
 40
0.0087268678
 41
-1.5707963268
 42
-0.0087266463
  0
ELLIPSE
  5
951
100
AcDbEntity
  8
0
100
AcDbEllipse
 62
7
  6
BYLAYER
 10
30.933258055
 20
67.3464047951
 30
0.0
 11
1.016
 21
-0.0
 31
0.0
 40
0.0087268678
 41
0.0087266463
 42
1.5707963268
  0
ELLIPSE
  5
952
100
AcDbEntity
  8
0
100
AcDbEllipse
 62
7
  6
BYLAYER
 10
103.755441509
 20
158.6428323246
 30
0.0
 11
-0.0045992668
 21
1.9079594878
 31
0.0
 40
0.2662522592
 41
-0.0006418194
 42
1.561742873
  0
ELLIPSE
  5
953
100
AcDbEntity
  8
0
100
AcDbEllipse
 62
7
  6
BYLAYER
 10
71.3291997156
 20
131.7204609058
 30
0.0
 11
-0.3592376006
 21
0.3592376006
 31
0.0
 40
0.9999238505
 41
-0.7853600872
 42
0.7853600872
  0
ELLIPSE
  5
954
100
AcDbEntity
  8
0
100
AcDbEllipse
 62
7
  6
BYLAYER
 10
95.298377156
 20
158.6428323246
 30
0.0
 11
-0.0045992668
 21
-1.9079594878
 31
0.0
 40
0.2662522592
 41
1.5798497806
 42
3.1422344727
  0
ELLIPSE
  5
955
100
AcDbEntity
  8
0
100
AcDbEllipse
 62
7
  6
BYLAYER
 10
34.3773045479
 20
43.6345922054
 30
0.0
 11
0.0
 21
1.778
 31
0.0
 40
0.0087268678
 41
3.9578266867
 42
5.4669512741
  0
ELLIPSE
  5
956
100
AcDbEntity
  8
0
100
AcDbEllipse
 62
7
  6
BYLAYER
 10
89.6274205943
 20
168.6454841944
 30
0.0
 11
1.0225081124
 21
-0.005108262
 31
0.0
 40
0.4968113745
 41
1.5808517474
 42
3.1440746267
  0
ELLIPSE
  5
957
100
AcDbEntity
  8
0
100
AcDbEllipse
 62
7
  6
BYLAYER
 10
59.672914117
 20
43.6345922054
 30
0.0
 11
-0.0
 21
1.778
 31
0.0
 40
0.0087268678
 41
0.8162340331
 42
2.3253586205
  0
ELLIPSE
  5
958
100
AcDbEntity
  8
0
100
AcDbEllipse
 62
7
  6
BYLAYER
 10
96.2827921849
 20
169.6615228821
 30
0.0
 11
-0.278973557
 21
0.4245773113
 31
0.0
 40
0.9999454854
 41
2.5602940605
 42
3.7228912464
  0
ELLIPSE
  5
959
100
AcDbEntity
  8
0
100
AcDbEllipse
 62
7
  6
BYLAYER
 10
97.8492693707
 20
170.7241370672
 30
0.0
 11
-0.278973557
 21
0.4245773113
 31
0.0
 40
0.9999454854
 41
-0.5812985931
 42
0.5812985927
  0
ELLIPSE
  5
95A
100
AcDbEntity
  8
0
100
AcDbEllipse
 62
7
  6
BYLAYER
 10
101.2045492943
 20
170.7241370672
 30
0.0
 11
0.278973557
 21
0.4245773113
 31
0.0
 40
0.9999454854
 41
-0.5812985928
 42
0.5812985931
  0
ELLIPSE
  5
95B
100
AcDbEntity
  8
0
100
AcDbEllipse
 62
7
  6
BYLAYER
 10
102.77102648
 20
169.6615228821
 30
0.0
 11
-0.278973557
 21
-0.4245773113
 31
0.0
 40
0.9999454854
 41
-0.5812985927
 42
0.5812985931
  0
ELLIPSE
  5
95C
100
AcDbEntity
  8
0
100
AcDbEllipse
 62
7
  6
BYLAYER
 10
109.4263980706
 20
168.6454841944
 30
0.0
 11
1.0225081124
 21
0.005108262
 31
0.0
 40
0.4968113745
 41
-0.0024819732
 42
1.5607409058
  0
ELLIPSE
  5
95D
100
AcDbEntity
  8
0
100
AcDbEllipse
 62
7
  6
BYLAYER
 10
102.7394028213
 20
155.4174302015
 30
0.0
 11
0.3592376006
 21
-0.3592376006
 31
0.0
 40
0.9999238505
 41
-0.7853600874
 42
0.7853600872
  0
ELLIPSE
  5
95E
100
AcDbEntity
  8
0
100
AcDbEllipse
 62
7
  6
BYLAYER
 10
99.9104713363
 20
152.5980302015
 30
0.0
 11
0.3592376006
 21
-0.3592376006
 31
0.0
 40
0.9999238505
 41
-0.7853600872
 42
0.7853600872
  0
ELLIPSE
  5
95F
100
AcDbEntity
  8
0
100
AcDbEllipse
 62
7
  6
BYLAYER
 10
99.1433473286
 20
152.5980302015
 30
0.0
 11
0.3592376006
 21
0.3592376006
 31
0.0
 40
0.9999238505
 41
-3.9269527408
 42
-2.3562325664
  0
ELLIPSE
  5
960
100
AcDbEntity
  8
0
100
AcDbEllipse
 62
7
  6
BYLAYER
 10
96.3144158436
 20
155.4174302015
 30
0.0
 11
0.3592376006
 21
0.3592376006
 31
0.0
 40
0.9999238505
 41
-3.9269527408
 42
-2.3562325664
  0
ELLIPSE
  5
961
100
AcDbEntity
  8
0
100
AcDbEllipse
 62
7
  6
BYLAYER
 10
65.7056127228
 20
78.3084089092
 30
0.0
 11
0.5967627122
 21
-0.2172038642
 31
0.0
 40
0.9999029798
 41
-0.3490346684
 42
0.3490346684
  0
ELLIPSE
  5
962
100
AcDbEntity
  8
0
100
AcDbEllipse
 62
7
  6
BYLAYER
 10
66.4677215361
 20
77.2407162819
 30
0.0
 11
-0.5967627122
 21
0.2172038642
 31
0.0
 40
0.9999029798
 41
-0.3490346683
 42
0.3490346684
  0
ELLIPSE
  5
963
100
AcDbEntity
  8
0
100
AcDbEllipse
 62
7
  6
BYLAYER
 10
66.4677215361
 20
74.9592464787
 30
0.0
 11
-0.5967627122
 21
-0.2172038642
 31
0.0
 40
0.9999029798
 41
-0.3490346684
 42
0.3490346684
  0
ELLIPSE
  5
964
100
AcDbEntity
  8
0
100
AcDbEllipse
 62
7
  6
BYLAYER
 10
65.7056127228
 20
73.8915538514
 30
0.0
 11
0.5967627122
 21
0.2172038642
 31
0.0
 40
0.9999029798
 41
-0.3490346684
 42
0.3490346682
  0
ELLIPSE
  5
965
100
AcDbEntity
  8
0
100
AcDbEllipse
 62
7
  6
BYLAYER
 10
65.7056127228
 20
64.2986888151
 30
0.0
 11
0.4490897454
 21
-0.4490897454
 31
0.0
 40
0.9998286772
 41
-0.7853124946
 42
0.7853124946
  0
ELLIPSE
  5
966
100
AcDbEntity
  8
0
100
AcDbEllipse
 62
7
  6
BYLAYER
 10
63.3458059422
 20
64.2986888151
 30
0.0
 11
0.4490897454
 21
0.4490897454
 31
0.0
 40
0.9998286772
 41
2.3562801589
 42
3.9269051482
  0
ELLIPSE
  5
967
100
AcDbEntity
  8
0
100
AcDbEllipse
 62
7
  6
BYLAYER
 10
129.675314117
 20
183.6393922054
 30
0.0
 11
0.0
 21
1.778
 31
0.0
 40
0.0087268678
 41
0.8162340331
 42
2.3253586205
  0
ELLIPSE
  5
968
100
AcDbEntity
  8
0
100
AcDbEllipse
 62
7
  6
BYLAYER
 10
63.3458059422
 20
73.8915538514
 30
0.0
 11
0.5967627122
 21
-0.2172038642
 31
0.0
 40
0.9999029798
 41
2.7925579852
 42
3.490627322
  0
ELLIPSE
  5
969
100
AcDbEntity
  8
0
100
AcDbEllipse
 62
7
  6
BYLAYER
 10
62.5836971289
 20
74.9592464787
 30
0.0
 11
0.5967627122
 21
-0.2172038642
 31
0.0
 40
0.9999029798
 41
-0.3490346684
 42
0.3490346684
  0
ELLIPSE
  5
96A
100
AcDbEntity
  8
0
100
AcDbEllipse
 62
7
  6
BYLAYER
 10
62.5836971289
 20
77.2407162819
 30
0.0
 11
0.5967627122
 21
0.2172038642
 31
0.0
 40
0.9999029798
 41
-0.3490346684
 42
0.3490346684
  0
ELLIPSE
  5
96B
100
AcDbEntity
  8
0
100
AcDbEllipse
 62
7
  6
BYLAYER
 10
63.3458059422
 20
78.3084089093
 30
0.0
 11
0.5967627122
 21
0.2172038642
 31
0.0
 40
0.9999029798
 41
2.7925579852
 42
3.4906273219
  0
ELLIPSE
  5
96C
100
AcDbEntity
  8
0
100
AcDbEllipse
 62
7
  6
BYLAYER
 10
63.3458059422
 20
82.7620955956
 30
0.0
 11
0.4490897454
 21
-0.4490897454
 31
0.0
 40
0.9998286772
 41
2.3562801589
 42
3.9269051482
  0
ELLIPSE
  5
96D
100
AcDbEntity
  8
0
100
AcDbEllipse
 62
7
  6
BYLAYER
 10
65.7056127228
 20
82.7620955956
 30
0.0
 11
0.4490897454
 21
0.4490897454
 31
0.0
 40
0.9998286772
 41
-0.7853124946
 42
0.7853124946
  0
ELLIPSE
  5
96E
100
AcDbEntity
  8
0
100
AcDbEllipse
 62
7
  6
BYLAYER
 10
98.3470059422
 20
74.4969646764
 30
0.0
 11
0.5967627122
 21
-0.2172038642
 31
0.0
 40
0.9999029798
 41
2.7925579852
 42
3.490627322
  0
ELLIPSE
  5
96F
100
AcDbEntity
  8
0
100
AcDbEllipse
 62
7
  6
BYLAYER
 10
97.5848971289
 20
75.5646573038
 30
0.0
 11
0.5967627122
 21
-0.2172038642
 31
0.0
 40
0.9999029798
 41
-0.3490346685
 42
0.3490346684
  0
ELLIPSE
  5
970
100
AcDbEntity
  8
0
100
AcDbEllipse
 62
7
  6
BYLAYER
 10
97.5848971289
 20
77.8461271069
 30
0.0
 11
0.5967627122
 21
0.2172038642
 31
0.0
 40
0.9999029798
 41
-0.3490346684
 42
0.3490346684
  0
ELLIPSE
  5
971
100
AcDbEntity
  8
0
100
AcDbEllipse
 62
7
  6
BYLAYER
 10
98.3470059422
 20
78.9138197343
 30
0.0
 11
0.5967627122
 21
0.2172038642
 31
0.0
 40
0.9999029798
 41
2.7925579853
 42
3.4906273219
  0
ELLIPSE
  5
972
100
AcDbEntity
  8
0
100
AcDbEllipse
 62
7
  6
BYLAYER
 10
98.3470059422
 20
89.0104955956
 30
0.0
 11
0.4490897454
 21
-0.4490897454
 31
0.0
 40
0.9998286772
 41
2.3562801588
 42
3.9269051482
  0
ELLIPSE
  5
973
100
AcDbEntity
  8
0
100
AcDbEllipse
 62
7
  6
BYLAYER
 10
100.7068127228
 20
89.0104955957
 30
0.0
 11
0.4490897454
 21
0.4490897454
 31
0.0
 40
0.9998286772
 41
-0.7853124947
 42
0.7853124946
  0
ELLIPSE
  5
974
100
AcDbEntity
  8
0
100
AcDbEllipse
 62
7
  6
BYLAYER
 10
98.5401587114
 20
63.4417983741
 30
0.0
 11
0.0
 21
2.49936
 31
0.0
 40
0.0087268678
 41
-2.5679646304
 42
-1.5707963268
  0
ELLIPSE
  5
975
100
AcDbEntity
  8
0
100
AcDbEllipse
 62
7
  6
BYLAYER
 10
100.7068127228
 20
78.9138197343
 30
0.0
 11
0.5967627122
 21
-0.2172038642
 31
0.0
 40
0.9999029798
 41
-0.3490346684
 42
0.3490346684
  0
ELLIPSE
  5
976
100
AcDbEntity
  8
0
100
AcDbEllipse
 62
7
  6
BYLAYER
 10
101.4689215361
 20
77.8461271069
 30
0.0
 11
-0.5967627122
 21
0.2172038642
 31
0.0
 40
0.9999029798
 41
-0.3490346683
 42
0.3490346684
  0
ELLIPSE
  5
977
100
AcDbEntity
  8
0
100
AcDbEllipse
 62
7
  6
BYLAYER
 10
101.4689215361
 20
75.5646573038
 30
0.0
 11
-0.5967627122
 21
-0.2172038642
 31
0.0
 40
0.9999029798
 41
-0.3490346684
 42
0.3490346684
  0
ELLIPSE
  5
978
100
AcDbEntity
  8
0
100
AcDbEllipse
 62
7
  6
BYLAYER
 10
100.7068127228
 20
74.4969646764
 30
0.0
 11
0.5967627122
 21
0.2172038642
 31
0.0
 40
0.9999029798
 41
-0.3490346684
 42
0.3490346683
  0
ELLIPSE
  5
979
100
AcDbEntity
  8
0
100
AcDbEllipse
 62
7
  6
BYLAYER
 10
67.7382028213
 20
155.4174302015
 30
0.0
 11
-0.3592376006
 21
0.3592376006
 31
0.0
 40
0.9999238505
 41
-3.926952741
 42
-2.3562325664
  0
ELLIPSE
  5
97A
100
AcDbEntity
  8
0
100
AcDbEllipse
 62
7
  6
BYLAYER
 10
64.9092713363
 20
152.5980302015
 30
0.0
 11
-0.3592376006
 21
0.3592376006
 31
0.0
 40
0.9999238505
 41
-3.926952741
 42
-2.3562325664
  0
ELLIPSE
  5
97B
100
AcDbEntity
  8
0
100
AcDbEllipse
 62
7
  6
BYLAYER
 10
64.1421473286
 20
152.5980302015
 30
0.0
 11
0.3592376006
 21
0.3592376006
 31
0.0
 40
0.9999238505
 41
-3.9269527408
 42
-2.3562325662
  0
ELLIPSE
  5
97C
100
AcDbEntity
  8
0
100
AcDbEllipse
 62
7
  6
BYLAYER
 10
61.3132158436
 20
155.4174302015
 30
0.0
 11
0.3592376006
 21
0.3592376006
 31
0.0
 40
0.9999238505
 41
-3.9269527408
 42
-2.3562325664
  0
ELLIPSE
  5
97D
100
AcDbEntity
  8
0
100
AcDbEllipse
 62
7
  6
BYLAYER
 10
60.297177156
 20
158.6428323246
 30
0.0
 11
-0.0045992668
 21
-1.9079594878
 31
0.0
 40
0.2662522592
 41
1.5798497806
 42
3.1422344728
  0
ELLIPSE
  5
97E
100
AcDbEntity
  8
0
100
AcDbEllipse
 62
7
  6
BYLAYER
 10
54.6262205943
 20
168.6454841944
 30
0.0
 11
1.0225081124
 21
-0.005108262
 31
0.0
 40
0.4968113745
 41
1.5808517472
 42
3.1440746265
  0
ELLIPSE
  5
97F
100
AcDbEntity
  8
0
100
AcDbEllipse
 62
7
  6
BYLAYER
 10
61.2815921849
 20
169.6615228821
 30
0.0
 11
0.278973557
 21
-0.4245773113
 31
0.0
 40
0.9999454854
 41
-0.581298593
 42
0.5812985927
  0
ELLIPSE
  5
980
100
AcDbEntity
  8
0
100
AcDbEllipse
 62
7
  6
BYLAYER
 10
62.8480693707
 20
170.7241370672
 30
0.0
 11
-0.278973557
 21
0.4245773113
 31
0.0
 40
0.9999454854
 41
-0.5812985931
 42
0.5812985928
  0
ELLIPSE
  5
981
100
AcDbEntity
  8
0
100
AcDbEllipse
 62
7
  6
BYLAYER
 10
66.2033492943
 20
170.7241370672
 30
0.0
 11
0.278973557
 21
0.4245773113
 31
0.0
 40
0.9999454854
 41
-0.5812985927
 42
0.5812985931
  0
ELLIPSE
  5
982
100
AcDbEntity
  8
0
100
AcDbEllipse
 62
7
  6
BYLAYER
 10
67.76982648
 20
169.6615228821
 30
0.0
 11
0.278973557
 21
0.4245773113
 31
0.0
 40
0.9999454854
 41
2.5602940608
 42
3.7228912467
  0
ELLIPSE
  5
983
100
AcDbEntity
  8
0
100
AcDbEllipse
 62
7
  6
BYLAYER
 10
74.4251980706
 20
168.6454841944
 30
0.0
 11
1.0225081124
 21
0.005108262
 31
0.0
 40
0.4968113745
 41
-0.0024819732
 42
1.5607409057
  0
ELLIPSE
  5
984
100
AcDbEntity
  8
0
100
AcDbEllipse
 62
7
  6
BYLAYER
 10
71.3291997156
 20
122.9077431931
 30
0.0
 11
0.0178167622
 21
0.5241934601
 31
0.0
 40
0.9685485613
 41
1.6058745513
 42
3.1745006751
  0
ELLIPSE
  5
985
100
AcDbEntity
  8
0
100
AcDbEllipse
 62
7
  6
BYLAYER
 10
64.6385862483
 20
96.7191691212
 30
0.0
 11
0.2694282005
 21
0.2694282005
 31
0.0
 40
0.9999238505
 41
-0.7853600872
 42
0.7853600871
  0
ELLIPSE
  5
986
100
AcDbEntity
  8
0
100
AcDbEllipse
 62
7
  6
BYLAYER
 10
65.4006152641
 20
89.353198137
 30
0.0
 11
0.2694282005
 21
0.2694282005
 31
0.0
 40
0.9999238505
 41
2.3562325664
 42
3.926952741
  0
ELLIPSE
  5
987
100
AcDbEntity
  8
0
100
AcDbEllipse
 62
7
  6
BYLAYER
 10
65.4894862483
 20
88.5911691212
 30
0.0
 11
0.2694282005
 21
0.2694282005
 31
0.0
 40
0.9999238505
 41
-0.7853600872
 42
0.785360087
  0
ELLIPSE
  5
988
100
AcDbEntity
  8
0
100
AcDbEllipse
 62
7
  6
BYLAYER
 10
65.4894862483
 20
85.1396152895
 30
0.0
 11
0.2694282005
 21
-0.2694282005
 31
0.0
 40
0.9999238505
 41
-0.7853600869
 42
0.7853600872
  0
ELLIPSE
  5
989
100
AcDbEntity
  8
0
100
AcDbEllipse
 62
7
  6
BYLAYER
 10
62.1903324166
 20
85.1396152895
 30
0.0
 11
0.2694282005
 21
0.2694282005
 31
0.0
 40
0.9999238505
 41
2.3562325664
 42
3.9269527405
  0
ELLIPSE
  5
98A
100
AcDbEntity
  8
0
100
AcDbEllipse
 62
7
  6
BYLAYER
 10
62.1903324166
 20
88.5911691212
 30
0.0
 11
0.2694282005
 21
-0.2694282005
 31
0.0
 40
0.9999238505
 41
2.3562325667
 42
3.9269527408
  0
ELLIPSE
  5
98B
100
AcDbEntity
  8
0
100
AcDbEllipse
 62
7
  6
BYLAYER
 10
62.2792034009
 20
89.353198137
 30
0.0
 11
-0.2694282005
 21
0.2694282005
 31
0.0
 40
0.9999238505
 41
2.3562325661
 42
3.9269527407
  0
ELLIPSE
  5
98C
100
AcDbEntity
  8
0
100
AcDbEllipse
 62
7
  6
BYLAYER
 10
63.0412324166
 20
96.7191691212
 30
0.0
 11
0.2694282005
 21
-0.2694282005
 31
0.0
 40
0.9999238505
 41
2.3562325665
 42
3.9269527408
  0
ELLIPSE
  5
98D
100
AcDbEntity
  8
0
100
AcDbEllipse
 62
7
  6
BYLAYER
 10
34.7394173434
 20
168.6454841944
 30
0.0
 11
-0.3592376006
 21
0.3592376006
 31
0.0
 40
0.9999238505
 41
-0.7853600872
 42
0.7853600872
  0
ELLIPSE
  5
98E
100
AcDbEntity
  8
0
100
AcDbEllipse
 62
7
  6
BYLAYER
 10
33.741696037
 20
168.1495732553
 30
0.0
 11
0.4712305056
 21
0.1904446365
 31
0.0
 40
0.9966541357
 41
-1.9560350865
 42
-1.1057806867
  0
ELLIPSE
  5
98F
100
AcDbEntity
  8
0
100
AcDbEllipse
 62
7
  6
BYLAYER
 10
33.7233786557
 20
168.1678906366
 30
0.0
 11
-0.3592376006
 21
0.3592376006
 31
0.0
 40
0.9999238505
 41
8.6394178735
 42
10.2101380479
  0
ELLIPSE
  5
990
100
AcDbEntity
  8
0
100
AcDbEllipse
 62
7
  6
BYLAYER
 10
39.4239980706
 20
168.6454841944
 30
0.0
 11
1.0225081124
 21
0.005108262
 31
0.0
 40
0.4968113745
 41
-0.0024819729
 42
1.5607409059
  0
ELLIPSE
  5
991
100
AcDbEntity
  8
0
100
AcDbEllipse
 62
7
  6
BYLAYER
 10
64.4328778636
 20
176.1209922054
 30
0.0
 11
2.8502915024
 21
-0.0
 31
0.0
 40
0.9994694857
 41
0.794107225
 42
0.9205153802
  0
ELLIPSE
  5
992
100
AcDbEntity
  8
0
100
AcDbEllipse
 62
7
  6
BYLAYER
 10
65.336927898
 20
192.3119107709
 30
0.0
 11
0.5388564009
 21
0.5388564009
 31
0.0
 40
0.9999238505
 41
-0.7853600872
 42
0.7853600872
  0
ELLIPSE
  5
993
100
AcDbEntity
  8
0
100
AcDbEllipse
 62
7
  6
BYLAYER
 10
63.7144907669
 20
192.3119107709
 30
0.0
 11
-0.5388564009
 21
0.5388564009
 31
0.0
 40
0.9999238505
 41
-0.7853600872
 42
0.7853600872
  0
ELLIPSE
  5
994
100
AcDbEntity
  8
0
100
AcDbEllipse
 62
7
  6
BYLAYER
 10
64.6185408013
 20
176.1209922054
 30
0.0
 11
2.8502915024
 21
0.0
 31
0.0
 40
0.9994694857
 41
2.2210772734
 42
2.3474854286
  0
ELLIPSE
  5
995
100
AcDbEntity
  8
0
100
AcDbEllipse
 62
7
  6
BYLAYER
 10
64.6185408013
 20
176.1209922054
 30
0.0
 11
2.8502915024
 21
0.0
 31
0.0
 40
0.9994694857
 41
-2.3474854286
 42
-2.2210772734
  0
ELLIPSE
  5
996
100
AcDbEntity
  8
0
100
AcDbEllipse
 62
7
  6
BYLAYER
 10
64.4328778636
 20
176.1209922054
 30
0.0
 11
2.8502915024
 21
-0.0
 31
0.0
 40
0.9994694857
 41
-0.9205153802
 42
-0.794107225
  0
ELLIPSE
  5
997
100
AcDbEntity
  8
0
100
AcDbEllipse
 62
7
  6
BYLAYER
 10
64.6181433155
 20
51.1275922054
 30
0.0
 11
2.8380871223
 21
0.0
 31
0.0
 40
0.9994694857
 41
2.2241759114
 42
2.3515230427
  0
ELLIPSE
  5
998
100
AcDbEntity
  8
0
100
AcDbEllipse
 62
7
  6
BYLAYER
 10
64.4332753495
 20
51.1275922054
 30
0.0
 11
2.8380871223
 21
-0.0
 31
0.0
 40
0.9994694857
 41
0.7900696109
 42
0.9174167422
  0
ELLIPSE
  5
999
100
AcDbEntity
  8
0
100
AcDbEllipse
 62
7
  6
BYLAYER
 10
64.4332753495
 20
51.1275922054
 30
0.0
 11
2.8380871223
 21
0.0
 31
0.0
 40
0.9994694857
 41
-0.9174167422
 42
-0.7900696109
  0
ELLIPSE
  5
99A
100
AcDbEntity
  8
0
100
AcDbEllipse
 62
7
  6
BYLAYER
 10
65.336927898
 20
34.9112736398
 30
0.0
 11
0.5388564009
 21
-0.5388564009
 31
0.0
 40
0.9999238505
 41
-0.7853600872
 42
0.7853600872
  0
ELLIPSE
  5
99B
100
AcDbEntity
  8
0
100
AcDbEllipse
 62
7
  6
BYLAYER
 10
63.7144907669
 20
34.9112736398
 30
0.0
 11
0.5388564009
 21
0.5388564009
 31
0.0
 40
0.9999238505
 41
-3.9269527408
 42
-2.3562325664
  0
ENDSEC
  0
SECTION
  2
OBJECTS
  0
DICTIONARY
  5
C
100
AcDbDictionary
280
0
281
1
  3
ACAD_GROUP
350
D
  3
ACAD_MLINESTYLE
350
17
  3
ACAD_LAYOUT
350
1A
  3
ACAD_PLOTSETTINGS
350
19
  3
ACAD_PLOTSTYLENAME
350
E
  0
DICTIONARY
  5
D
102
{ACAD_REACTORS
330
C
102
}
100
AcDbDictionary
280
0
281
1
  0
ACDBDICTIONARYWDFLT
  5
E
102
{ACAD_REACTORS
330
C
102
}
100
AcDbDictionary
281
1
  3
Normal
350
F
100
AcDbDictionaryWithDefault
340
F
  0
DICTIONARY
  5
17
102
{ACAD_REACTORS
330
C
102
}
100
AcDbDictionary
280
0
281
1
  3
Standard
350
18
  0
DICTIONARY
  5
19
102
{ACAD_REACTORS
330
C
102
}
100
AcDbDictionary
281
1
  0
DICTIONARY
  5
1A
102
{ACAD_REACTORS
330
C
102
}
100
AcDbDictionary
281
1
  3
Model
350
99C
  3
Layout1
350
99D
  0
ACDBPLACEHOLDER
  5
F
102
{ACAD_REACTORS
330
E
102
}
  0
MLINESTYLE
  5
18
102
{ACAD_REACTORS
330
17
102
}
100
AcDbMlineStyle
  2
STANDARD
 70
0
  3

 62
256
 51
90.0
 52
90.0
 71
2
 49
0.5
 62
256
  6
BYLAYER
 49
-0.5
 62
256
  6
BYLAYER
  0
LAYOUT
  5
99C
102
{ACAD_REACTORS
330
1A
102
}
100
AcDbPlotSettings
  1

  2
none_device
  4

  6

 40
0.0
 41
0.0
 42
0.0
 43
0.0
 44
210.0
 45
297.0
 46
0.0
 47
0.0
 48
0.0
 49
0.0
140
0.0
141
0.0
142
1.0
143
1.0
 70
1024
 72
1
 73
0
 74
0
  7

 75
0
147
1.0
148
0.0
149
0.0
100
AcDbLayout
  1
Model
 70
0
 71
0
 10
0.0
 20
0.0
 11
210.0
 21
297.0
 12
0.0
 22
0.0
 32
0.0
 14
0.0
 24
0.0
 34
0.0
 15
0.0
 25
0.0
 35
0.0
146
0.0
 13
0.0
 23
0.0
 33
0.0
 16
1.0
 26
0.0
 36
0.0
 17
0.0
 27
1.0
 37
0.0
 76
0
330
210
345
0
346
0
  0
LAYOUT
  5
99D
102
{ACAD_REACTORS
330
1A
102
}
100
AcDbPlotSettings
  1

  2
none_device
  4

  6

 40
0.0
 41
0.0
 42
0.0
 43
0.0
 44
210.0
 45
297.0
 46
0.0
 47
0.0
 48
0.0
 49
0.0
140
0.0
141
0.0
142
1.0
143
1.0
 70
0
 72
1
 73
0
 74
0
  7

 75
0
147
1.0
148
0.0
149
0.0
100
AcDbLayout
  1
Layout1
 70
0
 71
1
 10
0.0
 20
0.0
 11
210.0
 21
297.0
 12
0.0
 22
0.0
 32
0.0
 14
0.0
 24
0.0
 34
0.0
 15
0.0
 25
0.0
 35
0.0
146
0.0
 13
0.0
 23
0.0
 33
0.0
 16
1.0
 26
0.0
 36
0.0
 17
0.0
 27
1.0
 37
0.0
 76
0
330
211
345
0
346
0
  0
ENDSEC
  0
EOF
