999
DXF file: C:\Users\sesa63760\Dev\_Creo\CAD\MCADPD0004517_3D-CAD\drw0001_5.dxf
999
Pro/ENGINEER 2019471 by Parametric Technology Corporation
  0
SECTION
  2
HEADER
  9
$ACADVER
  1
AC1024
  9
$DWGCODEPAGE
  3
ANSI_1252
  9
$EXTMAX
 10
246.0475121585
 20
347.9814814813
 30
0.0
  9
$EXTMIN
 10
0.0
 20
0.0
 30
0.0
  9
$LIMMIN
 10
0.0
 20
0.0
  9
$LIMMAX
 10
246.0475121585
 20
347.9814814813
  9
$VIEWCTR
 10
123.0237560792
 20
173.9907407407
  9
$VIEWSIZE
 40
347.9814814813
  9
$CLAYER
  8
0
  9
$LTSCALE
 40
22.6832373114
  9
$CELTYPE
  6
BYLAYER
  9
$DIMSCALE
 40
1.0
  9
$DIMASZ
 40
2.9291370495
  9
$DIMEXO
 40
1.0
  9
$DIMDLI
 40
15.6720548697
  9
$DIMEXE
 40
1.0
  9
$DIMCEN
 40
3.7118024691
  9
$DIMLFAC
 40
1.0
  9
$DIMBLK
  1
_FILLED
  9
$DIMALT
 70
0
  9
$DIMALTF
 40
0.0393700787
  9
$DIMTXT
 40
4.1007918693
  9
$DIMTOL
 70
1
  9
$DIMLIM
 70
0
  9
$DIMTFAC
 40
1.0
  9
$DIMTP
 40
0.01
  9
$DIMTM
 40
0.01
  9
$DIMGAP
 40
0.625
  9
$DIMDSEP
 70
46
  9
$AUNITS
 70
0
  9
$PDMODE
 70
3
  9
$PDSIZE
 40
0.3125
  9
$HANDSEED
  5
2EA
  9
$TILEMODE
 70
1
  9
$MEASUREMENT
 70
1
  9
$INSUNITS
 70
4
  0
ENDSEC
  0
SECTION
  2
CLASSES
  0
CLASS
  1
ACDBDICTIONARYWDFLT
  2
AcDbDictionaryWithDefault
  3
AutoCAD 2000
 90
0
 91
1
280
0
281
0
  0
CLASS
  1
ACDBPLACEHOLDER
  2
AcDbPlaceHolder
  3
AutoCAD 2000
 90
0
 91
1
280
0
281
0
  0
CLASS
  1
LAYOUT
  2
AcDbLayout
  3
AutoCAD 2000
 90
0
 91
0
280
0
281
0
  0
ENDSEC
  0
SECTION
  2
TABLES
  0
TABLE
  2
VPORT
  5
8
100
AcDbSymbolTable
 70
2
  0
VPORT
  5
1F4
100
AcDbSymbolTableRecord
100
AcDbViewportTableRecord
  2
*ACTIVE
 70
0
 10
0.0
 20
0.0
 11
1.0
 21
1.0
 12
123.0237560792
 22
173.9907407407
 13
0.0
 23
0.0
 14
1.0
 24
1.0
 15
0.0
 25
0.0
 16
0.0
 26
0.0
 36
1.0
 17
0.0
 27
0.0
 37
0.0
 40
347.9814814813
 41
0.7070707071
 42
50.0
 43
0.0
 44
0.0
 50
0.0
 51
0.0
 71
0
 72
100
 73
1
 74
1
 75
0
 76
0
 77
0
 78
0
  0
ENDTAB
  0
TABLE
  2
LTYPE
  5
5
100
AcDbSymbolTable
 70
6
  0
LTYPE
  5
14
100
AcDbSymbolTableRecord
100
AcDbLinetypeTableRecord
  2
BYBLOCK
 70
0
  3

 72
65
 73
0
 40
0.0
  0
LTYPE
  5
15
100
AcDbSymbolTableRecord
100
AcDbLinetypeTableRecord
  2
BYLAYER
 70
0
  3

 72
65
 73
0
 40
0.0
  0
LTYPE
  5
16
100
AcDbSymbolTableRecord
100
AcDbLinetypeTableRecord
  2
CONTINUOUS
 70
64
  3
Solid line
 72
65
 73
0
 40
0.0
  0
LTYPE
  5
1F5
100
AcDbSymbolTableRecord
100
AcDbLinetypeTableRecord
  2
CENTER
 70
64
  3
____ _ ____ _ ____ _ ____ _ ____ _ ____ _ ____
 72
65
 73
4
 40
0.6
 49
0.375
 74
0
 49
-0.075
 74
0
 49
0.075
 74
0
 49
-0.075
 74
0
  0
LTYPE
  5
1F6
100
AcDbSymbolTableRecord
100
AcDbLinetypeTableRecord
  2
HIDDEN
 70
64
  3
- - - - - - - - - - - - - - - - - - - -
 72
65
 73
2
 40
0.2
 49
0.1
 74
0
 49
-0.1
 74
0
  0
LTYPE
  5
1F7
100
AcDbSymbolTableRecord
100
AcDbLinetypeTableRecord
  2
PHANTOM
 70
64
  3
_____ _ _ _____ _ _ _____ _ _ _____
 72
65
 73
6
 40
0.8
 49
0.45
 74
0
 49
-0.05
 74
0
 49
0.1
 74
0
 49
-0.05
 74
0
 49
0.1
 74
0
 49
-0.05
 74
0
  0
LTYPE
  5
1F8
100
AcDbSymbolTableRecord
100
AcDbLinetypeTableRecord
  2
DOT
 70
64
  3
. . . . . . . . . . . . . . . . . . . .
 72
65
 73
2
 40
0.2
 49
0.1
 74
0
 49
-0.1
 74
0
  0
LTYPE
  5
1F9
100
AcDbSymbolTableRecord
100
AcDbLinetypeTableRecord
  2
DASHED
 70
64
  3
- - - - - - - - - - - - - - - - - - - -
 72
65
 73
2
 40
0.2
 49
0.1
 74
0
 49
-0.1
 74
0
  0
ENDTAB
  0
TABLE
  2
LAYER
  5
2
100
AcDbSymbolTable
 70
36
  0
LAYER
  5
10
100
AcDbSymbolTableRecord
100
AcDbLayerTableRecord
  2
0
 70
0
 62
7
  6
CONTINUOUS
370
-3
390
F
  0
LAYER
  5
1FA
100
AcDbSymbolTableRecord
100
AcDbLayerTableRecord
  2
DEFAULT_1
 70
0
 62
7
  6
CENTER
370
-3
390
F
  0
LAYER
  5
1FB
100
AcDbSymbolTableRecord
100
AcDbLayerTableRecord
  2
DEFAULT_2
 70
0
 62
7
  6
HIDDEN
370
-3
390
F
  0
LAYER
  5
1FC
100
AcDbSymbolTableRecord
100
AcDbLayerTableRecord
  2
DEFAULT_3
 70
0
 62
7
  6
PHANTOM
370
-3
390
F
  0
LAYER
  5
1FD
100
AcDbSymbolTableRecord
100
AcDbLayerTableRecord
  2
00_COMPONENTS
 70
0
 62
7
  6
CONTINUOUS
370
-3
390
F
  0
LAYER
  5
1FE
100
AcDbSymbolTableRecord
100
AcDbLayerTableRecord
  2
01_1_DEFAULT_DATUMS
 70
0
 62
7
  6
CONTINUOUS
370
-3
390
F
  0
LAYER
  5
1FF
100
AcDbSymbolTableRecord
100
AcDbLayerTableRecord
  2
01_PLANES
 70
0
 62
7
  6
CONTINUOUS
370
-3
390
F
  0
LAYER
  5
200
100
AcDbSymbolTableRecord
100
AcDbLayerTableRecord
  2
02_COORD_SYS
 70
0
 62
7
  6
CONTINUOUS
370
-3
390
F
  0
LAYER
  5
201
100
AcDbSymbolTableRecord
100
AcDbLayerTableRecord
  2
03_AXES
 70
0
 62
7
  6
CONTINUOUS
370
-3
390
F
  0
LAYER
  5
202
100
AcDbSymbolTableRecord
100
AcDbLayerTableRecord
  2
04_POINTS
 70
0
 62
7
  6
CONTINUOUS
370
-3
390
F
  0
LAYER
  5
203
100
AcDbSymbolTableRecord
100
AcDbLayerTableRecord
  2
05_CURVES
 70
0
 62
7
  6
CONTINUOUS
370
-3
390
F
  0
LAYER
  5
204
100
AcDbSymbolTableRecord
100
AcDbLayerTableRecord
  2
06_SURFS
 70
0
 62
7
  6
CONTINUOUS
370
-3
390
F
  0
LAYER
  5
205
100
AcDbSymbolTableRecord
100
AcDbLayerTableRecord
  2
07_COSMETICS
 70
0
 62
7
  6
CONTINUOUS
370
-3
390
F
  0
LAYER
  5
206
100
AcDbSymbolTableRecord
100
AcDbLayerTableRecord
  2
10_NOTES
 70
0
 62
7
  6
CONTINUOUS
370
-3
390
F
  0
LAYER
  5
207
100
AcDbSymbolTableRecord
100
AcDbLayerTableRecord
  2
11_NOTES_PUB
 70
0
 62
7
  6
CONTINUOUS
370
-3
390
F
  0
LAYER
  5
208
100
AcDbSymbolTableRecord
100
AcDbLayerTableRecord
  2
13_REF_GTOL
 70
0
 62
7
  6
CONTINUOUS
370
-3
390
F
  0
LAYER
  5
209
100
AcDbSymbolTableRecord
100
AcDbLayerTableRecord
  2
16_MISC
 70
0
 62
7
  6
CONTINUOUS
370
-3
390
F
  0
LAYER
  5
20A
100
AcDbSymbolTableRecord
100
AcDbLayerTableRecord
  2
17_NO_PRINT
 70
0
 62
7
  6
CONTINUOUS
370
-3
390
F
  0
LAYER
  5
20B
100
AcDbSymbolTableRecord
100
AcDbLayerTableRecord
  2
18_DATUM_CAMS_JOINTS
 70
0
 62
7
  6
CONTINUOUS
370
-3
390
F
  0
LAYER
  5
20C
100
AcDbSymbolTableRecord
100
AcDbLayerTableRecord
  2
19_DATUM_FUNCTIONAL
 70
0
 62
7
  6
CONTINUOUS
370
-3
390
F
  0
LAYER
  5
20D
100
AcDbSymbolTableRecord
100
AcDbLayerTableRecord
  2
20_DATUM_KINEMATIC_SCHEME
 70
0
 62
7
  6
CONTINUOUS
370
-3
390
F
  0
ENDTAB
  0
TABLE
  2
STYLE
  5
3
100
AcDbSymbolTable
 70
1
  0
STYLE
  5
11
100
AcDbSymbolTableRecord
100
AcDbTextStyleTableRecord
  2
STANDARD
 70
0
 40
0.0
 41
1.0
 50
0.0
 71
0
 42
0.2
  3
ARIAL.TTF
  4

  0
STYLE
  5
20E
100
AcDbSymbolTableRecord
100
AcDbTextStyleTableRecord
  2
TEXTSTYLE_1
 70
0
 40
0.0
 41
0.8
 50
0.0
 71
0
 42
0.2
  3
gdt
  4

  0
ENDTAB
  0
TABLE
  2
VIEW
  5
6
100
AcDbSymbolTable
 70
0
  0
ENDTAB
  0
TABLE
  2
UCS
  5
7
100
AcDbSymbolTable
 70
0
  0
ENDTAB
  0
TABLE
  2
APPID
  5
9
100
AcDbSymbolTable
 70
1
  0
APPID
  5
20F
100
AcDbSymbolTableRecord
100
AcDbRegAppTableRecord
  2
ACAD
 70
0
  0
ENDTAB
  0
TABLE
  2
BLOCK_RECORD
  5
1
100
AcDbSymbolTable
 70
0
  0
BLOCK_RECORD
  5
210
100
AcDbSymbolTableRecord
100
AcDbBlockTableRecord
  2
*Model_Space
  0
BLOCK_RECORD
  5
211
100
AcDbSymbolTableRecord
100
AcDbBlockTableRecord
  2
*Paper_Space
  0
BLOCK_RECORD
  5
212
100
AcDbSymbolTableRecord
100
AcDbBlockTableRecord
  2
_FILLED
  0
ENDTAB
  0
TABLE
  2
DIMSTYLE
  5
A
100
AcDbSymbolTable
 70
1
100
AcDbDimStyleTable
 71
0
  0
DIMSTYLE
105
213
100
AcDbSymbolTableRecord
100
AcDbDimStyleTableRecord
  2
STANDARD
 70
0
  3

  4

 40
1.0
 41
2.9291370495
 42
1.0
 43
0.38
 44
1.0
 45
0.0
 46
0.0
 47
0.01
 48
0.01
140
4.1007918693
141
0.09
142
0.0
143
25.4
144
1.0
145
0.0
146
1.0
147
0.625
 71
1
 72
0
 73
0
 74
0
 75
0
 76
0
 77
1
 78
8
 79
2
170
0
171
1
172
0
173
0
174
0
175
0
176
0
177
0
178
0
270
2
179
2
271
2
272
2
273
2
274
2
275
0
280
0
281
0
282
0
283
1
284
8
285
0
286
0
287
3
288
0
340
11
278
46
341
212
342
212
343
212
344
212
  0
ENDTAB
  0
ENDSEC
  0
SECTION
  2
BLOCKS
  0
BLOCK
  5
20
100
AcDbEntity
  8
0
100
AcDbBlockBegin
  2
*Model_Space
 70
0
 10
0.0
 20
0.0
 30
0.0
  3
*Model_Space
  1

  0
ENDBLK
  5
21
100
AcDbEntity
  8
0
100
AcDbBlockEnd
  0
BLOCK
  5
1C
100
AcDbEntity
  8
0
100
AcDbBlockBegin
  2
*Paper_Space
 70
0
 10
0.0
 20
0.0
 30
0.0
  3
*Paper_Space
  1

  0
ENDBLK
  5
1D
100
AcDbEntity
  8
0
100
AcDbBlockEnd
  0
BLOCK
  5
214
100
AcDbEntity
  8
0
100
AcDbBlockBegin
  2
_FILLED
 70
64
 10
0.0
 20
0.0
  3
_FILLED
  1

  0
SOLID
  5
215
100
AcDbEntity
  8
0
  6
BYBLOCK
 62
0
100
AcDbTrace
 10
0.0
 20
0.0
 11
-1.0
 21
0.25
 12
-1.0
 22
-0.25
 13
-1.0
 23
-0.25
  0
ENDBLK
  5
216
100
AcDbEntity
  8
0
  6
BYBLOCK
 62
0
100
AcDbBlockEnd
  0
ENDSEC
  0
SECTION
  2
ENTITIES
  0
LINE
  5
217
100
AcDbEntity
  8
0
100
AcDbLine
 62
7
  6
BYLAYER
 10
44.1811634866
 20
67.0043586492
 11
186.1811634866
 21
67.0043586492
  0
LINE
  5
218
100
AcDbEntity
  8
0
100
AcDbLine
 62
7
  6
BYLAYER
 10
186.1811634866
 20
68.5043586492
 11
121.4311634866
 21
68.5043586492
  0
LINE
  5
219
100
AcDbEntity
  8
0
100
AcDbLine
 62
7
  6
BYLAYER
 10
108.9311634866
 20
68.5043586492
 11
44.1811634866
 21
68.5043586492
  0
LINE
  5
21A
100
AcDbEntity
  8
0
100
AcDbLine
 62
7
  6
BYLAYER
 10
28.6811634866
 20
141.7043586492
 11
28.6811634866
 21
195.0543586492
  0
LINE
  5
21B
100
AcDbEntity
  8
0
100
AcDbLine
 62
7
  6
BYLAYER
 10
29.6811634866
 20
189.1364094568
 11
29.6811634866
 21
195.0543586492
  0
LINE
  5
21C
100
AcDbEntity
  8
0
100
AcDbLine
 62
7
  6
BYLAYER
 10
30.1635288784
 20
140.7384379572
 11
30.1635252537
 21
142.8065793191
  0
LINE
  5
21D
100
AcDbEntity
  8
0
100
AcDbLine
 62
7
  6
BYLAYER
 10
30.6811634866
 20
143.7043586492
 11
30.6811634866
 21
189.4043586492
  0
LINE
  5
21E
100
AcDbEntity
  8
0
100
AcDbLine
 62
7
  6
BYLAYER
 10
39.6811634866
 20
69.4043586492
 11
44.1811634866
 21
69.4043586492
  0
LINE
  5
21F
100
AcDbEntity
  8
0
100
AcDbLine
 62
7
  6
BYLAYER
 10
44.1811634866
 20
69.5043586492
 11
108.9311634866
 21
69.5043586492
  0
LINE
  5
220
100
AcDbEntity
  8
0
100
AcDbLine
 62
7
  6
BYLAYER
 10
121.4311634866
 20
69.5043586492
 11
186.1811634866
 21
69.5043586492
  0
LINE
  5
221
100
AcDbEntity
  8
0
100
AcDbLine
 62
7
  6
BYLAYER
 10
44.1811634866
 20
71.0043586492
 11
186.1811634866
 21
71.0043586492
  0
LINE
  5
222
100
AcDbEntity
  8
0
100
AcDbLine
 62
7
  6
BYLAYER
 10
46.4811634866
 20
71.4043586468
 11
38.6811634866
 21
71.4043586492
  0
LINE
  5
223
100
AcDbEntity
  8
0
100
AcDbLine
 62
7
  6
BYLAYER
 10
46.4811634866
 20
73.0043586492
 11
186.1811634866
 21
73.0043586492
  0
LINE
  5
224
100
AcDbEntity
  8
0
100
AcDbLine
 62
7
  6
BYLAYER
 10
46.4811634866
 20
75.0043586492
 11
186.1811634866
 21
75.0043586492
  0
LINE
  5
225
100
AcDbEntity
  8
0
100
AcDbLine
 62
7
  6
BYLAYER
 10
37.9399825317
 20
142.7043586492
 11
37.9399825318
 21
140.7043587313
  0
LINE
  5
226
100
AcDbEntity
  8
0
100
AcDbLine
 62
7
  6
BYLAYER
 10
38.6811634866
 20
70.4043586492
 11
38.6811634866
 21
142.7043586492
  0
LINE
  5
227
100
AcDbEntity
  8
0
100
AcDbLine
 62
7
  6
BYLAYER
 10
39.6811634866
 20
69.4043586492
 11
39.6811634866
 21
143.7043586492
  0
LINE
  5
228
100
AcDbEntity
  8
0
100
AcDbLine
 62
7
  6
BYLAYER
 10
44.1811634866
 20
195.0543586492
 11
44.1811634866
 21
176.4043586492
  0
LINE
  5
229
100
AcDbEntity
  8
0
100
AcDbLine
 62
7
  6
BYLAYER
 10
44.1811634866
 20
67.0043586492
 11
44.1811634866
 21
71.0043586492
  0
LINE
  5
22A
100
AcDbEntity
  8
0
100
AcDbLine
 62
7
  6
BYLAYER
 10
44.9811634866
 20
268.5043586492
 11
44.9811634866
 21
215.0043586492
  0
LINE
  5
22B
100
AcDbEntity
  8
0
100
AcDbLine
 62
7
  6
BYLAYER
 10
45.1811634866
 20
215.0043586492
 11
45.1811634866
 21
186.5043586492
  0
LINE
  5
22C
100
AcDbEntity
  8
0
100
AcDbLine
 62
7
  6
BYLAYER
 10
46.0811634866
 20
277.0325352568
 11
46.0811634866
 21
273.5043586492
  0
LINE
  5
22D
100
AcDbEntity
  8
0
100
AcDbLine
 62
7
  6
BYLAYER
 10
46.4811634866
 20
176.4043586492
 11
46.4811634866
 21
71.0043586492
  0
LINE
  5
22E
100
AcDbEntity
  8
0
100
AcDbLine
 62
7
  6
BYLAYER
 10
48.0811634866
 20
273.5043586492
 11
48.0811634866
 21
277.0325352574
  0
LINE
  5
22F
100
AcDbEntity
  8
0
100
AcDbLine
 62
7
  6
BYLAYER
 10
49.6811634866
 20
208.0043586492
 11
49.6811634866
 21
204.0043586492
  0
LINE
  5
230
100
AcDbEntity
  8
0
100
AcDbLine
 62
7
  6
BYLAYER
 10
49.9811634866
 20
215.0043586492
 11
49.9811634866
 21
273.5043586492
  0
LINE
  5
231
100
AcDbEntity
  8
0
100
AcDbLine
 62
7
  6
BYLAYER
 10
50.1811634866
 20
186.5043586492
 11
50.1811634866
 21
204.0043586492
  0
LINE
  5
232
100
AcDbEntity
  8
0
100
AcDbLine
 62
7
  6
BYLAYER
 10
50.1811634866
 20
208.0043586492
 11
50.1811634866
 21
215.0043586492
  0
LINE
  5
233
100
AcDbEntity
  8
0
100
AcDbLine
 62
7
  6
BYLAYER
 10
68.1311634866
 20
93.2543586492
 11
72.1811634866
 21
93.2543586492
  0
LINE
  5
234
100
AcDbEntity
  8
0
100
AcDbLine
 62
7
  6
BYLAYER
 10
51.1811634866
 20
215.0043586492
 11
51.1811634866
 21
208.0043586492
  0
LINE
  5
235
100
AcDbEntity
  8
0
100
AcDbLine
 62
7
  6
BYLAYER
 10
51.1811634866
 20
204.0043586492
 11
51.1811634866
 21
181.5043586492
  0
LINE
  5
236
100
AcDbEntity
  8
0
100
AcDbLine
 62
7
  6
BYLAYER
 10
51.4311634866
 20
215.0043586492
 11
51.4311634866
 21
272.6801819213
  0
LINE
  5
237
100
AcDbEntity
  8
0
100
AcDbLine
 62
7
  6
BYLAYER
 10
57.1811770585
 20
181.5043586492
 11
57.181238541
 21
204.0043586492
  0
LINE
  5
238
100
AcDbEntity
  8
0
100
AcDbLine
 62
7
  6
BYLAYER
 10
57.1812494712
 20
208.0043586492
 11
57.1812685991
 21
215.0043586492
  0
LINE
  5
239
100
AcDbEntity
  8
0
100
AcDbLine
 62
7
  6
BYLAYER
 10
57.4311634866
 20
215.0043586492
 11
57.4311634866
 21
273.5043586492
  0
LINE
  5
23A
100
AcDbEntity
  8
0
100
AcDbLine
 62
7
  6
BYLAYER
 10
60.0811634866
 20
215.0043586492
 11
60.0811634866
 21
208.0043586492
  0
LINE
  5
23B
100
AcDbEntity
  8
0
100
AcDbLine
 62
7
  6
BYLAYER
 10
64.8811634866
 20
104.7043586492
 11
64.8811634866
 21
96.5043586492
  0
LINE
  5
23C
100
AcDbEntity
  8
0
100
AcDbLine
 62
7
  6
BYLAYER
 10
72.1811634866
 20
107.9543586492
 11
68.1311634866
 21
107.9543586492
  0
LINE
  5
23D
100
AcDbEntity
  8
0
100
AcDbLine
 62
7
  6
BYLAYER
 10
48.08116349
 20
277.0325352568
 11
47.8444800695
 21
279.0184811171
  0
LINE
  5
23E
100
AcDbEntity
  8
0
100
AcDbLine
 62
7
  6
BYLAYER
 10
74.6811634866
 20
208.0043586492
 11
74.6811634866
 21
204.0043586492
  0
LINE
  5
23F
100
AcDbEntity
  8
0
100
AcDbLine
 62
7
  6
BYLAYER
 10
75.0830872753
 20
204.0043586492
 11
75.0830872753
 21
208.0043586492
  0
LINE
  5
240
100
AcDbEntity
  8
0
100
AcDbLine
 62
7
  6
BYLAYER
 10
75.4311634866
 20
96.5043586492
 11
75.4311634866
 21
104.7043586492
  0
LINE
  5
241
100
AcDbEntity
  8
0
100
AcDbLine
 62
7
  6
BYLAYER
 10
75.779239698
 20
208.0043586492
 11
75.779239698
 21
204.0043586492
  0
LINE
  5
242
100
AcDbEntity
  8
0
100
AcDbLine
 62
7
  6
BYLAYER
 10
76.1811634866
 20
204.0043586492
 11
76.1811634866
 21
208.0043586492
  0
LINE
  5
243
100
AcDbEntity
  8
0
100
AcDbLine
 62
7
  6
BYLAYER
 10
76.2811634866
 20
215.0043586492
 11
76.2811634866
 21
204.0043586492
  0
LINE
  5
244
100
AcDbEntity
  8
0
100
AcDbLine
 62
7
  6
BYLAYER
 10
78.9311634866
 20
273.5043586492
 11
78.9311634866
 21
215.0043586492
  0
LINE
  5
245
100
AcDbEntity
  8
0
100
AcDbLine
 62
7
  6
BYLAYER
 10
79.1810583935
 20
215.0043586492
 11
79.1811499147
 21
181.5043586492
  0
LINE
  5
246
100
AcDbEntity
  8
0
100
AcDbLine
 62
7
  6
BYLAYER
 10
84.9311634866
 20
215.0043586492
 11
84.9311634866
 21
272.6801819213
  0
LINE
  5
247
100
AcDbEntity
  8
0
100
AcDbLine
 62
7
  6
BYLAYER
 10
85.1811634866
 20
181.5043586492
 11
85.1811634866
 21
215.0043586492
  0
LINE
  5
248
100
AcDbEntity
  8
0
100
AcDbLine
 62
7
  6
BYLAYER
 10
175.1811634866
 20
136.2043586492
 11
198.4794575644
 21
136.2043586492
  0
LINE
  5
249
100
AcDbEntity
  8
0
100
AcDbLine
 62
7
  6
BYLAYER
 10
93.1811634866
 20
215.0043586492
 11
93.1811634866
 21
181.5043586492
  0
LINE
  5
24A
100
AcDbEntity
  8
0
100
AcDbLine
 62
7
  6
BYLAYER
 10
93.4311634866
 20
215.0043586492
 11
93.4311634866
 21
272.6801819213
  0
LINE
  5
24B
100
AcDbEntity
  8
0
100
AcDbLine
 62
7
  6
BYLAYER
 10
97.6811634866
 20
204.0043586492
 11
97.6811634866
 21
208.0043586492
  0
LINE
  5
24C
100
AcDbEntity
  8
0
100
AcDbLine
 62
7
  6
BYLAYER
 10
37.6811635151
 20
139.7043586492
 11
30.6811635648
 21
139.7043586492
  0
LINE
  5
24D
100
AcDbEntity
  8
0
100
AcDbLine
 62
7
  6
BYLAYER
 10
38.6811634866
 20
140.7043584756
 11
30.4223444895
 21
140.7043673239
  0
LINE
  5
24E
100
AcDbEntity
  8
0
100
AcDbLine
 62
7
  6
BYLAYER
 10
30.939975467
 20
142.704358343
 11
46.4811634866
 21
142.7043586492
  0
LINE
  5
24F
100
AcDbEntity
  8
0
100
AcDbLine
 62
7
  6
BYLAYER
 10
175.1811634866
 20
143.2043586492
 11
202.5209094488
 21
143.2043586492
  0
LINE
  5
250
100
AcDbEntity
  8
0
100
AcDbLine
 62
7
  6
BYLAYER
 10
30.6811634866
 20
143.7043586492
 11
46.4811634866
 21
143.7043586492
  0
LINE
  5
251
100
AcDbEntity
  8
0
100
AcDbLine
 62
7
  6
BYLAYER
 10
175.1811634866
 20
145.2043586492
 11
203.6756099871
 21
145.2043586492
  0
LINE
  5
252
100
AcDbEntity
  8
0
100
AcDbLine
 62
7
  6
BYLAYER
 10
46.4811634866
 20
145.2411552136
 11
175.1811634866
 21
145.2411552136
  0
LINE
  5
253
100
AcDbEntity
  8
0
100
AcDbLine
 62
7
  6
BYLAYER
 10
99.1811906328
 20
181.5043586492
 11
99.1812475533
 21
204.0043586492
  0
LINE
  5
254
100
AcDbEntity
  8
0
100
AcDbLine
 62
7
  6
BYLAYER
 10
99.1812576725
 20
208.0043586492
 11
99.1812753811
 21
215.0043586492
  0
LINE
  5
255
100
AcDbEntity
  8
0
100
AcDbLine
 62
7
  6
BYLAYER
 10
99.4311634866
 20
215.0043586492
 11
99.4311634866
 21
273.5043586492
  0
LINE
  5
256
100
AcDbEntity
  8
0
100
AcDbLine
 62
7
  6
BYLAYER
 10
102.0811634866
 20
215.0043586492
 11
102.0811634866
 21
208.0043586492
  0
LINE
  5
257
100
AcDbEntity
  8
0
100
AcDbLine
 62
7
  6
BYLAYER
 10
175.1811634866
 20
148.0695823384
 11
46.4811634866
 21
148.0695823384
  0
LINE
  5
258
100
AcDbEntity
  8
0
100
AcDbLine
 62
7
  6
BYLAYER
 10
46.4811634866
 20
151.7043586497
 11
28.6811634866
 21
151.7043586492
  0
LINE
  5
259
100
AcDbEntity
  8
0
100
AcDbLine
 62
7
  6
BYLAYER
 10
208.2944121407
 20
153.2043586492
 11
175.1811634866
 21
153.2043586492
  0
LINE
  5
25A
100
AcDbEntity
  8
0
100
AcDbLine
 62
7
  6
BYLAYER
 10
108.9311634866
 20
69.5043586492
 11
108.9311634866
 21
68.5043586492
  0
LINE
  5
25B
100
AcDbEntity
  8
0
100
AcDbLine
 62
7
  6
BYLAYER
 10
111.9311634866
 20
71.0043586492
 11
111.9311634866
 21
67.0043586492
  0
LINE
  5
25C
100
AcDbEntity
  8
0
100
AcDbLine
 62
7
  6
BYLAYER
 10
46.4811634866
 20
161.2086696349
 11
175.1811634866
 21
161.2086696349
  0
LINE
  5
25D
100
AcDbEntity
  8
0
100
AcDbLine
 62
7
  6
BYLAYER
 10
175.1811634866
 20
162.2693298067
 11
46.4811634866
 21
162.2693298067
  0
LINE
  5
25E
100
AcDbEntity
  8
0
100
AcDbLine
 62
7
  6
BYLAYER
 10
118.2811634866
 20
215.0043586492
 11
118.2811634866
 21
208.0043586492
  0
LINE
  5
25F
100
AcDbEntity
  8
0
100
AcDbLine
 62
7
  6
BYLAYER
 10
118.4311634866
 20
71.0043586492
 11
118.4311634866
 21
67.0043586492
  0
LINE
  5
260
100
AcDbEntity
  8
0
100
AcDbLine
 62
7
  6
BYLAYER
 10
120.9311634866
 20
273.5043586492
 11
120.9311634866
 21
215.0043586492
  0
LINE
  5
261
100
AcDbEntity
  8
0
100
AcDbLine
 62
7
  6
BYLAYER
 10
121.1810583935
 20
215.0043586492
 11
121.1810775174
 21
208.0043586492
  0
LINE
  5
262
100
AcDbEntity
  8
0
100
AcDbLine
 62
7
  6
BYLAYER
 10
121.1810884453
 20
204.0043586492
 11
121.1811499147
 21
181.5043586492
  0
LINE
  5
263
100
AcDbEntity
  8
0
100
AcDbLine
 62
7
  6
BYLAYER
 10
121.4311634866
 20
69.5043586492
 11
121.4311634866
 21
68.5043586492
  0
LINE
  5
264
100
AcDbEntity
  8
0
100
AcDbLine
 62
7
  6
BYLAYER
 10
122.6811634866
 20
204.0043586492
 11
122.6811634866
 21
208.0043586492
  0
LINE
  5
265
100
AcDbEntity
  8
0
100
AcDbLine
 62
7
  6
BYLAYER
 10
126.9311634866
 20
215.0043586492
 11
126.9311634866
 21
272.6801819213
  0
LINE
  5
266
100
AcDbEntity
  8
0
100
AcDbLine
 62
7
  6
BYLAYER
 10
127.1811634866
 20
181.5043586492
 11
127.1811634866
 21
215.0043586492
  0
LINE
  5
267
100
AcDbEntity
  8
0
100
AcDbLine
 62
7
  6
BYLAYER
 10
135.1811634866
 20
215.0043586492
 11
135.1811634866
 21
181.5043586492
  0
LINE
  5
268
100
AcDbEntity
  8
0
100
AcDbLine
 62
7
  6
BYLAYER
 10
135.4311634866
 20
215.0043586492
 11
135.4311634866
 21
272.6801819213
  0
LINE
  5
269
100
AcDbEntity
  8
0
100
AcDbLine
 62
7
  6
BYLAYER
 10
46.4811634866
 20
176.4043586492
 11
44.1811634866
 21
176.4043586492
  0
LINE
  5
26A
100
AcDbEntity
  8
0
100
AcDbLine
 62
7
  6
BYLAYER
 10
50.1879236386
 20
181.5043586492
 11
170.1811634866
 21
181.5043586492
  0
LINE
  5
26B
100
AcDbEntity
  8
0
100
AcDbLine
 62
7
  6
BYLAYER
 10
135.1811634866
 20
183.5043586492
 11
127.1811634866
 21
183.5043586492
  0
LINE
  5
26C
100
AcDbEntity
  8
0
100
AcDbLine
 62
7
  6
BYLAYER
 10
93.1811634866
 20
183.5043586492
 11
85.1811634866
 21
183.5043586492
  0
LINE
  5
26D
100
AcDbEntity
  8
0
100
AcDbLine
 62
7
  6
BYLAYER
 10
141.1811906328
 20
181.5043586492
 11
141.1812753811
 21
215.0043586492
  0
LINE
  5
26E
100
AcDbEntity
  8
0
100
AcDbLine
 62
7
  6
BYLAYER
 10
141.4311634866
 20
215.0043586492
 11
141.4311634866
 21
273.5043586492
  0
LINE
  5
26F
100
AcDbEntity
  8
0
100
AcDbLine
 62
7
  6
BYLAYER
 10
144.0811634866
 20
215.0043586492
 11
144.0811634866
 21
204.0043586492
  0
LINE
  5
270
100
AcDbEntity
  8
0
100
AcDbLine
 62
7
  6
BYLAYER
 10
144.1811634866
 20
208.0043586492
 11
144.1811634866
 21
204.0043586492
  0
LINE
  5
271
100
AcDbEntity
  8
0
100
AcDbLine
 62
7
  6
BYLAYER
 10
144.5830872752
 20
204.0043586492
 11
144.5830872752
 21
208.0043586492
  0
LINE
  5
272
100
AcDbEntity
  8
0
100
AcDbLine
 62
7
  6
BYLAYER
 10
144.8811634866
 20
278.8043586492
 11
144.8811634866
 21
279.9043586492
  0
LINE
  5
273
100
AcDbEntity
  8
0
100
AcDbLine
 62
7
  6
BYLAYER
 10
145.2792396979
 20
208.0043586492
 11
145.2792396979
 21
204.0043586492
  0
LINE
  5
274
100
AcDbEntity
  8
0
100
AcDbLine
 62
7
  6
BYLAYER
 10
145.6811634866
 20
204.0043586492
 11
145.6811634866
 21
208.0043586492
  0
LINE
  5
275
100
AcDbEntity
  8
0
100
AcDbLine
 62
7
  6
BYLAYER
 10
144.15782134
 20
276.8043586492
 11
144.2811752429
 21
278.8043586492
  0
LINE
  5
276
100
AcDbEntity
  8
0
100
AcDbLine
 62
7
  6
BYLAYER
 10
175.1811634866
 20
186.5043586492
 11
170.1811634866
 21
186.5043586492
  0
LINE
  5
277
100
AcDbEntity
  8
0
100
AcDbLine
 62
7
  6
BYLAYER
 10
50.1811634866
 20
186.5043586492
 11
45.1811634866
 21
186.5043586492
  0
LINE
  5
278
100
AcDbEntity
  8
0
100
AcDbLine
 62
7
  6
BYLAYER
 10
28.6811634866
 20
187.4043586492
 11
44.1811634866
 21
187.4043586492
  0
LINE
  5
279
100
AcDbEntity
  8
0
100
AcDbLine
 62
7
  6
BYLAYER
 10
44.1811634866
 20
187.5043586492
 11
45.1811634866
 21
187.5043586492
  0
LINE
  5
27A
100
AcDbEntity
  8
0
100
AcDbLine
 62
7
  6
BYLAYER
 10
45.1811634866
 20
189.0043586492
 11
44.1811634866
 21
189.0043586492
  0
LINE
  5
27B
100
AcDbEntity
  8
0
100
AcDbLine
 62
7
  6
BYLAYER
 10
44.1811634866
 20
189.4043586492
 11
30.6811634866
 21
189.4043586492
  0
LINE
  5
27C
100
AcDbEntity
  8
0
100
AcDbLine
 62
7
  6
BYLAYER
 10
175.1811634866
 20
194.2543586492
 11
211.1811634866
 21
194.2543586492
  0
LINE
  5
27D
100
AcDbEntity
  8
0
100
AcDbLine
 62
7
  6
BYLAYER
 10
28.6811634866
 20
195.0543586492
 11
44.1811634866
 21
195.0543586492
  0
LINE
  5
27E
100
AcDbEntity
  8
0
100
AcDbLine
 62
7
  6
BYLAYER
 10
49.6811634866
 20
204.0043586492
 11
76.2811634866
 21
204.0043586492
  0
LINE
  5
27F
100
AcDbEntity
  8
0
100
AcDbLine
 62
7
  6
BYLAYER
 10
97.6811634866
 20
204.0043586492
 11
122.6811634866
 21
204.0043586492
  0
LINE
  5
280
100
AcDbEntity
  8
0
100
AcDbLine
 62
7
  6
BYLAYER
 10
144.0811634866
 20
204.0043586492
 11
170.6811634866
 21
204.0043586492
  0
LINE
  5
281
100
AcDbEntity
  8
0
100
AcDbLine
 62
7
  6
BYLAYER
 10
175.1811634866
 20
204.7543586492
 11
224.1811634866
 21
204.7543586492
  0
LINE
  5
282
100
AcDbEntity
  8
0
100
AcDbLine
 62
7
  6
BYLAYER
 10
160.2811634866
 20
215.0043586492
 11
160.2811634866
 21
208.0043586492
  0
LINE
  5
283
100
AcDbEntity
  8
0
100
AcDbLine
 62
7
  6
BYLAYER
 10
162.9311634866
 20
273.5043586492
 11
162.9311634866
 21
215.0043586492
  0
LINE
  5
284
100
AcDbEntity
  8
0
100
AcDbLine
 62
7
  6
BYLAYER
 10
163.1810719745
 20
215.0043586492
 11
163.1810882605
 21
208.0043586492
  0
LINE
  5
285
100
AcDbEntity
  8
0
100
AcDbLine
 62
7
  6
BYLAYER
 10
163.1810975668
 20
204.0043586492
 11
163.1811499147
 21
181.5043586492
  0
LINE
  5
286
100
AcDbEntity
  8
0
100
AcDbLine
 62
7
  6
BYLAYER
 10
224.1811634866
 20
207.2543586492
 11
175.1811634866
 21
207.2543586492
  0
LINE
  5
287
100
AcDbEntity
  8
0
100
AcDbLine
 62
7
  6
BYLAYER
 10
49.6811634866
 20
208.0043586492
 11
76.1811634866
 21
208.0043586492
  0
LINE
  5
288
100
AcDbEntity
  8
0
100
AcDbLine
 62
7
  6
BYLAYER
 10
97.6811634866
 20
208.0043586492
 11
122.6811634866
 21
208.0043586492
  0
LINE
  5
289
100
AcDbEntity
  8
0
100
AcDbLine
 62
7
  6
BYLAYER
 10
144.1811634866
 20
208.0043586492
 11
170.6811634866
 21
208.0043586492
  0
LINE
  5
28A
100
AcDbEntity
  8
0
100
AcDbLine
 62
7
  6
BYLAYER
 10
175.1811634866
 20
208.6043586492
 11
224.1811634866
 21
208.6043586492
  0
LINE
  5
28B
100
AcDbEntity
  8
0
100
AcDbLine
 62
7
  6
BYLAYER
 10
191.1811634866
 20
210.7043586492
 11
193.0811634866
 21
210.7043586492
  0
LINE
  5
28C
100
AcDbEntity
  8
0
100
AcDbLine
 62
7
  6
BYLAYER
 10
211.2811634866
 20
210.7043586492
 11
213.1811634866
 21
210.7043586492
  0
LINE
  5
28D
100
AcDbEntity
  8
0
100
AcDbLine
 62
7
  6
BYLAYER
 10
191.1811634866
 20
213.1043586492
 11
175.1811634866
 21
213.1043586492
  0
LINE
  5
28E
100
AcDbEntity
  8
0
100
AcDbLine
 62
7
  6
BYLAYER
 10
191.1811634866
 20
213.6043586492
 11
197.1811634866
 21
213.6043586492
  0
LINE
  5
28F
100
AcDbEntity
  8
0
100
AcDbLine
 62
7
  6
BYLAYER
 10
207.1811634866
 20
213.6043586492
 11
213.1811634866
 21
213.6043586492
  0
LINE
  5
290
100
AcDbEntity
  8
0
100
AcDbLine
 62
7
  6
BYLAYER
 10
166.6811634866
 20
278.8043586492
 11
166.6811634866
 21
279.9043586492
  0
LINE
  5
291
100
AcDbEntity
  8
0
100
AcDbLine
 62
7
  6
BYLAYER
 10
168.9311634866
 20
215.0043586492
 11
168.9311634866
 21
272.6801819213
  0
LINE
  5
292
100
AcDbEntity
  8
0
100
AcDbLine
 62
7
  6
BYLAYER
 10
169.1811634866
 20
215.0043586492
 11
169.1811634866
 21
208.0043586492
  0
LINE
  5
293
100
AcDbEntity
  8
0
100
AcDbLine
 62
7
  6
BYLAYER
 10
169.1811634866
 20
181.5043586492
 11
169.1811634866
 21
204.0043586492
  0
LINE
  5
294
100
AcDbEntity
  8
0
100
AcDbLine
 62
7
  6
BYLAYER
 10
170.1811634866
 20
215.0043586492
 11
170.1811634866
 21
208.0043586492
  0
LINE
  5
295
100
AcDbEntity
  8
0
100
AcDbLine
 62
7
  6
BYLAYER
 10
170.1811634866
 20
204.0043586492
 11
170.1811634866
 21
186.5043586492
  0
LINE
  5
296
100
AcDbEntity
  8
0
100
AcDbLine
 62
7
  6
BYLAYER
 10
170.3811634866
 20
273.5043586492
 11
170.3811634866
 21
215.0043586492
  0
LINE
  5
297
100
AcDbEntity
  8
0
100
AcDbLine
 62
7
  6
BYLAYER
 10
170.6811634866
 20
204.0043586492
 11
170.6811634866
 21
208.0043586492
  0
LINE
  5
298
100
AcDbEntity
  8
0
100
AcDbLine
 62
7
  6
BYLAYER
 10
172.2811634866
 20
278.8043586492
 11
172.2811634866
 21
273.5043586492
  0
LINE
  5
299
100
AcDbEntity
  8
0
100
AcDbLine
 62
7
  6
BYLAYER
 10
174.2811634866
 20
273.5043586492
 11
174.2811634866
 21
276.8043586492
  0
LINE
  5
29A
100
AcDbEntity
  8
0
100
AcDbLine
 62
7
  6
BYLAYER
 10
175.1811634866
 20
136.2043586492
 11
175.1811634866
 21
215.0043586492
  0
LINE
  5
29B
100
AcDbEntity
  8
0
100
AcDbLine
 62
7
  6
BYLAYER
 10
175.3811634866
 20
215.0043586492
 11
175.3811634866
 21
268.5043586492
  0
LINE
  5
29C
100
AcDbEntity
  8
0
100
AcDbLine
 62
7
  6
BYLAYER
 10
221.6811634866
 20
204.7543586492
 11
211.1811634866
 21
194.2543586492
  0
LINE
  5
29D
100
AcDbEntity
  8
0
100
AcDbLine
 62
7
  6
BYLAYER
 10
160.2811634866
 20
215.0043586492
 11
144.0811634866
 21
215.0043586492
  0
LINE
  5
29E
100
AcDbEntity
  8
0
100
AcDbLine
 62
7
  6
BYLAYER
 10
118.2811634866
 20
215.0043586492
 11
102.0811634866
 21
215.0043586492
  0
LINE
  5
29F
100
AcDbEntity
  8
0
100
AcDbLine
 62
7
  6
BYLAYER
 10
76.2811634866
 20
215.0043586492
 11
60.0811634866
 21
215.0043586492
  0
LINE
  5
2A0
100
AcDbEntity
  8
0
100
AcDbLine
 62
7
  6
BYLAYER
 10
44.9811634866
 20
215.0043586492
 11
57.4311634866
 21
215.0043586492
  0
LINE
  5
2A1
100
AcDbEntity
  8
0
100
AcDbLine
 62
7
  6
BYLAYER
 10
78.9311634866
 20
215.0043586492
 11
99.4311634866
 21
215.0043586492
  0
LINE
  5
2A2
100
AcDbEntity
  8
0
100
AcDbLine
 62
7
  6
BYLAYER
 10
120.9311634866
 20
215.0043586492
 11
141.4311634866
 21
215.0043586492
  0
LINE
  5
2A3
100
AcDbEntity
  8
0
100
AcDbLine
 62
7
  6
BYLAYER
 10
162.9311634866
 20
215.0043586492
 11
175.3811634866
 21
215.0043586492
  0
LINE
  5
2A4
100
AcDbEntity
  8
0
100
AcDbLine
 62
7
  6
BYLAYER
 10
197.1811634866
 20
215.1043586492
 11
207.1811634866
 21
215.1043586492
  0
LINE
  5
2A5
100
AcDbEntity
  8
0
100
AcDbLine
 62
7
  6
BYLAYER
 10
186.1811634866
 20
136.2043586492
 11
186.1811634866
 21
67.0043586492
  0
LINE
  5
2A6
100
AcDbEntity
  8
0
100
AcDbLine
 62
7
  6
BYLAYER
 10
188.6811634866
 20
143.2043586492
 11
188.6811634866
 21
136.2043586492
  0
LINE
  5
2A7
100
AcDbEntity
  8
0
100
AcDbLine
 62
7
  6
BYLAYER
 10
191.1811634866
 20
213.6043586492
 11
191.1811634866
 21
210.7043586492
  0
LINE
  5
2A8
100
AcDbEntity
  8
0
100
AcDbLine
 62
7
  6
BYLAYER
 10
193.0811634866
 20
208.6043586492
 11
193.0811634866
 21
210.7043586492
  0
LINE
  5
2A9
100
AcDbEntity
  8
0
100
AcDbLine
 62
7
  6
BYLAYER
 10
195.0811634866
 20
208.6043586492
 11
195.0811634866
 21
213.6043586492
  0
LINE
  5
2AA
100
AcDbEntity
  8
0
100
AcDbLine
 62
7
  6
BYLAYER
 10
197.1811634866
 20
213.6043586492
 11
197.1811634866
 21
215.1043586492
  0
LINE
  5
2AB
100
AcDbEntity
  8
0
100
AcDbLine
 62
7
  6
BYLAYER
 10
207.1811634866
 20
213.6043586492
 11
207.1811634866
 21
215.1043586492
  0
LINE
  5
2AC
100
AcDbEntity
  8
0
100
AcDbLine
 62
7
  6
BYLAYER
 10
209.2811634866
 20
208.6043586492
 11
209.2811634866
 21
213.6043586492
  0
LINE
  5
2AD
100
AcDbEntity
  8
0
100
AcDbLine
 62
7
  6
BYLAYER
 10
211.1811634866
 20
158.2043586492
 11
211.1811634866
 21
194.2543586492
  0
LINE
  5
2AE
100
AcDbEntity
  8
0
100
AcDbLine
 62
7
  6
BYLAYER
 10
211.2811634866
 20
208.6043586492
 11
211.2811634866
 21
210.7043586492
  0
LINE
  5
2AF
100
AcDbEntity
  8
0
100
AcDbLine
 62
7
  6
BYLAYER
 10
213.1811634866
 20
213.6043586492
 11
213.1811634866
 21
210.7043586492
  0
LINE
  5
2B0
100
AcDbEntity
  8
0
100
AcDbLine
 62
7
  6
BYLAYER
 10
198.4794575644
 20
136.2043586492
 11
211.1811634866
 21
158.2043586492
  0
LINE
  5
2B1
100
AcDbEntity
  8
0
100
AcDbLine
 62
7
  6
BYLAYER
 10
224.1811634866
 20
204.7543586492
 11
224.1811634866
 21
208.6043586492
  0
LINE
  5
2B2
100
AcDbEntity
  8
0
100
AcDbLine
 62
7
  6
BYLAYER
 10
44.9811634866
 20
268.5043586492
 11
51.4311634866
 21
268.5043586492
  0
LINE
  5
2B3
100
AcDbEntity
  8
0
100
AcDbLine
 62
7
  6
BYLAYER
 10
84.9311634866
 20
268.5043586492
 11
93.4311634866
 21
268.5043586492
  0
LINE
  5
2B4
100
AcDbEntity
  8
0
100
AcDbLine
 62
7
  6
BYLAYER
 10
126.9311634866
 20
268.5043586492
 11
135.4311634866
 21
268.5043586492
  0
LINE
  5
2B5
100
AcDbEntity
  8
0
100
AcDbLine
 62
7
  6
BYLAYER
 10
168.9311634866
 20
268.5043586492
 11
175.3811634866
 21
268.5043586492
  0
LINE
  5
2B6
100
AcDbEntity
  8
0
100
AcDbLine
 62
7
  6
BYLAYER
 10
211.3798495145
 20
208.6308014907
 11
211.2811634866
 21
208.9991027609
  0
LINE
  5
2B7
100
AcDbEntity
  8
0
100
AcDbLine
 62
7
  6
BYLAYER
 10
46.0811634866
 20
273.5043586492
 11
174.2811634866
 21
273.5043586492
  0
LINE
  5
2B8
100
AcDbEntity
  8
0
100
AcDbLine
 62
7
  6
BYLAYER
 10
144.1578625217
 20
276.8043550499
 11
174.2811634866
 21
276.8043586492
  0
LINE
  5
2B9
100
AcDbEntity
  8
0
100
AcDbLine
 62
7
  6
BYLAYER
 10
46.0811634866
 20
277.0325352568
 11
48.0811634866
 21
277.0325352568
  0
LINE
  5
2BA
100
AcDbEntity
  8
0
100
AcDbLine
 62
7
  6
BYLAYER
 10
172.2811634866
 20
278.8043586492
 11
144.2811650844
 21
278.8043586492
  0
LINE
  5
2BB
100
AcDbEntity
  8
0
100
AcDbLine
 62
7
  6
BYLAYER
 10
144.8811634866
 20
279.9043586492
 11
166.6811634866
 21
279.9043586492
  0
ARC
  5
2BC
100
AcDbEntity
  8
0
100
AcDbCircle
 62
7
  6
BYLAYER
 10
95.1811634866
 20
-118.1706909446
 40
400.0
100
AcDbArc
 50
82.9491602398
 51
96.7964075204
  0
ARC
  5
2BD
100
AcDbEntity
  8
0
100
AcDbCircle
 62
7
  6
BYLAYER
 10
95.1811634866
 20
-118.1706909446
 40
398.0
100
AcDbArc
 50
82.9314344087
 51
96.7964075204
  0
ARC
  5
2BE
100
AcDbEntity
  8
0
100
AcDbCircle
 62
7
  6
BYLAYER
 10
39.6811634866
 20
70.4043586492
 40
1.0
100
AcDbArc
 50
180.0
 51
270.0
  0
ARC
  5
2BF
100
AcDbEntity
  8
0
100
AcDbCircle
 62
7
  6
BYLAYER
 10
50.1811634866
 20
186.5043586492
 40
5.0
100
AcDbArc
 50
180.0
 51
270.0
  0
ARC
  5
2C0
100
AcDbEntity
  8
0
100
AcDbCircle
 62
7
  6
BYLAYER
 10
49.9811634866
 20
268.5043586492
 40
5.0
100
AcDbArc
 50
90.0
 51
180.0
  0
ARC
  5
2C1
100
AcDbEntity
  8
0
100
AcDbCircle
 62
7
  6
BYLAYER
 10
68.1311634866
 20
104.7043586492
 40
3.25
100
AcDbArc
 50
90.0
 51
180.0
  0
ARC
  5
2C2
100
AcDbEntity
  8
0
100
AcDbCircle
 62
7
  6
BYLAYER
 10
68.1311634866
 20
96.5043586492
 40
3.25
100
AcDbArc
 50
180.0
 51
270.0
  0
ARC
  5
2C3
100
AcDbEntity
  8
0
100
AcDbCircle
 62
7
  6
BYLAYER
 10
72.1811634866
 20
96.5043586492
 40
3.25
100
AcDbArc
 50
270.0
 51
360.0
  0
ARC
  5
2C4
100
AcDbEntity
  8
0
100
AcDbCircle
 62
7
  6
BYLAYER
 10
72.1811634866
 20
104.7043586492
 40
3.25
100
AcDbArc
 50
0.0
 51
90.0
  0
ARC
  5
2C5
100
AcDbEntity
  8
0
100
AcDbCircle
 62
7
  6
BYLAYER
 10
30.9416047225
 20
145.7167250657
 40
3.0123671633
100
AcDbArc
 50
255.0310806848
 51
269.9690112577
  0
ARC
  5
2C6
100
AcDbEntity
  8
0
100
AcDbCircle
 62
7
  6
BYLAYER
 10
48.0811634866
 20
277.0325352568
 40
2.0
100
AcDbArc
 50
96.7964075205
 51
180.0
  0
ARC
  5
2C7
100
AcDbEntity
  8
0
100
AcDbCircle
 62
7
  6
BYLAYER
 10
30.6811634866
 20
141.7043586492
 40
2.0
100
AcDbArc
 50
180.0
 51
270.0000027901
  0
ARC
  5
2C8
100
AcDbEntity
  8
0
100
AcDbCircle
 62
7
  6
BYLAYER
 10
30.6811634866
 20
145.7043586492
 40
2.0
100
AcDbArc
 50
180.0
 51
270.0000039607
  0
ARC
  5
2C9
100
AcDbEntity
  8
0
100
AcDbCircle
 62
7
  6
BYLAYER
 10
30.6811634866
 20
187.4043586492
 40
2.0
100
AcDbArc
 50
90.0
 51
180.0
  0
ARC
  5
2CA
100
AcDbEntity
  8
0
100
AcDbCircle
 62
7
  6
BYLAYER
 10
30.4228934785
 20
141.7086119743
 40
1.0042448005
100
AcDbArc
 50
255.0326658717
 51
269.9686782019
  0
ARC
  5
2CB
100
AcDbEntity
  8
0
100
AcDbCircle
 62
7
  6
BYLAYER
 10
37.6811634866
 20
142.7043586492
 40
1.0
100
AcDbArc
 50
0.0
 51
90.0
  0
ARC
  5
2CC
100
AcDbEntity
  8
0
100
AcDbCircle
 62
7
  6
BYLAYER
 10
37.6811634866
 20
138.7043586492
 40
1.0
100
AcDbArc
 50
0.00000002
 51
90.0
  0
ARC
  5
2CD
100
AcDbEntity
  8
0
100
AcDbCircle
 62
7
  6
BYLAYER
 10
170.1811634866
 20
186.5043586492
 40
5.0
100
AcDbArc
 50
270.0
 51
360.0
  0
ARC
  5
2CE
100
AcDbEntity
  8
0
100
AcDbCircle
 62
7
  6
BYLAYER
 10
170.3811634866
 20
268.5043586492
 40
5.0
100
AcDbArc
 50
0.0
 51
90.0
  0
ARC
  5
2CF
100
AcDbEntity
  8
0
100
AcDbCircle
 62
7
  6
BYLAYER
 10
172.2811634866
 20
276.8043586492
 40
2.0
100
AcDbArc
 50
0.0
 51
90.0
  0
ARC
  5
2D0
100
AcDbEntity
  8
0
100
AcDbCircle
 62
7
  6
BYLAYER
 10
190.6811634866
 20
143.2043586492
 40
2.0
100
AcDbArc
 50
90.0
 51
180.0
  0
SPLINE
  5
2D1
100
AcDbEntity
  8
0
100
AcDbSpline
 62
7
  6
BYLAYER
 70
0
 71
3
 72
11
 73
7
 74
0
 42
0.0000001
 43
0.0000001
 44
0.0000000001
 40
0.0
 40
0.0
 40
0.0
 40
0.0
 40
0.2509631903
 40
0.4637535161
 40
0.6986332494
 40
1.0
 40
1.0
 40
1.0
 40
1.0
 10
84.2638457385
 20
273.5043586492
 30
0.0
 10
84.3657146851
 20
273.5043586492
 30
0.0
 10
84.558618665
 20
273.4860797514
 30
0.0
 10
84.8040498572
 20
273.3152135153
 30
0.0
 10
84.918357935
 20
273.0206045687
 30
0.0
 10
84.9311634866
 20
272.8025102731
 30
0.0
 10
84.9311634866
 20
272.6801819213
 30
0.0
  0
SPLINE
  5
2D2
100
AcDbEntity
  8
0
100
AcDbSpline
 62
7
  6
BYLAYER
 70
0
 71
3
 72
10
 73
6
 74
0
 42
0.0000001
 43
0.0000001
 44
0.0000000001
 40
0.0
 40
0.0
 40
0.0
 40
0.0
 40
0.3489820984
 40
0.6359997262
 40
1.0
 40
1.0
 40
1.0
 40
1.0
 10
30.6811966439
 20
139.7043586492
 30
0.0
 10
30.6395497829
 20
139.7043594805
 30
0.0
 10
30.5784646232
 20
139.774717095
 30
0.0
 10
30.5325977385
 20
139.8796370789
 30
0.0
 10
30.5090371028
 20
139.955199052
 30
0.0
 10
30.4981549957
 20
139.9972530089
 30
0.0
  0
SPLINE
  5
2D3
100
AcDbEntity
  8
0
100
AcDbSpline
 62
7
  6
BYLAYER
 70
0
 71
3
 72
9
 73
5
 74
0
 42
0.0000001
 43
0.0000001
 44
0.0000000001
 40
0.0
 40
0.0
 40
0.0
 40
0.0
 40
0.2174164613
 40
1.0
 40
1.0
 40
1.0
 40
1.0
 10
30.4981549957
 20
139.9972530089
 30
0.0
 10
30.4852247147
 20
140.0472221441
 30
0.0
 10
30.4374524579
 20
140.2800168409
 30
0.0
 10
30.4223237755
 20
140.5185760745
 30
0.0
 10
30.4222628962
 20
140.7043625367
 30
0.0
  0
SPLINE
  5
2D4
100
AcDbEntity
  8
0
100
AcDbSpline
 62
7
  6
BYLAYER
 70
0
 71
3
 72
17
 73
13
 74
0
 42
0.0000001
 43
0.0000001
 44
0.0000000001
 40
0.0
 40
0.0
 40
0.0
 40
0.0
 40
0.1437278212
 40
0.2765623338
 40
0.3931258796
 40
0.4467733027
 40
0.4986252667
 40
0.5505352935
 40
0.6043978634
 40
0.7222114828
 40
0.8559727123
 40
1.0
 40
1.0
 40
1.0
 40
1.0
 10
50.1811634866
 20
181.5043586492
 30
0.0
 10
49.7298556007
 20
181.5043586492
 30
0.0
 10
48.8561623281
 20
181.6219002583
 30
0.0
 10
47.7119850658
 20
182.134195632
 30
0.0
 10
47.019076793
 20
182.8329024966
 30
0.0
 10
46.7371677597
 20
183.4787570682
 30
0.0
 10
46.6663117808
 20
183.9744589868
 30
0.0
 10
46.7364775764
 20
184.4708519859
 30
0.0
 10
47.0174581084
 20
185.1222580137
 30
0.0
 10
47.7113900187
 20
185.8301652054
 30
0.0
 10
48.8536128478
 20
186.3614115624
 30
0.0
 10
49.7289415564
 20
186.4994827094
 30
0.0
 10
50.1811634866
 20
186.5043586492
 30
0.0
  0
SPLINE
  5
2D5
100
AcDbEntity
  8
0
100
AcDbSpline
 62
7
  6
BYLAYER
 70
0
 71
3
 72
11
 73
7
 74
0
 42
0.0000001
 43
0.0000001
 44
0.0000000001
 40
0.0
 40
0.0
 40
0.0
 40
0.0
 40
0.3013667573
 40
0.5362465009
 40
0.7490368219
 40
1.0
 40
1.0
 40
1.0
 40
1.0
 10
135.4311634866
 20
272.6801819213
 30
0.0
 10
135.4311634866
 20
272.8025102733
 30
0.0
 10
135.4439690562
 20
273.0206045729
 30
0.0
 10
135.5582771534
 20
273.3152135043
 30
0.0
 10
135.8037083236
 20
273.4860797503
 30
0.0
 10
135.9966122952
 20
273.5043586492
 30
0.0
 10
136.0984812347
 20
273.5043586492
 30
0.0
  0
SPLINE
  5
2D6
100
AcDbEntity
  8
0
100
AcDbSpline
 62
7
  6
BYLAYER
 70
0
 71
3
 72
11
 73
7
 74
0
 42
0.0000001
 43
0.0000001
 44
0.0000000001
 40
0.0
 40
0.0
 40
0.0
 40
0.0
 40
0.2509631903
 40
0.4637535161
 40
0.6986332494
 40
1.0
 40
1.0
 40
1.0
 40
1.0
 10
126.2638457385
 20
273.5043586492
 30
0.0
 10
126.3657146851
 20
273.5043586492
 30
0.0
 10
126.558618665
 20
273.4860797514
 30
0.0
 10
126.8040498572
 20
273.3152135153
 30
0.0
 10
126.918357935
 20
273.0206045687
 30
0.0
 10
126.9311634866
 20
272.8025102731
 30
0.0
 10
126.9311634866
 20
272.6801819213
 30
0.0
  0
SPLINE
  5
2D7
100
AcDbEntity
  8
0
100
AcDbSpline
 62
7
  6
BYLAYER
 70
0
 71
3
 72
11
 73
7
 74
0
 42
0.0000001
 43
0.0000001
 44
0.0000000001
 40
0.0
 40
0.0
 40
0.0
 40
0.0
 40
0.2509631903
 40
0.4637535161
 40
0.6986332494
 40
1.0
 40
1.0
 40
1.0
 40
1.0
 10
168.2638457385
 20
273.5043586492
 30
0.0
 10
168.3657146851
 20
273.5043586492
 30
0.0
 10
168.558618665
 20
273.4860797514
 30
0.0
 10
168.8040498572
 20
273.3152135153
 30
0.0
 10
168.918357935
 20
273.0206045687
 30
0.0
 10
168.9311634866
 20
272.8025102731
 30
0.0
 10
168.9311634866
 20
272.6801819213
 30
0.0
  0
SPLINE
  5
2D8
100
AcDbEntity
  8
0
100
AcDbSpline
 62
7
  6
BYLAYER
 70
0
 71
3
 72
11
 73
7
 74
0
 42
0.0000001
 43
0.0000001
 44
0.0000000001
 40
0.0
 40
0.0
 40
0.0
 40
0.0
 40
0.3358288103
 40
0.6136040354
 40
0.8285120057
 40
1.0
 40
1.0
 40
1.0
 40
1.0
 10
30.1635270661
 20
140.7384337513
 30
0.0
 10
29.9534145553
 20
140.7660607947
 30
0.0
 10
29.5723077204
 20
140.8502158782
 30
0.0
 10
29.0931540572
 20
141.0697720443
 30
0.0
 10
28.7695487756
 20
141.3515034838
 30
0.0
 10
28.6811634866
 20
141.5961431201
 30
0.0
 10
28.6811634866
 20
141.704358706
 30
0.0
  0
SPLINE
  5
2D9
100
AcDbEntity
  8
0
100
AcDbSpline
 62
7
  6
BYLAYER
 70
0
 71
3
 72
12
 73
8
 74
0
 42
0.0000001
 43
0.0000001
 44
0.0000000001
 40
0.0
 40
0.0
 40
0.0
 40
0.0
 40
0.1098804456
 40
0.2057279807
 40
0.331078806
 40
0.6502741743
 40
1.0
 40
1.0
 40
1.0
 40
1.0
 10
30.1635037074
 20
139.7726211607
 30
0.0
 10
30.128117843
 20
139.7821132389
 30
0.0
 10
30.0892298034
 20
139.8555855006
 30
0.0
 10
30.0719612731
 20
139.9606380128
 30
0.0
 10
30.0631039983
 20
140.1428678631
 30
0.0
 10
30.091043916
 20
140.4062041371
 30
0.0
 10
30.1353981159
 20
140.6253021346
 30
0.0
 10
30.1636817925
 20
140.7384271879
 30
0.0
  0
SPLINE
  5
2DA
100
AcDbEntity
  8
0
100
AcDbSpline
 62
7
  6
BYLAYER
 70
0
 71
3
 72
13
 73
9
 74
0
 42
0.0000001
 43
0.0000001
 44
0.0000000001
 40
0.0
 40
0.0
 40
0.0
 40
0.0
 40
0.1059592546
 40
0.1943617735
 40
0.3108426382
 40
0.4541480728
 40
0.6207202239
 40
1.0
 40
1.0
 40
1.0
 40
1.0
 10
37.6811634893
 20
139.7043586492
 30
0.0
 10
37.7187816448
 20
139.7043586492
 30
0.0
 10
37.7757619927
 20
139.7672999934
 30
0.0
 10
37.81291537
 20
139.8670863122
 30
0.0
 10
37.8482432537
 20
139.9870787747
 30
0.0
 10
37.8807809028
 20
140.1344975957
 30
0.0
 10
37.9214674211
 20
140.3760718424
 30
0.0
 10
37.9358465817
 20
140.5697723859
 30
0.0
 10
37.9399829988
 20
140.7043625367
 30
0.0
  0
SPLINE
  5
2DB
100
AcDbEntity
  8
0
100
AcDbSpline
 62
7
  6
BYLAYER
 70
0
 71
3
 72
12
 73
8
 74
0
 42
0.0000001
 43
0.0000001
 44
0.0000000001
 40
0.0
 40
0.0
 40
0.0
 40
0.0
 40
0.1166995874
 40
0.212694115
 40
0.3344394906
 40
0.6420195711
 40
1.0
 40
1.0
 40
1.0
 40
1.0
 10
37.6811636646
 20
143.7043586492
 30
0.0
 10
37.7228028095
 20
143.7043585939
 30
0.0
 10
37.7838376523
 20
143.6340181698
 30
0.0
 10
37.8298233465
 20
143.5289902394
 30
0.0
 10
37.8858062085
 20
143.3475074606
 30
0.0
 10
37.9280758511
 20
143.0699708676
 30
0.0
 10
37.9399825317
 20
142.832088312
 30
0.0
 10
37.9399825317
 20
142.7043586492
 30
0.0
  0
SPLINE
  5
2DC
100
AcDbEntity
  8
0
100
AcDbSpline
 62
7
  6
BYLAYER
 70
0
 71
3
 72
12
 73
8
 74
0
 42
0.0000001
 43
0.0000001
 44
0.0000000001
 40
0.0
 40
0.0
 40
0.0
 40
0.0
 40
0.3441760846
 40
0.6653164624
 40
0.7923486246
 40
0.8894772362
 40
1.0
 40
1.0
 40
1.0
 40
1.0
 10
30.9399829546
 20
142.7043586492
 30
0.0
 10
30.9399828296
 20
142.8272059188
 30
0.0
 10
30.9283709877
 20
143.0649716855
 30
0.0
 10
30.8871359978
 20
143.3447893134
 30
0.0
 10
30.8282885744
 20
143.5329183447
 30
0.0
 10
30.7815518841
 20
143.6381590625
 30
0.0
 10
30.7206131477
 20
143.7043564034
 30
0.0
 10
30.6811640971
 20
143.7043564965
 30
0.0
  0
SPLINE
  5
2DD
100
AcDbEntity
  8
0
100
AcDbSpline
 62
7
  6
BYLAYER
 70
0
 71
3
 72
13
 73
9
 74
0
 42
0.0000001
 43
0.0000001
 44
0.0000000001
 40
0.0
 40
0.0
 40
0.0
 40
0.0
 40
0.2399381846
 40
0.4823892571
 40
0.6062537667
 40
0.7328992205
 40
0.8635298007
 40
1.0
 40
1.0
 40
1.0
 40
1.0
 10
28.6811634866
 20
145.704358737
 30
0.0
 10
28.6812125572
 20
145.4299724431
 30
0.0
 10
28.7307864169
 20
144.8770895638
 30
0.0
 10
28.9275799923
 20
144.2062756475
 30
0.0
 10
29.1801937247
 20
143.7007557127
 30
0.0
 10
29.4287316757
 20
143.3404418529
 30
0.0
 10
29.7506173448
 20
143.020860834
 30
0.0
 10
30.0187124739
 20
142.8647547423
 30
0.0
 10
30.1635270661
 20
142.8065783054
 30
0.0
  0
SPLINE
  5
2DE
100
AcDbEntity
  8
0
100
AcDbSpline
 62
7
  6
BYLAYER
 70
0
 71
3
 72
12
 73
8
 74
0
 42
0.0000001
 43
0.0000001
 44
0.0000000001
 40
0.0
 40
0.0
 40
0.0
 40
0.0
 40
0.3497197043
 40
0.6689134161
 40
0.7942608554
 40
0.8901049778
 40
1.0
 40
1.0
 40
1.0
 40
1.0
 10
30.1635647488
 20
142.8065723761
 30
0.0
 10
30.1918460946
 20
142.919714908
 30
0.0
 10
30.2361862525
 20
143.138848843
 30
0.0
 10
30.2640884824
 20
143.4022310103
 30
0.0
 10
30.2551764024
 20
143.5844824726
 30
0.0
 10
30.2378691811
 20
143.6895532074
 30
0.0
 10
30.1989135758
 20
143.763009034
 30
0.0
 10
30.1635117752
 20
143.7724827935
 30
0.0
  0
SPLINE
  5
2DF
100
AcDbEntity
  8
0
100
AcDbSpline
 62
7
  6
BYLAYER
 70
0
 71
3
 72
16
 73
12
 74
0
 42
0.0000001
 43
0.0000001
 44
0.0000000001
 40
0.0
 40
0.0
 40
0.0
 40
0.0
 40
0.1249649492
 40
0.2499357644
 40
0.3749000983
 40
0.4998824701
 40
0.6248332058
 40
0.7497783552
 40
0.8745334409
 40
0.937111215
 40
1.0
 40
1.0
 40
1.0
 40
1.0
 10
170.1811634866
 20
186.5043586492
 30
0.0
 10
170.178561118
 20
186.361078326
 30
0.0
 10
170.171111063
 20
186.0745555013
 30
0.0
 10
170.1607426224
 20
185.6447691806
 30
0.0
 10
170.1402104391
 20
185.2152056243
 30
0.0
 10
170.0973648392
 20
184.7872149608
 30
0.0
 10
170.018445983
 20
184.3635084988
 30
0.0
 10
169.8817697526
 20
183.9551912965
 30
0.0
 10
169.6609114282
 20
183.653158487
 30
0.0
 10
169.3982147507
 20
183.5240571811
 30
0.0
 10
169.2532789099
 20
183.504958124
 30
0.0
 10
169.1811634866
 20
183.5043586492
 30
0.0
  0
SPLINE
  5
2E0
100
AcDbEntity
  8
0
100
AcDbSpline
 62
7
  6
BYLAYER
 70
0
 71
3
 72
18
 73
14
 74
0
 42
0.0000001
 43
0.0000001
 44
0.0000000001
 40
0.0
 40
0.0
 40
0.0
 40
0.0
 40
0.1434457881
 40
0.2762307949
 40
0.3929824204
 40
0.4465246738
 40
0.4982715061
 40
0.5500721203
 40
0.6038492151
 40
0.6610507867
 40
0.7223574019
 40
0.8560534496
 40
1.0
 40
1.0
 40
1.0
 40
1.0
 10
170.1811634866
 20
181.5043586492
 30
0.0
 10
170.6318404968
 20
181.5043586492
 30
0.0
 10
171.5051652792
 20
181.6215074094
 30
0.0
 10
172.6489318933
 20
182.1341248152
 30
0.0
 10
173.3447565818
 20
182.8313048427
 30
0.0
 10
173.625971994
 20
183.4779328543
 30
0.0
 10
173.6962857387
 20
183.9729983792
 30
0.0
 10
173.6246408367
 20
184.4685772189
 30
0.0
 10
173.4181395996
 20
184.9423791147
 30
0.0
 10
173.0893844702
 20
185.3777627395
 30
0.0
 10
172.4921234289
 20
185.9052897583
 30
0.0
 10
171.5075005417
 20
186.3685424434
 30
0.0
 10
170.6331159337
 20
186.4879476448
 30
0.0
 10
170.1811634866
 20
186.5043586492
 30
0.0
  0
SPLINE
  5
2E1
100
AcDbEntity
  8
0
100
AcDbSpline
 62
7
  6
BYLAYER
 70
0
 71
3
 72
11
 73
7
 74
0
 42
0.0000001
 43
0.0000001
 44
0.0000000001
 40
0.0
 40
0.0
 40
0.0
 40
0.0
 40
0.3013667573
 40
0.5362465009
 40
0.7490368219
 40
1.0
 40
1.0
 40
1.0
 40
1.0
 10
51.4311634866
 20
272.6801819213
 30
0.0
 10
51.4311634866
 20
272.8025102733
 30
0.0
 10
51.4439690562
 20
273.0206045729
 30
0.0
 10
51.5582771534
 20
273.3152135043
 30
0.0
 10
51.8037083236
 20
273.4860797503
 30
0.0
 10
51.9966122952
 20
273.5043586492
 30
0.0
 10
52.0984812347
 20
273.5043586492
 30
0.0
  0
SPLINE
  5
2E2
100
AcDbEntity
  8
0
100
AcDbSpline
 62
7
  6
BYLAYER
 70
0
 71
3
 72
16
 73
12
 74
0
 42
0.0000001
 43
0.0000001
 44
0.0000000001
 40
0.0
 40
0.0
 40
0.0
 40
0.0
 40
0.12496419
 40
0.2499366331
 40
0.3749008472
 40
0.4998827255
 40
0.6248339136
 40
0.7497728182
 40
0.874536122
 40
0.9371166286
 40
1.0
 40
1.0
 40
1.0
 40
1.0
 10
50.1811634866
 20
186.5043586492
 30
0.0
 10
50.1806835498
 20
186.3608400916
 30
0.0
 10
50.1831138325
 20
186.0737890788
 30
0.0
 10
50.1902661715
 20
185.6432741104
 30
0.0
 10
50.2104041021
 20
185.213011282
 30
0.0
 10
50.2544730091
 20
184.7844576888
 30
0.0
 10
50.3360556467
 20
184.3605595775
 30
0.0
 10
50.4766656063
 20
183.9527724674
 30
0.0
 10
50.7003891077
 20
183.6524489561
 30
0.0
 10
50.9638551442
 20
183.5242303643
 30
0.0
 10
51.1089464275
 20
183.5050676668
 30
0.0
 10
51.1811634866
 20
183.5043586492
 30
0.0
  0
SPLINE
  5
2E3
100
AcDbEntity
  8
0
100
AcDbSpline
 62
7
  6
BYLAYER
 70
0
 71
3
 72
11
 73
7
 74
0
 42
0.0000001
 43
0.0000001
 44
0.0000000001
 40
0.0
 40
0.0
 40
0.0
 40
0.0
 40
0.3013667573
 40
0.5362465009
 40
0.7490368219
 40
1.0
 40
1.0
 40
1.0
 40
1.0
 10
93.4311634866
 20
272.6801819213
 30
0.0
 10
93.4311634866
 20
272.8025102733
 30
0.0
 10
93.4439690562
 20
273.0206045729
 30
0.0
 10
93.5582771534
 20
273.3152135043
 30
0.0
 10
93.8037083236
 20
273.4860797503
 30
0.0
 10
93.9966122952
 20
273.5043586492
 30
0.0
 10
94.0984812347
 20
273.5043586492
 30
0.0
  0
ELLIPSE
  5
2E4
100
AcDbEntity
  8
0
100
AcDbEllipse
 62
7
  6
BYLAYER
 10
119.9311634866
 20
68.5043586492
 30
0.0
 11
0.0
 21
1.5
 31
0.0
 40
1.0
 41
-3.1415926536
 42
-1.5707963268
  0
ELLIPSE
  5
2E5
100
AcDbEntity
  8
0
100
AcDbEllipse
 62
7
  6
BYLAYER
 10
119.9311634866
 20
69.5043586492
 30
0.0
 11
0.0
 21
1.5
 31
0.0
 40
1.0
 41
-1.5707963268
 42
0.0
  0
ELLIPSE
  5
2E6
100
AcDbEntity
  8
0
100
AcDbEllipse
 62
7
  6
BYLAYER
 10
110.4311634866
 20
68.5043586492
 30
0.0
 11
-0.0
 21
1.5
 31
0.0
 40
1.0
 41
1.5707963268
 42
3.1415926536
  0
ELLIPSE
  5
2E7
100
AcDbEntity
  8
0
100
AcDbEllipse
 62
7
  6
BYLAYER
 10
110.4311634866
 20
69.5043586492
 30
0.0
 11
-0.0
 21
1.5
 31
0.0
 40
1.0
 41
0.0
 42
1.5707963268
  0
ENDSEC
  0
SECTION
  2
OBJECTS
  0
DICTIONARY
  5
C
100
AcDbDictionary
280
0
281
1
  3
ACAD_GROUP
350
D
  3
ACAD_MLINESTYLE
350
17
  3
ACAD_LAYOUT
350
1A
  3
ACAD_PLOTSETTINGS
350
19
  3
ACAD_PLOTSTYLENAME
350
E
  0
DICTIONARY
  5
D
102
{ACAD_REACTORS
330
C
102
}
100
AcDbDictionary
280
0
281
1
  0
ACDBDICTIONARYWDFLT
  5
E
102
{ACAD_REACTORS
330
C
102
}
100
AcDbDictionary
281
1
  3
Normal
350
F
100
AcDbDictionaryWithDefault
340
F
  0
DICTIONARY
  5
17
102
{ACAD_REACTORS
330
C
102
}
100
AcDbDictionary
280
0
281
1
  3
Standard
350
18
  0
DICTIONARY
  5
19
102
{ACAD_REACTORS
330
C
102
}
100
AcDbDictionary
281
1
  0
DICTIONARY
  5
1A
102
{ACAD_REACTORS
330
C
102
}
100
AcDbDictionary
281
1
  3
Model
350
2E8
  3
Layout1
350
2E9
  0
ACDBPLACEHOLDER
  5
F
102
{ACAD_REACTORS
330
E
102
}
  0
MLINESTYLE
  5
18
102
{ACAD_REACTORS
330
17
102
}
100
AcDbMlineStyle
  2
STANDARD
 70
0
  3

 62
256
 51
90.0
 52
90.0
 71
2
 49
0.5
 62
256
  6
BYLAYER
 49
-0.5
 62
256
  6
BYLAYER
  0
LAYOUT
  5
2E8
102
{ACAD_REACTORS
330
1A
102
}
100
AcDbPlotSettings
  1

  2
none_device
  4

  6

 40
0.0
 41
0.0
 42
0.0
 43
0.0
 44
210.0
 45
297.0
 46
0.0
 47
0.0
 48
0.0
 49
0.0
140
0.0
141
0.0
142
1.0
143
1.0
 70
1024
 72
1
 73
0
 74
0
  7

 75
0
147
1.0
148
0.0
149
0.0
100
AcDbLayout
  1
Model
 70
0
 71
0
 10
0.0
 20
0.0
 11
210.0
 21
297.0
 12
0.0
 22
0.0
 32
0.0
 14
0.0
 24
0.0
 34
0.0
 15
0.0
 25
0.0
 35
0.0
146
0.0
 13
0.0
 23
0.0
 33
0.0
 16
1.0
 26
0.0
 36
0.0
 17
0.0
 27
1.0
 37
0.0
 76
0
330
210
345
0
346
0
  0
LAYOUT
  5
2E9
102
{ACAD_REACTORS
330
1A
102
}
100
AcDbPlotSettings
  1

  2
none_device
  4

  6

 40
0.0
 41
0.0
 42
0.0
 43
0.0
 44
210.0
 45
297.0
 46
0.0
 47
0.0
 48
0.0
 49
0.0
140
0.0
141
0.0
142
1.0
143
1.0
 70
0
 72
1
 73
0
 74
0
  7

 75
0
147
1.0
148
0.0
149
0.0
100
AcDbLayout
  1
Layout1
 70
0
 71
1
 10
0.0
 20
0.0
 11
210.0
 21
297.0
 12
0.0
 22
0.0
 32
0.0
 14
0.0
 24
0.0
 34
0.0
 15
0.0
 25
0.0
 35
0.0
146
0.0
 13
0.0
 23
0.0
 33
0.0
 16
1.0
 26
0.0
 36
0.0
 17
0.0
 27
1.0
 37
0.0
 76
0
330
211
345
0
346
0
  0
ENDSEC
  0
EOF
