999
DXF file: C:\Users\sesa63760\Dev\_Creo\CAD\MCADID0001605_3D-CAD\drw0001_3.dxf
999
Pro/ENGINEER 2019471 by Parametric Technology Corporation
  0
SECTION
  2
HEADER
  9
$ACADVER
  1
AC1024
  9
$DWGCODEPAGE
  3
ANSI_1252
  9
$EXTMAX
 10
288.0848924023
 20
407.4343478261
 30
0.0
  9
$EXTMIN
 10
0.0
 20
0.0
 30
0.0
  9
$LIMMIN
 10
0.0
 20
0.0
  9
$LIMMAX
 10
288.0848924023
 20
407.4343478261
  9
$VIEWCTR
 10
144.0424462011
 20
203.717173913
  9
$VIEWSIZE
 40
407.4343478261
  9
$CLAYER
  8
0
  9
$LTSCALE
 40
26.5586834138
  9
$CELTYPE
  6
BYLAYER
  9
$DIMSCALE
 40
1.0
  9
$DIMASZ
 40
3.4295820524
  9
$DIMEXO
 40
1.0
  9
$DIMDLI
 40
18.3496358132
  9
$DIMEXE
 40
1.0
  9
$DIMCEN
 40
4.3459663768
  9
$DIMLFAC
 40
1.0
  9
$DIMBLK
  1
_FILLED
  9
$DIMALT
 70
0
  9
$DIMALTF
 40
0.0393700787
  9
$DIMTXT
 40
4.8014148734
  9
$DIMTOL
 70
1
  9
$DIMLIM
 70
0
  9
$DIMTFAC
 40
1.0
  9
$DIMTP
 40
0.01
  9
$DIMTM
 40
0.01
  9
$DIMGAP
 40
0.625
  9
$DIMDSEP
 70
46
  9
$AUNITS
 70
0
  9
$PDMODE
 70
3
  9
$PDSIZE
 40
0.3125
  9
$HANDSEED
  5
467
  9
$TILEMODE
 70
1
  9
$MEASUREMENT
 70
1
  9
$INSUNITS
 70
4
  0
ENDSEC
  0
SECTION
  2
CLASSES
  0
CLASS
  1
ACDBDICTIONARYWDFLT
  2
AcDbDictionaryWithDefault
  3
AutoCAD 2000
 90
0
 91
1
280
0
281
0
  0
CLASS
  1
ACDBPLACEHOLDER
  2
AcDbPlaceHolder
  3
AutoCAD 2000
 90
0
 91
1
280
0
281
0
  0
CLASS
  1
LAYOUT
  2
AcDbLayout
  3
AutoCAD 2000
 90
0
 91
0
280
0
281
0
  0
ENDSEC
  0
SECTION
  2
TABLES
  0
TABLE
  2
VPORT
  5
8
100
AcDbSymbolTable
 70
2
  0
VPORT
  5
1F4
100
AcDbSymbolTableRecord
100
AcDbViewportTableRecord
  2
*ACTIVE
 70
0
 10
0.0
 20
0.0
 11
1.0
 21
1.0
 12
144.0424462011
 22
203.717173913
 13
0.0
 23
0.0
 14
1.0
 24
1.0
 15
0.0
 25
0.0
 16
0.0
 26
0.0
 36
1.0
 17
0.0
 27
0.0
 37
0.0
 40
407.4343478261
 41
0.7070707071
 42
50.0
 43
0.0
 44
0.0
 50
0.0
 51
0.0
 71
0
 72
100
 73
1
 74
1
 75
0
 76
0
 77
0
 78
0
  0
ENDTAB
  0
TABLE
  2
LTYPE
  5
5
100
AcDbSymbolTable
 70
6
  0
LTYPE
  5
14
100
AcDbSymbolTableRecord
100
AcDbLinetypeTableRecord
  2
BYBLOCK
 70
0
  3

 72
65
 73
0
 40
0.0
  0
LTYPE
  5
15
100
AcDbSymbolTableRecord
100
AcDbLinetypeTableRecord
  2
BYLAYER
 70
0
  3

 72
65
 73
0
 40
0.0
  0
LTYPE
  5
16
100
AcDbSymbolTableRecord
100
AcDbLinetypeTableRecord
  2
CONTINUOUS
 70
64
  3
Solid line
 72
65
 73
0
 40
0.0
  0
LTYPE
  5
1F5
100
AcDbSymbolTableRecord
100
AcDbLinetypeTableRecord
  2
CENTER
 70
64
  3
____ _ ____ _ ____ _ ____ _ ____ _ ____ _ ____
 72
65
 73
4
 40
0.6
 49
0.375
 74
0
 49
-0.075
 74
0
 49
0.075
 74
0
 49
-0.075
 74
0
  0
LTYPE
  5
1F6
100
AcDbSymbolTableRecord
100
AcDbLinetypeTableRecord
  2
HIDDEN
 70
64
  3
- - - - - - - - - - - - - - - - - - - -
 72
65
 73
2
 40
0.2
 49
0.1
 74
0
 49
-0.1
 74
0
  0
LTYPE
  5
1F7
100
AcDbSymbolTableRecord
100
AcDbLinetypeTableRecord
  2
PHANTOM
 70
64
  3
_____ _ _ _____ _ _ _____ _ _ _____
 72
65
 73
6
 40
0.8
 49
0.45
 74
0
 49
-0.05
 74
0
 49
0.1
 74
0
 49
-0.05
 74
0
 49
0.1
 74
0
 49
-0.05
 74
0
  0
LTYPE
  5
1F8
100
AcDbSymbolTableRecord
100
AcDbLinetypeTableRecord
  2
DOT
 70
64
  3
. . . . . . . . . . . . . . . . . . . .
 72
65
 73
2
 40
0.2
 49
0.1
 74
0
 49
-0.1
 74
0
  0
LTYPE
  5
1F9
100
AcDbSymbolTableRecord
100
AcDbLinetypeTableRecord
  2
DASHED
 70
64
  3
- - - - - - - - - - - - - - - - - - - -
 72
65
 73
2
 40
0.2
 49
0.1
 74
0
 49
-0.1
 74
0
  0
ENDTAB
  0
TABLE
  2
LAYER
  5
2
100
AcDbSymbolTable
 70
36
  0
LAYER
  5
10
100
AcDbSymbolTableRecord
100
AcDbLayerTableRecord
  2
0
 70
0
 62
7
  6
CONTINUOUS
370
-3
390
F
  0
LAYER
  5
1FA
100
AcDbSymbolTableRecord
100
AcDbLayerTableRecord
  2
DEFAULT_1
 70
0
 62
7
  6
CENTER
370
-3
390
F
  0
LAYER
  5
1FB
100
AcDbSymbolTableRecord
100
AcDbLayerTableRecord
  2
DEFAULT_2
 70
0
 62
8
  6
HIDDEN
370
-3
390
F
  0
LAYER
  5
1FC
100
AcDbSymbolTableRecord
100
AcDbLayerTableRecord
  2
DEFAULT_3
 70
0
 62
7
  6
PHANTOM
370
-3
390
F
  0
LAYER
  5
1FD
100
AcDbSymbolTableRecord
100
AcDbLayerTableRecord
  2
00_COMPONENTS
 70
0
 62
7
  6
CONTINUOUS
370
-3
390
F
  0
LAYER
  5
1FE
100
AcDbSymbolTableRecord
100
AcDbLayerTableRecord
  2
01_1_DEFAULT_DATUMS
 70
0
 62
7
  6
CONTINUOUS
370
-3
390
F
  0
LAYER
  5
1FF
100
AcDbSymbolTableRecord
100
AcDbLayerTableRecord
  2
01_PLANES
 70
0
 62
7
  6
CONTINUOUS
370
-3
390
F
  0
LAYER
  5
200
100
AcDbSymbolTableRecord
100
AcDbLayerTableRecord
  2
02_COORD_SYS
 70
0
 62
7
  6
CONTINUOUS
370
-3
390
F
  0
LAYER
  5
201
100
AcDbSymbolTableRecord
100
AcDbLayerTableRecord
  2
03_AXES
 70
0
 62
7
  6
CONTINUOUS
370
-3
390
F
  0
LAYER
  5
202
100
AcDbSymbolTableRecord
100
AcDbLayerTableRecord
  2
04_POINTS
 70
0
 62
7
  6
CONTINUOUS
370
-3
390
F
  0
LAYER
  5
203
100
AcDbSymbolTableRecord
100
AcDbLayerTableRecord
  2
05_CURVES
 70
0
 62
7
  6
CONTINUOUS
370
-3
390
F
  0
LAYER
  5
204
100
AcDbSymbolTableRecord
100
AcDbLayerTableRecord
  2
06_SURFS
 70
0
 62
7
  6
CONTINUOUS
370
-3
390
F
  0
LAYER
  5
205
100
AcDbSymbolTableRecord
100
AcDbLayerTableRecord
  2
07_COSMETICS
 70
0
 62
7
  6
CONTINUOUS
370
-3
390
F
  0
LAYER
  5
206
100
AcDbSymbolTableRecord
100
AcDbLayerTableRecord
  2
10_NOTES
 70
0
 62
7
  6
CONTINUOUS
370
-3
390
F
  0
LAYER
  5
207
100
AcDbSymbolTableRecord
100
AcDbLayerTableRecord
  2
11_NOTES_PUB
 70
0
 62
7
  6
CONTINUOUS
370
-3
390
F
  0
LAYER
  5
208
100
AcDbSymbolTableRecord
100
AcDbLayerTableRecord
  2
13_REF_GTOL
 70
0
 62
7
  6
CONTINUOUS
370
-3
390
F
  0
LAYER
  5
209
100
AcDbSymbolTableRecord
100
AcDbLayerTableRecord
  2
16_MISC
 70
0
 62
7
  6
CONTINUOUS
370
-3
390
F
  0
LAYER
  5
20A
100
AcDbSymbolTableRecord
100
AcDbLayerTableRecord
  2
17_NO_PRINT
 70
0
 62
7
  6
CONTINUOUS
370
-3
390
F
  0
LAYER
  5
20B
100
AcDbSymbolTableRecord
100
AcDbLayerTableRecord
  2
18_DATUM_CAMS_JOINTS
 70
0
 62
7
  6
CONTINUOUS
370
-3
390
F
  0
LAYER
  5
20C
100
AcDbSymbolTableRecord
100
AcDbLayerTableRecord
  2
19_DATUM_FUNCTIONAL
 70
0
 62
7
  6
CONTINUOUS
370
-3
390
F
  0
LAYER
  5
20D
100
AcDbSymbolTableRecord
100
AcDbLayerTableRecord
  2
20_DATUM_KINEMATIC_SCHEME
 70
0
 62
7
  6
CONTINUOUS
370
-3
390
F
  0
ENDTAB
  0
TABLE
  2
STYLE
  5
3
100
AcDbSymbolTable
 70
1
  0
STYLE
  5
11
100
AcDbSymbolTableRecord
100
AcDbTextStyleTableRecord
  2
STANDARD
 70
0
 40
0.0
 41
0.8
 50
0.0
 71
0
 42
0.2
  3
txt
  4

  0
STYLE
  5
20E
100
AcDbSymbolTableRecord
100
AcDbTextStyleTableRecord
  2
TEXTSTYLE_1
 70
0
 40
0.0
 41
0.8
 50
0.0
 71
0
 42
0.2
  3
gdt
  4

  0
ENDTAB
  0
TABLE
  2
VIEW
  5
6
100
AcDbSymbolTable
 70
0
  0
ENDTAB
  0
TABLE
  2
UCS
  5
7
100
AcDbSymbolTable
 70
0
  0
ENDTAB
  0
TABLE
  2
APPID
  5
9
100
AcDbSymbolTable
 70
1
  0
APPID
  5
20F
100
AcDbSymbolTableRecord
100
AcDbRegAppTableRecord
  2
ACAD
 70
0
  0
ENDTAB
  0
TABLE
  2
BLOCK_RECORD
  5
1
100
AcDbSymbolTable
 70
0
  0
BLOCK_RECORD
  5
210
100
AcDbSymbolTableRecord
100
AcDbBlockTableRecord
  2
*Model_Space
  0
BLOCK_RECORD
  5
211
100
AcDbSymbolTableRecord
100
AcDbBlockTableRecord
  2
*Paper_Space
  0
BLOCK_RECORD
  5
212
100
AcDbSymbolTableRecord
100
AcDbBlockTableRecord
  2
_FILLED
  0
ENDTAB
  0
TABLE
  2
DIMSTYLE
  5
A
100
AcDbSymbolTable
 70
1
100
AcDbDimStyleTable
 71
0
  0
DIMSTYLE
105
213
100
AcDbSymbolTableRecord
100
AcDbDimStyleTableRecord
  2
STANDARD
 70
0
  3

  4

 40
1.0
 41
3.4295820524
 42
1.0
 43
0.38
 44
1.0
 45
0.0
 46
0.0
 47
0.01
 48
0.01
140
4.8014148734
141
0.09
142
0.0
143
25.4
144
1.0
145
0.0
146
1.0
147
0.625
 71
1
 72
0
 73
0
 74
0
 75
0
 76
0
 77
1
 78
8
 79
2
170
0
171
1
172
0
173
0
174
0
175
0
176
0
177
0
178
0
270
2
179
2
271
2
272
2
273
2
274
2
275
0
280
0
281
0
282
0
283
1
284
8
285
0
286
0
287
3
288
0
340
11
278
46
341
212
342
212
343
212
344
212
  0
ENDTAB
  0
ENDSEC
  0
SECTION
  2
BLOCKS
  0
BLOCK
  5
20
100
AcDbEntity
  8
0
100
AcDbBlockBegin
  2
*Model_Space
 70
0
 10
0.0
 20
0.0
 30
0.0
  3
*Model_Space
  1

  0
ENDBLK
  5
21
100
AcDbEntity
  8
0
100
AcDbBlockEnd
  0
BLOCK
  5
1C
100
AcDbEntity
  8
0
100
AcDbBlockBegin
  2
*Paper_Space
 70
0
 10
0.0
 20
0.0
 30
0.0
  3
*Paper_Space
  1

  0
ENDBLK
  5
1D
100
AcDbEntity
  8
0
100
AcDbBlockEnd
  0
BLOCK
  5
214
100
AcDbEntity
  8
0
100
AcDbBlockBegin
  2
_FILLED
 70
64
 10
0.0
 20
0.0
  3
_FILLED
  1

  0
SOLID
  5
215
100
AcDbEntity
  8
0
  6
BYBLOCK
 62
0
100
AcDbTrace
 10
0.0
 20
0.0
 11
-1.0
 21
0.25
 12
-1.0
 22
-0.25
 13
-1.0
 23
-0.25
  0
ENDBLK
  5
216
100
AcDbEntity
  8
0
  6
BYBLOCK
 62
0
100
AcDbBlockEnd
  0
ENDSEC
  0
SECTION
  2
ENTITIES
  0
LINE
  5
217
100
AcDbEntity
  8
0
100
AcDbLine
 62
7
  6
CONTINUOUS
 10
72.9970114185
 20
370.6645652174
 11
67.9970114185
 21
365.6645652174
  0
LINE
  5
218
100
AcDbEntity
  8
0
100
AcDbLine
 62
7
  6
CONTINUOUS
 10
72.9970114185
 20
32.6645652174
 11
74.7470114185
 21
32.6645652174
  0
LINE
  5
219
100
AcDbEntity
  8
0
100
AcDbLine
 62
7
  6
CONTINUOUS
 10
79.2470114185
 20
32.6645652174
 11
216.7470114185
 21
32.6645652174
  0
LINE
  5
21A
100
AcDbEntity
  8
0
100
AcDbLine
 62
7
  6
CONTINUOUS
 10
221.2470114185
 20
32.6645652174
 11
222.9970114185
 21
32.6645652174
  0
LINE
  5
21B
100
AcDbEntity
  8
0
100
AcDbLine
 62
7
  6
CONTINUOUS
 10
67.9970114185
 20
37.6645652174
 11
72.9970114185
 21
32.6645652174
  0
LINE
  5
21C
100
AcDbEntity
  8
0
100
AcDbLine
 62
7
  6
CONTINUOUS
 10
66.0070114185
 20
48.5645652174
 11
67.9970114185
 21
48.5645652174
  0
LINE
  5
21D
100
AcDbEntity
  8
0
100
AcDbLine
 62
7
  6
CONTINUOUS
 10
227.9970114185
 20
48.5645652174
 11
229.9870114185
 21
48.5645652174
  0
LINE
  5
21E
100
AcDbEntity
  8
0
100
AcDbLine
 62
7
  6
CONTINUOUS
 10
66.0070114185
 20
49.5645652174
 11
67.9970114185
 21
49.5645652174
  0
LINE
  5
21F
100
AcDbEntity
  8
0
100
AcDbLine
 62
7
  6
CONTINUOUS
 10
227.9970114185
 20
49.5645652174
 11
229.9870114185
 21
49.5645652174
  0
LINE
  5
220
100
AcDbEntity
  8
0
100
AcDbLine
 62
7
  6
CONTINUOUS
 10
66.4970114185
 20
50.6645652174
 11
62.9970114185
 21
50.6645652174
  0
LINE
  5
221
100
AcDbEntity
  8
0
100
AcDbLine
 62
7
  6
CONTINUOUS
 10
229.4970114185
 20
50.6645652174
 11
232.9970114185
 21
50.6645652174
  0
LINE
  5
222
100
AcDbEntity
  8
0
100
AcDbLine
 62
7
  6
CONTINUOUS
 10
232.9970114185
 20
55.6645652174
 11
233.0670114185
 21
55.6645652174
  0
LINE
  5
223
100
AcDbEntity
  8
0
100
AcDbLine
 62
7
  6
CONTINUOUS
 10
233.0670114185
 20
57.6645652174
 11
232.9970114185
 21
57.6645652174
  0
LINE
  5
224
100
AcDbEntity
  8
0
100
AcDbLine
 62
7
  6
CONTINUOUS
 10
109.2360930975
 20
69.6145652174
 11
112.7579297396
 21
69.6145652174
  0
LINE
  5
225
100
AcDbEntity
  8
0
100
AcDbLine
 62
7
  6
CONTINUOUS
 10
112.7579297396
 20
75.7145652174
 11
109.2360930975
 21
75.7145652174
  0
LINE
  5
226
100
AcDbEntity
  8
0
100
AcDbLine
 62
7
  6
CONTINUOUS
 10
109.2360930975
 20
69.6145652174
 11
107.4751747765
 21
72.6645652174
  0
LINE
  5
227
100
AcDbEntity
  8
0
100
AcDbLine
 62
7
  6
CONTINUOUS
 10
103.4970114185
 20
111.6645652174
 11
123.4970114185
 21
111.6645652174
  0
LINE
  5
228
100
AcDbEntity
  8
0
100
AcDbLine
 62
7
  6
CONTINUOUS
 10
126.4970114185
 20
111.6645652174
 11
146.4970114185
 21
111.6645652174
  0
LINE
  5
229
100
AcDbEntity
  8
0
100
AcDbLine
 62
7
  6
CONTINUOUS
 10
149.4970114185
 20
111.6645652174
 11
169.4970114185
 21
111.6645652174
  0
LINE
  5
22A
100
AcDbEntity
  8
0
100
AcDbLine
 62
7
  6
CONTINUOUS
 10
172.4970114185
 20
111.6645652174
 11
192.4970114185
 21
111.6645652174
  0
LINE
  5
22B
100
AcDbEntity
  8
0
100
AcDbLine
 62
7
  6
CONTINUOUS
 10
192.4970114185
 20
114.6645652174
 11
172.4970114185
 21
114.6645652174
  0
LINE
  5
22C
100
AcDbEntity
  8
0
100
AcDbLine
 62
7
  6
CONTINUOUS
 10
169.4970114185
 20
114.6645652174
 11
149.4970114185
 21
114.6645652174
  0
LINE
  5
22D
100
AcDbEntity
  8
0
100
AcDbLine
 62
7
  6
CONTINUOUS
 10
146.4970114185
 20
114.6645652174
 11
126.4970114185
 21
114.6645652174
  0
LINE
  5
22E
100
AcDbEntity
  8
0
100
AcDbLine
 62
7
  6
CONTINUOUS
 10
123.4970114185
 20
114.6645652174
 11
103.4970114185
 21
114.6645652174
  0
LINE
  5
22F
100
AcDbEntity
  8
0
100
AcDbLine
 62
7
  6
CONTINUOUS
 10
112.7579297396
 20
75.7145652174
 11
114.5188480606
 21
72.6645652174
  0
LINE
  5
230
100
AcDbEntity
  8
0
100
AcDbLine
 62
7
  6
CONTINUOUS
 10
62.9970114185
 20
50.6645652174
 11
62.9970114185
 21
374.6645652174
  0
LINE
  5
231
100
AcDbEntity
  8
0
100
AcDbLine
 62
7
  6
CONTINUOUS
 10
64.0070114185
 20
50.5645652174
 11
64.0070114185
 21
50.6645652174
  0
LINE
  5
232
100
AcDbEntity
  8
0
100
AcDbLine
 62
7
  6
CONTINUOUS
 10
63.9970114185
 20
334.6645652174
 11
64.0070114185
 21
374.7645652174
  0
LINE
  5
233
100
AcDbEntity
  8
0
100
AcDbLine
 62
7
  6
CONTINUOUS
 10
65.0070114185
 20
50.5645652174
 11
65.0070114185
 21
374.7645652174
  0
LINE
  5
234
100
AcDbEntity
  8
0
100
AcDbLine
 62
7
  6
CONTINUOUS
 10
67.9970114185
 20
37.6645652174
 11
67.9970114185
 21
365.6645652174
  0
LINE
  5
235
100
AcDbEntity
  8
0
100
AcDbLine
 62
7
  6
CONTINUOUS
 10
69.9970114185
 20
374.6645652174
 11
69.9970114185
 21
375.7645652174
  0
LINE
  5
236
100
AcDbEntity
  8
0
100
AcDbLine
 62
7
  6
CONTINUOUS
 10
191.7386040721
 20
367.406157871
 11
189.9970114185
 21
365.6645652174
  0
LINE
  5
237
100
AcDbEntity
  8
0
100
AcDbLine
 62
7
  6
CONTINUOUS
 10
111.9970114185
 20
117.6645652174
 11
91.9970114185
 21
117.6645652174
  0
LINE
  5
238
100
AcDbEntity
  8
0
100
AcDbLine
 62
7
  6
CONTINUOUS
 10
74.7098429702
 20
117.6645652174
 11
86.9970114185
 21
117.6645652174
  0
LINE
  5
239
100
AcDbEntity
  8
0
100
AcDbLine
 62
7
  6
CONTINUOUS
 10
114.9970114185
 20
117.6645652174
 11
134.9970114185
 21
117.6645652174
  0
LINE
  5
23A
100
AcDbEntity
  8
0
100
AcDbLine
 62
7
  6
CONTINUOUS
 10
137.9970114185
 20
117.6645652174
 11
157.9970114185
 21
117.6645652174
  0
LINE
  5
23B
100
AcDbEntity
  8
0
100
AcDbLine
 62
7
  6
CONTINUOUS
 10
160.9970114185
 20
117.6645652174
 11
180.9970114185
 21
117.6645652174
  0
LINE
  5
23C
100
AcDbEntity
  8
0
100
AcDbLine
 62
7
  6
CONTINUOUS
 10
183.9970114185
 20
117.6645652174
 11
203.9970114185
 21
117.6645652174
  0
LINE
  5
23D
100
AcDbEntity
  8
0
100
AcDbLine
 62
7
  6
CONTINUOUS
 10
208.9970114185
 20
117.6645652174
 11
221.2841798669
 21
117.6645652174
  0
LINE
  5
23E
100
AcDbEntity
  8
0
100
AcDbLine
 62
7
  6
CONTINUOUS
 10
97.4970114185
 20
117.7645652174
 11
107.4970114185
 21
117.7645652174
  0
LINE
  5
23F
100
AcDbEntity
  8
0
100
AcDbLine
 62
7
  6
CONTINUOUS
 10
123.4970114185
 20
117.7645652174
 11
133.4970114185
 21
117.7645652174
  0
LINE
  5
240
100
AcDbEntity
  8
0
100
AcDbLine
 62
7
  6
CONTINUOUS
 10
149.4970114185
 20
117.7645652174
 11
157.9970114185
 21
117.7645652174
  0
LINE
  5
241
100
AcDbEntity
  8
0
100
AcDbLine
 62
7
  6
CONTINUOUS
 10
175.4970114185
 20
117.7645652174
 11
180.9970114185
 21
117.7645652174
  0
LINE
  5
242
100
AcDbEntity
  8
0
100
AcDbLine
 62
7
  6
CONTINUOUS
 10
183.9970114185
 20
117.7645652174
 11
185.4970114185
 21
117.7645652174
  0
LINE
  5
243
100
AcDbEntity
  8
0
100
AcDbLine
 62
7
  6
CONTINUOUS
 10
201.4970114185
 20
117.7645652174
 11
203.9970114185
 21
117.7645652174
  0
LINE
  5
244
100
AcDbEntity
  8
0
100
AcDbLine
 62
7
  6
CONTINUOUS
 10
209.9970114185
 20
117.7645652174
 11
211.4970114185
 21
117.7645652174
  0
LINE
  5
245
100
AcDbEntity
  8
0
100
AcDbLine
 62
7
  6
CONTINUOUS
 10
203.9970114185
 20
120.6645652174
 11
183.9970114185
 21
120.6645652174
  0
LINE
  5
246
100
AcDbEntity
  8
0
100
AcDbLine
 62
7
  6
CONTINUOUS
 10
180.9970114185
 20
120.6645652174
 11
160.9970114185
 21
120.6645652174
  0
LINE
  5
247
100
AcDbEntity
  8
0
100
AcDbLine
 62
7
  6
CONTINUOUS
 10
157.9970114185
 20
120.6645652174
 11
137.9970114185
 21
120.6645652174
  0
LINE
  5
248
100
AcDbEntity
  8
0
100
AcDbLine
 62
7
  6
CONTINUOUS
 10
134.9970114185
 20
120.6645652174
 11
114.9970114185
 21
120.6645652174
  0
LINE
  5
249
100
AcDbEntity
  8
0
100
AcDbLine
 62
7
  6
CONTINUOUS
 10
74.7098429702
 20
120.6645652174
 11
86.9970114185
 21
120.6645652174
  0
LINE
  5
24A
100
AcDbEntity
  8
0
100
AcDbLine
 62
7
  6
CONTINUOUS
 10
91.9970114185
 20
120.6645652174
 11
111.9970114185
 21
120.6645652174
  0
LINE
  5
24B
100
AcDbEntity
  8
0
100
AcDbLine
 62
7
  6
CONTINUOUS
 10
208.9970114185
 20
120.6645652174
 11
221.2841798669
 21
120.6645652174
  0
LINE
  5
24C
100
AcDbEntity
  8
0
100
AcDbLine
 62
7
  6
CONTINUOUS
 10
103.4970114185
 20
123.6645652174
 11
123.4970114185
 21
123.6645652174
  0
LINE
  5
24D
100
AcDbEntity
  8
0
100
AcDbLine
 62
7
  6
CONTINUOUS
 10
126.4970114185
 20
123.6645652174
 11
146.4970114185
 21
123.6645652174
  0
LINE
  5
24E
100
AcDbEntity
  8
0
100
AcDbLine
 62
7
  6
CONTINUOUS
 10
149.4970114185
 20
123.6645652174
 11
169.4970114185
 21
123.6645652174
  0
LINE
  5
24F
100
AcDbEntity
  8
0
100
AcDbLine
 62
7
  6
CONTINUOUS
 10
172.4970114185
 20
123.6645652174
 11
192.4970114185
 21
123.6645652174
  0
LINE
  5
250
100
AcDbEntity
  8
0
100
AcDbLine
 62
7
  6
CONTINUOUS
 10
192.4970114185
 20
126.6645652174
 11
172.4970114185
 21
126.6645652174
  0
LINE
  5
251
100
AcDbEntity
  8
0
100
AcDbLine
 62
7
  6
CONTINUOUS
 10
169.4970114185
 20
126.6645652174
 11
149.4970114185
 21
126.6645652174
  0
LINE
  5
252
100
AcDbEntity
  8
0
100
AcDbLine
 62
7
  6
CONTINUOUS
 10
146.4970114185
 20
126.6645652174
 11
126.4970114185
 21
126.6645652174
  0
LINE
  5
253
100
AcDbEntity
  8
0
100
AcDbLine
 62
7
  6
CONTINUOUS
 10
123.4970114185
 20
126.6645652174
 11
103.4970114185
 21
126.6645652174
  0
LINE
  5
254
100
AcDbEntity
  8
0
100
AcDbLine
 62
7
  6
CONTINUOUS
 10
111.9970114185
 20
129.6645652174
 11
91.9970114185
 21
129.6645652174
  0
LINE
  5
255
100
AcDbEntity
  8
0
100
AcDbLine
 62
7
  6
CONTINUOUS
 10
74.7098429702
 20
129.6645652174
 11
86.9970114185
 21
129.6645652174
  0
LINE
  5
256
100
AcDbEntity
  8
0
100
AcDbLine
 62
7
  6
CONTINUOUS
 10
114.9970114185
 20
129.6645652174
 11
134.9970114185
 21
129.6645652174
  0
LINE
  5
257
100
AcDbEntity
  8
0
100
AcDbLine
 62
7
  6
CONTINUOUS
 10
137.9970114185
 20
129.6645652174
 11
157.9970114185
 21
129.6645652174
  0
LINE
  5
258
100
AcDbEntity
  8
0
100
AcDbLine
 62
7
  6
CONTINUOUS
 10
160.9970114185
 20
129.6645652174
 11
180.9970114185
 21
129.6645652174
  0
LINE
  5
259
100
AcDbEntity
  8
0
100
AcDbLine
 62
7
  6
CONTINUOUS
 10
183.9970114185
 20
129.6645652174
 11
203.9970114185
 21
129.6645652174
  0
LINE
  5
25A
100
AcDbEntity
  8
0
100
AcDbLine
 62
7
  6
CONTINUOUS
 10
208.9970114185
 20
129.6645652174
 11
221.2841798669
 21
129.6645652174
  0
LINE
  5
25B
100
AcDbEntity
  8
0
100
AcDbLine
 62
7
  6
CONTINUOUS
 10
232.9970114185
 20
129.6645652174
 11
233.0670114185
 21
129.6645652174
  0
LINE
  5
25C
100
AcDbEntity
  8
0
100
AcDbLine
 62
7
  6
CONTINUOUS
 10
74.7098429702
 20
117.6645652174
 11
74.7098429702
 21
120.6645652174
  0
LINE
  5
25D
100
AcDbEntity
  8
0
100
AcDbLine
 62
7
  6
CONTINUOUS
 10
74.7098429702
 20
129.6645652174
 11
74.7098429702
 21
132.6645652174
  0
LINE
  5
25E
100
AcDbEntity
  8
0
100
AcDbLine
 62
7
  6
CONTINUOUS
 10
74.7470114185
 20
360.6645652174
 11
74.7470114185
 21
357.1297079923
  0
LINE
  5
25F
100
AcDbEntity
  8
0
100
AcDbLine
 62
7
  6
CONTINUOUS
 10
74.7470114185
 20
44.6645652174
 11
74.7470114185
 21
32.6645652174
  0
LINE
  5
260
100
AcDbEntity
  8
0
100
AcDbLine
 62
7
  6
CONTINUOUS
 10
79.2470114185
 20
32.6645652174
 11
79.2470114185
 21
44.6645652174
  0
LINE
  5
261
100
AcDbEntity
  8
0
100
AcDbLine
 62
7
  6
CONTINUOUS
 10
79.2470114185
 20
357.1297079923
 11
79.2470114185
 21
360.6645652174
  0
LINE
  5
262
100
AcDbEntity
  8
0
100
AcDbLine
 62
7
  6
CONTINUOUS
 10
80.0070114185
 20
376.7645652174
 11
80.0070114185
 21
375.7645652174
  0
LINE
  5
263
100
AcDbEntity
  8
0
100
AcDbLine
 62
7
  6
CONTINUOUS
 10
81.9970114185
 20
117.6645652174
 11
81.9970114185
 21
120.6645652174
  0
LINE
  5
264
100
AcDbEntity
  8
0
100
AcDbLine
 62
7
  6
CONTINUOUS
 10
81.9970114185
 20
129.6645652174
 11
81.9970114185
 21
132.6645652174
  0
LINE
  5
265
100
AcDbEntity
  8
0
100
AcDbLine
 62
7
  6
CONTINUOUS
 10
84.1970114185
 20
370.6645652174
 11
84.1970114185
 21
132.6645652174
  0
LINE
  5
266
100
AcDbEntity
  8
0
100
AcDbLine
 62
7
  6
CONTINUOUS
 10
84.1970114185
 20
129.6645652174
 11
84.1970114185
 21
120.6645652174
  0
LINE
  5
267
100
AcDbEntity
  8
0
100
AcDbLine
 62
7
  6
CONTINUOUS
 10
84.1970114185
 20
117.6645652174
 11
84.1970114185
 21
32.6645652174
  0
LINE
  5
268
100
AcDbEntity
  8
0
100
AcDbLine
 62
7
  6
CONTINUOUS
 10
84.4970114185
 20
132.6645652174
 11
84.4970114185
 21
129.6645652174
  0
LINE
  5
269
100
AcDbEntity
  8
0
100
AcDbLine
 62
7
  6
CONTINUOUS
 10
85.0070114185
 20
375.7645652174
 11
85.0070114185
 21
376.7645652174
  0
LINE
  5
26A
100
AcDbEntity
  8
0
100
AcDbLine
 62
7
  6
CONTINUOUS
 10
204.9870114185
 20
367.406157871
 11
207.9870114185
 21
370.406157871
  0
LINE
  5
26B
100
AcDbEntity
  8
0
100
AcDbLine
 62
7
  6
CONTINUOUS
 10
97.4970114185
 20
130.7645652174
 11
107.4970114185
 21
130.7645652174
  0
LINE
  5
26C
100
AcDbEntity
  8
0
100
AcDbLine
 62
7
  6
CONTINUOUS
 10
123.4970114185
 20
130.7645652174
 11
133.4970114185
 21
130.7645652174
  0
LINE
  5
26D
100
AcDbEntity
  8
0
100
AcDbLine
 62
7
  6
CONTINUOUS
 10
149.4970114185
 20
130.7645652174
 11
157.9970114185
 21
130.7645652174
  0
LINE
  5
26E
100
AcDbEntity
  8
0
100
AcDbLine
 62
7
  6
CONTINUOUS
 10
175.4970114185
 20
130.7645652174
 11
180.9970114185
 21
130.7645652174
  0
LINE
  5
26F
100
AcDbEntity
  8
0
100
AcDbLine
 62
7
  6
CONTINUOUS
 10
183.9970114185
 20
130.7645652174
 11
185.4970114185
 21
130.7645652174
  0
LINE
  5
270
100
AcDbEntity
  8
0
100
AcDbLine
 62
7
  6
CONTINUOUS
 10
201.4970114185
 20
130.7645652174
 11
203.9970114185
 21
130.7645652174
  0
LINE
  5
271
100
AcDbEntity
  8
0
100
AcDbLine
 62
7
  6
CONTINUOUS
 10
209.9970114185
 20
130.7645652174
 11
211.4970114185
 21
130.7645652174
  0
LINE
  5
272
100
AcDbEntity
  8
0
100
AcDbLine
 62
7
  6
CONTINUOUS
 10
233.0670114185
 20
131.6645652174
 11
232.9970114185
 21
131.6645652174
  0
LINE
  5
273
100
AcDbEntity
  8
0
100
AcDbLine
 62
7
  6
CONTINUOUS
 10
203.9970114185
 20
132.6645652174
 11
183.9970114185
 21
132.6645652174
  0
LINE
  5
274
100
AcDbEntity
  8
0
100
AcDbLine
 62
7
  6
CONTINUOUS
 10
180.9970114185
 20
132.6645652174
 11
160.9970114185
 21
132.6645652174
  0
LINE
  5
275
100
AcDbEntity
  8
0
100
AcDbLine
 62
7
  6
CONTINUOUS
 10
157.9970114185
 20
132.6645652174
 11
137.9970114185
 21
132.6645652174
  0
LINE
  5
276
100
AcDbEntity
  8
0
100
AcDbLine
 62
7
  6
CONTINUOUS
 10
134.9970114185
 20
132.6645652174
 11
114.9970114185
 21
132.6645652174
  0
LINE
  5
277
100
AcDbEntity
  8
0
100
AcDbLine
 62
7
  6
CONTINUOUS
 10
74.7098429702
 20
132.6645652174
 11
86.9970114185
 21
132.6645652174
  0
LINE
  5
278
100
AcDbEntity
  8
0
100
AcDbLine
 62
7
  6
CONTINUOUS
 10
91.9970114185
 20
132.6645652174
 11
111.9970114185
 21
132.6645652174
  0
LINE
  5
279
100
AcDbEntity
  8
0
100
AcDbLine
 62
7
  6
CONTINUOUS
 10
208.9970114185
 20
132.6645652174
 11
221.2841798669
 21
132.6645652174
  0
LINE
  5
27A
100
AcDbEntity
  8
0
100
AcDbLine
 62
7
  6
CONTINUOUS
 10
85.9970114185
 20
117.6645652174
 11
85.9970114185
 21
120.6645652174
  0
LINE
  5
27B
100
AcDbEntity
  8
0
100
AcDbLine
 62
7
  6
CONTINUOUS
 10
85.9970114185
 20
129.6645652174
 11
85.9970114185
 21
132.6645652174
  0
LINE
  5
27C
100
AcDbEntity
  8
0
100
AcDbLine
 62
7
  6
CONTINUOUS
 10
86.9970114185
 20
32.6645652174
 11
86.9970114185
 21
370.6645652174
  0
LINE
  5
27D
100
AcDbEntity
  8
0
100
AcDbLine
 62
7
  6
CONTINUOUS
 10
88.0070114185
 20
370.406157871
 11
88.0070114185
 21
376.7645652174
  0
LINE
  5
27E
100
AcDbEntity
  8
0
100
AcDbLine
 62
7
  6
CONTINUOUS
 10
88.7970114185
 20
32.6645652174
 11
88.7970114185
 21
369.616157871
  0
LINE
  5
27F
100
AcDbEntity
  8
0
100
AcDbLine
 62
7
  6
CONTINUOUS
 10
91.9970114185
 20
117.6645652174
 11
91.9970114185
 21
120.6645652174
  0
LINE
  5
280
100
AcDbEntity
  8
0
100
AcDbLine
 62
7
  6
CONTINUOUS
 10
91.9970114185
 20
129.6645652174
 11
91.9970114185
 21
132.6645652174
  0
LINE
  5
281
100
AcDbEntity
  8
0
100
AcDbLine
 62
7
  6
CONTINUOUS
 10
91.9970114185
 20
357.6645652174
 11
91.9970114185
 21
360.6645652174
  0
LINE
  5
282
100
AcDbEntity
  8
0
100
AcDbLine
 62
7
  6
CONTINUOUS
 10
94.4970114185
 20
129.6645652174
 11
94.4970114185
 21
132.6645652174
  0
LINE
  5
283
100
AcDbEntity
  8
0
100
AcDbLine
 62
7
  6
CONTINUOUS
 10
94.4970114185
 20
357.6645652174
 11
94.4970114185
 21
360.6645652174
  0
LINE
  5
284
100
AcDbEntity
  8
0
100
AcDbLine
 62
7
  6
CONTINUOUS
 10
97.4970114185
 20
360.6645652174
 11
97.4970114185
 21
357.6645652174
  0
LINE
  5
285
100
AcDbEntity
  8
0
100
AcDbLine
 62
7
  6
CONTINUOUS
 10
97.4970114185
 20
132.6645652174
 11
97.4970114185
 21
130.7645652174
  0
LINE
  5
286
100
AcDbEntity
  8
0
100
AcDbLine
 62
7
  6
CONTINUOUS
 10
97.4970114185
 20
120.6645652174
 11
97.4970114185
 21
117.7645652174
  0
LINE
  5
287
100
AcDbEntity
  8
0
100
AcDbLine
 62
7
  6
CONTINUOUS
 10
191.0468949441
 20
145.7645652174
 11
189.9343059606
 21
145.7645652174
  0
LINE
  5
288
100
AcDbEntity
  8
0
100
AcDbLine
 62
7
  6
CONTINUOUS
 10
139.8812754526
 20
145.7645652174
 11
136.4970114185
 21
145.7645652174
  0
LINE
  5
289
100
AcDbEntity
  8
0
100
AcDbLine
 62
7
  6
CONTINUOUS
 10
116.0468949441
 20
145.7645652174
 11
114.9343059606
 21
145.7645652174
  0
LINE
  5
28A
100
AcDbEntity
  8
0
100
AcDbLine
 62
7
  6
CONTINUOUS
 10
100.9970114185
 20
373.406157871
 11
100.9970114185
 21
376.7645652174
  0
LINE
  5
28B
100
AcDbEntity
  8
0
100
AcDbLine
 62
7
  6
CONTINUOUS
 10
102.7470114185
 20
345.6645652174
 11
102.7470114185
 21
342.6645652174
  0
LINE
  5
28C
100
AcDbEntity
  8
0
100
AcDbLine
 62
7
  6
CONTINUOUS
 10
103.4970114185
 20
126.6645652174
 11
103.4970114185
 21
123.6645652174
  0
LINE
  5
28D
100
AcDbEntity
  8
0
100
AcDbLine
 62
7
  6
CONTINUOUS
 10
103.4970114185
 20
114.6645652174
 11
103.4970114185
 21
111.6645652174
  0
LINE
  5
28E
100
AcDbEntity
  8
0
100
AcDbLine
 62
7
  6
CONTINUOUS
 10
103.4970114185
 20
351.6645652174
 11
103.4970114185
 21
354.6645652174
  0
LINE
  5
28F
100
AcDbEntity
  8
0
100
AcDbLine
 62
7
  6
CONTINUOUS
 10
107.4970114185
 20
117.7645652174
 11
107.4970114185
 21
120.6645652174
  0
LINE
  5
290
100
AcDbEntity
  8
0
100
AcDbLine
 62
7
  6
CONTINUOUS
 10
107.4970114185
 20
123.6645652174
 11
107.4970114185
 21
126.6645652174
  0
LINE
  5
291
100
AcDbEntity
  8
0
100
AcDbLine
 62
7
  6
CONTINUOUS
 10
107.4970114185
 20
130.7645652174
 11
107.4970114185
 21
132.6645652174
  0
LINE
  5
292
100
AcDbEntity
  8
0
100
AcDbLine
 62
7
  6
CONTINUOUS
 10
107.4970114185
 20
340.8339207923
 11
107.4970114185
 21
347.5001040619
  0
LINE
  5
293
100
AcDbEntity
  8
0
100
AcDbLine
 62
7
  6
CONTINUOUS
 10
107.4970114185
 20
351.7645652174
 11
107.4970114185
 21
354.6645652174
  0
LINE
  5
294
100
AcDbEntity
  8
0
100
AcDbLine
 62
7
  6
CONTINUOUS
 10
107.4970114185
 20
357.6645652174
 11
107.4970114185
 21
360.6645652174
  0
LINE
  5
295
100
AcDbEntity
  8
0
100
AcDbLine
 62
7
  6
CONTINUOUS
 10
108.2470114185
 20
342.6645652174
 11
108.2470114185
 21
345.6645652174
  0
LINE
  5
296
100
AcDbEntity
  8
0
100
AcDbLine
 62
7
  6
CONTINUOUS
 10
110.4970114185
 20
366.7645652174
 11
110.4970114185
 21
365.6645652174
  0
LINE
  5
297
100
AcDbEntity
  8
0
100
AcDbLine
 62
7
  6
CONTINUOUS
 10
110.4970114185
 20
360.6645652174
 11
110.4970114185
 21
357.6645652174
  0
LINE
  5
298
100
AcDbEntity
  8
0
100
AcDbLine
 62
7
  6
CONTINUOUS
 10
110.4970114185
 20
353.7645652174
 11
110.4970114185
 21
351.6645652174
  0
LINE
  5
299
100
AcDbEntity
  8
0
100
AcDbLine
 62
7
  6
CONTINUOUS
 10
110.4970114185
 20
132.6645652174
 11
110.4970114185
 21
129.6645652174
  0
LINE
  5
29A
100
AcDbEntity
  8
0
100
AcDbLine
 62
7
  6
CONTINUOUS
 10
110.4970114185
 20
126.6645652174
 11
110.4970114185
 21
123.6645652174
  0
LINE
  5
29B
100
AcDbEntity
  8
0
100
AcDbLine
 62
7
  6
CONTINUOUS
 10
110.9970114185
 20
373.406157871
 11
110.9970114185
 21
376.7645652174
  0
LINE
  5
29C
100
AcDbEntity
  8
0
100
AcDbLine
 62
7
  6
CONTINUOUS
 10
159.4970114185
 20
166.7645652174
 11
159.1274439435
 21
166.7645652174
  0
LINE
  5
29D
100
AcDbEntity
  8
0
100
AcDbLine
 62
7
  6
CONTINUOUS
 10
153.3671427443
 20
166.7645652174
 11
149.4970114185
 21
166.7645652174
  0
LINE
  5
29E
100
AcDbEntity
  8
0
100
AcDbLine
 62
7
  6
CONTINUOUS
 10
133.4970114185
 20
166.7645652174
 11
126.1274439435
 21
166.7645652174
  0
LINE
  5
29F
100
AcDbEntity
  8
0
100
AcDbLine
 62
7
  6
CONTINUOUS
 10
111.9970114185
 20
360.6645652174
 11
111.9970114185
 21
357.6645652174
  0
LINE
  5
2A0
100
AcDbEntity
  8
0
100
AcDbLine
 62
7
  6
CONTINUOUS
 10
111.9970114185
 20
132.6645652174
 11
111.9970114185
 21
129.6645652174
  0
LINE
  5
2A1
100
AcDbEntity
  8
0
100
AcDbLine
 62
7
  6
CONTINUOUS
 10
111.9970114185
 20
120.6645652174
 11
111.9970114185
 21
117.6645652174
  0
LINE
  5
2A2
100
AcDbEntity
  8
0
100
AcDbLine
 62
7
  6
CONTINUOUS
 10
112.9970114185
 20
373.406157871
 11
112.9970114185
 21
376.7645652174
  0
LINE
  5
2A3
100
AcDbEntity
  8
0
100
AcDbLine
 62
7
  6
CONTINUOUS
 10
114.9970114185
 20
132.6645652174
 11
114.9970114185
 21
129.6645652174
  0
LINE
  5
2A4
100
AcDbEntity
  8
0
100
AcDbLine
 62
7
  6
CONTINUOUS
 10
114.9970114185
 20
120.6645652174
 11
114.9970114185
 21
117.6645652174
  0
LINE
  5
2A5
100
AcDbEntity
  8
0
100
AcDbLine
 62
7
  6
CONTINUOUS
 10
114.9970114185
 20
357.6645652174
 11
114.9970114185
 21
360.6645652174
  0
LINE
  5
2A6
100
AcDbEntity
  8
0
100
AcDbLine
 62
7
  6
CONTINUOUS
 10
120.4970114185
 20
123.6645652174
 11
120.4970114185
 21
126.6645652174
  0
LINE
  5
2A7
100
AcDbEntity
  8
0
100
AcDbLine
 62
7
  6
CONTINUOUS
 10
120.4970114185
 20
129.6645652174
 11
120.4970114185
 21
132.6645652174
  0
LINE
  5
2A8
100
AcDbEntity
  8
0
100
AcDbLine
 62
7
  6
CONTINUOUS
 10
120.4970114185
 20
351.6645652174
 11
120.4970114185
 21
353.7645652174
  0
LINE
  5
2A9
100
AcDbEntity
  8
0
100
AcDbLine
 62
7
  6
CONTINUOUS
 10
120.4970114185
 20
357.6645652174
 11
120.4970114185
 21
360.6645652174
  0
LINE
  5
2AA
100
AcDbEntity
  8
0
100
AcDbLine
 62
7
  6
CONTINUOUS
 10
120.4970114185
 20
365.6645652174
 11
120.4970114185
 21
366.7645652174
  0
LINE
  5
2AB
100
AcDbEntity
  8
0
100
AcDbLine
 62
7
  6
CONTINUOUS
 10
122.9970114185
 20
373.406157871
 11
122.9970114185
 21
376.7645652174
  0
LINE
  5
2AC
100
AcDbEntity
  8
0
100
AcDbLine
 62
7
  6
CONTINUOUS
 10
123.4970114185
 20
360.6645652174
 11
123.4970114185
 21
357.6645652174
  0
LINE
  5
2AD
100
AcDbEntity
  8
0
100
AcDbLine
 62
7
  6
CONTINUOUS
 10
123.4970114185
 20
354.6645652174
 11
123.4970114185
 21
351.6645652174
  0
LINE
  5
2AE
100
AcDbEntity
  8
0
100
AcDbLine
 62
7
  6
CONTINUOUS
 10
123.4970114185
 20
132.6645652174
 11
123.4970114185
 21
130.7645652174
  0
LINE
  5
2AF
100
AcDbEntity
  8
0
100
AcDbLine
 62
7
  6
CONTINUOUS
 10
123.4970114185
 20
120.6645652174
 11
123.4970114185
 21
117.7645652174
  0
LINE
  5
2B0
100
AcDbEntity
  8
0
100
AcDbLine
 62
7
  6
CONTINUOUS
 10
123.4970114185
 20
111.6645652174
 11
123.4970114185
 21
114.6645652174
  0
LINE
  5
2B1
100
AcDbEntity
  8
0
100
AcDbLine
 62
7
  6
CONTINUOUS
 10
123.4970114185
 20
123.6645652174
 11
123.4970114185
 21
126.6645652174
  0
LINE
  5
2B2
100
AcDbEntity
  8
0
100
AcDbLine
 62
7
  6
CONTINUOUS
 10
125.9970114185
 20
169.7645652174
 11
133.4970114185
 21
169.7645652174
  0
LINE
  5
2B3
100
AcDbEntity
  8
0
100
AcDbLine
 62
7
  6
CONTINUOUS
 10
149.4970114185
 20
169.7645652174
 11
153.4970114185
 21
169.7645652174
  0
LINE
  5
2B4
100
AcDbEntity
  8
0
100
AcDbLine
 62
7
  6
CONTINUOUS
 10
158.9970114185
 20
169.7645652174
 11
159.4970114185
 21
169.7645652174
  0
LINE
  5
2B5
100
AcDbEntity
  8
0
100
AcDbLine
 62
7
  6
CONTINUOUS
 10
169.9970114185
 20
171.7645652174
 11
162.4970114185
 21
171.7645652174
  0
LINE
  5
2B6
100
AcDbEntity
  8
0
100
AcDbLine
 62
7
  6
CONTINUOUS
 10
146.4970114185
 20
171.7645652174
 11
142.4970114185
 21
171.7645652174
  0
LINE
  5
2B7
100
AcDbEntity
  8
0
100
AcDbLine
 62
7
  6
CONTINUOUS
 10
136.9970114185
 20
171.7645652174
 11
136.4970114185
 21
171.7645652174
  0
LINE
  5
2B8
100
AcDbEntity
  8
0
100
AcDbLine
 62
7
  6
CONTINUOUS
 10
136.4970114185
 20
174.7645652174
 11
136.837593888
 21
174.7645652174
  0
LINE
  5
2B9
100
AcDbEntity
  8
0
100
AcDbLine
 62
7
  6
CONTINUOUS
 10
142.6557397981
 20
174.7645652174
 11
146.4970114185
 21
174.7645652174
  0
LINE
  5
2BA
100
AcDbEntity
  8
0
100
AcDbLine
 62
7
  6
CONTINUOUS
 10
162.4970114185
 20
174.7645652174
 11
169.837593888
 21
174.7645652174
  0
LINE
  5
2BB
100
AcDbEntity
  8
0
100
AcDbLine
 62
7
  6
CONTINUOUS
 10
124.9970114185
 20
373.406157871
 11
124.9970114185
 21
376.7645652174
  0
LINE
  5
2BC
100
AcDbEntity
  8
0
100
AcDbLine
 62
7
  6
CONTINUOUS
 10
125.9970114185
 20
167.6645652174
 11
125.9970114185
 21
173.6645652174
  0
LINE
  5
2BD
100
AcDbEntity
  8
0
100
AcDbLine
 62
7
  6
CONTINUOUS
 10
125.9970114185
 20
215.6645652174
 11
125.9970114185
 21
221.6645652174
  0
LINE
  5
2BE
100
AcDbEntity
  8
0
100
AcDbLine
 62
7
  6
CONTINUOUS
 10
125.9970114185
 20
263.6645652174
 11
125.9970114185
 21
269.6645652174
  0
LINE
  5
2BF
100
AcDbEntity
  8
0
100
AcDbLine
 62
7
  6
CONTINUOUS
 10
125.9970114185
 20
311.6645652174
 11
125.9970114185
 21
317.6645652174
  0
LINE
  5
2C0
100
AcDbEntity
  8
0
100
AcDbLine
 62
7
  6
CONTINUOUS
 10
126.4970114185
 20
126.6645652174
 11
126.4970114185
 21
123.6645652174
  0
LINE
  5
2C1
100
AcDbEntity
  8
0
100
AcDbLine
 62
7
  6
CONTINUOUS
 10
126.4970114185
 20
114.6645652174
 11
126.4970114185
 21
111.6645652174
  0
LINE
  5
2C2
100
AcDbEntity
  8
0
100
AcDbLine
 62
7
  6
CONTINUOUS
 10
126.4970114185
 20
351.6645652174
 11
126.4970114185
 21
354.6645652174
  0
LINE
  5
2C3
100
AcDbEntity
  8
0
100
AcDbLine
 62
7
  6
CONTINUOUS
 10
133.4970114185
 20
117.7645652174
 11
133.4970114185
 21
120.6645652174
  0
LINE
  5
2C4
100
AcDbEntity
  8
0
100
AcDbLine
 62
7
  6
CONTINUOUS
 10
133.4970114185
 20
123.6645652174
 11
133.4970114185
 21
126.6645652174
  0
LINE
  5
2C5
100
AcDbEntity
  8
0
100
AcDbLine
 62
7
  6
CONTINUOUS
 10
133.4970114185
 20
130.7645652174
 11
133.4970114185
 21
132.6645652174
  0
LINE
  5
2C6
100
AcDbEntity
  8
0
100
AcDbLine
 62
7
  6
CONTINUOUS
 10
133.4970114185
 20
162.7740113742
 11
133.4970114185
 21
166.7645652174
  0
LINE
  5
2C7
100
AcDbEntity
  8
0
100
AcDbLine
 62
7
  6
CONTINUOUS
 10
133.4970114185
 20
169.7645652174
 11
133.4970114185
 21
178.5524469487
  0
LINE
  5
2C8
100
AcDbEntity
  8
0
100
AcDbLine
 62
7
  6
CONTINUOUS
 10
133.4970114185
 20
210.7740113742
 11
133.4970114185
 21
218.7645652174
  0
LINE
  5
2C9
100
AcDbEntity
  8
0
100
AcDbLine
 62
7
  6
CONTINUOUS
 10
133.4970114185
 20
221.7645652174
 11
133.4970114185
 21
226.5524469487
  0
LINE
  5
2CA
100
AcDbEntity
  8
0
100
AcDbLine
 62
7
  6
CONTINUOUS
 10
133.4970114185
 20
260.7645652174
 11
133.4970114185
 21
270.7645652174
  0
LINE
  5
2CB
100
AcDbEntity
  8
0
100
AcDbLine
 62
7
  6
CONTINUOUS
 10
133.4970114185
 20
273.7645652174
 11
133.4970114185
 21
274.5524469487
  0
LINE
  5
2CC
100
AcDbEntity
  8
0
100
AcDbLine
 62
7
  6
CONTINUOUS
 10
133.4970114185
 20
306.7740113742
 11
133.4970114185
 21
309.7645652174
  0
LINE
  5
2CD
100
AcDbEntity
  8
0
100
AcDbLine
 62
7
  6
CONTINUOUS
 10
133.4970114185
 20
312.7645652174
 11
133.4970114185
 21
322.7645652174
  0
LINE
  5
2CE
100
AcDbEntity
  8
0
100
AcDbLine
 62
7
  6
CONTINUOUS
 10
133.4970114185
 20
351.7645652174
 11
133.4970114185
 21
354.6645652174
  0
LINE
  5
2CF
100
AcDbEntity
  8
0
100
AcDbLine
 62
7
  6
CONTINUOUS
 10
133.4970114185
 20
357.6645652174
 11
133.4970114185
 21
360.6645652174
  0
LINE
  5
2D0
100
AcDbEntity
  8
0
100
AcDbLine
 62
7
  6
CONTINUOUS
 10
134.2470114185
 20
191.6645652174
 11
134.2470114185
 21
197.6645652174
  0
LINE
  5
2D1
100
AcDbEntity
  8
0
100
AcDbLine
 62
7
  6
CONTINUOUS
 10
134.2470114185
 20
239.6645652174
 11
134.2470114185
 21
245.6645652174
  0
LINE
  5
2D2
100
AcDbEntity
  8
0
100
AcDbLine
 62
7
  6
CONTINUOUS
 10
134.2470114185
 20
287.6645652174
 11
134.2470114185
 21
293.6645652174
  0
LINE
  5
2D3
100
AcDbEntity
  8
0
100
AcDbLine
 62
7
  6
CONTINUOUS
 10
134.9970114185
 20
360.6645652174
 11
134.9970114185
 21
357.6645652174
  0
LINE
  5
2D4
100
AcDbEntity
  8
0
100
AcDbLine
 62
7
  6
CONTINUOUS
 10
134.9970114185
 20
117.6645652174
 11
134.9970114185
 21
120.6645652174
  0
LINE
  5
2D5
100
AcDbEntity
  8
0
100
AcDbLine
 62
7
  6
CONTINUOUS
 10
134.9970114185
 20
129.6645652174
 11
134.9970114185
 21
132.6645652174
  0
LINE
  5
2D6
100
AcDbEntity
  8
0
100
AcDbLine
 62
7
  6
CONTINUOUS
 10
134.9970114185
 20
373.406157871
 11
134.9970114185
 21
376.7645652174
  0
LINE
  5
2D7
100
AcDbEntity
  8
0
100
AcDbLine
 62
7
  6
CONTINUOUS
 10
136.4970114185
 20
366.7645652174
 11
136.4970114185
 21
365.6645652174
  0
LINE
  5
2D8
100
AcDbEntity
  8
0
100
AcDbLine
 62
7
  6
CONTINUOUS
 10
136.4970114185
 20
353.7645652174
 11
136.4970114185
 21
351.6645652174
  0
LINE
  5
2D9
100
AcDbEntity
  8
0
100
AcDbLine
 62
7
  6
CONTINUOUS
 10
136.4970114185
 20
319.6482116543
 11
136.4970114185
 21
317.7645652174
  0
LINE
  5
2DA
100
AcDbEntity
  8
0
100
AcDbLine
 62
7
  6
CONTINUOUS
 10
136.4970114185
 20
314.7645652174
 11
136.4970114185
 21
309.6806229804
  0
LINE
  5
2DB
100
AcDbEntity
  8
0
100
AcDbLine
 62
7
  6
CONTINUOUS
 10
136.4970114185
 20
297.9804787173
 11
136.4970114185
 21
291.7645652174
  0
LINE
  5
2DC
100
AcDbEntity
  8
0
100
AcDbLine
 62
7
  6
CONTINUOUS
 10
136.4970114185
 20
288.7645652174
 11
136.4970114185
 21
283.3400325004
  0
LINE
  5
2DD
100
AcDbEntity
  8
0
100
AcDbLine
 62
7
  6
CONTINUOUS
 10
136.4970114185
 20
271.6482116543
 11
136.4970114185
 21
265.7645652174
  0
LINE
  5
2DE
100
AcDbEntity
  8
0
100
AcDbLine
 62
7
  6
CONTINUOUS
 10
136.4970114185
 20
262.7645652174
 11
136.4970114185
 21
261.6806229804
  0
LINE
  5
2DF
100
AcDbEntity
  8
0
100
AcDbLine
 62
7
  6
CONTINUOUS
 10
136.4970114185
 20
249.7645652174
 11
136.4970114185
 21
239.7645652174
  0
LINE
  5
2E0
100
AcDbEntity
  8
0
100
AcDbLine
 62
7
  6
CONTINUOUS
 10
136.4970114185
 20
236.7645652174
 11
136.4970114185
 21
235.3400325004
  0
LINE
  5
2E1
100
AcDbEntity
  8
0
100
AcDbLine
 62
7
  6
CONTINUOUS
 10
136.4970114185
 20
223.7645652174
 11
136.4970114185
 21
213.7645652174
  0
LINE
  5
2E2
100
AcDbEntity
  8
0
100
AcDbLine
 62
7
  6
CONTINUOUS
 10
136.4970114185
 20
201.9804787173
 11
136.4970114185
 21
200.7645652174
  0
LINE
  5
2E3
100
AcDbEntity
  8
0
100
AcDbLine
 62
7
  6
CONTINUOUS
 10
136.4970114185
 20
197.7645652174
 11
136.4970114185
 21
187.7645652174
  0
LINE
  5
2E4
100
AcDbEntity
  8
0
100
AcDbLine
 62
7
  6
CONTINUOUS
 10
136.4970114185
 20
175.6482116543
 11
136.4970114185
 21
174.7645652174
  0
LINE
  5
2E5
100
AcDbEntity
  8
0
100
AcDbLine
 62
7
  6
CONTINUOUS
 10
136.4970114185
 20
171.7645652174
 11
136.4970114185
 21
165.6806229804
  0
LINE
  5
2E6
100
AcDbEntity
  8
0
100
AcDbLine
 62
7
  6
CONTINUOUS
 10
136.4970114185
 20
145.7645652174
 11
136.4970114185
 21
144.8485619674
  0
LINE
  5
2E7
100
AcDbEntity
  8
0
100
AcDbLine
 62
7
  6
CONTINUOUS
 10
136.4970114185
 20
126.6645652174
 11
136.4970114185
 21
123.6645652174
  0
LINE
  5
2E8
100
AcDbEntity
  8
0
100
AcDbLine
 62
7
  6
CONTINUOUS
 10
136.4970114185
 20
187.7645652174
 11
143.516146299
 21
187.7645652174
  0
LINE
  5
2E9
100
AcDbEntity
  8
0
100
AcDbLine
 62
7
  6
CONTINUOUS
 10
159.4970114185
 20
192.7645652174
 11
150.7470114185
 21
192.7645652174
  0
LINE
  5
2EA
100
AcDbEntity
  8
0
100
AcDbLine
 62
7
  6
CONTINUOUS
 10
136.9970114185
 20
317.6645652174
 11
136.9970114185
 21
311.6645652174
  0
LINE
  5
2EB
100
AcDbEntity
  8
0
100
AcDbLine
 62
7
  6
CONTINUOUS
 10
136.9970114185
 20
269.6645652174
 11
136.9970114185
 21
263.6645652174
  0
LINE
  5
2EC
100
AcDbEntity
  8
0
100
AcDbLine
 62
7
  6
CONTINUOUS
 10
136.9970114185
 20
221.6645652174
 11
136.9970114185
 21
215.6645652174
  0
LINE
  5
2ED
100
AcDbEntity
  8
0
100
AcDbLine
 62
7
  6
CONTINUOUS
 10
136.9970114185
 20
173.6645652174
 11
136.9970114185
 21
167.6645652174
  0
LINE
  5
2EE
100
AcDbEntity
  8
0
100
AcDbLine
 62
7
  6
CONTINUOUS
 10
136.9970114185
 20
373.406157871
 11
136.9970114185
 21
376.7645652174
  0
LINE
  5
2EF
100
AcDbEntity
  8
0
100
AcDbLine
 62
7
  6
CONTINUOUS
 10
137.9970114185
 20
132.6645652174
 11
137.9970114185
 21
129.6645652174
  0
LINE
  5
2F0
100
AcDbEntity
  8
0
100
AcDbLine
 62
7
  6
CONTINUOUS
 10
137.9970114185
 20
120.6645652174
 11
137.9970114185
 21
117.6645652174
  0
LINE
  5
2F1
100
AcDbEntity
  8
0
100
AcDbLine
 62
7
  6
CONTINUOUS
 10
137.9970114185
 20
357.6645652174
 11
137.9970114185
 21
360.6645652174
  0
LINE
  5
2F2
100
AcDbEntity
  8
0
100
AcDbLine
 62
7
  6
CONTINUOUS
 10
142.4970114185
 20
167.6645652174
 11
142.4970114185
 21
173.6645652174
  0
LINE
  5
2F3
100
AcDbEntity
  8
0
100
AcDbLine
 62
7
  6
CONTINUOUS
 10
142.4970114185
 20
215.6645652174
 11
142.4970114185
 21
221.6645652174
  0
LINE
  5
2F4
100
AcDbEntity
  8
0
100
AcDbLine
 62
7
  6
CONTINUOUS
 10
142.4970114185
 20
263.6645652174
 11
142.4970114185
 21
269.6645652174
  0
LINE
  5
2F5
100
AcDbEntity
  8
0
100
AcDbLine
 62
7
  6
CONTINUOUS
 10
142.4970114185
 20
311.6645652174
 11
142.4970114185
 21
317.6645652174
  0
LINE
  5
2F6
100
AcDbEntity
  8
0
100
AcDbLine
 62
7
  6
CONTINUOUS
 10
145.2470114185
 20
293.6645652174
 11
145.2470114185
 21
287.6645652174
  0
LINE
  5
2F7
100
AcDbEntity
  8
0
100
AcDbLine
 62
7
  6
CONTINUOUS
 10
145.2470114185
 20
245.6645652174
 11
145.2470114185
 21
239.6645652174
  0
LINE
  5
2F8
100
AcDbEntity
  8
0
100
AcDbLine
 62
7
  6
CONTINUOUS
 10
145.2470114185
 20
197.6645652174
 11
145.2470114185
 21
191.6645652174
  0
LINE
  5
2F9
100
AcDbEntity
  8
0
100
AcDbLine
 62
7
  6
CONTINUOUS
 10
146.4970114185
 20
354.6645652174
 11
146.4970114185
 21
351.6645652174
  0
LINE
  5
2FA
100
AcDbEntity
  8
0
100
AcDbLine
 62
7
  6
CONTINUOUS
 10
146.4970114185
 20
111.6645652174
 11
146.4970114185
 21
114.6645652174
  0
LINE
  5
2FB
100
AcDbEntity
  8
0
100
AcDbLine
 62
7
  6
CONTINUOUS
 10
146.4970114185
 20
123.6645652174
 11
146.4970114185
 21
126.6645652174
  0
LINE
  5
2FC
100
AcDbEntity
  8
0
100
AcDbLine
 62
7
  6
CONTINUOUS
 10
146.4970114185
 20
129.6645652174
 11
146.4970114185
 21
132.6645652174
  0
LINE
  5
2FD
100
AcDbEntity
  8
0
100
AcDbLine
 62
7
  6
CONTINUOUS
 10
146.4970114185
 20
162.5513438803
 11
146.4970114185
 21
171.7645652174
  0
LINE
  5
2FE
100
AcDbEntity
  8
0
100
AcDbLine
 62
7
  6
CONTINUOUS
 10
146.4970114185
 20
174.7645652174
 11
146.4970114185
 21
178.7849751979
  0
LINE
  5
2FF
100
AcDbEntity
  8
0
100
AcDbLine
 62
7
  6
CONTINUOUS
 10
146.4970114185
 20
210.5513438803
 11
146.4970114185
 21
210.7645652174
  0
LINE
  5
300
100
AcDbEntity
  8
0
100
AcDbLine
 62
7
  6
CONTINUOUS
 10
146.4970114185
 20
213.7645652174
 11
146.4970114185
 21
223.7645652174
  0
LINE
  5
301
100
AcDbEntity
  8
0
100
AcDbLine
 62
7
  6
CONTINUOUS
 10
146.4970114185
 20
258.5513438803
 11
146.4970114185
 21
262.7645652174
  0
LINE
  5
302
100
AcDbEntity
  8
0
100
AcDbLine
 62
7
  6
CONTINUOUS
 10
146.4970114185
 20
265.7645652174
 11
146.4970114185
 21
274.7849751979
  0
LINE
  5
303
100
AcDbEntity
  8
0
100
AcDbLine
 62
7
  6
CONTINUOUS
 10
146.4970114185
 20
306.5513438803
 11
146.4970114185
 21
314.7645652174
  0
LINE
  5
304
100
AcDbEntity
  8
0
100
AcDbLine
 62
7
  6
CONTINUOUS
 10
146.4970114185
 20
317.7645652174
 11
146.4970114185
 21
322.7849751979
  0
LINE
  5
305
100
AcDbEntity
  8
0
100
AcDbLine
 62
7
  6
CONTINUOUS
 10
146.4970114185
 20
357.6645652174
 11
146.4970114185
 21
360.6645652174
  0
LINE
  5
306
100
AcDbEntity
  8
0
100
AcDbLine
 62
7
  6
CONTINUOUS
 10
146.4970114185
 20
365.6645652174
 11
146.4970114185
 21
366.7645652174
  0
LINE
  5
307
100
AcDbEntity
  8
0
100
AcDbLine
 62
7
  6
CONTINUOUS
 10
146.9970114185
 20
373.406157871
 11
146.9970114185
 21
376.7645652174
  0
LINE
  5
308
100
AcDbEntity
  8
0
100
AcDbLine
 62
7
  6
CONTINUOUS
 10
148.9970114185
 20
373.406157871
 11
148.9970114185
 21
376.7645652174
  0
LINE
  5
309
100
AcDbEntity
  8
0
100
AcDbLine
 62
7
  6
CONTINUOUS
 10
149.4970114185
 20
360.6645652174
 11
149.4970114185
 21
357.6645652174
  0
LINE
  5
30A
100
AcDbEntity
  8
0
100
AcDbLine
 62
7
  6
CONTINUOUS
 10
149.4970114185
 20
322.7645652174
 11
149.4970114185
 21
312.7645652174
  0
LINE
  5
30B
100
AcDbEntity
  8
0
100
AcDbLine
 62
7
  6
CONTINUOUS
 10
149.4970114185
 20
309.7645652174
 11
149.4970114185
 21
306.5441552369
  0
LINE
  5
30C
100
AcDbEntity
  8
0
100
AcDbLine
 62
7
  6
CONTINUOUS
 10
149.4970114185
 20
274.7777865545
 11
149.4970114185
 21
273.7645652174
  0
LINE
  5
30D
100
AcDbEntity
  8
0
100
AcDbLine
 62
7
  6
CONTINUOUS
 10
149.4970114185
 20
270.7645652174
 11
149.4970114185
 21
260.7645652174
  0
LINE
  5
30E
100
AcDbEntity
  8
0
100
AcDbLine
 62
7
  6
CONTINUOUS
 10
149.4970114185
 20
226.7777865545
 11
149.4970114185
 21
221.7645652174
  0
LINE
  5
30F
100
AcDbEntity
  8
0
100
AcDbLine
 62
7
  6
CONTINUOUS
 10
149.4970114185
 20
218.7645652174
 11
149.4970114185
 21
210.5441552369
  0
LINE
  5
310
100
AcDbEntity
  8
0
100
AcDbLine
 62
7
  6
CONTINUOUS
 10
149.4970114185
 20
178.7777865545
 11
149.4970114185
 21
169.7645652174
  0
LINE
  5
311
100
AcDbEntity
  8
0
100
AcDbLine
 62
7
  6
CONTINUOUS
 10
149.4970114185
 20
166.7645652174
 11
149.4970114185
 21
162.5441552369
  0
LINE
  5
312
100
AcDbEntity
  8
0
100
AcDbLine
 62
7
  6
CONTINUOUS
 10
149.4970114185
 20
132.6645652174
 11
149.4970114185
 21
130.7645652174
  0
LINE
  5
313
100
AcDbEntity
  8
0
100
AcDbLine
 62
7
  6
CONTINUOUS
 10
149.4970114185
 20
126.6645652174
 11
149.4970114185
 21
123.6645652174
  0
LINE
  5
314
100
AcDbEntity
  8
0
100
AcDbLine
 62
7
  6
CONTINUOUS
 10
149.4970114185
 20
120.6645652174
 11
149.4970114185
 21
117.7645652174
  0
LINE
  5
315
100
AcDbEntity
  8
0
100
AcDbLine
 62
7
  6
CONTINUOUS
 10
149.4970114185
 20
114.6645652174
 11
149.4970114185
 21
111.6645652174
  0
LINE
  5
316
100
AcDbEntity
  8
0
100
AcDbLine
 62
7
  6
CONTINUOUS
 10
149.4970114185
 20
351.6645652174
 11
149.4970114185
 21
354.6645652174
  0
LINE
  5
317
100
AcDbEntity
  8
0
100
AcDbLine
 62
7
  6
CONTINUOUS
 10
150.7470114185
 20
195.7645652174
 11
159.4970114185
 21
195.7645652174
  0
LINE
  5
318
100
AcDbEntity
  8
0
100
AcDbLine
 62
7
  6
CONTINUOUS
 10
145.2470114185
 20
197.7645652174
 11
136.4970114185
 21
197.7645652174
  0
LINE
  5
319
100
AcDbEntity
  8
0
100
AcDbLine
 62
7
  6
CONTINUOUS
 10
136.4970114185
 20
200.7645652174
 11
144.0234397909
 21
200.7645652174
  0
LINE
  5
31A
100
AcDbEntity
  8
0
100
AcDbLine
 62
7
  6
CONTINUOUS
 10
150.7470114185
 20
191.6645652174
 11
150.7470114185
 21
197.6645652174
  0
LINE
  5
31B
100
AcDbEntity
  8
0
100
AcDbLine
 62
7
  6
CONTINUOUS
 10
150.7470114185
 20
239.6645652174
 11
150.7470114185
 21
245.6645652174
  0
LINE
  5
31C
100
AcDbEntity
  8
0
100
AcDbLine
 62
7
  6
CONTINUOUS
 10
150.7470114185
 20
287.6645652174
 11
150.7470114185
 21
293.6645652174
  0
LINE
  5
31D
100
AcDbEntity
  8
0
100
AcDbLine
 62
7
  6
CONTINUOUS
 10
153.4970114185
 20
317.6645652174
 11
153.4970114185
 21
311.6645652174
  0
LINE
  5
31E
100
AcDbEntity
  8
0
100
AcDbLine
 62
7
  6
CONTINUOUS
 10
153.4970114185
 20
269.6645652174
 11
153.4970114185
 21
263.6645652174
  0
LINE
  5
31F
100
AcDbEntity
  8
0
100
AcDbLine
 62
7
  6
CONTINUOUS
 10
153.4970114185
 20
221.6645652174
 11
153.4970114185
 21
215.6645652174
  0
LINE
  5
320
100
AcDbEntity
  8
0
100
AcDbLine
 62
7
  6
CONTINUOUS
 10
153.4970114185
 20
173.6645652174
 11
153.4970114185
 21
167.6645652174
  0
LINE
  5
321
100
AcDbEntity
  8
0
100
AcDbLine
 62
7
  6
CONTINUOUS
 10
157.9970114185
 20
360.6645652174
 11
157.9970114185
 21
357.6645652174
  0
LINE
  5
322
100
AcDbEntity
  8
0
100
AcDbLine
 62
7
  6
CONTINUOUS
 10
157.9970114185
 20
117.6645652174
 11
157.9970114185
 21
120.6645652174
  0
LINE
  5
323
100
AcDbEntity
  8
0
100
AcDbLine
 62
7
  6
CONTINUOUS
 10
157.9970114185
 20
129.6645652174
 11
157.9970114185
 21
132.6645652174
  0
LINE
  5
324
100
AcDbEntity
  8
0
100
AcDbLine
 62
7
  6
CONTINUOUS
 10
158.9970114185
 20
167.6645652174
 11
158.9970114185
 21
173.6645652174
  0
LINE
  5
325
100
AcDbEntity
  8
0
100
AcDbLine
 62
7
  6
CONTINUOUS
 10
158.9970114185
 20
215.6645652174
 11
158.9970114185
 21
221.6645652174
  0
LINE
  5
326
100
AcDbEntity
  8
0
100
AcDbLine
 62
7
  6
CONTINUOUS
 10
158.9970114185
 20
263.6645652174
 11
158.9970114185
 21
269.6645652174
  0
LINE
  5
327
100
AcDbEntity
  8
0
100
AcDbLine
 62
7
  6
CONTINUOUS
 10
158.9970114185
 20
311.6645652174
 11
158.9970114185
 21
317.6645652174
  0
LINE
  5
328
100
AcDbEntity
  8
0
100
AcDbLine
 62
7
  6
CONTINUOUS
 10
158.9970114185
 20
373.406157871
 11
158.9970114185
 21
376.7645652174
  0
LINE
  5
329
100
AcDbEntity
  8
0
100
AcDbLine
 62
7
  6
CONTINUOUS
 10
159.4970114185
 20
123.6645652174
 11
159.4970114185
 21
126.6645652174
  0
LINE
  5
32A
100
AcDbEntity
  8
0
100
AcDbLine
 62
7
  6
CONTINUOUS
 10
159.4970114185
 20
165.6809187805
 11
159.4970114185
 21
166.7645652174
  0
LINE
  5
32B
100
AcDbEntity
  8
0
100
AcDbLine
 62
7
  6
CONTINUOUS
 10
159.4970114185
 20
169.7645652174
 11
159.4970114185
 21
175.6485074543
  0
LINE
  5
32C
100
AcDbEntity
  8
0
100
AcDbLine
 62
7
  6
CONTINUOUS
 10
159.4970114185
 20
187.3486517175
 11
159.4970114185
 21
192.7645652174
  0
LINE
  5
32D
100
AcDbEntity
  8
0
100
AcDbLine
 62
7
  6
CONTINUOUS
 10
159.4970114185
 20
195.7645652174
 11
159.4970114185
 21
201.9890979344
  0
LINE
  5
32E
100
AcDbEntity
  8
0
100
AcDbLine
 62
7
  6
CONTINUOUS
 10
159.4970114185
 20
213.6809187805
 11
159.4970114185
 21
218.7645652174
  0
LINE
  5
32F
100
AcDbEntity
  8
0
100
AcDbLine
 62
7
  6
CONTINUOUS
 10
159.4970114185
 20
221.7645652174
 11
159.4970114185
 21
223.6485074543
  0
LINE
  5
330
100
AcDbEntity
  8
0
100
AcDbLine
 62
7
  6
CONTINUOUS
 10
159.4970114185
 20
235.3486517175
 11
159.4970114185
 21
244.7645652174
  0
LINE
  5
331
100
AcDbEntity
  8
0
100
AcDbLine
 62
7
  6
CONTINUOUS
 10
159.4970114185
 20
247.7645652174
 11
159.4970114185
 21
249.9890979344
  0
LINE
  5
332
100
AcDbEntity
  8
0
100
AcDbLine
 62
7
  6
CONTINUOUS
 10
159.4970114185
 20
261.6809187805
 11
159.4970114185
 21
270.7645652174
  0
LINE
  5
333
100
AcDbEntity
  8
0
100
AcDbLine
 62
7
  6
CONTINUOUS
 10
159.4970114185
 20
283.3486517175
 11
159.4970114185
 21
283.7645652174
  0
LINE
  5
334
100
AcDbEntity
  8
0
100
AcDbLine
 62
7
  6
CONTINUOUS
 10
159.4970114185
 20
286.7645652174
 11
159.4970114185
 21
296.7645652174
  0
LINE
  5
335
100
AcDbEntity
  8
0
100
AcDbLine
 62
7
  6
CONTINUOUS
 10
159.4970114185
 20
309.6809187805
 11
159.4970114185
 21
309.7645652174
  0
LINE
  5
336
100
AcDbEntity
  8
0
100
AcDbLine
 62
7
  6
CONTINUOUS
 10
159.4970114185
 20
312.7645652174
 11
159.4970114185
 21
319.6485074543
  0
LINE
  5
337
100
AcDbEntity
  8
0
100
AcDbLine
 62
7
  6
CONTINUOUS
 10
159.4970114185
 20
351.7645652174
 11
159.4970114185
 21
354.6645652174
  0
LINE
  5
338
100
AcDbEntity
  8
0
100
AcDbLine
 62
7
  6
CONTINUOUS
 10
160.9970114185
 20
132.6645652174
 11
160.9970114185
 21
129.6645652174
  0
LINE
  5
339
100
AcDbEntity
  8
0
100
AcDbLine
 62
7
  6
CONTINUOUS
 10
160.9970114185
 20
120.6645652174
 11
160.9970114185
 21
117.6645652174
  0
LINE
  5
33A
100
AcDbEntity
  8
0
100
AcDbLine
 62
7
  6
CONTINUOUS
 10
160.9970114185
 20
357.6645652174
 11
160.9970114185
 21
360.6645652174
  0
LINE
  5
33B
100
AcDbEntity
  8
0
100
AcDbLine
 62
7
  6
CONTINUOUS
 10
160.9970114185
 20
373.406157871
 11
160.9970114185
 21
376.7645652174
  0
LINE
  5
33C
100
AcDbEntity
  8
0
100
AcDbLine
 62
7
  6
CONTINUOUS
 10
161.7470114185
 20
293.6645652174
 11
161.7470114185
 21
287.6645652174
  0
LINE
  5
33D
100
AcDbEntity
  8
0
100
AcDbLine
 62
7
  6
CONTINUOUS
 10
161.7470114185
 20
245.6645652174
 11
161.7470114185
 21
239.6645652174
  0
LINE
  5
33E
100
AcDbEntity
  8
0
100
AcDbLine
 62
7
  6
CONTINUOUS
 10
161.7470114185
 20
197.6645652174
 11
161.7470114185
 21
191.6645652174
  0
LINE
  5
33F
100
AcDbEntity
  8
0
100
AcDbLine
 62
7
  6
CONTINUOUS
 10
162.4970114185
 20
366.7645652174
 11
162.4970114185
 21
365.6645652174
  0
LINE
  5
340
100
AcDbEntity
  8
0
100
AcDbLine
 62
7
  6
CONTINUOUS
 10
162.4970114185
 20
360.6645652174
 11
162.4970114185
 21
357.6645652174
  0
LINE
  5
341
100
AcDbEntity
  8
0
100
AcDbLine
 62
7
  6
CONTINUOUS
 10
162.4970114185
 20
353.7645652174
 11
162.4970114185
 21
351.6645652174
  0
LINE
  5
342
100
AcDbEntity
  8
0
100
AcDbLine
 62
7
  6
CONTINUOUS
 10
162.4970114185
 20
322.5551190606
 11
162.4970114185
 21
317.7645652174
  0
LINE
  5
343
100
AcDbEntity
  8
0
100
AcDbLine
 62
7
  6
CONTINUOUS
 10
162.4970114185
 20
314.7645652174
 11
162.4970114185
 21
306.776683486
  0
LINE
  5
344
100
AcDbEntity
  8
0
100
AcDbLine
 62
7
  6
CONTINUOUS
 10
162.4970114185
 20
274.5551190606
 11
162.4970114185
 21
265.7645652174
  0
LINE
  5
345
100
AcDbEntity
  8
0
100
AcDbLine
 62
7
  6
CONTINUOUS
 10
162.4970114185
 20
262.7645652174
 11
162.4970114185
 21
258.776683486
  0
LINE
  5
346
100
AcDbEntity
  8
0
100
AcDbLine
 62
7
  6
CONTINUOUS
 10
162.4970114185
 20
223.7645652174
 11
162.4970114185
 21
213.7645652174
  0
LINE
  5
347
100
AcDbEntity
  8
0
100
AcDbLine
 62
7
  6
CONTINUOUS
 10
162.4970114185
 20
178.5551190606
 11
162.4970114185
 21
174.7645652174
  0
LINE
  5
348
100
AcDbEntity
  8
0
100
AcDbLine
 62
7
  6
CONTINUOUS
 10
162.4970114185
 20
171.7645652174
 11
162.4970114185
 21
162.776683486
  0
LINE
  5
349
100
AcDbEntity
  8
0
100
AcDbLine
 62
7
  6
CONTINUOUS
 10
162.4970114185
 20
132.6645652174
 11
162.4970114185
 21
129.6645652174
  0
LINE
  5
34A
100
AcDbEntity
  8
0
100
AcDbLine
 62
7
  6
CONTINUOUS
 10
162.4970114185
 20
126.6645652174
 11
162.4970114185
 21
123.6645652174
  0
LINE
  5
34B
100
AcDbEntity
  8
0
100
AcDbLine
 62
7
  6
CONTINUOUS
 10
166.4764634425
 20
210.7645652174
 11
162.4970114185
 21
210.7645652174
  0
LINE
  5
34C
100
AcDbEntity
  8
0
100
AcDbLine
 62
7
  6
CONTINUOUS
 10
146.4970114185
 20
210.7645652174
 11
146.0239003194
 21
210.7645652174
  0
LINE
  5
34D
100
AcDbEntity
  8
0
100
AcDbLine
 62
7
  6
CONTINUOUS
 10
136.4970114185
 20
213.7645652174
 11
136.5509354565
 21
213.7645652174
  0
LINE
  5
34E
100
AcDbEntity
  8
0
100
AcDbLine
 62
7
  6
CONTINUOUS
 10
142.9427954511
 20
213.7645652174
 11
146.4970114185
 21
213.7645652174
  0
LINE
  5
34F
100
AcDbEntity
  8
0
100
AcDbLine
 62
7
  6
CONTINUOUS
 10
162.4970114185
 20
213.7645652174
 11
169.5509354565
 21
213.7645652174
  0
LINE
  5
350
100
AcDbEntity
  8
0
100
AcDbLine
 62
7
  6
CONTINUOUS
 10
159.4970114185
 20
218.7645652174
 11
158.9970114185
 21
218.7645652174
  0
LINE
  5
351
100
AcDbEntity
  8
0
100
AcDbLine
 62
7
  6
CONTINUOUS
 10
153.4970114185
 20
218.7645652174
 11
149.4970114185
 21
218.7645652174
  0
LINE
  5
352
100
AcDbEntity
  8
0
100
AcDbLine
 62
7
  6
CONTINUOUS
 10
133.4970114185
 20
218.7645652174
 11
125.9970114185
 21
218.7645652174
  0
LINE
  5
353
100
AcDbEntity
  8
0
100
AcDbLine
 62
7
  6
CONTINUOUS
 10
169.4970114185
 20
354.6645652174
 11
169.4970114185
 21
351.6645652174
  0
LINE
  5
354
100
AcDbEntity
  8
0
100
AcDbLine
 62
7
  6
CONTINUOUS
 10
169.4970114185
 20
111.6645652174
 11
169.4970114185
 21
114.6645652174
  0
LINE
  5
355
100
AcDbEntity
  8
0
100
AcDbLine
 62
7
  6
CONTINUOUS
 10
169.4970114185
 20
123.6645652174
 11
169.4970114185
 21
126.6645652174
  0
LINE
  5
356
100
AcDbEntity
  8
0
100
AcDbLine
 62
7
  6
CONTINUOUS
 10
169.9970114185
 20
317.6645652174
 11
169.9970114185
 21
311.6645652174
  0
LINE
  5
357
100
AcDbEntity
  8
0
100
AcDbLine
 62
7
  6
CONTINUOUS
 10
169.9970114185
 20
269.6645652174
 11
169.9970114185
 21
263.6645652174
  0
LINE
  5
358
100
AcDbEntity
  8
0
100
AcDbLine
 62
7
  6
CONTINUOUS
 10
169.9970114185
 20
221.6645652174
 11
169.9970114185
 21
215.6645652174
  0
LINE
  5
359
100
AcDbEntity
  8
0
100
AcDbLine
 62
7
  6
CONTINUOUS
 10
169.9970114185
 20
173.6645652174
 11
169.9970114185
 21
167.6645652174
  0
LINE
  5
35A
100
AcDbEntity
  8
0
100
AcDbLine
 62
7
  6
CONTINUOUS
 10
170.9970114185
 20
373.406157871
 11
170.9970114185
 21
376.7645652174
  0
LINE
  5
35B
100
AcDbEntity
  8
0
100
AcDbLine
 62
7
  6
CONTINUOUS
 10
172.4970114185
 20
126.6645652174
 11
172.4970114185
 21
123.6645652174
  0
LINE
  5
35C
100
AcDbEntity
  8
0
100
AcDbLine
 62
7
  6
CONTINUOUS
 10
172.4970114185
 20
114.6645652174
 11
172.4970114185
 21
111.6645652174
  0
LINE
  5
35D
100
AcDbEntity
  8
0
100
AcDbLine
 62
7
  6
CONTINUOUS
 10
172.4970114185
 20
129.6645652174
 11
172.4970114185
 21
132.6645652174
  0
LINE
  5
35E
100
AcDbEntity
  8
0
100
AcDbLine
 62
7
  6
CONTINUOUS
 10
172.4970114185
 20
351.6645652174
 11
172.4970114185
 21
354.6645652174
  0
LINE
  5
35F
100
AcDbEntity
  8
0
100
AcDbLine
 62
7
  6
CONTINUOUS
 10
172.4970114185
 20
357.6645652174
 11
172.4970114185
 21
360.6645652174
  0
LINE
  5
360
100
AcDbEntity
  8
0
100
AcDbLine
 62
7
  6
CONTINUOUS
 10
172.4970114185
 20
365.6645652174
 11
172.4970114185
 21
366.7645652174
  0
LINE
  5
361
100
AcDbEntity
  8
0
100
AcDbLine
 62
7
  6
CONTINUOUS
 10
172.9970114185
 20
373.406157871
 11
172.9970114185
 21
376.7645652174
  0
LINE
  5
362
100
AcDbEntity
  8
0
100
AcDbLine
 62
7
  6
CONTINUOUS
 10
125.9970114185
 20
221.7645652174
 11
133.4970114185
 21
221.7645652174
  0
LINE
  5
363
100
AcDbEntity
  8
0
100
AcDbLine
 62
7
  6
CONTINUOUS
 10
149.4970114185
 20
221.7645652174
 11
153.4970114185
 21
221.7645652174
  0
LINE
  5
364
100
AcDbEntity
  8
0
100
AcDbLine
 62
7
  6
CONTINUOUS
 10
158.9970114185
 20
221.7645652174
 11
159.4970114185
 21
221.7645652174
  0
LINE
  5
365
100
AcDbEntity
  8
0
100
AcDbLine
 62
7
  6
CONTINUOUS
 10
169.4215961202
 20
223.7645652174
 11
162.4970114185
 21
223.7645652174
  0
LINE
  5
366
100
AcDbEntity
  8
0
100
AcDbLine
 62
7
  6
CONTINUOUS
 10
146.4970114185
 20
223.7645652174
 11
143.0715662963
 21
223.7645652174
  0
LINE
  5
367
100
AcDbEntity
  8
0
100
AcDbLine
 62
7
  6
CONTINUOUS
 10
162.9526141257
 20
226.7645652174
 11
166.0263478883
 21
226.7645652174
  0
LINE
  5
368
100
AcDbEntity
  8
0
100
AcDbLine
 62
7
  6
CONTINUOUS
 10
175.4970114185
 20
360.6645652174
 11
175.4970114185
 21
357.6645652174
  0
LINE
  5
369
100
AcDbEntity
  8
0
100
AcDbLine
 62
7
  6
CONTINUOUS
 10
175.4970114185
 20
354.6645652174
 11
175.4970114185
 21
351.7645652174
  0
LINE
  5
36A
100
AcDbEntity
  8
0
100
AcDbLine
 62
7
  6
CONTINUOUS
 10
175.4970114185
 20
132.6645652174
 11
175.4970114185
 21
130.7645652174
  0
LINE
  5
36B
100
AcDbEntity
  8
0
100
AcDbLine
 62
7
  6
CONTINUOUS
 10
175.4970114185
 20
126.6645652174
 11
175.4970114185
 21
123.6645652174
  0
LINE
  5
36C
100
AcDbEntity
  8
0
100
AcDbLine
 62
7
  6
CONTINUOUS
 10
175.4970114185
 20
120.6645652174
 11
175.4970114185
 21
117.7645652174
  0
LINE
  5
36D
100
AcDbEntity
  8
0
100
AcDbLine
 62
7
  6
CONTINUOUS
 10
177.7470114185
 20
345.6645652174
 11
177.7470114185
 21
342.6645652174
  0
LINE
  5
36E
100
AcDbEntity
  8
0
100
AcDbLine
 62
7
  6
CONTINUOUS
 10
180.9970114185
 20
360.6645652174
 11
180.9970114185
 21
357.6645652174
  0
LINE
  5
36F
100
AcDbEntity
  8
0
100
AcDbLine
 62
7
  6
CONTINUOUS
 10
180.9970114185
 20
117.6645652174
 11
180.9970114185
 21
120.6645652174
  0
LINE
  5
370
100
AcDbEntity
  8
0
100
AcDbLine
 62
7
  6
CONTINUOUS
 10
180.9970114185
 20
129.6645652174
 11
180.9970114185
 21
132.6645652174
  0
LINE
  5
371
100
AcDbEntity
  8
0
100
AcDbLine
 62
7
  6
CONTINUOUS
 10
182.9970114185
 20
373.406157871
 11
182.9970114185
 21
376.7645652174
  0
LINE
  5
372
100
AcDbEntity
  8
0
100
AcDbLine
 62
7
  6
CONTINUOUS
 10
183.2470114185
 20
342.6645652174
 11
183.2470114185
 21
345.6645652174
  0
LINE
  5
373
100
AcDbEntity
  8
0
100
AcDbLine
 62
7
  6
CONTINUOUS
 10
183.9970114185
 20
132.6645652174
 11
183.9970114185
 21
129.6645652174
  0
LINE
  5
374
100
AcDbEntity
  8
0
100
AcDbLine
 62
7
  6
CONTINUOUS
 10
183.9970114185
 20
120.6645652174
 11
183.9970114185
 21
117.6645652174
  0
LINE
  5
375
100
AcDbEntity
  8
0
100
AcDbLine
 62
7
  6
CONTINUOUS
 10
183.9970114185
 20
357.6645652174
 11
183.9970114185
 21
360.6645652174
  0
LINE
  5
376
100
AcDbEntity
  8
0
100
AcDbLine
 62
7
  6
CONTINUOUS
 10
184.9970114185
 20
373.406157871
 11
184.9970114185
 21
376.7645652174
  0
LINE
  5
377
100
AcDbEntity
  8
0
100
AcDbLine
 62
7
  6
CONTINUOUS
 10
185.4970114185
 20
117.7645652174
 11
185.4970114185
 21
120.6645652174
  0
LINE
  5
378
100
AcDbEntity
  8
0
100
AcDbLine
 62
7
  6
CONTINUOUS
 10
185.4970114185
 20
123.6645652174
 11
185.4970114185
 21
126.6645652174
  0
LINE
  5
379
100
AcDbEntity
  8
0
100
AcDbLine
 62
7
  6
CONTINUOUS
 10
185.4970114185
 20
130.7645652174
 11
185.4970114185
 21
132.6645652174
  0
LINE
  5
37A
100
AcDbEntity
  8
0
100
AcDbLine
 62
7
  6
CONTINUOUS
 10
185.4970114185
 20
351.7645652174
 11
185.4970114185
 21
354.6645652174
  0
LINE
  5
37B
100
AcDbEntity
  8
0
100
AcDbLine
 62
7
  6
CONTINUOUS
 10
185.4970114185
 20
357.6645652174
 11
185.4970114185
 21
360.6645652174
  0
LINE
  5
37C
100
AcDbEntity
  8
0
100
AcDbLine
 62
7
  6
CONTINUOUS
 10
107.4751747765
 20
72.6645652174
 11
109.2360930975
 21
75.7145652174
  0
LINE
  5
37D
100
AcDbEntity
  8
0
100
AcDbLine
 62
7
  6
CONTINUOUS
 10
114.5188480606
 20
72.6645652174
 11
112.7579297396
 21
69.6145652174
  0
LINE
  5
37E
100
AcDbEntity
  8
0
100
AcDbLine
 62
7
  6
CONTINUOUS
 10
154.2739003194
 20
234.7645652174
 11
158.2264634425
 21
234.7645652174
  0
LINE
  5
37F
100
AcDbEntity
  8
0
100
AcDbLine
 62
7
  6
CONTINUOUS
 10
144.1585408777
 20
236.7645652174
 11
136.4970114185
 21
236.7645652174
  0
LINE
  5
380
100
AcDbEntity
  8
0
100
AcDbLine
 62
7
  6
CONTINUOUS
 10
136.4970114185
 20
239.7645652174
 11
145.2470114185
 21
239.7645652174
  0
LINE
  5
381
100
AcDbEntity
  8
0
100
AcDbLine
 62
7
  6
CONTINUOUS
 10
159.4970114185
 20
244.7645652174
 11
150.7470114185
 21
244.7645652174
  0
LINE
  5
382
100
AcDbEntity
  8
0
100
AcDbLine
 62
7
  6
CONTINUOUS
 10
188.4970114185
 20
366.7645652174
 11
188.4970114185
 21
365.6645652174
  0
LINE
  5
383
100
AcDbEntity
  8
0
100
AcDbLine
 62
7
  6
CONTINUOUS
 10
188.4970114185
 20
360.6645652174
 11
188.4970114185
 21
357.6645652174
  0
LINE
  5
384
100
AcDbEntity
  8
0
100
AcDbLine
 62
7
  6
CONTINUOUS
 10
188.4970114185
 20
353.7645652174
 11
188.4970114185
 21
351.6645652174
  0
LINE
  5
385
100
AcDbEntity
  8
0
100
AcDbLine
 62
7
  6
CONTINUOUS
 10
188.4970114185
 20
144.9100157535
 11
188.4970114185
 21
141.6327528959
  0
LINE
  5
386
100
AcDbEntity
  8
0
100
AcDbLine
 62
7
  6
CONTINUOUS
 10
188.4970114185
 20
132.6645652174
 11
188.4970114185
 21
129.6645652174
  0
LINE
  5
387
100
AcDbEntity
  8
0
100
AcDbLine
 62
7
  6
CONTINUOUS
 10
188.4970114185
 20
126.6645652174
 11
188.4970114185
 21
123.6645652174
  0
LINE
  5
388
100
AcDbEntity
  8
0
100
AcDbLine
 62
7
  6
CONTINUOUS
 10
192.4970114185
 20
354.6645652174
 11
192.4970114185
 21
351.6645652174
  0
LINE
  5
389
100
AcDbEntity
  8
0
100
AcDbLine
 62
7
  6
CONTINUOUS
 10
192.4970114185
 20
111.6645652174
 11
192.4970114185
 21
114.6645652174
  0
LINE
  5
38A
100
AcDbEntity
  8
0
100
AcDbLine
 62
7
  6
CONTINUOUS
 10
192.4970114185
 20
123.6645652174
 11
192.4970114185
 21
126.6645652174
  0
LINE
  5
38B
100
AcDbEntity
  8
0
100
AcDbLine
 62
7
  6
CONTINUOUS
 10
194.9970114185
 20
373.406157871
 11
194.9970114185
 21
376.7645652174
  0
LINE
  5
38C
100
AcDbEntity
  8
0
100
AcDbLine
 62
7
  6
CONTINUOUS
 10
198.4970114185
 20
129.6645652174
 11
198.4970114185
 21
132.6645652174
  0
LINE
  5
38D
100
AcDbEntity
  8
0
100
AcDbLine
 62
7
  6
CONTINUOUS
 10
198.4970114185
 20
357.6645652174
 11
198.4970114185
 21
360.6645652174
  0
LINE
  5
38E
100
AcDbEntity
  8
0
100
AcDbLine
 62
7
  6
CONTINUOUS
 10
151.3215662963
 20
247.7645652174
 11
159.4970114185
 21
247.7645652174
  0
LINE
  5
38F
100
AcDbEntity
  8
0
100
AcDbLine
 62
7
  6
CONTINUOUS
 10
143.3752834616
 20
249.7645652174
 11
136.4970114185
 21
249.7645652174
  0
LINE
  5
390
100
AcDbEntity
  8
0
100
AcDbLine
 62
7
  6
CONTINUOUS
 10
201.4970114185
 20
360.6645652174
 11
201.4970114185
 21
357.6645652174
  0
LINE
  5
391
100
AcDbEntity
  8
0
100
AcDbLine
 62
7
  6
CONTINUOUS
 10
201.4970114185
 20
132.6645652174
 11
201.4970114185
 21
130.7645652174
  0
LINE
  5
392
100
AcDbEntity
  8
0
100
AcDbLine
 62
7
  6
CONTINUOUS
 10
201.4970114185
 20
120.6645652174
 11
201.4970114185
 21
117.7645652174
  0
LINE
  5
393
100
AcDbEntity
  8
0
100
AcDbLine
 62
7
  6
CONTINUOUS
 10
203.9970114185
 20
360.6645652174
 11
203.9970114185
 21
357.6645652174
  0
LINE
  5
394
100
AcDbEntity
  8
0
100
AcDbLine
 62
7
  6
CONTINUOUS
 10
203.9970114185
 20
117.6645652174
 11
203.9970114185
 21
120.6645652174
  0
LINE
  5
395
100
AcDbEntity
  8
0
100
AcDbLine
 62
7
  6
CONTINUOUS
 10
203.9970114185
 20
129.6645652174
 11
203.9970114185
 21
132.6645652174
  0
LINE
  5
396
100
AcDbEntity
  8
0
100
AcDbLine
 62
7
  6
CONTINUOUS
 10
207.1970114185
 20
369.616157871
 11
207.1970114185
 21
32.6645652174
  0
LINE
  5
397
100
AcDbEntity
  8
0
100
AcDbLine
 62
7
  6
CONTINUOUS
 10
207.9870114185
 20
376.7645652174
 11
207.9870114185
 21
370.406157871
  0
LINE
  5
398
100
AcDbEntity
  8
0
100
AcDbLine
 62
7
  6
CONTINUOUS
 10
208.9970114185
 20
32.6645652174
 11
208.9970114185
 21
370.6645652174
  0
LINE
  5
399
100
AcDbEntity
  8
0
100
AcDbLine
 62
7
  6
CONTINUOUS
 10
209.9970114185
 20
117.6645652174
 11
209.9970114185
 21
120.6645652174
  0
LINE
  5
39A
100
AcDbEntity
  8
0
100
AcDbLine
 62
7
  6
CONTINUOUS
 10
209.9970114185
 20
129.6645652174
 11
209.9970114185
 21
132.6645652174
  0
LINE
  5
39B
100
AcDbEntity
  8
0
100
AcDbLine
 62
7
  6
CONTINUOUS
 10
210.9870114185
 20
376.7645652174
 11
210.9870114185
 21
375.7645652174
  0
LINE
  5
39C
100
AcDbEntity
  8
0
100
AcDbLine
 62
7
  6
CONTINUOUS
 10
211.4970114185
 20
117.7645652174
 11
211.4970114185
 21
120.6645652174
  0
LINE
  5
39D
100
AcDbEntity
  8
0
100
AcDbLine
 62
7
  6
CONTINUOUS
 10
211.4970114185
 20
130.7645652174
 11
211.4970114185
 21
132.6645652174
  0
LINE
  5
39E
100
AcDbEntity
  8
0
100
AcDbLine
 62
7
  6
CONTINUOUS
 10
211.7970114185
 20
32.6645652174
 11
211.7970114185
 21
117.6645652174
  0
LINE
  5
39F
100
AcDbEntity
  8
0
100
AcDbLine
 62
7
  6
CONTINUOUS
 10
211.7970114185
 20
120.6645652174
 11
211.7970114185
 21
129.6645652174
  0
LINE
  5
3A0
100
AcDbEntity
  8
0
100
AcDbLine
 62
7
  6
CONTINUOUS
 10
211.7970114185
 20
132.6645652174
 11
211.7970114185
 21
370.6645652174
  0
LINE
  5
3A1
100
AcDbEntity
  8
0
100
AcDbLine
 62
7
  6
CONTINUOUS
 10
127.0909517803
 20
260.7645652174
 11
133.4970114185
 21
260.7645652174
  0
LINE
  5
3A2
100
AcDbEntity
  8
0
100
AcDbLine
 62
7
  6
CONTINUOUS
 10
149.4970114185
 20
260.7645652174
 11
152.4085408777
 21
260.7645652174
  0
LINE
  5
3A3
100
AcDbEntity
  8
0
100
AcDbLine
 62
7
  6
CONTINUOUS
 10
169.8671427443
 20
262.7645652174
 11
162.4970114185
 21
262.7645652174
  0
LINE
  5
3A4
100
AcDbEntity
  8
0
100
AcDbLine
 62
7
  6
CONTINUOUS
 10
146.4970114185
 20
262.7645652174
 11
142.6274439435
 21
262.7645652174
  0
LINE
  5
3A5
100
AcDbEntity
  8
0
100
AcDbLine
 62
7
  6
CONTINUOUS
 10
136.8671427443
 20
262.7645652174
 11
136.4970114185
 21
262.7645652174
  0
LINE
  5
3A6
100
AcDbEntity
  8
0
100
AcDbLine
 62
7
  6
CONTINUOUS
 10
136.4970114185
 20
265.7645652174
 11
136.9970114185
 21
265.7645652174
  0
LINE
  5
3A7
100
AcDbEntity
  8
0
100
AcDbLine
 62
7
  6
CONTINUOUS
 10
142.4970114185
 20
265.7645652174
 11
146.4970114185
 21
265.7645652174
  0
LINE
  5
3A8
100
AcDbEntity
  8
0
100
AcDbLine
 62
7
  6
CONTINUOUS
 10
162.4970114185
 20
265.7645652174
 11
169.9970114185
 21
265.7645652174
  0
LINE
  5
3A9
100
AcDbEntity
  8
0
100
AcDbLine
 62
7
  6
CONTINUOUS
 10
213.9970114185
 20
132.6645652174
 11
213.9970114185
 21
129.6645652174
  0
LINE
  5
3AA
100
AcDbEntity
  8
0
100
AcDbLine
 62
7
  6
CONTINUOUS
 10
213.9970114185
 20
120.6645652174
 11
213.9970114185
 21
117.6645652174
  0
LINE
  5
3AB
100
AcDbEntity
  8
0
100
AcDbLine
 62
7
  6
CONTINUOUS
 10
215.9870114185
 20
375.7645652174
 11
215.9870114185
 21
376.7645652174
  0
LINE
  5
3AC
100
AcDbEntity
  8
0
100
AcDbLine
 62
7
  6
CONTINUOUS
 10
216.7470114185
 20
360.6645652174
 11
216.7470114185
 21
357.1297079923
  0
LINE
  5
3AD
100
AcDbEntity
  8
0
100
AcDbLine
 62
7
  6
CONTINUOUS
 10
216.7470114185
 20
44.6645652174
 11
216.7470114185
 21
32.6645652174
  0
LINE
  5
3AE
100
AcDbEntity
  8
0
100
AcDbLine
 62
7
  6
CONTINUOUS
 10
221.2470114185
 20
32.6645652174
 11
221.2470114185
 21
44.6645652174
  0
LINE
  5
3AF
100
AcDbEntity
  8
0
100
AcDbLine
 62
7
  6
CONTINUOUS
 10
221.2470114185
 20
357.1297079923
 11
221.2470114185
 21
360.6645652174
  0
LINE
  5
3B0
100
AcDbEntity
  8
0
100
AcDbLine
 62
7
  6
CONTINUOUS
 10
221.2841798669
 20
132.6645652174
 11
221.2841798669
 21
129.6645652174
  0
LINE
  5
3B1
100
AcDbEntity
  8
0
100
AcDbLine
 62
7
  6
CONTINUOUS
 10
221.2841798669
 20
120.6645652174
 11
221.2841798669
 21
117.6645652174
  0
LINE
  5
3B2
100
AcDbEntity
  8
0
100
AcDbLine
 62
7
  6
CONTINUOUS
 10
225.9970114185
 20
375.7645652174
 11
225.9970114185
 21
374.6645652174
  0
LINE
  5
3B3
100
AcDbEntity
  8
0
100
AcDbLine
 62
7
  6
CONTINUOUS
 10
159.4970114185
 20
270.7645652174
 11
159.1557397981
 21
270.7645652174
  0
LINE
  5
3B4
100
AcDbEntity
  8
0
100
AcDbLine
 62
7
  6
CONTINUOUS
 10
153.337593888
 20
270.7645652174
 11
149.4970114185
 21
270.7645652174
  0
LINE
  5
3B5
100
AcDbEntity
  8
0
100
AcDbLine
 62
7
  6
CONTINUOUS
 10
133.4970114185
 20
270.7645652174
 11
126.1557397981
 21
270.7645652174
  0
LINE
  5
3B6
100
AcDbEntity
  8
0
100
AcDbLine
 62
7
  6
CONTINUOUS
 10
127.8563554538
 20
273.7645652174
 11
133.4970114185
 21
273.7645652174
  0
LINE
  5
3B7
100
AcDbEntity
  8
0
100
AcDbLine
 62
7
  6
CONTINUOUS
 10
149.4970114185
 20
273.7645652174
 11
151.6252834616
 21
273.7645652174
  0
LINE
  5
3B8
100
AcDbEntity
  8
0
100
AcDbLine
 62
7
  6
CONTINUOUS
 10
88.0070114185
 20
370.406157871
 11
91.0070114185
 21
367.406157871
  0
LINE
  5
3B9
100
AcDbEntity
  8
0
100
AcDbLine
 62
7
  6
CONTINUOUS
 10
227.9970114185
 20
37.6645652174
 11
227.9970114185
 21
365.6645652174
  0
LINE
  5
3BA
100
AcDbEntity
  8
0
100
AcDbLine
 62
7
  6
CONTINUOUS
 10
230.9870114185
 20
374.7645652174
 11
230.9870114185
 21
50.5645652174
  0
LINE
  5
3BB
100
AcDbEntity
  8
0
100
AcDbLine
 62
7
  6
CONTINUOUS
 10
231.9870114185
 20
50.6645652174
 11
231.9870114185
 21
50.5645652174
  0
LINE
  5
3BC
100
AcDbEntity
  8
0
100
AcDbLine
 62
7
  6
CONTINUOUS
 10
231.9870114185
 20
374.7645652174
 11
231.9970114185
 21
334.6645652174
  0
LINE
  5
3BD
100
AcDbEntity
  8
0
100
AcDbLine
 62
7
  6
CONTINUOUS
 10
232.9970114185
 20
50.6645652174
 11
232.9970114185
 21
374.6645652174
  0
LINE
  5
3BE
100
AcDbEntity
  8
0
100
AcDbLine
 62
7
  6
CONTINUOUS
 10
233.0670114185
 20
55.6645652174
 11
233.0670114185
 21
131.6645652174
  0
LINE
  5
3BF
100
AcDbEntity
  8
0
100
AcDbLine
 62
7
  6
CONTINUOUS
 10
159.4970114185
 20
283.7645652174
 11
152.4891081096
 21
283.7645652174
  0
LINE
  5
3C0
100
AcDbEntity
  8
0
100
AcDbLine
 62
7
  6
CONTINUOUS
 10
150.8774439435
 20
286.7645652174
 11
159.4970114185
 21
286.7645652174
  0
LINE
  5
3C1
100
AcDbEntity
  8
0
100
AcDbLine
 62
7
  6
CONTINUOUS
 10
145.2470114185
 20
288.7645652174
 11
136.4970114185
 21
288.7645652174
  0
LINE
  5
3C2
100
AcDbEntity
  8
0
100
AcDbLine
 62
7
  6
CONTINUOUS
 10
136.4970114185
 20
291.7645652174
 11
145.2470114185
 21
291.7645652174
  0
LINE
  5
3C3
100
AcDbEntity
  8
0
100
AcDbLine
 62
7
  6
CONTINUOUS
 10
105.9970114185
 20
365.6645652174
 11
104.2554187649
 21
367.406157871
  0
LINE
  5
3C4
100
AcDbEntity
  8
0
100
AcDbLine
 62
7
  6
CONTINUOUS
 10
159.4970114185
 20
296.7645652174
 11
151.9639608751
 21
296.7645652174
  0
LINE
  5
3C5
100
AcDbEntity
  8
0
100
AcDbLine
 62
7
  6
CONTINUOUS
 10
159.4970114185
 20
309.7645652174
 11
159.4427954511
 21
309.7645652174
  0
LINE
  5
3C6
100
AcDbEntity
  8
0
100
AcDbLine
 62
7
  6
CONTINUOUS
 10
153.0509354565
 20
309.7645652174
 11
149.4970114185
 21
309.7645652174
  0
LINE
  5
3C7
100
AcDbEntity
  8
0
100
AcDbLine
 62
7
  6
CONTINUOUS
 10
133.4970114185
 20
309.7645652174
 11
126.4427954511
 21
309.7645652174
  0
LINE
  5
3C8
100
AcDbEntity
  8
0
100
AcDbLine
 62
7
  6
CONTINUOUS
 10
125.9970114185
 20
312.7645652174
 11
133.4970114185
 21
312.7645652174
  0
LINE
  5
3C9
100
AcDbEntity
  8
0
100
AcDbLine
 62
7
  6
CONTINUOUS
 10
149.4970114185
 20
312.7645652174
 11
153.4970114185
 21
312.7645652174
  0
LINE
  5
3CA
100
AcDbEntity
  8
0
100
AcDbLine
 62
7
  6
CONTINUOUS
 10
158.9970114185
 20
312.7645652174
 11
159.4970114185
 21
312.7645652174
  0
LINE
  5
3CB
100
AcDbEntity
  8
0
100
AcDbLine
 62
7
  6
CONTINUOUS
 10
169.9970114185
 20
314.7645652174
 11
162.4970114185
 21
314.7645652174
  0
LINE
  5
3CC
100
AcDbEntity
  8
0
100
AcDbLine
 62
7
  6
CONTINUOUS
 10
146.4970114185
 20
314.7645652174
 11
142.4970114185
 21
314.7645652174
  0
LINE
  5
3CD
100
AcDbEntity
  8
0
100
AcDbLine
 62
7
  6
CONTINUOUS
 10
136.9970114185
 20
314.7645652174
 11
136.4970114185
 21
314.7645652174
  0
LINE
  5
3CE
100
AcDbEntity
  8
0
100
AcDbLine
 62
7
  6
CONTINUOUS
 10
136.4970114185
 20
317.7645652174
 11
136.9970114185
 21
317.7645652174
  0
LINE
  5
3CF
100
AcDbEntity
  8
0
100
AcDbLine
 62
7
  6
CONTINUOUS
 10
142.4970114185
 20
317.7645652174
 11
146.4970114185
 21
317.7645652174
  0
LINE
  5
3D0
100
AcDbEntity
  8
0
100
AcDbLine
 62
7
  6
CONTINUOUS
 10
162.4970114185
 20
317.7645652174
 11
169.9970114185
 21
317.7645652174
  0
LINE
  5
3D1
100
AcDbEntity
  8
0
100
AcDbLine
 62
7
  6
CONTINUOUS
 10
133.0263478883
 20
322.7645652174
 11
129.9526141257
 21
322.7645652174
  0
LINE
  5
3D2
100
AcDbEntity
  8
0
100
AcDbLine
 62
7
  6
CONTINUOUS
 10
62.9970114185
 20
334.6645652174
 11
67.9970114185
 21
334.6645652174
  0
LINE
  5
3D3
100
AcDbEntity
  8
0
100
AcDbLine
 62
7
  6
CONTINUOUS
 10
227.9970114185
 20
334.6645652174
 11
232.9970114185
 21
334.6645652174
  0
LINE
  5
3D4
100
AcDbEntity
  8
0
100
AcDbLine
 62
7
  6
CONTINUOUS
 10
192.4970114185
 20
351.6645652174
 11
172.4970114185
 21
351.6645652174
  0
LINE
  5
3D5
100
AcDbEntity
  8
0
100
AcDbLine
 62
7
  6
CONTINUOUS
 10
169.4970114185
 20
351.6645652174
 11
149.4970114185
 21
351.6645652174
  0
LINE
  5
3D6
100
AcDbEntity
  8
0
100
AcDbLine
 62
7
  6
CONTINUOUS
 10
146.4970114185
 20
351.6645652174
 11
126.4970114185
 21
351.6645652174
  0
LINE
  5
3D7
100
AcDbEntity
  8
0
100
AcDbLine
 62
7
  6
CONTINUOUS
 10
123.4970114185
 20
351.6645652174
 11
103.4970114185
 21
351.6645652174
  0
LINE
  5
3D8
100
AcDbEntity
  8
0
100
AcDbLine
 62
7
  6
CONTINUOUS
 10
103.4970114185
 20
351.7645652174
 11
107.4970114185
 21
351.7645652174
  0
LINE
  5
3D9
100
AcDbEntity
  8
0
100
AcDbLine
 62
7
  6
CONTINUOUS
 10
126.4970114185
 20
351.7645652174
 11
133.4970114185
 21
351.7645652174
  0
LINE
  5
3DA
100
AcDbEntity
  8
0
100
AcDbLine
 62
7
  6
CONTINUOUS
 10
149.4970114185
 20
351.7645652174
 11
159.4970114185
 21
351.7645652174
  0
LINE
  5
3DB
100
AcDbEntity
  8
0
100
AcDbLine
 62
7
  6
CONTINUOUS
 10
175.4970114185
 20
351.7645652174
 11
185.4970114185
 21
351.7645652174
  0
LINE
  5
3DC
100
AcDbEntity
  8
0
100
AcDbLine
 62
7
  6
CONTINUOUS
 10
192.4970114185
 20
353.7645652174
 11
188.4970114185
 21
353.7645652174
  0
LINE
  5
3DD
100
AcDbEntity
  8
0
100
AcDbLine
 62
7
  6
CONTINUOUS
 10
169.4970114185
 20
353.7645652174
 11
162.4970114185
 21
353.7645652174
  0
LINE
  5
3DE
100
AcDbEntity
  8
0
100
AcDbLine
 62
7
  6
CONTINUOUS
 10
146.4970114185
 20
353.7645652174
 11
136.4970114185
 21
353.7645652174
  0
LINE
  5
3DF
100
AcDbEntity
  8
0
100
AcDbLine
 62
7
  6
CONTINUOUS
 10
120.4970114185
 20
353.7645652174
 11
110.4970114185
 21
353.7645652174
  0
LINE
  5
3E0
100
AcDbEntity
  8
0
100
AcDbLine
 62
7
  6
CONTINUOUS
 10
103.4970114185
 20
354.6645652174
 11
123.4970114185
 21
354.6645652174
  0
LINE
  5
3E1
100
AcDbEntity
  8
0
100
AcDbLine
 62
7
  6
CONTINUOUS
 10
126.4970114185
 20
354.6645652174
 11
146.4970114185
 21
354.6645652174
  0
LINE
  5
3E2
100
AcDbEntity
  8
0
100
AcDbLine
 62
7
  6
CONTINUOUS
 10
149.4970114185
 20
354.6645652174
 11
169.4970114185
 21
354.6645652174
  0
LINE
  5
3E3
100
AcDbEntity
  8
0
100
AcDbLine
 62
7
  6
CONTINUOUS
 10
172.4970114185
 20
354.6645652174
 11
192.4970114185
 21
354.6645652174
  0
LINE
  5
3E4
100
AcDbEntity
  8
0
100
AcDbLine
 62
7
  6
CONTINUOUS
 10
203.9970114185
 20
357.6645652174
 11
183.9970114185
 21
357.6645652174
  0
LINE
  5
3E5
100
AcDbEntity
  8
0
100
AcDbLine
 62
7
  6
CONTINUOUS
 10
180.9970114185
 20
357.6645652174
 11
160.9970114185
 21
357.6645652174
  0
LINE
  5
3E6
100
AcDbEntity
  8
0
100
AcDbLine
 62
7
  6
CONTINUOUS
 10
157.9970114185
 20
357.6645652174
 11
137.9970114185
 21
357.6645652174
  0
LINE
  5
3E7
100
AcDbEntity
  8
0
100
AcDbLine
 62
7
  6
CONTINUOUS
 10
134.9970114185
 20
357.6645652174
 11
114.9970114185
 21
357.6645652174
  0
LINE
  5
3E8
100
AcDbEntity
  8
0
100
AcDbLine
 62
7
  6
CONTINUOUS
 10
111.9970114185
 20
357.6645652174
 11
91.9970114185
 21
357.6645652174
  0
LINE
  5
3E9
100
AcDbEntity
  8
0
100
AcDbLine
 62
7
  6
CONTINUOUS
 10
65.0070114185
 20
359.7645652174
 11
64.0070114185
 21
359.7645652174
  0
LINE
  5
3EA
100
AcDbEntity
  8
0
100
AcDbLine
 62
7
  6
CONTINUOUS
 10
230.9870114185
 20
359.7645652174
 11
231.9870114185
 21
359.7645652174
  0
LINE
  5
3EB
100
AcDbEntity
  8
0
100
AcDbLine
 62
7
  6
CONTINUOUS
 10
91.9970114185
 20
360.6645652174
 11
111.9970114185
 21
360.6645652174
  0
LINE
  5
3EC
100
AcDbEntity
  8
0
100
AcDbLine
 62
7
  6
CONTINUOUS
 10
114.9970114185
 20
360.6645652174
 11
134.9970114185
 21
360.6645652174
  0
LINE
  5
3ED
100
AcDbEntity
  8
0
100
AcDbLine
 62
7
  6
CONTINUOUS
 10
137.9970114185
 20
360.6645652174
 11
157.9970114185
 21
360.6645652174
  0
LINE
  5
3EE
100
AcDbEntity
  8
0
100
AcDbLine
 62
7
  6
CONTINUOUS
 10
160.9970114185
 20
360.6645652174
 11
180.9970114185
 21
360.6645652174
  0
LINE
  5
3EF
100
AcDbEntity
  8
0
100
AcDbLine
 62
7
  6
CONTINUOUS
 10
183.9970114185
 20
360.6645652174
 11
203.9970114185
 21
360.6645652174
  0
LINE
  5
3F0
100
AcDbEntity
  8
0
100
AcDbLine
 62
7
  6
CONTINUOUS
 10
189.9970114185
 20
365.6645652174
 11
105.9970114185
 21
365.6645652174
  0
LINE
  5
3F1
100
AcDbEntity
  8
0
100
AcDbLine
 62
7
  6
CONTINUOUS
 10
191.0970114185
 20
366.7645652174
 11
188.4970114185
 21
366.7645652174
  0
LINE
  5
3F2
100
AcDbEntity
  8
0
100
AcDbLine
 62
7
  6
CONTINUOUS
 10
172.4970114185
 20
366.7645652174
 11
162.4970114185
 21
366.7645652174
  0
LINE
  5
3F3
100
AcDbEntity
  8
0
100
AcDbLine
 62
7
  6
CONTINUOUS
 10
146.4970114185
 20
366.7645652174
 11
136.4970114185
 21
366.7645652174
  0
LINE
  5
3F4
100
AcDbEntity
  8
0
100
AcDbLine
 62
7
  6
CONTINUOUS
 10
120.4970114185
 20
366.7645652174
 11
110.4970114185
 21
366.7645652174
  0
LINE
  5
3F5
100
AcDbEntity
  8
0
100
AcDbLine
 62
7
  6
CONTINUOUS
 10
91.0070114185
 20
367.406157871
 11
204.9870114185
 21
367.406157871
  0
LINE
  5
3F6
100
AcDbEntity
  8
0
100
AcDbLine
 62
7
  6
CONTINUOUS
 10
72.9970114185
 20
370.6645652174
 11
88.0070114185
 21
370.6645652174
  0
LINE
  5
3F7
100
AcDbEntity
  8
0
100
AcDbLine
 62
7
  6
CONTINUOUS
 10
207.9870114185
 20
370.6645652174
 11
222.9970114185
 21
370.6645652174
  0
LINE
  5
3F8
100
AcDbEntity
  8
0
100
AcDbLine
 62
7
  6
CONTINUOUS
 10
222.9970114185
 20
32.6645652174
 11
227.9970114185
 21
37.6645652174
  0
LINE
  5
3F9
100
AcDbEntity
  8
0
100
AcDbLine
 62
7
  6
CONTINUOUS
 10
194.9970114185
 20
373.406157871
 11
184.9970114185
 21
373.406157871
  0
LINE
  5
3FA
100
AcDbEntity
  8
0
100
AcDbLine
 62
7
  6
CONTINUOUS
 10
182.9970114185
 20
373.406157871
 11
172.9970114185
 21
373.406157871
  0
LINE
  5
3FB
100
AcDbEntity
  8
0
100
AcDbLine
 62
7
  6
CONTINUOUS
 10
170.9970114185
 20
373.406157871
 11
160.9970114185
 21
373.406157871
  0
LINE
  5
3FC
100
AcDbEntity
  8
0
100
AcDbLine
 62
7
  6
CONTINUOUS
 10
158.9970114185
 20
373.406157871
 11
148.9970114185
 21
373.406157871
  0
LINE
  5
3FD
100
AcDbEntity
  8
0
100
AcDbLine
 62
7
  6
CONTINUOUS
 10
146.9970114185
 20
373.406157871
 11
136.9970114185
 21
373.406157871
  0
LINE
  5
3FE
100
AcDbEntity
  8
0
100
AcDbLine
 62
7
  6
CONTINUOUS
 10
134.9970114185
 20
373.406157871
 11
124.9970114185
 21
373.406157871
  0
LINE
  5
3FF
100
AcDbEntity
  8
0
100
AcDbLine
 62
7
  6
CONTINUOUS
 10
122.9970114185
 20
373.406157871
 11
112.9970114185
 21
373.406157871
  0
LINE
  5
400
100
AcDbEntity
  8
0
100
AcDbLine
 62
7
  6
CONTINUOUS
 10
110.9970114185
 20
373.406157871
 11
100.9970114185
 21
373.406157871
  0
LINE
  5
401
100
AcDbEntity
  8
0
100
AcDbLine
 62
7
  6
CONTINUOUS
 10
88.0070114185
 20
374.2645652174
 11
100.9970114185
 21
374.2645652174
  0
LINE
  5
402
100
AcDbEntity
  8
0
100
AcDbLine
 62
7
  6
CONTINUOUS
 10
110.9970114185
 20
374.2645652174
 11
112.9970114185
 21
374.2645652174
  0
LINE
  5
403
100
AcDbEntity
  8
0
100
AcDbLine
 62
7
  6
CONTINUOUS
 10
122.9970114185
 20
374.2645652174
 11
124.9970114185
 21
374.2645652174
  0
LINE
  5
404
100
AcDbEntity
  8
0
100
AcDbLine
 62
7
  6
CONTINUOUS
 10
134.9970114185
 20
374.2645652174
 11
136.9970114185
 21
374.2645652174
  0
LINE
  5
405
100
AcDbEntity
  8
0
100
AcDbLine
 62
7
  6
CONTINUOUS
 10
146.9970114185
 20
374.2645652174
 11
148.9970114185
 21
374.2645652174
  0
LINE
  5
406
100
AcDbEntity
  8
0
100
AcDbLine
 62
7
  6
CONTINUOUS
 10
158.9970114185
 20
374.2645652174
 11
160.9970114185
 21
374.2645652174
  0
LINE
  5
407
100
AcDbEntity
  8
0
100
AcDbLine
 62
7
  6
CONTINUOUS
 10
170.9970114185
 20
374.2645652174
 11
172.9970114185
 21
374.2645652174
  0
LINE
  5
408
100
AcDbEntity
  8
0
100
AcDbLine
 62
7
  6
CONTINUOUS
 10
182.9970114185
 20
374.2645652174
 11
184.9970114185
 21
374.2645652174
  0
LINE
  5
409
100
AcDbEntity
  8
0
100
AcDbLine
 62
7
  6
CONTINUOUS
 10
194.9970114185
 20
374.2645652174
 11
207.9870114185
 21
374.2645652174
  0
LINE
  5
40A
100
AcDbEntity
  8
0
100
AcDbLine
 62
7
  6
CONTINUOUS
 10
63.9970114185
 20
374.6645652174
 11
62.9970114185
 21
374.6645652174
  0
LINE
  5
40B
100
AcDbEntity
  8
0
100
AcDbLine
 62
7
  6
CONTINUOUS
 10
64.9970114185
 20
374.6645652174
 11
88.0070114185
 21
374.6645652174
  0
LINE
  5
40C
100
AcDbEntity
  8
0
100
AcDbLine
 62
7
  6
CONTINUOUS
 10
100.9970114185
 20
374.6645652174
 11
110.9970114185
 21
374.6645652174
  0
LINE
  5
40D
100
AcDbEntity
  8
0
100
AcDbLine
 62
7
  6
CONTINUOUS
 10
112.9970114185
 20
374.6645652174
 11
122.9970114185
 21
374.6645652174
  0
LINE
  5
40E
100
AcDbEntity
  8
0
100
AcDbLine
 62
7
  6
CONTINUOUS
 10
124.9970114185
 20
374.6645652174
 11
134.9970114185
 21
374.6645652174
  0
LINE
  5
40F
100
AcDbEntity
  8
0
100
AcDbLine
 62
7
  6
CONTINUOUS
 10
136.9970114185
 20
374.6645652174
 11
146.9970114185
 21
374.6645652174
  0
LINE
  5
410
100
AcDbEntity
  8
0
100
AcDbLine
 62
7
  6
CONTINUOUS
 10
148.9970114185
 20
374.6645652174
 11
158.9970114185
 21
374.6645652174
  0
LINE
  5
411
100
AcDbEntity
  8
0
100
AcDbLine
 62
7
  6
CONTINUOUS
 10
160.9970114185
 20
374.6645652174
 11
170.9970114185
 21
374.6645652174
  0
LINE
  5
412
100
AcDbEntity
  8
0
100
AcDbLine
 62
7
  6
CONTINUOUS
 10
172.9970114185
 20
374.6645652174
 11
182.9970114185
 21
374.6645652174
  0
LINE
  5
413
100
AcDbEntity
  8
0
100
AcDbLine
 62
7
  6
CONTINUOUS
 10
184.9970114185
 20
374.6645652174
 11
194.9970114185
 21
374.6645652174
  0
LINE
  5
414
100
AcDbEntity
  8
0
100
AcDbLine
 62
7
  6
CONTINUOUS
 10
207.9870114185
 20
374.6645652174
 11
230.9970114185
 21
374.6645652174
  0
LINE
  5
415
100
AcDbEntity
  8
0
100
AcDbLine
 62
7
  6
CONTINUOUS
 10
231.9970114185
 20
374.6645652174
 11
232.9970114185
 21
374.6645652174
  0
LINE
  5
416
100
AcDbEntity
  8
0
100
AcDbLine
 62
7
  6
CONTINUOUS
 10
194.9970114185
 20
375.7645652174
 11
184.9970114185
 21
375.7645652174
  0
LINE
  5
417
100
AcDbEntity
  8
0
100
AcDbLine
 62
7
  6
CONTINUOUS
 10
182.9970114185
 20
375.7645652174
 11
172.9970114185
 21
375.7645652174
  0
LINE
  5
418
100
AcDbEntity
  8
0
100
AcDbLine
 62
7
  6
CONTINUOUS
 10
170.9970114185
 20
375.7645652174
 11
160.9970114185
 21
375.7645652174
  0
LINE
  5
419
100
AcDbEntity
  8
0
100
AcDbLine
 62
7
  6
CONTINUOUS
 10
158.9970114185
 20
375.7645652174
 11
148.9970114185
 21
375.7645652174
  0
LINE
  5
41A
100
AcDbEntity
  8
0
100
AcDbLine
 62
7
  6
CONTINUOUS
 10
146.9970114185
 20
375.7645652174
 11
136.9970114185
 21
375.7645652174
  0
LINE
  5
41B
100
AcDbEntity
  8
0
100
AcDbLine
 62
7
  6
CONTINUOUS
 10
134.9970114185
 20
375.7645652174
 11
124.9970114185
 21
375.7645652174
  0
LINE
  5
41C
100
AcDbEntity
  8
0
100
AcDbLine
 62
7
  6
CONTINUOUS
 10
122.9970114185
 20
375.7645652174
 11
112.9970114185
 21
375.7645652174
  0
LINE
  5
41D
100
AcDbEntity
  8
0
100
AcDbLine
 62
7
  6
CONTINUOUS
 10
110.9970114185
 20
375.7645652174
 11
100.9970114185
 21
375.7645652174
  0
LINE
  5
41E
100
AcDbEntity
  8
0
100
AcDbLine
 62
7
  6
CONTINUOUS
 10
66.0070114185
 20
375.7645652174
 11
88.0070114185
 21
375.7645652174
  0
LINE
  5
41F
100
AcDbEntity
  8
0
100
AcDbLine
 62
7
  6
CONTINUOUS
 10
207.9870114185
 20
375.7645652174
 11
229.9870114185
 21
375.7645652174
  0
LINE
  5
420
100
AcDbEntity
  8
0
100
AcDbLine
 62
7
  6
CONTINUOUS
 10
66.0070114185
 20
376.7645652174
 11
229.9870114185
 21
376.7645652174
  0
LINE
  5
421
100
AcDbEntity
  8
0
100
AcDbLine
 62
7
  6
CONTINUOUS
 10
227.9970114185
 20
365.6645652174
 11
222.9970114185
 21
370.6645652174
  0
ARC
  5
422
100
AcDbEntity
  8
0
100
AcDbCircle
 62
7
  6
CONTINUOUS
 10
139.7470114185
 20
191.6645652174
 40
5.5
100
AcDbArc
 50
180.0
 51
360.0
  0
ARC
  5
423
100
AcDbEntity
  8
0
100
AcDbCircle
 62
7
  6
CONTINUOUS
 10
139.7470114185
 20
197.6645652174
 40
5.5
100
AcDbArc
 50
0.0
 51
180.0
  0
ARC
  5
424
100
AcDbEntity
  8
0
100
AcDbCircle
 62
7
  6
CONTINUOUS
 10
131.4970114185
 20
167.6645652174
 40
5.5
100
AcDbArc
 50
180.0
 51
360.0
  0
ARC
  5
425
100
AcDbEntity
  8
0
100
AcDbCircle
 62
7
  6
CONTINUOUS
 10
131.4970114185
 20
173.6645652174
 40
5.5
100
AcDbArc
 50
0.0
 51
180.0
  0
CIRCLE
  5
426
100
AcDbEntity
  8
0
100
AcDbCircle
 62
7
  6
CONTINUOUS
 10
115.4970114185
 20
143.2645652174
 40
2.6
  0
ARC
  5
427
100
AcDbEntity
  8
0
100
AcDbCircle
 62
7
  6
CONTINUOUS
 10
66.4970114185
 20
48.1645652174
 40
2.5
100
AcDbArc
 50
53.1301023542
 51
90.0
  0
ARC
  5
428
100
AcDbEntity
  8
0
100
AcDbCircle
 62
7
  6
CONTINUOUS
 10
76.9970114185
 20
44.6645652174
 40
2.25
100
AcDbArc
 50
0.0
 51
180.0
  0
CIRCLE
  5
429
100
AcDbEntity
  8
0
100
AcDbCircle
 62
7
  6
CONTINUOUS
 10
137.9970114185
 20
146.1645652174
 40
2.05
  0
ARC
  5
42A
100
AcDbEntity
  8
0
100
AcDbCircle
 62
7
  6
CONTINUOUS
 10
66.0070114185
 20
50.5645652174
 40
2.0
100
AcDbArc
 50
180.0
 51
270.0
  0
CIRCLE
  5
42B
100
AcDbEntity
  8
0
100
AcDbCircle
 62
7
  6
CONTINUOUS
 10
136.4970114185
 20
94.6645652174
 40
1.8
  0
CIRCLE
  5
42C
100
AcDbEntity
  8
0
100
AcDbCircle
 62
7
  6
CONTINUOUS
 10
127.9970114185
 20
56.6645652174
 40
1.35
  0
CIRCLE
  5
42D
100
AcDbEntity
  8
0
100
AcDbCircle
 62
7
  6
CONTINUOUS
 10
137.9970114185
 20
56.6645652174
 40
1.35
  0
ARC
  5
42E
100
AcDbEntity
  8
0
100
AcDbCircle
 62
7
  6
CONTINUOUS
 10
66.0070114185
 20
50.5645652174
 40
1.0
100
AcDbArc
 50
180.0
 51
270.0
  0
ARC
  5
42F
100
AcDbEntity
  8
0
100
AcDbCircle
 62
7
  6
CONTINUOUS
 10
131.4970114185
 20
221.6645652174
 40
5.5
100
AcDbArc
 50
0.0
 51
180.0
  0
ARC
  5
430
100
AcDbEntity
  8
0
100
AcDbCircle
 62
7
  6
CONTINUOUS
 10
131.4970114185
 20
215.6645652174
 40
5.5
100
AcDbArc
 50
180.0
 51
360.0
  0
ARC
  5
431
100
AcDbEntity
  8
0
100
AcDbCircle
 62
7
  6
CONTINUOUS
 10
131.4970114185
 20
317.6645652174
 40
5.5
100
AcDbArc
 50
0.0
 51
180.0
  0
ARC
  5
432
100
AcDbEntity
  8
0
100
AcDbCircle
 62
7
  6
CONTINUOUS
 10
131.4970114185
 20
311.6645652174
 40
5.5
100
AcDbArc
 50
180.0
 51
360.0
  0
ARC
  5
433
100
AcDbEntity
  8
0
100
AcDbCircle
 62
7
  6
CONTINUOUS
 10
139.7470114185
 20
287.6645652174
 40
5.5
100
AcDbArc
 50
180.0
 51
360.0
  0
ARC
  5
434
100
AcDbEntity
  8
0
100
AcDbCircle
 62
7
  6
CONTINUOUS
 10
139.7470114185
 20
293.6645652174
 40
5.5
100
AcDbArc
 50
0.0
 51
180.0
  0
ARC
  5
435
100
AcDbEntity
  8
0
100
AcDbCircle
 62
7
  6
CONTINUOUS
 10
131.4970114185
 20
269.6645652174
 40
5.5
100
AcDbArc
 50
0.0
 51
180.0
  0
ARC
  5
436
100
AcDbEntity
  8
0
100
AcDbCircle
 62
7
  6
CONTINUOUS
 10
131.4970114185
 20
263.6645652174
 40
5.5
100
AcDbArc
 50
180.0
 51
360.0
  0
ARC
  5
437
100
AcDbEntity
  8
0
100
AcDbCircle
 62
7
  6
CONTINUOUS
 10
139.7470114185
 20
239.6645652174
 40
5.5
100
AcDbArc
 50
180.0
 51
360.0
  0
ARC
  5
438
100
AcDbEntity
  8
0
100
AcDbCircle
 62
7
  6
CONTINUOUS
 10
139.7470114185
 20
245.6645652174
 40
5.5
100
AcDbArc
 50
0.0
 51
180.0
  0
ARC
  5
439
100
AcDbEntity
  8
0
100
AcDbCircle
 62
7
  6
CONTINUOUS
 10
76.9970114185
 20
352.6645652174
 40
5.0
100
AcDbArc
 50
116.7436839504
 51
63.2563160496
  0
ARC
  5
43A
100
AcDbEntity
  8
0
100
AcDbCircle
 62
7
  6
CONTINUOUS
 10
105.4970114185
 20
342.6645652174
 40
2.75
100
AcDbArc
 50
180.0
 51
360.0
  0
ARC
  5
43B
100
AcDbEntity
  8
0
100
AcDbCircle
 62
7
  6
CONTINUOUS
 10
105.4970114185
 20
345.6645652174
 40
2.75
100
AcDbArc
 50
0.0
 51
180.0
  0
ARC
  5
43C
100
AcDbEntity
  8
0
100
AcDbCircle
 62
7
  6
CONTINUOUS
 10
76.9970114185
 20
360.6645652174
 40
2.25
100
AcDbArc
 50
0.0
 51
180.0
  0
ARC
  5
43D
100
AcDbEntity
  8
0
100
AcDbCircle
 62
7
  6
CONTINUOUS
 10
66.0070114185
 20
374.7645652174
 40
2.0
100
AcDbArc
 50
90.0
 51
180.0
  0
ARC
  5
43E
100
AcDbEntity
  8
0
100
AcDbCircle
 62
7
  6
CONTINUOUS
 10
66.0070114185
 20
374.7645652174
 40
1.0
100
AcDbArc
 50
90.0
 51
180.0
  0
ARC
  5
43F
100
AcDbEntity
  8
0
100
AcDbCircle
 62
7
  6
CONTINUOUS
 10
156.2470114185
 20
191.6645652174
 40
5.5
100
AcDbArc
 50
180.0
 51
360.0
  0
ARC
  5
440
100
AcDbEntity
  8
0
100
AcDbCircle
 62
7
  6
CONTINUOUS
 10
156.2470114185
 20
197.6645652174
 40
5.5
100
AcDbArc
 50
0.0
 51
180.0
  0
ARC
  5
441
100
AcDbEntity
  8
0
100
AcDbCircle
 62
7
  6
CONTINUOUS
 10
164.4970114185
 20
167.6645652174
 40
5.5
100
AcDbArc
 50
180.0
 51
360.0
  0
ARC
  5
442
100
AcDbEntity
  8
0
100
AcDbCircle
 62
7
  6
CONTINUOUS
 10
164.4970114185
 20
173.6645652174
 40
5.5
100
AcDbArc
 50
0.0
 51
180.0
  0
ARC
  5
443
100
AcDbEntity
  8
0
100
AcDbCircle
 62
7
  6
CONTINUOUS
 10
147.9970114185
 20
167.6645652174
 40
5.5
100
AcDbArc
 50
180.0
 51
360.0
  0
ARC
  5
444
100
AcDbEntity
  8
0
100
AcDbCircle
 62
7
  6
CONTINUOUS
 10
147.9970114185
 20
173.6645652174
 40
5.5
100
AcDbArc
 50
0.0
 51
180.0
  0
CIRCLE
  5
445
100
AcDbEntity
  8
0
100
AcDbCircle
 62
7
  6
CONTINUOUS
 10
190.4970114185
 20
143.2645652174
 40
2.6
  0
ARC
  5
446
100
AcDbEntity
  8
0
100
AcDbCircle
 62
7
  6
CONTINUOUS
 10
229.4970114185
 20
48.1645652174
 40
2.5
100
AcDbArc
 50
90.0
 51
127.0588235294
  0
ARC
  5
447
100
AcDbEntity
  8
0
100
AcDbCircle
 62
7
  6
CONTINUOUS
 10
218.9970114185
 20
44.6645652174
 40
2.25
100
AcDbArc
 50
0.0
 51
180.0
  0
ARC
  5
448
100
AcDbEntity
  8
0
100
AcDbCircle
 62
7
  6
CONTINUOUS
 10
229.9870114185
 20
50.5645652174
 40
2.0
100
AcDbArc
 50
270.0
 51
360.0
  0
CIRCLE
  5
449
100
AcDbEntity
  8
0
100
AcDbCircle
 62
7
  6
CONTINUOUS
 10
159.4970114185
 20
94.6645652174
 40
1.8
  0
CIRCLE
  5
44A
100
AcDbEntity
  8
0
100
AcDbCircle
 62
7
  6
CONTINUOUS
 10
147.9970114185
 20
94.6645652174
 40
1.8
  0
CIRCLE
  5
44B
100
AcDbEntity
  8
0
100
AcDbCircle
 62
7
  6
CONTINUOUS
 10
167.9970114185
 20
56.6645652174
 40
1.35
  0
CIRCLE
  5
44C
100
AcDbEntity
  8
0
100
AcDbCircle
 62
7
  6
CONTINUOUS
 10
147.9970114185
 20
56.6645652174
 40
1.35
  0
CIRCLE
  5
44D
100
AcDbEntity
  8
0
100
AcDbCircle
 62
7
  6
CONTINUOUS
 10
157.9970114185
 20
56.6645652174
 40
1.35
  0
ARC
  5
44E
100
AcDbEntity
  8
0
100
AcDbCircle
 62
7
  6
CONTINUOUS
 10
229.9870114185
 20
50.5645652174
 40
1.0
100
AcDbArc
 50
270.0
 51
360.0
  0
ARC
  5
44F
100
AcDbEntity
  8
0
100
AcDbCircle
 62
7
  6
CONTINUOUS
 10
164.4970114185
 20
221.6645652174
 40
5.5
100
AcDbArc
 50
0.0
 51
180.0
  0
ARC
  5
450
100
AcDbEntity
  8
0
100
AcDbCircle
 62
7
  6
CONTINUOUS
 10
164.4970114185
 20
215.6645652174
 40
5.5
100
AcDbArc
 50
180.0
 51
360.0
  0
ARC
  5
451
100
AcDbEntity
  8
0
100
AcDbCircle
 62
7
  6
CONTINUOUS
 10
147.9970114185
 20
215.6645652174
 40
5.5
100
AcDbArc
 50
180.0
 51
360.0
  0
ARC
  5
452
100
AcDbEntity
  8
0
100
AcDbCircle
 62
7
  6
CONTINUOUS
 10
147.9970114185
 20
221.6645652174
 40
5.5
100
AcDbArc
 50
0.0
 51
180.0
  0
ARC
  5
453
100
AcDbEntity
  8
0
100
AcDbCircle
 62
7
  6
CONTINUOUS
 10
147.9970114185
 20
311.6645652174
 40
5.5
100
AcDbArc
 50
180.0
 51
360.0
  0
ARC
  5
454
100
AcDbEntity
  8
0
100
AcDbCircle
 62
7
  6
CONTINUOUS
 10
147.9970114185
 20
317.6645652174
 40
5.5
100
AcDbArc
 50
0.0
 51
180.0
  0
ARC
  5
455
100
AcDbEntity
  8
0
100
AcDbCircle
 62
7
  6
CONTINUOUS
 10
164.4970114185
 20
317.6645652174
 40
5.5
100
AcDbArc
 50
0.0
 51
180.0
  0
ARC
  5
456
100
AcDbEntity
  8
0
100
AcDbCircle
 62
7
  6
CONTINUOUS
 10
164.4970114185
 20
311.6645652174
 40
5.5
100
AcDbArc
 50
180.0
 51
360.0
  0
ARC
  5
457
100
AcDbEntity
  8
0
100
AcDbCircle
 62
7
  6
CONTINUOUS
 10
156.2470114185
 20
287.6645652174
 40
5.5
100
AcDbArc
 50
180.0
 51
360.0
  0
ARC
  5
458
100
AcDbEntity
  8
0
100
AcDbCircle
 62
7
  6
CONTINUOUS
 10
156.2470114185
 20
293.6645652174
 40
5.5
100
AcDbArc
 50
0.0
 51
180.0
  0
ARC
  5
459
100
AcDbEntity
  8
0
100
AcDbCircle
 62
7
  6
CONTINUOUS
 10
156.2470114185
 20
239.6645652174
 40
5.5
100
AcDbArc
 50
180.0
 51
360.0
  0
ARC
  5
45A
100
AcDbEntity
  8
0
100
AcDbCircle
 62
7
  6
CONTINUOUS
 10
156.2470114185
 20
245.6645652174
 40
5.5
100
AcDbArc
 50
0.0
 51
180.0
  0
ARC
  5
45B
100
AcDbEntity
  8
0
100
AcDbCircle
 62
7
  6
CONTINUOUS
 10
147.9970114185
 20
263.6645652174
 40
5.5
100
AcDbArc
 50
180.0
 51
360.0
  0
ARC
  5
45C
100
AcDbEntity
  8
0
100
AcDbCircle
 62
7
  6
CONTINUOUS
 10
147.9970114185
 20
269.6645652174
 40
5.5
100
AcDbArc
 50
0.0
 51
180.0
  0
ARC
  5
45D
100
AcDbEntity
  8
0
100
AcDbCircle
 62
7
  6
CONTINUOUS
 10
164.4970114185
 20
269.6645652174
 40
5.5
100
AcDbArc
 50
0.0
 51
180.0
  0
ARC
  5
45E
100
AcDbEntity
  8
0
100
AcDbCircle
 62
7
  6
CONTINUOUS
 10
164.4970114185
 20
263.6645652174
 40
5.5
100
AcDbArc
 50
180.0
 51
360.0
  0
ARC
  5
45F
100
AcDbEntity
  8
0
100
AcDbCircle
 62
7
  6
CONTINUOUS
 10
218.9970114185
 20
352.6645652174
 40
5.0
100
AcDbArc
 50
116.7436839504
 51
63.2563160496
  0
ARC
  5
460
100
AcDbEntity
  8
0
100
AcDbCircle
 62
7
  6
CONTINUOUS
 10
180.4970114185
 20
342.6645652174
 40
2.75
100
AcDbArc
 50
180.0
 51
360.0
  0
ARC
  5
461
100
AcDbEntity
  8
0
100
AcDbCircle
 62
7
  6
CONTINUOUS
 10
180.4970114185
 20
345.6645652174
 40
2.75
100
AcDbArc
 50
0.0
 51
180.0
  0
ARC
  5
462
100
AcDbEntity
  8
0
100
AcDbCircle
 62
7
  6
CONTINUOUS
 10
218.9970114185
 20
360.6645652174
 40
2.25
100
AcDbArc
 50
0.0
 51
180.0
  0
ARC
  5
463
100
AcDbEntity
  8
0
100
AcDbCircle
 62
7
  6
CONTINUOUS
 10
229.9870114185
 20
374.7645652174
 40
2.0
100
AcDbArc
 50
0.0
 51
90.0
  0
ARC
  5
464
100
AcDbEntity
  8
0
100
AcDbCircle
 62
7
  6
CONTINUOUS
 10
229.9870114185
 20
374.7645652174
 40
1.0
100
AcDbArc
 50
0.0
 51
90.0
  0
ENDSEC
  0
SECTION
  2
OBJECTS
  0
DICTIONARY
  5
C
100
AcDbDictionary
280
0
281
1
  3
ACAD_GROUP
350
D
  3
ACAD_MLINESTYLE
350
17
  3
ACAD_LAYOUT
350
1A
  3
ACAD_PLOTSETTINGS
350
19
  3
ACAD_PLOTSTYLENAME
350
E
  0
DICTIONARY
  5
D
102
{ACAD_REACTORS
330
C
102
}
100
AcDbDictionary
280
0
281
1
  0
ACDBDICTIONARYWDFLT
  5
E
102
{ACAD_REACTORS
330
C
102
}
100
AcDbDictionary
281
1
  3
Normal
350
F
100
AcDbDictionaryWithDefault
340
F
  0
DICTIONARY
  5
17
102
{ACAD_REACTORS
330
C
102
}
100
AcDbDictionary
280
0
281
1
  3
Standard
350
18
  0
DICTIONARY
  5
19
102
{ACAD_REACTORS
330
C
102
}
100
AcDbDictionary
281
1
  0
DICTIONARY
  5
1A
102
{ACAD_REACTORS
330
C
102
}
100
AcDbDictionary
281
1
  3
Model
350
465
  3
Layout1
350
466
  0
ACDBPLACEHOLDER
  5
F
102
{ACAD_REACTORS
330
E
102
}
  0
MLINESTYLE
  5
18
102
{ACAD_REACTORS
330
17
102
}
100
AcDbMlineStyle
  2
STANDARD
 70
0
  3

 62
256
 51
90.0
 52
90.0
 71
2
 49
0.5
 62
256
  6
BYLAYER
 49
-0.5
 62
256
  6
BYLAYER
  0
LAYOUT
  5
465
102
{ACAD_REACTORS
330
1A
102
}
100
AcDbPlotSettings
  1

  2
none_device
  4

  6

 40
0.0
 41
0.0
 42
0.0
 43
0.0
 44
210.0
 45
297.0
 46
0.0
 47
0.0
 48
0.0
 49
0.0
140
0.0
141
0.0
142
1.0
143
1.0
 70
1024
 72
1
 73
0
 74
0
  7

 75
0
147
1.0
148
0.0
149
0.0
100
AcDbLayout
  1
Model
 70
0
 71
0
 10
0.0
 20
0.0
 11
210.0
 21
297.0
 12
0.0
 22
0.0
 32
0.0
 14
0.0
 24
0.0
 34
0.0
 15
0.0
 25
0.0
 35
0.0
146
0.0
 13
0.0
 23
0.0
 33
0.0
 16
1.0
 26
0.0
 36
0.0
 17
0.0
 27
1.0
 37
0.0
 76
0
330
210
345
0
346
0
  0
LAYOUT
  5
466
102
{ACAD_REACTORS
330
1A
102
}
100
AcDbPlotSettings
  1

  2
none_device
  4

  6

 40
0.0
 41
0.0
 42
0.0
 43
0.0
 44
210.0
 45
297.0
 46
0.0
 47
0.0
 48
0.0
 49
0.0
140
0.0
141
0.0
142
1.0
143
1.0
 70
0
 72
1
 73
0
 74
0
  7

 75
0
147
1.0
148
0.0
149
0.0
100
AcDbLayout
  1
Layout1
 70
0
 71
1
 10
0.0
 20
0.0
 11
210.0
 21
297.0
 12
0.0
 22
0.0
 32
0.0
 14
0.0
 24
0.0
 34
0.0
 15
0.0
 25
0.0
 35
0.0
146
0.0
 13
0.0
 23
0.0
 33
0.0
 16
1.0
 26
0.0
 36
0.0
 17
0.0
 27
1.0
 37
0.0
 76
0
330
211
345
0
346
0
  0
ENDSEC
  0
EOF
