999
DXF file: Y:\001_SCHNEIDER_PARIS\78_2020_429_Grey Project M580\TRAVAIL LUCAS SANTANA G2P1\CAD3D\2D views\BMXDDI3202K_2D-Views\BMXDDI3202K_2D-TRIM.dxf
999
Pro/ENGINEER 2018260 by Parametric Technology Corporation
  0
SECTION
  2
HEADER
  9
$ACADVER
  1
AC1027
  9
$DWGCODEPAGE
  3
ANSI_1252
  9
$EXTMAX
 10
558.8
 20
431.8
 30
0.0
  9
$EXTMIN
 10
0.0
 20
0.0
 30
0.0
  9
$LIMMIN
 10
0.0
 20
0.0
  9
$LIMMAX
 10
558.8
 20
431.8
  9
$VIEWCTR
 10
279.4
 20
215.9
  9
$VIEWSIZE
 40
431.8
  9
$CLAYER
  8
0
  9
$LTSCALE
 40
30.734
  9
$CELTYPE
  6
BYLAYER
  9
$DIMSCALE
 40
1.0
  9
$DIMASZ
 40
3.5
  9
$DIMEXO
 40
1.0
  9
$DIMDLI
 40
21.2344
  9
$DIMEXE
 40
3.0
  9
$DIMCEN
 40
5.0292
  9
$DIMLFAC
 40
1.0
  9
$DIMBLK
  1
_FILLED
  9
$DIMALT
 70
0
  9
$DIMALTF
 40
0.0393700787
  9
$DIMTXT
 40
4.0
  9
$DIMTOL
 70
1
  9
$DIMLIM
 70
0
  9
$DIMTFAC
 40
1.0
  9
$DIMTP
 40
0.0001
  9
$DIMTM
 40
0.0001
  9
$DIMGAP
 40
0.625
  9
$DIMDSEP
 70
46
  9
$AUNITS
 70
0
  9
$PDMODE
 70
0
  9
$PDSIZE
 40
0.01
  9
$HANDSEED
  5
477
  9
$TILEMODE
 70
1
  9
$MEASUREMENT
 70
1
  9
$INSUNITS
 70
4
  0
ENDSEC
  0
SECTION
  2
CLASSES
  0
CLASS
  1
ACDBDICTIONARYWDFLT
  2
AcDbDictionaryWithDefault
  3
AutoCAD 2000
 90
0
 91
1
280
0
281
0
  0
CLASS
  1
ACDBPLACEHOLDER
  2
AcDbPlaceHolder
  3
AutoCAD 2000
 90
0
 91
1
280
0
281
0
  0
CLASS
  1
LAYOUT
  2
AcDbLayout
  3
AutoCAD 2000
 90
0
 91
0
280
0
281
0
  0
ENDSEC
  0
SECTION
  2
TABLES
  0
TABLE
  2
VPORT
  5
8
100
AcDbSymbolTable
 70
2
  0
VPORT
  5
1F4
100
AcDbSymbolTableRecord
100
AcDbViewportTableRecord
  2
*ACTIVE
 70
0
 10
0.0
 20
0.0
 11
1.0
 21
1.0
 12
279.4
 22
215.9
 13
0.0
 23
0.0
 14
1.0
 24
1.0
 15
0.0
 25
0.0
 16
0.0
 26
0.0
 36
1.0
 17
0.0
 27
0.0
 37
0.0
 40
431.8
 41
1.2941176471
 42
50.0
 43
0.0
 44
0.0
 50
0.0
 51
0.0
 71
0
 72
100
 73
1
 74
1
 75
0
 76
0
 77
0
 78
0
  0
ENDTAB
  0
TABLE
  2
LTYPE
  5
5
100
AcDbSymbolTable
 70
6
  0
LTYPE
  5
14
100
AcDbSymbolTableRecord
100
AcDbLinetypeTableRecord
  2
BYBLOCK
 70
0
  3

 72
65
 73
0
 40
0.0
  0
LTYPE
  5
15
100
AcDbSymbolTableRecord
100
AcDbLinetypeTableRecord
  2
BYLAYER
 70
0
  3

 72
65
 73
0
 40
0.0
  0
LTYPE
  5
16
100
AcDbSymbolTableRecord
100
AcDbLinetypeTableRecord
  2
CONTINUOUS
 70
64
  3
Solid line
 72
65
 73
0
 40
0.0
  0
LTYPE
  5
1F5
100
AcDbSymbolTableRecord
100
AcDbLinetypeTableRecord
  2
CENTER
 70
64
  3
____ _ ____ _ ____ _ ____ _ ____ _ ____ _ ____
 72
65
 73
4
 40
0.6
 49
0.375
 74
0
 49
-0.075
 74
0
 49
0.075
 74
0
 49
-0.075
 74
0
  0
LTYPE
  5
1F6
100
AcDbSymbolTableRecord
100
AcDbLinetypeTableRecord
  2
HIDDEN
 70
64
  3
- - - - - - - - - - - - - - - - - - - -
 72
65
 73
2
 40
0.2
 49
0.1
 74
0
 49
-0.1
 74
0
  0
LTYPE
  5
1F7
100
AcDbSymbolTableRecord
100
AcDbLinetypeTableRecord
  2
PHANTOM
 70
64
  3
_____ _ _ _____ _ _ _____ _ _ _____
 72
65
 73
6
 40
0.8
 49
0.45
 74
0
 49
-0.05
 74
0
 49
0.1
 74
0
 49
-0.05
 74
0
 49
0.1
 74
0
 49
-0.05
 74
0
  0
LTYPE
  5
1F8
100
AcDbSymbolTableRecord
100
AcDbLinetypeTableRecord
  2
DOT
 70
64
  3
. . . . . . . . . . . . . . . . . . . .
 72
65
 73
2
 40
0.2
 49
0.1
 74
0
 49
-0.1
 74
0
  0
LTYPE
  5
1F9
100
AcDbSymbolTableRecord
100
AcDbLinetypeTableRecord
  2
DASHED
 70
64
  3
- - - - - - - - - - - - - - - - - - - -
 72
65
 73
2
 40
0.2
 49
0.1
 74
0
 49
-0.1
 74
0
  0
ENDTAB
  0
TABLE
  2
LAYER
  5
2
100
AcDbSymbolTable
 70
36
  0
LAYER
  5
10
100
AcDbSymbolTableRecord
100
AcDbLayerTableRecord
  2
0
 70
0
 62
7
  6
CONTINUOUS
370
-3
390
F
  0
LAYER
  5
1FA
100
AcDbSymbolTableRecord
100
AcDbLayerTableRecord
  2
DEFAULT_1
 70
0
 62
7
  6
CENTER
370
-3
390
F
  0
LAYER
  5
1FB
100
AcDbSymbolTableRecord
100
AcDbLayerTableRecord
  2
DEFAULT_2
 70
0
 62
8
  6
HIDDEN
370
-3
390
F
  0
LAYER
  5
1FC
100
AcDbSymbolTableRecord
100
AcDbLayerTableRecord
  2
DEFAULT_3
 70
0
 62
7
  6
PHANTOM
370
-3
390
F
  0
LAYER
  5
1FD
100
AcDbSymbolTableRecord
100
AcDbLayerTableRecord
  2
01_ALL_DTM_PLN
 70
0
 62
7
  6
CONTINUOUS
370
-3
390
F
  0
LAYER
  5
1FE
100
AcDbSymbolTableRecord
100
AcDbLayerTableRecord
  2
01__ASM_ALL_DTM_PLN
 70
0
 62
7
  6
CONTINUOUS
370
-3
390
F
  0
LAYER
  5
1FF
100
AcDbSymbolTableRecord
100
AcDbLayerTableRecord
  2
01__ASM_DEF_DTM_PLN
 70
0
 62
7
  6
CONTINUOUS
370
-3
390
F
  0
LAYER
  5
200
100
AcDbSymbolTableRecord
100
AcDbLayerTableRecord
  2
01___PRT_ALL_DTM_PLN
 70
0
 62
7
  6
CONTINUOUS
370
-3
390
F
  0
LAYER
  5
201
100
AcDbSymbolTableRecord
100
AcDbLayerTableRecord
  2
01___PRT_DEF_DTM_PLN
 70
0
 62
7
  6
CONTINUOUS
370
-3
390
F
  0
LAYER
  5
202
100
AcDbSymbolTableRecord
100
AcDbLayerTableRecord
  2
02_ALL_AXES
 70
0
 62
7
  6
CONTINUOUS
370
-3
390
F
  0
LAYER
  5
203
100
AcDbSymbolTableRecord
100
AcDbLayerTableRecord
  2
02__ASM_ALL_AXES
 70
0
 62
7
  6
CONTINUOUS
370
-3
390
F
  0
LAYER
  5
204
100
AcDbSymbolTableRecord
100
AcDbLayerTableRecord
  2
02___PRT_ALL_AXES
 70
0
 62
7
  6
CONTINUOUS
370
-3
390
F
  0
LAYER
  5
205
100
AcDbSymbolTableRecord
100
AcDbLayerTableRecord
  2
03_ALL_CURVES
 70
0
 62
7
  6
CONTINUOUS
370
-3
390
F
  0
LAYER
  5
206
100
AcDbSymbolTableRecord
100
AcDbLayerTableRecord
  2
03__ASM_ALL_CURVES
 70
0
 62
7
  6
CONTINUOUS
370
-3
390
F
  0
LAYER
  5
207
100
AcDbSymbolTableRecord
100
AcDbLayerTableRecord
  2
03___PRT_ALL_CURVES
 70
0
 62
7
  6
CONTINUOUS
370
-3
390
F
  0
LAYER
  5
208
100
AcDbSymbolTableRecord
100
AcDbLayerTableRecord
  2
04_ALL_DTM_PNT
 70
0
 62
7
  6
CONTINUOUS
370
-3
390
F
  0
LAYER
  5
209
100
AcDbSymbolTableRecord
100
AcDbLayerTableRecord
  2
04__ASM_ALL_DTM_PNT
 70
0
 62
7
  6
CONTINUOUS
370
-3
390
F
  0
LAYER
  5
20A
100
AcDbSymbolTableRecord
100
AcDbLayerTableRecord
  2
04___PRT_ALL_DTM_PNT
 70
0
 62
7
  6
CONTINUOUS
370
-3
390
F
  0
LAYER
  5
20B
100
AcDbSymbolTableRecord
100
AcDbLayerTableRecord
  2
05_ALL_DTM_CSYS
 70
0
 62
7
  6
CONTINUOUS
370
-3
390
F
  0
LAYER
  5
20C
100
AcDbSymbolTableRecord
100
AcDbLayerTableRecord
  2
05__ASM_ALL_DTM_CSYS
 70
0
 62
7
  6
CONTINUOUS
370
-3
390
F
  0
LAYER
  5
20D
100
AcDbSymbolTableRecord
100
AcDbLayerTableRecord
  2
05__ASM_DEF_DTM_CSYS
 70
0
 62
7
  6
CONTINUOUS
370
-3
390
F
  0
LAYER
  5
20E
100
AcDbSymbolTableRecord
100
AcDbLayerTableRecord
  2
05___PRT_ALL_DTM_CSYS
 70
0
 62
7
  6
CONTINUOUS
370
-3
390
F
  0
LAYER
  5
20F
100
AcDbSymbolTableRecord
100
AcDbLayerTableRecord
  2
05___PRT_DEF_DTM_CSYS
 70
0
 62
7
  6
CONTINUOUS
370
-3
390
F
  0
LAYER
  5
210
100
AcDbSymbolTableRecord
100
AcDbLayerTableRecord
  2
06_ALL_SURFS
 70
0
 62
7
  6
CONTINUOUS
370
-3
390
F
  0
LAYER
  5
211
100
AcDbSymbolTableRecord
100
AcDbLayerTableRecord
  2
06__ASM_ALL_SURFS
 70
0
 62
7
  6
CONTINUOUS
370
-3
390
F
  0
LAYER
  5
212
100
AcDbSymbolTableRecord
100
AcDbLayerTableRecord
  2
06___PRT_ALL_SURFS
 70
0
 62
7
  6
CONTINUOUS
370
-3
390
F
  0
LAYER
  5
213
100
AcDbSymbolTableRecord
100
AcDbLayerTableRecord
  2
07__ASM_ALL_SKELETONS
 70
0
 62
7
  6
CONTINUOUS
370
-3
390
F
  0
ENDTAB
  0
TABLE
  2
STYLE
  5
3
100
AcDbSymbolTable
 70
1
  0
STYLE
  5
11
100
AcDbSymbolTableRecord
100
AcDbTextStyleTableRecord
  2
STANDARD
 70
0
 40
0.0
 41
0.6
 50
0.0
 71
0
 42
0.2
  3
txt
  4

  0
STYLE
  5
214
100
AcDbSymbolTableRecord
100
AcDbTextStyleTableRecord
  2
TEXTSTYLE_1
 70
0
 40
0.0
 41
0.8
 50
0.0
 71
0
 42
0.2
  3
gdt
  4

  0
ENDTAB
  0
TABLE
  2
VIEW
  5
6
100
AcDbSymbolTable
 70
0
  0
ENDTAB
  0
TABLE
  2
UCS
  5
7
100
AcDbSymbolTable
 70
0
  0
ENDTAB
  0
TABLE
  2
APPID
  5
9
100
AcDbSymbolTable
 70
1
  0
APPID
  5
215
100
AcDbSymbolTableRecord
100
AcDbRegAppTableRecord
  2
ACAD
 70
0
  0
ENDTAB
  0
TABLE
  2
BLOCK_RECORD
  5
1
100
AcDbSymbolTable
 70
0
  0
BLOCK_RECORD
  5
216
100
AcDbSymbolTableRecord
100
AcDbBlockTableRecord
  2
*Model_Space
  0
BLOCK_RECORD
  5
217
100
AcDbSymbolTableRecord
100
AcDbBlockTableRecord
  2
*Paper_Space
  0
BLOCK_RECORD
  5
218
100
AcDbSymbolTableRecord
100
AcDbBlockTableRecord
  2
_FILLED
  0
ENDTAB
  0
TABLE
  2
DIMSTYLE
  5
A
100
AcDbSymbolTable
 70
1
100
AcDbDimStyleTable
 71
0
  0
DIMSTYLE
105
219
100
AcDbSymbolTableRecord
100
AcDbDimStyleTableRecord
  2
STANDARD
 70
0
  3

  4

 40
1.0
 41
3.5
 42
1.0
 43
0.38
 44
3.0
 45
0.0
 46
0.0
 47
0.0001
 48
0.0001
140
4.0
141
0.09
142
0.0
143
25.4
144
1.0
145
0.0
146
1.0
147
0.625
 71
1.0
 72
0.0
 73
0
 74
0
 75
0
 76
0
 77
1
 78
8
 79
2
170
0
171
3
172
0
173
0
174
0
175
0
176
0
177
0
178
0
270
2
179
4
271
4
272
4
273
2
274
2
275
0
280
0
281
0
282
0
283
1
284
8
285
0
286
0
287
3
288
0
340
11
278
46
341
218
342
218
343
218
344
218
  0
ENDTAB
  0
ENDSEC
  0
SECTION
  2
BLOCKS
  0
BLOCK
  5
20
100
AcDbEntity
  8
0
100
AcDbBlockBegin
  2
*Model_Space
 70
0
 10
0.0
 20
0.0
 30
0.0
  3
*Model_Space
  1

  0
ENDBLK
  5
21
100
AcDbEntity
  8
0
100
AcDbBlockEnd
  0
BLOCK
  5
1C
100
AcDbEntity
  8
0
100
AcDbBlockBegin
  2
*Paper_Space
 70
0
 10
0.0
 20
0.0
 30
0.0
  3
*Paper_Space
  1

  0
ENDBLK
  5
1D
100
AcDbEntity
  8
0
100
AcDbBlockEnd
  0
BLOCK
  5
21A
100
AcDbEntity
  8
0
100
AcDbBlockBegin
  2
_FILLED
 70
64
 10
0.0
 20
0.0
  3
_FILLED
  1

  0
SOLID
  5
21B
100
AcDbEntity
  8
0
  6
BYBLOCK
 62
0
100
AcDbTrace
 10
0.0
 20
0.0
 11
-1.0
 21
0.2857142857
 12
-1.0
 22
-0.2857142857
 13
-1.0
 23
-0.2857142857
  0
ENDBLK
  5
21C
100
AcDbEntity
  8
0
  6
BYBLOCK
 62
0
100
AcDbBlockEnd
  0
ENDSEC
  0
SECTION
  2
ENTITIES
  0
LINE
  5
21D
100
AcDbEntity
  8
0
100
AcDbLine
 62
7
  6
CONTINUOUS
 10
61.9928660362
 20
179.9327974824
 11
35.546709914
 21
172.8436539748
  0
LINE
  5
21E
100
AcDbEntity
  8
0
100
AcDbLine
 62
7
  6
CONTINUOUS
 10
-6.9652679018
 20
293.5120079654
 11
-1.8297715042
 21
298.2131889784
  0
LINE
  5
21F
100
AcDbEntity
  8
0
100
AcDbLine
 62
7
  6
CONTINUOUS
 10
-2.9558141224
 20
298.863560524
 11
-8.1089988051
 21
294.1725957827
  0
LINE
  5
220
100
AcDbEntity
  8
0
100
AcDbLine
 62
7
  6
CONTINUOUS
 10
-13.7176546318
 20
292.9236384528
 11
-13.2300638753
 21
293.1016866193
  0
LINE
  5
221
100
AcDbEntity
  8
0
100
AcDbLine
 62
7
  6
CONTINUOUS
 10
55.0833799937
 20
181.474430046
 11
58.6040245274
 21
182.4181722754
  0
LINE
  5
222
100
AcDbEntity
  8
0
100
AcDbLine
 62
7
  6
CONTINUOUS
 10
60.2527770732
 20
184.6988052928
 11
58.6040245274
 21
184.2568415023
  0
LINE
  5
223
100
AcDbEntity
  8
0
100
AcDbLine
 62
7
  6
CONTINUOUS
 10
55.0833799937
 20
183.3130992728
 11
53.4346274479
 21
182.8711354823
  0
LINE
  5
224
100
AcDbEntity
  8
0
100
AcDbLine
 62
7
  6
CONTINUOUS
 10
50.5053169706
 20
182.6138272341
 11
52.2847752263
 21
183.0908279325
  0
LINE
  5
225
100
AcDbEntity
  8
0
100
AcDbLine
 62
7
  6
CONTINUOUS
 10
51.3839411317
 20
183.6111251689
 11
50.5053169706
 21
183.3756016116
  0
LINE
  5
226
100
AcDbEntity
  8
0
100
AcDbLine
 62
7
  6
CONTINUOUS
 10
53.997648757
 20
187.6022900833
 11
60.8157983823
 21
189.4299598939
  0
LINE
  5
227
100
AcDbEntity
  8
0
100
AcDbLine
 62
7
  6
CONTINUOUS
 10
11.6795599852
 20
299.7789473076
 11
11.6114462295
 21
299.7133446806
  0
LINE
  5
228
100
AcDbEntity
  8
0
100
AcDbLine
 62
7
  6
CONTINUOUS
 10
58.0172504385
 20
193.2561238805
 11
57.7693177248
 21
193.1896631601
  0
LINE
  5
229
100
AcDbEntity
  8
0
100
AcDbLine
 62
7
  6
CONTINUOUS
 10
55.9180867963
 20
192.6934231146
 11
55.6701540826
 21
192.6269623942
  0
LINE
  5
22A
100
AcDbEntity
  8
0
100
AcDbLine
 62
7
  6
CONTINUOUS
 10
58.0172504385
 20
194.4512588779
 11
57.7693177248
 21
194.3847981575
  0
LINE
  5
22B
100
AcDbEntity
  8
0
100
AcDbLine
 62
7
  6
CONTINUOUS
 10
55.9180867963
 20
193.888558112
 11
55.6701540826
 21
193.8220973916
  0
LINE
  5
22C
100
AcDbEntity
  8
0
100
AcDbLine
 62
7
  6
CONTINUOUS
 10
58.0172504385
 20
195.5912337986
 11
57.7693177248
 21
195.5247730782
  0
LINE
  5
22D
100
AcDbEntity
  8
0
100
AcDbLine
 62
7
  6
CONTINUOUS
 10
55.9180867963
 20
195.0285330327
 11
55.6701540826
 21
194.9620723123
  0
LINE
  5
22E
100
AcDbEntity
  8
0
100
AcDbLine
 62
7
  6
CONTINUOUS
 10
58.0172504385
 20
196.786368796
 11
57.7693177248
 21
196.7199080757
  0
LINE
  5
22F
100
AcDbEntity
  8
0
100
AcDbLine
 62
7
  6
CONTINUOUS
 10
55.9180867963
 20
196.2236680301
 11
55.6701540826
 21
196.1572073097
  0
LINE
  5
230
100
AcDbEntity
  8
0
100
AcDbLine
 62
7
  6
CONTINUOUS
 10
58.0172504385
 20
197.9263437167
 11
57.7693177248
 21
197.8598829963
  0
LINE
  5
231
100
AcDbEntity
  8
0
100
AcDbLine
 62
7
  6
CONTINUOUS
 10
55.9180867963
 20
197.3636429508
 11
55.6701540826
 21
197.2971822304
  0
LINE
  5
232
100
AcDbEntity
  8
0
100
AcDbLine
 62
7
  6
CONTINUOUS
 10
58.0172504385
 20
199.1214787142
 11
57.7693177248
 21
199.0550179938
  0
LINE
  5
233
100
AcDbEntity
  8
0
100
AcDbLine
 62
7
  6
CONTINUOUS
 10
55.9180867963
 20
198.5587779482
 11
55.6701540826
 21
198.4923172279
  0
LINE
  5
234
100
AcDbEntity
  8
0
100
AcDbLine
 62
7
  6
CONTINUOUS
 10
58.0172504385
 20
200.2614536348
 11
57.7693177248
 21
200.1949929144
  0
LINE
  5
235
100
AcDbEntity
  8
0
100
AcDbLine
 62
7
  6
CONTINUOUS
 10
55.9180867963
 20
199.6987528689
 11
55.6701540826
 21
199.6322921485
  0
LINE
  5
236
100
AcDbEntity
  8
0
100
AcDbLine
 62
7
  6
CONTINUOUS
 10
-11.442856449
 20
200.1359829459
 11
24.8493050412
 21
179.174618979
  0
LINE
  5
237
100
AcDbEntity
  8
0
100
AcDbLine
 62
7
  6
CONTINUOUS
 10
-14.5216155438
 20
204.1205934134
 11
-16.2512505228
 21
205.1195834662
  0
LINE
  5
238
100
AcDbEntity
  8
0
100
AcDbLine
 62
7
  6
CONTINUOUS
 10
-14.1117695482
 20
205.7225467564
 11
-12.8731226682
 21
205.0071380563
  0
LINE
  5
239
100
AcDbEntity
  8
0
100
AcDbLine
 62
7
  6
CONTINUOUS
 10
35.546709914
 20
172.8436539747
 11
24.8493050412
 21
179.174618979
  0
LINE
  5
23A
100
AcDbEntity
  8
0
100
AcDbLine
 62
7
  6
CONTINUOUS
 10
58.0172504385
 20
201.4565886323
 11
57.7693177248
 21
201.3901279119
  0
LINE
  5
23B
100
AcDbEntity
  8
0
100
AcDbLine
 62
7
  6
CONTINUOUS
 10
55.9180867963
 20
200.8938878664
 11
55.6701540826
 21
200.827427146
  0
LINE
  5
23C
100
AcDbEntity
  8
0
100
AcDbLine
 62
7
  6
CONTINUOUS
 10
58.0172504385
 20
202.5965635529
 11
57.7693177248
 21
202.5301028325
  0
LINE
  5
23D
100
AcDbEntity
  8
0
100
AcDbLine
 62
7
  6
CONTINUOUS
 10
55.9180867963
 20
202.033862787
 11
55.6701540826
 21
201.9674020666
  0
LINE
  5
23E
100
AcDbEntity
  8
0
100
AcDbLine
 62
7
  6
CONTINUOUS
 10
58.0172504385
 20
203.7916985504
 11
57.7693177248
 21
203.72523783
  0
LINE
  5
23F
100
AcDbEntity
  8
0
100
AcDbLine
 62
7
  6
CONTINUOUS
 10
55.9180867963
 20
203.2289977845
 11
55.6701540826
 21
203.1625370641
  0
LINE
  5
240
100
AcDbEntity
  8
0
100
AcDbLine
 62
7
  6
CONTINUOUS
 10
58.0172504385
 20
204.931673471
 11
57.7693177248
 21
204.8652127507
  0
LINE
  5
241
100
AcDbEntity
  8
0
100
AcDbLine
 62
7
  6
CONTINUOUS
 10
55.9180867963
 20
204.3689727051
 11
55.6701540826
 21
204.3025119847
  0
LINE
  5
242
100
AcDbEntity
  8
0
100
AcDbLine
 62
7
  6
CONTINUOUS
 10
-11.442856449
 20
200.1359829459
 11
-12.8731226682
 21
205.0071380563
  0
LINE
  5
243
100
AcDbEntity
  8
0
100
AcDbLine
 62
7
  6
CONTINUOUS
 10
-16.2512505228
 20
205.1195834662
 11
-16.2512505228
 21
207.8775873065
  0
LINE
  5
244
100
AcDbEntity
  8
0
100
AcDbLine
 62
7
  6
CONTINUOUS
 10
-13.7176546318
 20
292.9236384528
 11
-13.7176546318
 21
282.0295232836
  0
LINE
  5
245
100
AcDbEntity
  8
0
100
AcDbLine
 62
7
  6
CONTINUOUS
 10
-12.8731226682
 20
281.5417446244
 11
-12.8731226682
 21
214.9359518813
  0
LINE
  5
246
100
AcDbEntity
  8
0
100
AcDbLine
 62
7
  6
CONTINUOUS
 10
-16.2512505228
 20
207.8775873065
 11
-15.8466490626
 21
215.1952477954
  0
LINE
  5
247
100
AcDbEntity
  8
0
100
AcDbLine
 62
7
  6
CONTINUOUS
 10
2.0028401505
 20
299.8448765863
 11
1.4541158332
 21
297.7012540942
  0
LINE
  5
248
100
AcDbEntity
  8
0
100
AcDbLine
 62
7
  6
CONTINUOUS
 10
58.0172504385
 20
206.1268084685
 11
57.7693177248
 21
206.0603477481
  0
LINE
  5
249
100
AcDbEntity
  8
0
100
AcDbLine
 62
7
  6
CONTINUOUS
 10
55.9180867963
 20
205.5641077026
 11
55.6701540826
 21
205.4976469822
  0
LINE
  5
24A
100
AcDbEntity
  8
0
100
AcDbLine
 62
7
  6
CONTINUOUS
 10
58.0172504385
 20
207.2667833892
 11
57.7693177248
 21
207.2003226688
  0
LINE
  5
24B
100
AcDbEntity
  8
0
100
AcDbLine
 62
7
  6
CONTINUOUS
 10
55.9180867963
 20
206.7040826232
 11
55.6701540826
 21
206.6376219029
  0
LINE
  5
24C
100
AcDbEntity
  8
0
100
AcDbLine
 62
7
  6
CONTINUOUS
 10
58.0172504385
 20
208.4619183866
 11
57.7693177248
 21
208.3954576662
  0
LINE
  5
24D
100
AcDbEntity
  8
0
100
AcDbLine
 62
7
  6
CONTINUOUS
 10
55.9180867963
 20
207.8992176207
 11
55.6701540826
 21
207.8327569003
  0
LINE
  5
24E
100
AcDbEntity
  8
0
100
AcDbLine
 62
7
  6
CONTINUOUS
 10
58.0172504385
 20
209.6018933073
 11
57.7693177248
 21
209.5354325869
  0
LINE
  5
24F
100
AcDbEntity
  8
0
100
AcDbLine
 62
7
  6
CONTINUOUS
 10
55.9180867963
 20
209.0391925414
 11
55.6701540826
 21
208.972731821
  0
LINE
  5
250
100
AcDbEntity
  8
0
100
AcDbLine
 62
7
  6
CONTINUOUS
 10
58.0172504385
 20
210.7970283047
 11
57.7693177248
 21
210.7305675844
  0
LINE
  5
251
100
AcDbEntity
  8
0
100
AcDbLine
 62
7
  6
CONTINUOUS
 10
55.9180867963
 20
210.2343275388
 11
55.6701540826
 21
210.1678668184
  0
LINE
  5
252
100
AcDbEntity
  8
0
100
AcDbLine
 62
7
  6
CONTINUOUS
 10
56.1127361706
 20
184.6978083272
 11
55.8153151028
 21
184.8293004919
  0
LINE
  5
253
100
AcDbEntity
  8
0
100
AcDbLine
 62
7
  6
CONTINUOUS
 10
55.5189794671
 20
184.9603127787
 11
55.3517010026
 21
185.0342678875
  0
LINE
  5
254
100
AcDbEntity
  8
0
100
AcDbLine
 62
7
  6
CONTINUOUS
 10
-13.1546333228
 20
215.0985447677
 11
-12.8731226682
 21
214.9359518813
  0
LINE
  5
255
100
AcDbEntity
  8
0
100
AcDbLine
 62
7
  6
CONTINUOUS
 10
4.5225618814
 20
297.1111289287
 11
4.8021177644
 21
298.228090082
  0
LINE
  5
256
100
AcDbEntity
  8
0
100
AcDbLine
 62
7
  6
CONTINUOUS
 10
58.0172504385
 20
211.9370032254
 11
57.7693177248
 21
211.870542505
  0
LINE
  5
257
100
AcDbEntity
  8
0
100
AcDbLine
 62
7
  6
CONTINUOUS
 10
55.9180867963
 20
211.3743024595
 11
55.6701540826
 21
211.3078417391
  0
LINE
  5
258
100
AcDbEntity
  8
0
100
AcDbLine
 62
7
  6
CONTINUOUS
 10
58.0172504385
 20
213.1321382229
 11
57.7693177248
 21
213.0656775025
  0
LINE
  5
259
100
AcDbEntity
  8
0
100
AcDbLine
 62
7
  6
CONTINUOUS
 10
55.9180867963
 20
212.5694374569
 11
55.6701540826
 21
212.5029767366
  0
LINE
  5
25A
100
AcDbEntity
  8
0
100
AcDbLine
 62
7
  6
CONTINUOUS
 10
58.0172504385
 20
214.2721131435
 11
57.7693177248
 21
214.2056524231
  0
LINE
  5
25B
100
AcDbEntity
  8
0
100
AcDbLine
 62
7
  6
CONTINUOUS
 10
55.9180867963
 20
213.7094123776
 11
55.6701540826
 21
213.6429516572
  0
LINE
  5
25C
100
AcDbEntity
  8
0
100
AcDbLine
 62
7
  6
CONTINUOUS
 10
58.0172504385
 20
215.467248141
 11
57.7693177248
 21
215.4007874206
  0
LINE
  5
25D
100
AcDbEntity
  8
0
100
AcDbLine
 62
7
  6
CONTINUOUS
 10
55.9180867963
 20
214.9045473751
 11
55.6701540826
 21
214.8380866547
  0
LINE
  5
25E
100
AcDbEntity
  8
0
100
AcDbLine
 62
7
  6
CONTINUOUS
 10
51.2829861573
 20
183.9619982247
 11
50.5053169706
 21
184.4000771754
  0
LINE
  5
25F
100
AcDbEntity
  8
0
100
AcDbLine
 62
7
  6
CONTINUOUS
 10
51.2829861573
 20
183.6694340124
 11
55.0833799937
 21
181.474430046
  0
LINE
  5
260
100
AcDbEntity
  8
0
100
AcDbLine
 62
7
  6
CONTINUOUS
 10
53.4346274479
 20
182.8711354823
 11
50.5053169706
 21
184.5630254267
  0
LINE
  5
261
100
AcDbEntity
  8
0
100
AcDbLine
 62
7
  6
CONTINUOUS
 10
-1.8380473313
 20
294.8864081713
 11
-1.8297715042
 21
298.2131889784
  0
LINE
  5
262
100
AcDbEntity
  8
0
100
AcDbLine
 62
7
  6
CONTINUOUS
 10
-14.1117695482
 20
205.7225467564
 11
-14.5216155438
 21
204.1205934134
  0
LINE
  5
263
100
AcDbEntity
  8
0
100
AcDbLine
 62
7
  6
CONTINUOUS
 10
58.0172504385
 20
216.6072230616
 11
57.7693177248
 21
216.5407623412
  0
LINE
  5
264
100
AcDbEntity
  8
0
100
AcDbLine
 62
7
  6
CONTINUOUS
 10
55.9180867963
 20
216.0445222957
 11
55.6701540826
 21
215.9780615753
  0
LINE
  5
265
100
AcDbEntity
  8
0
100
AcDbLine
 62
7
  6
CONTINUOUS
 10
58.0172504385
 20
217.8023580591
 11
57.7693177248
 21
217.7358973387
  0
LINE
  5
266
100
AcDbEntity
  8
0
100
AcDbLine
 62
7
  6
CONTINUOUS
 10
55.9180867963
 20
217.2396572932
 11
55.6701540826
 21
217.1731965728
  0
LINE
  5
267
100
AcDbEntity
  8
0
100
AcDbLine
 62
7
  6
CONTINUOUS
 10
58.0172504385
 20
218.9423329797
 11
57.7693177248
 21
218.8758722594
  0
LINE
  5
268
100
AcDbEntity
  8
0
100
AcDbLine
 62
7
  6
CONTINUOUS
 10
55.9180867963
 20
218.3796322138
 11
55.6701540826
 21
218.3131714934
  0
LINE
  5
269
100
AcDbEntity
  8
0
100
AcDbLine
 62
7
  6
CONTINUOUS
 10
58.0172504385
 20
220.1374679772
 11
57.7693177248
 21
220.0710072568
  0
LINE
  5
26A
100
AcDbEntity
  8
0
100
AcDbLine
 62
7
  6
CONTINUOUS
 10
55.9180867963
 20
219.5747672113
 11
55.6701540826
 21
219.5083064909
  0
LINE
  5
26B
100
AcDbEntity
  8
0
100
AcDbLine
 62
7
  6
CONTINUOUS
 10
58.0172504385
 20
221.2774428979
 11
57.7693177248
 21
221.2109821775
  0
LINE
  5
26C
100
AcDbEntity
  8
0
100
AcDbLine
 62
7
  6
CONTINUOUS
 10
55.9180867963
 20
220.7147421319
 11
55.6701540826
 21
220.6482814116
  0
LINE
  5
26D
100
AcDbEntity
  8
0
100
AcDbLine
 62
7
  6
CONTINUOUS
 10
53.4346274479
 20
187.9274758561
 11
53.997648757
 21
187.6022900833
  0
LINE
  5
26E
100
AcDbEntity
  8
0
100
AcDbLine
 62
9
  6
CONTINUOUS
 10
54.881634911
 20
190.637876
 11
55.8211397051
 21
190.0952436207
  0
LINE
  5
26F
100
AcDbEntity
  8
0
100
AcDbLine
 62
7
  6
CONTINUOUS
 10
1.4963482492
 20
297.3419471435
 11
1.4944888956
 21
297.6909194009
  0
LINE
  5
270
100
AcDbEntity
  8
0
100
AcDbLine
 62
7
  6
CONTINUOUS
 10
2.0028401505
 20
299.8448765863
 11
2.0028401505
 21
300.1927749317
  0
LINE
  5
271
100
AcDbEntity
  8
0
100
AcDbLine
 62
7
  6
CONTINUOUS
 10
2.9043735382
 20
292.8703882537
 11
2.9043735382
 21
291.9234736019
  0
LINE
  5
272
100
AcDbEntity
  8
0
100
AcDbLine
 62
7
  6
CONTINUOUS
 10
-0.158395862
 20
297.2478479316
 11
-0.1666716891
 21
293.9210671246
  0
LINE
  5
273
100
AcDbEntity
  8
0
100
AcDbLine
 62
7
  6
CONTINUOUS
 10
58.0172504385
 20
222.4725778953
 11
57.7693177248
 21
222.4061171749
  0
LINE
  5
274
100
AcDbEntity
  8
0
100
AcDbLine
 62
7
  6
CONTINUOUS
 10
55.9180867963
 20
221.9098771294
 11
55.6701540826
 21
221.843416409
  0
LINE
  5
275
100
AcDbEntity
  8
0
100
AcDbLine
 62
7
  6
CONTINUOUS
 10
-12.7520907355
 20
204.5949313568
 11
-14.5216155437
 21
204.1205934134
  0
LINE
  5
276
100
AcDbEntity
  8
0
100
AcDbLine
 62
7
  6
CONTINUOUS
 10
58.0172504385
 20
223.612552816
 11
57.7693177248
 21
223.5460920956
  0
LINE
  5
277
100
AcDbEntity
  8
0
100
AcDbLine
 62
7
  6
CONTINUOUS
 10
55.9180867963
 20
223.0498520501
 11
55.6701540826
 21
222.9833913297
  0
LINE
  5
278
100
AcDbEntity
  8
0
100
AcDbLine
 62
7
  6
CONTINUOUS
 10
58.0172504385
 20
224.8076878134
 11
57.7693177248
 21
224.741227093
  0
LINE
  5
279
100
AcDbEntity
  8
0
100
AcDbLine
 62
7
  6
CONTINUOUS
 10
55.9180867963
 20
224.2449870475
 11
55.6701540826
 21
224.1785263271
  0
LINE
  5
27A
100
AcDbEntity
  8
0
100
AcDbLine
 62
7
  6
CONTINUOUS
 10
58.0172504385
 20
225.9476627341
 11
57.7693177248
 21
225.8812020137
  0
LINE
  5
27B
100
AcDbEntity
  8
0
100
AcDbLine
 62
7
  6
CONTINUOUS
 10
55.9180867963
 20
225.3849619682
 11
55.6701540826
 21
225.3185012478
  0
LINE
  5
27C
100
AcDbEntity
  8
0
100
AcDbLine
 62
7
  6
CONTINUOUS
 10
55.6701540826
 20
192.6269623942
 11
54.8654132548
 21
193.0917587772
  0
LINE
  5
27D
100
AcDbEntity
  8
0
100
AcDbLine
 62
9
  6
CONTINUOUS
 10
59.2508755772
 20
191.618891357
 11
56.3231647698
 21
193.3098573756
  0
LINE
  5
27E
100
AcDbEntity
  8
0
100
AcDbLine
 62
7
  6
CONTINUOUS
 10
55.6701540826
 20
193.8220973916
 11
54.8654132548
 21
194.2868937746
  0
LINE
  5
27F
100
AcDbEntity
  8
0
100
AcDbLine
 62
7
  6
CONTINUOUS
 10
54.8654132548
 20
194.4965536773
 11
55.9180867963
 21
193.888558112
  0
LINE
  5
280
100
AcDbEntity
  8
0
100
AcDbLine
 62
7
  6
CONTINUOUS
 10
57.7693177248
 20
193.1896631601
 11
55.4046282266
 21
194.5554434059
  0
LINE
  5
281
100
AcDbEntity
  8
0
100
AcDbLine
 62
7
  6
CONTINUOUS
 10
55.6701540826
 20
194.9620723123
 11
54.8654132548
 21
195.4268686953
  0
LINE
  5
282
100
AcDbEntity
  8
0
100
AcDbLine
 62
9
  6
CONTINUOUS
 10
58.0172504385
 20
193.8289552748
 11
59.9480338845
 21
192.7137873462
  0
LINE
  5
283
100
AcDbEntity
  8
0
100
AcDbLine
 62
7
  6
CONTINUOUS
 10
57.7693177248
 20
194.3847981575
 11
55.9180867963
 21
195.4540187189
  0
LINE
  5
284
100
AcDbEntity
  8
0
100
AcDbLine
 62
7
  6
CONTINUOUS
 10
55.9180867963
 20
195.6636786216
 11
58.0172504385
 21
194.4512588779
  0
LINE
  5
285
100
AcDbEntity
  8
0
100
AcDbLine
 62
7
  6
CONTINUOUS
 10
57.8776186929
 20
187.7534969557
 11
57.6150966331
 21
187.94541269
  0
LINE
  5
286
100
AcDbEntity
  8
0
100
AcDbLine
 62
7
  6
CONTINUOUS
 10
57.3535326421
 20
188.1366280317
 11
57.209503057
 21
188.2419203016
  0
LINE
  5
287
100
AcDbEntity
  8
0
100
AcDbLine
 62
7
  6
CONTINUOUS
 10
6.4920216533
 20
296.0695738778
 11
6.4531431685
 21
299.0201338085
  0
LINE
  5
288
100
AcDbEntity
  8
0
100
AcDbLine
 62
7
  6
CONTINUOUS
 10
4.8002584109
 20
298.5770623393
 11
4.8021177644
 21
298.228090082
  0
LINE
  5
289
100
AcDbEntity
  8
0
100
AcDbLine
 62
7
  6
CONTINUOUS
 10
4.0861135787
 20
296.1167982231
 11
4.0861135787
 21
293.1871649035
  0
LINE
  5
28A
100
AcDbEntity
  8
0
100
AcDbLine
 62
7
  6
CONTINUOUS
 10
4.0861135787
 20
292.2402502517
 11
4.0861135787
 21
291.0615604559
  0
LINE
  5
28B
100
AcDbEntity
  8
0
100
AcDbLine
 62
7
  6
CONTINUOUS
 10
4.2333124696
 20
290.9765423859
 11
4.2333124696
 21
292.9938717924
  0
LINE
  5
28C
100
AcDbEntity
  8
0
100
AcDbLine
 62
7
  6
CONTINUOUS
 10
4.2333124696
 20
293.9407864443
 11
4.2333124696
 21
296.8704197638
  0
LINE
  5
28D
100
AcDbEntity
  8
0
100
AcDbLine
 62
7
  6
CONTINUOUS
 10
4.9604059242
 20
293.5208370692
 11
4.9604059242
 21
293.1887761036
  0
LINE
  5
28E
100
AcDbEntity
  8
0
100
AcDbLine
 62
7
  6
CONTINUOUS
 10
5.0778444333
 20
291.0419286441
 11
5.0778444333
 21
292.5060931332
  0
LINE
  5
28F
100
AcDbEntity
  8
0
100
AcDbLine
 62
7
  6
CONTINUOUS
 10
5.0778444333
 20
293.453007785
 11
5.0778444333
 21
296.3826411046
  0
LINE
  5
290
100
AcDbEntity
  8
0
100
AcDbLine
 62
7
  6
CONTINUOUS
 10
6.0935945132
 20
293.7252892482
 11
6.0935945132
 21
292.9138281909
  0
LINE
  5
291
100
AcDbEntity
  8
0
100
AcDbLine
 62
7
  6
CONTINUOUS
 10
6.2537747709
 20
292.8213124369
 11
6.2537747709
 21
293.7682270888
  0
LINE
  5
292
100
AcDbEntity
  8
0
100
AcDbLine
 62
7
  6
CONTINUOUS
 10
6.9736148041
 20
295.8350887843
 11
6.9668933759
 21
295.6716361183
  0
LINE
  5
293
100
AcDbEntity
  8
0
100
AcDbLine
 62
7
  6
CONTINUOUS
 10
10.6456851932
 20
290.6400582844
 11
10.799073873
 21
292.5755585732
  0
LINE
  5
294
100
AcDbEntity
  8
0
100
AcDbLine
 62
7
  6
CONTINUOUS
 10
58.0172504385
 20
227.1427977315
 11
57.7693177248
 21
227.0763370112
  0
LINE
  5
295
100
AcDbEntity
  8
0
100
AcDbLine
 62
7
  6
CONTINUOUS
 10
55.9180867963
 20
226.5800969656
 11
55.6701540826
 21
226.5136362452
  0
LINE
  5
296
100
AcDbEntity
  8
0
100
AcDbLine
 62
7
  6
CONTINUOUS
 10
58.0172504385
 20
228.2827726522
 11
57.7693177248
 21
228.2163119318
  0
LINE
  5
297
100
AcDbEntity
  8
0
100
AcDbLine
 62
7
  6
CONTINUOUS
 10
55.9180867963
 20
227.7200718863
 11
55.6701540826
 21
227.6536111659
  0
LINE
  5
298
100
AcDbEntity
  8
0
100
AcDbLine
 62
7
  6
CONTINUOUS
 10
58.0172504385
 20
229.4779076497
 11
57.7693177248
 21
229.4114469293
  0
LINE
  5
299
100
AcDbEntity
  8
0
100
AcDbLine
 62
7
  6
CONTINUOUS
 10
55.9180867963
 20
228.9152068837
 11
55.6701540826
 21
228.8487461634
  0
LINE
  5
29A
100
AcDbEntity
  8
0
100
AcDbLine
 62
7
  6
CONTINUOUS
 10
58.0172504385
 20
230.6178825703
 11
57.7693177248
 21
230.5514218499
  0
LINE
  5
29B
100
AcDbEntity
  8
0
100
AcDbLine
 62
7
  6
CONTINUOUS
 10
55.9180867963
 20
230.0551818044
 11
55.6701540826
 21
229.988721084
  0
LINE
  5
29C
100
AcDbEntity
  8
0
100
AcDbLine
 62
7
  6
CONTINUOUS
 10
58.0172504385
 20
231.8130175678
 11
57.7693177248
 21
231.7465568474
  0
LINE
  5
29D
100
AcDbEntity
  8
0
100
AcDbLine
 62
7
  6
CONTINUOUS
 10
55.9180867963
 20
231.2503168019
 11
55.6701540826
 21
231.1838560815
  0
LINE
  5
29E
100
AcDbEntity
  8
0
100
AcDbLine
 62
7
  6
CONTINUOUS
 10
55.6701540826
 20
196.1572073097
 11
54.8654132548
 21
196.6220036927
  0
LINE
  5
29F
100
AcDbEntity
  8
0
100
AcDbLine
 62
7
  6
CONTINUOUS
 10
54.8654132548
 20
196.8316635954
 11
55.9180867963
 21
196.2236680301
  0
LINE
  5
2A0
100
AcDbEntity
  8
0
100
AcDbLine
 62
7
  6
CONTINUOUS
 10
57.7693177248
 20
195.5247730782
 11
55.4046282266
 21
196.890553324
  0
LINE
  5
2A1
100
AcDbEntity
  8
0
100
AcDbLine
 62
7
  6
CONTINUOUS
 10
55.6701540826
 20
197.2971822304
 11
54.8654132548
 21
197.7619786134
  0
LINE
  5
2A2
100
AcDbEntity
  8
0
100
AcDbLine
 62
7
  6
CONTINUOUS
 10
57.7693177248
 20
196.7199080757
 11
55.9180867963
 21
197.789128637
  0
LINE
  5
2A3
100
AcDbEntity
  8
0
100
AcDbLine
 62
7
  6
CONTINUOUS
 10
55.9180867963
 20
197.9987885397
 11
58.0172504385
 21
196.786368796
  0
LINE
  5
2A4
100
AcDbEntity
  8
0
100
AcDbLine
 62
7
  6
CONTINUOUS
 10
55.6701540826
 20
198.4923172279
 11
54.8654132548
 21
198.9571136109
  0
LINE
  5
2A5
100
AcDbEntity
  8
0
100
AcDbLine
 62
7
  6
CONTINUOUS
 10
54.8654132548
 20
199.1667735136
 11
55.9180867963
 21
198.5587779482
  0
LINE
  5
2A6
100
AcDbEntity
  8
0
100
AcDbLine
 62
7
  6
CONTINUOUS
 10
57.7693177248
 20
197.8598829963
 11
55.4046282266
 21
199.2256632421
  0
LINE
  5
2A7
100
AcDbEntity
  8
0
100
AcDbLine
 62
7
  6
CONTINUOUS
 10
55.6701540826
 20
199.6322921485
 11
54.8654132548
 21
200.0970885315
  0
LINE
  5
2A8
100
AcDbEntity
  8
0
100
AcDbLine
 62
7
  6
CONTINUOUS
 10
57.7693177248
 20
199.0550179938
 11
55.9180867963
 21
200.1242385551
  0
LINE
  5
2A9
100
AcDbEntity
  8
0
100
AcDbLine
 62
7
  6
CONTINUOUS
 10
55.9180867963
 20
200.3338984578
 11
58.0172504385
 21
199.1214787142
  0
LINE
  5
2AA
100
AcDbEntity
  8
0
100
AcDbLine
 62
7
  6
CONTINUOUS
 10
55.6701540826
 20
200.827427146
 11
54.8654132548
 21
201.292223529
  0
LINE
  5
2AB
100
AcDbEntity
  8
0
100
AcDbLine
 62
7
  6
CONTINUOUS
 10
54.8654132548
 20
201.5018834317
 11
55.9180867963
 21
200.8938878664
  0
LINE
  5
2AC
100
AcDbEntity
  8
0
100
AcDbLine
 62
7
  6
CONTINUOUS
 10
57.7693177248
 20
200.1949929144
 11
55.4046282266
 21
201.5607731602
  0
LINE
  5
2AD
100
AcDbEntity
  8
0
100
AcDbLine
 62
7
  6
CONTINUOUS
 10
11.6114462295
 20
299.7133446806
 11
11.6114462295
 21
299.4588485083
  0
LINE
  5
2AE
100
AcDbEntity
  8
0
100
AcDbLine
 62
7
  6
CONTINUOUS
 10
11.6795525383
 20
299.778952745
 11
11.67955251
 21
299.4771050442
  0
LINE
  5
2AF
100
AcDbEntity
  8
0
100
AcDbLine
 62
7
  6
CONTINUOUS
 10
58.0172504385
 20
232.9529924884
 11
57.7693177248
 21
232.886531768
  0
LINE
  5
2B0
100
AcDbEntity
  8
0
100
AcDbLine
 62
7
  6
CONTINUOUS
 10
55.9180867963
 20
232.3902917225
 11
55.6701540826
 21
232.3238310021
  0
LINE
  5
2B1
100
AcDbEntity
  8
0
100
AcDbLine
 62
7
  6
CONTINUOUS
 10
58.0172504385
 20
234.1481274859
 11
57.7693177248
 21
234.0816667655
  0
LINE
  5
2B2
100
AcDbEntity
  8
0
100
AcDbLine
 62
7
  6
CONTINUOUS
 10
55.9180867963
 20
233.58542672
 11
55.6701540826
 21
233.5189659996
  0
LINE
  5
2B3
100
AcDbEntity
  8
0
100
AcDbLine
 62
9
  6
CONTINUOUS
 10
-12.8731226682
 20
215.1740063743
 11
-13.1546333228
 21
215.0985447677
  0
LINE
  5
2B4
100
AcDbEntity
  8
0
100
AcDbLine
 62
7
  6
CONTINUOUS
 10
-13.5696352107
 20
215.915060554
 11
-15.2259809756
 21
215.4710613289
  0
LINE
  5
2B5
100
AcDbEntity
  8
0
100
AcDbLine
 62
7
  6
CONTINUOUS
 10
58.0172504385
 20
235.2881024065
 11
57.7693177248
 21
235.2216416862
  0
LINE
  5
2B6
100
AcDbEntity
  8
0
100
AcDbLine
 62
7
  6
CONTINUOUS
 10
55.9180867963
 20
234.7254016406
 11
55.6701540826
 21
234.6589409203
  0
LINE
  5
2B7
100
AcDbEntity
  8
0
100
AcDbLine
 62
7
  6
CONTINUOUS
 10
58.0172504385
 20
236.483237404
 11
57.7693177248
 21
236.4167766836
  0
LINE
  5
2B8
100
AcDbEntity
  8
0
100
AcDbLine
 62
7
  6
CONTINUOUS
 10
55.9180867963
 20
235.9205366381
 11
55.6701540826
 21
235.8540759177
  0
LINE
  5
2B9
100
AcDbEntity
  8
0
100
AcDbLine
 62
7
  6
CONTINUOUS
 10
55.6701540826
 20
201.9674020666
 11
54.8654132548
 21
202.4321984496
  0
LINE
  5
2BA
100
AcDbEntity
  8
0
100
AcDbLine
 62
7
  6
CONTINUOUS
 10
57.7693177248
 20
201.3901279119
 11
55.9180867963
 21
202.4593484732
  0
LINE
  5
2BB
100
AcDbEntity
  8
0
100
AcDbLine
 62
7
  6
CONTINUOUS
 10
55.9180867963
 20
202.6690083759
 11
58.0172504385
 21
201.4565886323
  0
LINE
  5
2BC
100
AcDbEntity
  8
0
100
AcDbLine
 62
7
  6
CONTINUOUS
 10
55.6701540826
 20
203.1625370641
 11
54.8654132548
 21
203.6273334471
  0
LINE
  5
2BD
100
AcDbEntity
  8
0
100
AcDbLine
 62
7
  6
CONTINUOUS
 10
54.8654132548
 20
203.8369933498
 11
55.9180867963
 21
203.2289977845
  0
LINE
  5
2BE
100
AcDbEntity
  8
0
100
AcDbLine
 62
7
  6
CONTINUOUS
 10
57.7693177248
 20
202.5301028325
 11
55.4046282266
 21
203.8958830783
  0
LINE
  5
2BF
100
AcDbEntity
  8
0
100
AcDbLine
 62
7
  6
CONTINUOUS
 10
55.6701540826
 20
204.3025119847
 11
54.8654132548
 21
204.7673083677
  0
LINE
  5
2C0
100
AcDbEntity
  8
0
100
AcDbLine
 62
7
  6
CONTINUOUS
 10
57.7693177248
 20
203.72523783
 11
55.9180867963
 21
204.7944583913
  0
LINE
  5
2C1
100
AcDbEntity
  8
0
100
AcDbLine
 62
7
  6
CONTINUOUS
 10
55.9180867963
 20
205.004118294
 11
58.0172504385
 21
203.7916985504
  0
LINE
  5
2C2
100
AcDbEntity
  8
0
100
AcDbLine
 62
7
  6
CONTINUOUS
 10
55.6701540826
 20
205.4976469822
 11
54.8654132548
 21
205.9624433652
  0
LINE
  5
2C3
100
AcDbEntity
  8
0
100
AcDbLine
 62
7
  6
CONTINUOUS
 10
54.8654132548
 20
206.1721032679
 11
55.9180867963
 21
205.5641077026
  0
LINE
  5
2C4
100
AcDbEntity
  8
0
100
AcDbLine
 62
7
  6
CONTINUOUS
 10
57.7693177248
 20
204.8652127507
 11
55.4046282266
 21
206.2309929965
  0
LINE
  5
2C5
100
AcDbEntity
  8
0
100
AcDbLine
 62
7
  6
CONTINUOUS
 10
55.6701540826
 20
206.6376219029
 11
54.8654132548
 21
207.1024182859
  0
LINE
  5
2C6
100
AcDbEntity
  8
0
100
AcDbLine
 62
7
  6
CONTINUOUS
 10
57.7693177248
 20
206.0603477481
 11
55.9180867963
 21
207.1295683094
  0
LINE
  5
2C7
100
AcDbEntity
  8
0
100
AcDbLine
 62
7
  6
CONTINUOUS
 10
55.9180867963
 20
207.3392282121
 11
58.0172504385
 21
206.1268084685
  0
LINE
  5
2C8
100
AcDbEntity
  8
0
100
AcDbLine
 62
7
  6
CONTINUOUS
 10
-10.4136397678
 20
300.9336071888
 11
-9.9625875409
 21
299.5727663622
  0
LINE
  5
2C9
100
AcDbEntity
  8
0
100
AcDbLine
 62
7
  6
CONTINUOUS
 10
61.7850015525
 20
257.5574493071
 11
61.9928660362
 21
257.6318624399
  0
LINE
  5
2CA
100
AcDbEntity
  8
0
100
AcDbLine
 62
7
  6
CONTINUOUS
 10
61.7845603093
 20
257.563451402
 11
61.9928660362
 21
257.6318624399
  0
LINE
  5
2CB
100
AcDbEntity
  8
0
100
AcDbLine
 62
7
  6
CONTINUOUS
 10
58.0172504385
 20
237.6232123247
 11
57.7693177248
 21
237.5567516043
  0
LINE
  5
2CC
100
AcDbEntity
  8
0
100
AcDbLine
 62
7
  6
CONTINUOUS
 10
55.9180867963
 20
237.0605115587
 11
55.6701540826
 21
236.9940508384
  0
LINE
  5
2CD
100
AcDbEntity
  8
0
100
AcDbLine
 62
7
  6
CONTINUOUS
 10
58.0172504385
 20
238.8183473221
 11
57.7693177248
 21
238.7518866017
  0
LINE
  5
2CE
100
AcDbEntity
  8
0
100
AcDbLine
 62
7
  6
CONTINUOUS
 10
55.9180867963
 20
238.2556465562
 11
55.6701540826
 21
238.1891858358
  0
LINE
  5
2CF
100
AcDbEntity
  8
0
100
AcDbLine
 62
7
  6
CONTINUOUS
 10
55.6701540826
 20
207.8327569003
 11
54.8654132548
 21
208.2975532833
  0
LINE
  5
2D0
100
AcDbEntity
  8
0
100
AcDbLine
 62
7
  6
CONTINUOUS
 10
54.8654132548
 20
208.507213186
 11
55.9180867963
 21
207.8992176207
  0
LINE
  5
2D1
100
AcDbEntity
  8
0
100
AcDbLine
 62
7
  6
CONTINUOUS
 10
57.7693177248
 20
207.2003226688
 11
55.4046282266
 21
208.5661029146
  0
LINE
  5
2D2
100
AcDbEntity
  8
0
100
AcDbLine
 62
7
  6
CONTINUOUS
 10
55.6701540826
 20
208.972731821
 11
54.8654132548
 21
209.437528204
  0
LINE
  5
2D3
100
AcDbEntity
  8
0
100
AcDbLine
 62
7
  6
CONTINUOUS
 10
57.7693177248
 20
208.3954576662
 11
55.9180867963
 21
209.4646782276
  0
LINE
  5
2D4
100
AcDbEntity
  8
0
100
AcDbLine
 62
7
  6
CONTINUOUS
 10
55.9180867963
 20
209.6743381303
 11
58.0172504385
 21
208.4619183866
  0
LINE
  5
2D5
100
AcDbEntity
  8
0
100
AcDbLine
 62
7
  6
CONTINUOUS
 10
55.6701540826
 20
210.1678668184
 11
54.8654132548
 21
210.6326632014
  0
LINE
  5
2D6
100
AcDbEntity
  8
0
100
AcDbLine
 62
7
  6
CONTINUOUS
 10
54.8654132548
 20
210.8423231041
 11
55.9180867963
 21
210.2343275388
  0
LINE
  5
2D7
100
AcDbEntity
  8
0
100
AcDbLine
 62
7
  6
CONTINUOUS
 10
57.7693177248
 20
209.5354325869
 11
55.4046282266
 21
210.9012128327
  0
LINE
  5
2D8
100
AcDbEntity
  8
0
100
AcDbLine
 62
7
  6
CONTINUOUS
 10
55.6701540826
 20
211.3078417391
 11
54.8654132548
 21
211.7726381221
  0
LINE
  5
2D9
100
AcDbEntity
  8
0
100
AcDbLine
 62
7
  6
CONTINUOUS
 10
57.7693177248
 20
210.7305675844
 11
55.9180867963
 21
211.7997881457
  0
LINE
  5
2DA
100
AcDbEntity
  8
0
100
AcDbLine
 62
7
  6
CONTINUOUS
 10
55.9180867963
 20
212.0094480484
 11
58.0172504385
 21
210.7970283047
  0
LINE
  5
2DB
100
AcDbEntity
  8
0
100
AcDbLine
 62
7
  6
CONTINUOUS
 10
55.6701540826
 20
212.5029767366
 11
54.8654132548
 21
212.9677731195
  0
LINE
  5
2DC
100
AcDbEntity
  8
0
100
AcDbLine
 62
7
  6
CONTINUOUS
 10
54.8654132548
 20
213.1774330222
 11
55.9180867963
 21
212.5694374569
  0
LINE
  5
2DD
100
AcDbEntity
  8
0
100
AcDbLine
 62
7
  6
CONTINUOUS
 10
57.7693177248
 20
211.870542505
 11
55.4046282266
 21
213.2363227508
  0
LINE
  5
2DE
100
AcDbEntity
  8
0
100
AcDbLine
 62
7
  6
CONTINUOUS
 10
60.8157983823
 20
243.1926480873
 11
53.997648757
 21
241.3649782768
  0
LINE
  5
2DF
100
AcDbEntity
  8
0
100
AcDbLine
 62
7
  6
CONTINUOUS
 10
60.2527770732
 20
243.5178338602
 11
53.4346274479
 21
241.6901640496
  0
LINE
  5
2E0
100
AcDbEntity
  8
0
100
AcDbLine
 62
7
  6
CONTINUOUS
 10
59.2508755772
 20
240.1647317606
 11
55.8211397054
 21
239.8496328996
  0
LINE
  5
2E1
100
AcDbEntity
  8
0
100
AcDbLine
 62
7
  6
CONTINUOUS
 10
55.6701540826
 20
213.6429516572
 11
54.8654132548
 21
214.1077480402
  0
LINE
  5
2E2
100
AcDbEntity
  8
0
100
AcDbLine
 62
7
  6
CONTINUOUS
 10
57.7693177248
 20
213.0656775025
 11
55.9180867963
 21
214.1348980638
  0
LINE
  5
2E3
100
AcDbEntity
  8
0
100
AcDbLine
 62
7
  6
CONTINUOUS
 10
55.9180867963
 20
214.3445579665
 11
58.0172504385
 21
213.1321382229
  0
LINE
  5
2E4
100
AcDbEntity
  8
0
100
AcDbLine
 62
7
  6
CONTINUOUS
 10
55.6701540826
 20
214.8380866547
 11
54.8654132548
 21
215.3028830377
  0
LINE
  5
2E5
100
AcDbEntity
  8
0
100
AcDbLine
 62
7
  6
CONTINUOUS
 10
54.8654132548
 20
215.5125429404
 11
55.9180867963
 21
214.9045473751
  0
LINE
  5
2E6
100
AcDbEntity
  8
0
100
AcDbLine
 62
7
  6
CONTINUOUS
 10
57.7693177248
 20
214.2056524231
 11
55.4046282266
 21
215.5714326689
  0
LINE
  5
2E7
100
AcDbEntity
  8
0
100
AcDbLine
 62
7
  6
CONTINUOUS
 10
55.6701540826
 20
215.9780615753
 11
54.8654132548
 21
216.4428579583
  0
LINE
  5
2E8
100
AcDbEntity
  8
0
100
AcDbLine
 62
7
  6
CONTINUOUS
 10
57.7693177248
 20
215.4007874206
 11
55.9180867963
 21
216.4700079819
  0
LINE
  5
2E9
100
AcDbEntity
  8
0
100
AcDbLine
 62
7
  6
CONTINUOUS
 10
55.9180867963
 20
216.6796678846
 11
58.0172504385
 21
215.467248141
  0
LINE
  5
2EA
100
AcDbEntity
  8
0
100
AcDbLine
 62
7
  6
CONTINUOUS
 10
55.6701540826
 20
217.1731965728
 11
54.8654132548
 21
217.6379929558
  0
LINE
  5
2EB
100
AcDbEntity
  8
0
100
AcDbLine
 62
7
  6
CONTINUOUS
 10
54.8654132548
 20
217.8476528585
 11
55.9180867963
 21
217.2396572932
  0
LINE
  5
2EC
100
AcDbEntity
  8
0
100
AcDbLine
 62
7
  6
CONTINUOUS
 10
57.7693177248
 20
216.5407623412
 11
55.4046282266
 21
217.906542587
  0
LINE
  5
2ED
100
AcDbEntity
  8
0
100
AcDbLine
 62
7
  6
CONTINUOUS
 10
55.6701540826
 20
218.3131714934
 11
54.8654132548
 21
218.7779678764
  0
LINE
  5
2EE
100
AcDbEntity
  8
0
100
AcDbLine
 62
7
  6
CONTINUOUS
 10
57.7693177248
 20
217.7358973387
 11
55.9180867963
 21
218.8051179
  0
LINE
  5
2EF
100
AcDbEntity
  8
0
100
AcDbLine
 62
7
  6
CONTINUOUS
 10
55.9180867963
 20
219.0147778027
 11
58.0172504385
 21
217.8023580591
  0
LINE
  5
2F0
100
AcDbEntity
  8
0
100
AcDbLine
 62
7
  6
CONTINUOUS
 10
1.4963482492
 20
297.3419471435
 11
1.791936578
 21
296.3614324319
  0
LINE
  5
2F1
100
AcDbEntity
  8
0
100
AcDbLine
 62
7
  6
CONTINUOUS
 10
24.8493050412
 20
271.1080803221
 11
24.8493050412
 21
179.174618979
  0
LINE
  5
2F2
100
AcDbEntity
  8
0
100
AcDbLine
 62
7
  6
CONTINUOUS
 10
-15.8466490626
 20
215.1952477954
 11
-15.225951168
 21
215.4709502461
  0
LINE
  5
2F3
100
AcDbEntity
  8
0
100
AcDbLine
 62
7
  6
CONTINUOUS
 10
60.2527770732
 20
248.574174234
 11
58.6040245274
 21
248.1322104435
  0
LINE
  5
2F4
100
AcDbEntity
  8
0
100
AcDbLine
 62
7
  6
CONTINUOUS
 10
55.0833799937
 20
247.188468214
 11
53.4346274479
 21
246.7465044235
  0
LINE
  5
2F5
100
AcDbEntity
  8
0
100
AcDbLine
 62
7
  6
CONTINUOUS
 10
58.6040245274
 20
249.9708796703
 11
55.0833799937
 21
249.0271374409
  0
LINE
  5
2F6
100
AcDbEntity
  8
0
100
AcDbLine
 62
7
  6
CONTINUOUS
 10
55.6701540826
 20
219.5083064909
 11
54.8654132548
 21
219.9731028739
  0
LINE
  5
2F7
100
AcDbEntity
  8
0
100
AcDbLine
 62
7
  6
CONTINUOUS
 10
54.8654132548
 20
220.1827627766
 11
55.9180867963
 21
219.5747672113
  0
LINE
  5
2F8
100
AcDbEntity
  8
0
100
AcDbLine
 62
7
  6
CONTINUOUS
 10
57.7693177248
 20
218.8758722594
 11
55.4046282266
 21
220.2416525052
  0
LINE
  5
2F9
100
AcDbEntity
  8
0
100
AcDbLine
 62
7
  6
CONTINUOUS
 10
55.6701540826
 20
220.6482814116
 11
54.8654132548
 21
221.1130777945
  0
LINE
  5
2FA
100
AcDbEntity
  8
0
100
AcDbLine
 62
7
  6
CONTINUOUS
 10
57.7693177248
 20
220.0710072568
 11
55.9180867963
 21
221.1402278181
  0
LINE
  5
2FB
100
AcDbEntity
  8
0
100
AcDbLine
 62
7
  6
CONTINUOUS
 10
55.9180867963
 20
221.3498877208
 11
58.0172504385
 21
220.1374679772
  0
LINE
  5
2FC
100
AcDbEntity
  8
0
100
AcDbLine
 62
7
  6
CONTINUOUS
 10
55.6701540826
 20
221.843416409
 11
54.8654132548
 21
222.308212792
  0
LINE
  5
2FD
100
AcDbEntity
  8
0
100
AcDbLine
 62
7
  6
CONTINUOUS
 10
54.8654132548
 20
222.5178726947
 11
55.9180867963
 21
221.9098771294
  0
LINE
  5
2FE
100
AcDbEntity
  8
0
100
AcDbLine
 62
7
  6
CONTINUOUS
 10
57.7693177248
 20
221.2109821775
 11
55.4046282266
 21
222.5767624233
  0
LINE
  5
2FF
100
AcDbEntity
  8
0
100
AcDbLine
 62
7
  6
CONTINUOUS
 10
55.6701540826
 20
222.9833913297
 11
54.8654132548
 21
223.4481877127
  0
LINE
  5
300
100
AcDbEntity
  8
0
100
AcDbLine
 62
7
  6
CONTINUOUS
 10
57.7693177248
 20
222.4061171749
 11
55.9180867963
 21
223.4753377363
  0
LINE
  5
301
100
AcDbEntity
  8
0
100
AcDbLine
 62
7
  6
CONTINUOUS
 10
55.9180867963
 20
223.684997639
 11
58.0172504385
 21
222.4725778953
  0
LINE
  5
302
100
AcDbEntity
  8
0
100
AcDbLine
 62
7
  6
CONTINUOUS
 10
55.6701540826
 20
224.1785263271
 11
54.8654132548
 21
224.6433227101
  0
LINE
  5
303
100
AcDbEntity
  8
0
100
AcDbLine
 62
7
  6
CONTINUOUS
 10
54.8654132548
 20
224.8529826128
 11
55.9180867963
 21
224.2449870475
  0
LINE
  5
304
100
AcDbEntity
  8
0
100
AcDbLine
 62
7
  6
CONTINUOUS
 10
57.7693177248
 20
223.5460920956
 11
55.4046282266
 21
224.9118723414
  0
LINE
  5
305
100
AcDbEntity
  8
0
100
AcDbLine
 62
7
  6
CONTINUOUS
 10
57.7780099042
 20
252.8699034766
 11
50.5053169706
 21
250.920389012
  0
LINE
  5
306
100
AcDbEntity
  8
0
100
AcDbLine
 62
7
  6
CONTINUOUS
 10
35.546709914
 20
250.5427189323
 11
35.8208512816
 21
250.599658782
  0
LINE
  5
307
100
AcDbEntity
  8
0
100
AcDbLine
 62
7
  6
CONTINUOUS
 10
35.546709914
 20
250.5427189323
 11
35.8202779359
 21
250.5915117269
  0
LINE
  5
308
100
AcDbEntity
  8
0
100
AcDbLine
 62
7
  6
CONTINUOUS
 10
55.6701540826
 20
225.3185012478
 11
54.8654132548
 21
225.7832976308
  0
LINE
  5
309
100
AcDbEntity
  8
0
100
AcDbLine
 62
7
  6
CONTINUOUS
 10
57.7693177248
 20
224.741227093
 11
55.9180867963
 21
225.8104476544
  0
LINE
  5
30A
100
AcDbEntity
  8
0
100
AcDbLine
 62
7
  6
CONTINUOUS
 10
55.9180867963
 20
226.0201075571
 11
58.0172504385
 21
224.8076878134
  0
LINE
  5
30B
100
AcDbEntity
  8
0
100
AcDbLine
 62
7
  6
CONTINUOUS
 10
55.6701540826
 20
226.5136362452
 11
54.8654132548
 21
226.9784326282
  0
LINE
  5
30C
100
AcDbEntity
  8
0
100
AcDbLine
 62
7
  6
CONTINUOUS
 10
54.8654132548
 20
227.1880925309
 11
55.9180867963
 21
226.5800969656
  0
LINE
  5
30D
100
AcDbEntity
  8
0
100
AcDbLine
 62
7
  6
CONTINUOUS
 10
57.7693177248
 20
225.8812020137
 11
55.4046282266
 21
227.2469822595
  0
LINE
  5
30E
100
AcDbEntity
  8
0
100
AcDbLine
 62
7
  6
CONTINUOUS
 10
55.6701540826
 20
227.6536111659
 11
54.8654132548
 21
228.1184075489
  0
LINE
  5
30F
100
AcDbEntity
  8
0
100
AcDbLine
 62
7
  6
CONTINUOUS
 10
57.7693177248
 20
227.0763370112
 11
55.9180867963
 21
228.1455575725
  0
LINE
  5
310
100
AcDbEntity
  8
0
100
AcDbLine
 62
7
  6
CONTINUOUS
 10
55.9180867963
 20
228.3552174752
 11
58.0172504385
 21
227.1427977315
  0
LINE
  5
311
100
AcDbEntity
  8
0
100
AcDbLine
 62
7
  6
CONTINUOUS
 10
55.6701540826
 20
228.8487461634
 11
54.8654132548
 21
229.3135425464
  0
LINE
  5
312
100
AcDbEntity
  8
0
100
AcDbLine
 62
7
  6
CONTINUOUS
 10
54.8654132548
 20
229.5232024491
 11
55.9180867963
 21
228.9152068837
  0
LINE
  5
313
100
AcDbEntity
  8
0
100
AcDbLine
 62
7
  6
CONTINUOUS
 10
57.7693177248
 20
228.2163119318
 11
55.4046282266
 21
229.5820921776
  0
LINE
  5
314
100
AcDbEntity
  8
0
100
AcDbLine
 62
7
  6
CONTINUOUS
 10
55.6701540826
 20
229.988721084
 11
54.8654132548
 21
230.453517467
  0
LINE
  5
315
100
AcDbEntity
  8
0
100
AcDbLine
 62
7
  6
CONTINUOUS
 10
57.7693177248
 20
229.4114469293
 11
55.9180867963
 21
230.4806674906
  0
LINE
  5
316
100
AcDbEntity
  8
0
100
AcDbLine
 62
7
  6
CONTINUOUS
 10
55.9180867963
 20
230.6903273933
 11
58.0172504385
 21
229.4779076497
  0
LINE
  5
317
100
AcDbEntity
  8
0
100
AcDbLine
 62
7
  6
CONTINUOUS
 10
33.8576459868
 20
265.9051079572
 11
33.8576459868
 21
264.3213951716
  0
LINE
  5
318
100
AcDbEntity
  8
0
100
AcDbLine
 62
7
  6
CONTINUOUS
 10
34.2181829622
 20
264.7559165039
 11
34.2181829622
 21
265.630731139
  0
LINE
  5
319
100
AcDbEntity
  8
0
100
AcDbLine
 62
7
  6
CONTINUOUS
 10
35.546709914
 20
172.8436539748
 11
35.546709914
 21
250.5427189323
  0
LINE
  5
31A
100
AcDbEntity
  8
0
100
AcDbLine
 62
7
  6
CONTINUOUS
 10
35.174056108
 20
251.0945172829
 11
35.0184284048
 21
251.066480209
  0
LINE
  5
31B
100
AcDbEntity
  8
0
100
AcDbLine
 62
7
  6
CONTINUOUS
 10
35.0184284048
 20
251.066480209
 11
34.7291122834
 21
251.0149397467
  0
LINE
  5
31C
100
AcDbEntity
  8
0
100
AcDbLine
 62
7
  6
CONTINUOUS
 10
55.6701540826
 20
231.1838560815
 11
54.8654132548
 21
231.6486524645
  0
LINE
  5
31D
100
AcDbEntity
  8
0
100
AcDbLine
 62
7
  6
CONTINUOUS
 10
54.8654132548
 20
231.8583123672
 11
55.9180867963
 21
231.2503168019
  0
LINE
  5
31E
100
AcDbEntity
  8
0
100
AcDbLine
 62
7
  6
CONTINUOUS
 10
57.7693177248
 20
230.5514218499
 11
55.4046282266
 21
231.9172020957
  0
LINE
  5
31F
100
AcDbEntity
  8
0
100
AcDbLine
 62
7
  6
CONTINUOUS
 10
55.6701540826
 20
232.3238310021
 11
54.8654132548
 21
232.7886273851
  0
LINE
  5
320
100
AcDbEntity
  8
0
100
AcDbLine
 62
7
  6
CONTINUOUS
 10
57.7693177248
 20
231.7465568474
 11
55.9180867963
 21
232.8157774087
  0
LINE
  5
321
100
AcDbEntity
  8
0
100
AcDbLine
 62
7
  6
CONTINUOUS
 10
55.9180867963
 20
233.0254373114
 11
58.0172504385
 21
231.8130175678
  0
LINE
  5
322
100
AcDbEntity
  8
0
100
AcDbLine
 62
7
  6
CONTINUOUS
 10
55.6701540826
 20
233.5189659996
 11
54.8654132548
 21
233.9837623826
  0
LINE
  5
323
100
AcDbEntity
  8
0
100
AcDbLine
 62
7
  6
CONTINUOUS
 10
54.8654132548
 20
234.1934222853
 11
55.9180867963
 21
233.58542672
  0
LINE
  5
324
100
AcDbEntity
  8
0
100
AcDbLine
 62
7
  6
CONTINUOUS
 10
57.7693177248
 20
232.886531768
 11
55.4046282266
 21
234.2523120138
  0
LINE
  5
325
100
AcDbEntity
  8
0
100
AcDbLine
 62
7
  6
CONTINUOUS
 10
55.6701540826
 20
234.6589409203
 11
54.8654132548
 21
235.1237373032
  0
LINE
  5
326
100
AcDbEntity
  8
0
100
AcDbLine
 62
7
  6
CONTINUOUS
 10
57.7693177248
 20
234.0816667655
 11
55.9180867963
 21
235.1508873268
  0
LINE
  5
327
100
AcDbEntity
  8
0
100
AcDbLine
 62
7
  6
CONTINUOUS
 10
55.9180867963
 20
235.3605472295
 11
58.0172504385
 21
234.1481274859
  0
LINE
  5
328
100
AcDbEntity
  8
0
100
AcDbLine
 62
7
  6
CONTINUOUS
 10
55.6701540826
 20
235.8540759177
 11
54.8654132548
 21
236.3188723007
  0
LINE
  5
329
100
AcDbEntity
  8
0
100
AcDbLine
 62
7
  6
CONTINUOUS
 10
54.8654132548
 20
236.5285322034
 11
55.9180867963
 21
235.9205366381
  0
LINE
  5
32A
100
AcDbEntity
  8
0
100
AcDbLine
 62
7
  6
CONTINUOUS
 10
57.7693177248
 20
235.2216416862
 11
55.4046282266
 21
236.587421932
  0
LINE
  5
32B
100
AcDbEntity
  8
0
100
AcDbLine
 62
7
  6
CONTINUOUS
 10
56.1127361706
 20
243.5168368945
 11
55.8153151028
 21
243.6483290593
  0
LINE
  5
32C
100
AcDbEntity
  8
0
100
AcDbLine
 62
7
  6
CONTINUOUS
 10
55.5189794671
 20
243.7793413461
 11
55.3517010026
 21
243.8532964548
  0
LINE
  5
32D
100
AcDbEntity
  8
0
100
AcDbLine
 62
7
  6
CONTINUOUS
 10
55.6701540826
 20
236.9940508384
 11
54.8654132548
 21
237.4588472214
  0
LINE
  5
32E
100
AcDbEntity
  8
0
100
AcDbLine
 62
7
  6
CONTINUOUS
 10
57.7693177248
 20
236.4167766836
 11
55.9180867963
 21
237.4859972449
  0
LINE
  5
32F
100
AcDbEntity
  8
0
100
AcDbLine
 62
7
  6
CONTINUOUS
 10
55.9180867963
 20
237.6956571476
 11
58.0172504385
 21
236.483237404
  0
LINE
  5
330
100
AcDbEntity
  8
0
100
AcDbLine
 62
7
  6
CONTINUOUS
 10
55.6701540826
 20
238.1891858358
 11
54.8654132548
 21
238.6539822188
  0
LINE
  5
331
100
AcDbEntity
  8
0
100
AcDbLine
 62
7
  6
CONTINUOUS
 10
54.888128118
 20
238.8505226352
 11
55.9180867963
 21
238.2556465562
  0
LINE
  5
332
100
AcDbEntity
  8
0
100
AcDbLine
 62
7
  6
CONTINUOUS
 10
57.7693177248
 20
237.5567516043
 11
55.4046282266
 21
238.9225318501
  0
LINE
  5
333
100
AcDbEntity
  8
0
100
AcDbLine
 62
7
  6
CONTINUOUS
 10
34.7291122734
 20
251.0149405229
 11
35.546709914
 21
250.5427189323
  0
LINE
  5
334
100
AcDbEntity
  8
0
100
AcDbLine
 62
7
  6
CONTINUOUS
 10
35.1741488742
 20
251.089125146
 11
35.7934855161
 21
250.731413407
  0
LINE
  5
335
100
AcDbEntity
  8
0
100
AcDbLine
 62
7
  6
CONTINUOUS
 10
57.7693177248
 20
238.7518866017
 11
55.8621710767
 21
239.8534025597
  0
LINE
  5
336
100
AcDbEntity
  8
0
100
AcDbLine
 62
7
  6
CONTINUOUS
 10
56.1753555492
 20
239.8821756414
 11
58.0172504385
 21
238.8183473221
  0
LINE
  5
337
100
AcDbEntity
  8
0
100
AcDbLine
 62
7
  6
CONTINUOUS
 10
53.4346274479
 20
241.6901640496
 11
53.997648757
 21
241.3649782768
  0
LINE
  5
338
100
AcDbEntity
  8
0
100
AcDbLine
 62
9
  6
CONTINUOUS
 10
59.9480338845
 20
239.4435955923
 11
58.7751436928
 21
240.1210250204
  0
LINE
  5
339
100
AcDbEntity
  8
0
100
AcDbLine
 62
7
  6
CONTINUOUS
 10
-13.7176546318
 20
282.0295232836
 11
-12.8731226682
 21
281.5417446244
  0
LINE
  5
33A
100
AcDbEntity
  8
0
100
AcDbLine
 62
7
  6
CONTINUOUS
 10
33.8576459868
 20
264.3213951716
 11
34.2275235944
 21
262.8415394239
  0
LINE
  5
33B
100
AcDbEntity
  8
0
100
AcDbLine
 62
7
  6
CONTINUOUS
 10
34.6640897543
 20
262.9369507957
 11
34.2181829622
 21
264.7559165039
  0
LINE
  5
33C
100
AcDbEntity
  8
0
100
AcDbLine
 62
7
  6
CONTINUOUS
 10
34.5935007762
 20
265.4139577924
 11
35.2892348187
 21
262.5758840339
  0
LINE
  5
33D
100
AcDbEntity
  8
0
100
AcDbLine
 62
7
  6
CONTINUOUS
 10
46.2956037879
 20
269.2392207631
 11
46.2956037879
 21
268.648930525
  0
LINE
  5
33E
100
AcDbEntity
  8
0
100
AcDbLine
 62
7
  6
CONTINUOUS
 10
35.2892348187
 20
262.5758840339
 11
61.2395255136
 21
269.5321061007
  0
LINE
  5
33F
100
AcDbEntity
  8
0
100
AcDbLine
 62
7
  6
CONTINUOUS
 10
47.5055542908
 20
266.2093010153
 11
61.4835259917
 21
269.9562291842
  0
LINE
  5
340
100
AcDbEntity
  8
0
100
AcDbLine
 62
7
  6
CONTINUOUS
 10
47.292271105
 20
266.3220548319
 11
46.9857585618
 21
266.2398912315
  0
LINE
  5
341
100
AcDbEntity
  8
0
100
AcDbLine
 62
7
  6
CONTINUOUS
 10
34.2275235944
 20
262.8415394239
 11
34.6586842438
 21
262.957116134
  0
LINE
  5
342
100
AcDbEntity
  8
0
100
AcDbLine
 62
7
  6
CONTINUOUS
 10
33.8576459868
 20
264.3213951716
 11
34.2959036524
 21
264.4388743044
  0
LINE
  5
343
100
AcDbEntity
  8
0
100
AcDbLine
 62
7
  6
CONTINUOUS
 10
34.5935007762
 20
265.4139577924
 11
46.4116267932
 21
268.5819187974
  0
LINE
  5
344
100
AcDbEntity
  8
0
100
AcDbLine
 62
7
  6
CONTINUOUS
 10
60.8105212871
 20
272.7015842693
 11
46.815306011
 21
268.9500337962
  0
LINE
  5
345
100
AcDbEntity
  8
0
100
AcDbLine
 62
7
  6
CONTINUOUS
 10
34.2181829622
 20
265.630731139
 11
46.0363089793
 21
268.798692144
  0
LINE
  5
346
100
AcDbEntity
  8
0
100
AcDbLine
 62
7
  6
CONTINUOUS
 10
46.2956037879
 20
269.2392207631
 11
33.8576459868
 21
265.9051079572
  0
LINE
  5
347
100
AcDbEntity
  8
0
100
AcDbLine
 62
7
  6
CONTINUOUS
 10
53.4346274479
 20
246.7465044235
 11
50.5053169706
 21
248.4383943679
  0
LINE
  5
348
100
AcDbEntity
  8
0
100
AcDbLine
 62
7
  6
CONTINUOUS
 10
60.2527770732
 20
243.5178338602
 11
60.8157983823
 21
243.1926480873
  0
LINE
  5
349
100
AcDbEntity
  8
0
100
AcDbLine
 62
7
  6
CONTINUOUS
 10
51.2829861573
 20
249.3834721805
 11
55.0833799937
 21
247.188468214
  0
LINE
  5
34A
100
AcDbEntity
  8
0
100
AcDbLine
 62
7
  6
CONTINUOUS
 10
50.5053169706
 20
250.920389012
 11
50.5053169706
 21
182.6138272341
  0
LINE
  5
34B
100
AcDbEntity
  8
0
100
AcDbLine
 62
7
  6
CONTINUOUS
 10
51.2829861573
 20
251.1288506289
 11
51.2829861573
 21
249.3834721805
  0
LINE
  5
34C
100
AcDbEntity
  8
0
100
AcDbLine
 62
7
  6
CONTINUOUS
 10
51.2829861573
 20
183.6694340124
 11
51.2829861573
 21
184.1138648863
  0
LINE
  5
34D
100
AcDbEntity
  8
0
100
AcDbLine
 62
7
  6
CONTINUOUS
 10
53.4346274479
 20
246.7465044235
 11
53.4346274479
 21
241.6901640496
  0
LINE
  5
34E
100
AcDbEntity
  8
0
100
AcDbLine
 62
7
  6
CONTINUOUS
 10
53.4346274479
 20
182.8711354823
 11
53.4346274479
 21
187.9274758561
  0
LINE
  5
34F
100
AcDbEntity
  8
0
100
AcDbLine
 62
7
  6
CONTINUOUS
 10
55.0833799937
 20
249.0271374409
 11
51.3933068984
 21
251.1584231521
  0
LINE
  5
350
100
AcDbEntity
  8
0
100
AcDbLine
 62
7
  6
CONTINUOUS
 10
58.6040245274
 20
249.5264487965
 11
60.2527770732
 21
248.574174234
  0
LINE
  5
351
100
AcDbEntity
  8
0
100
AcDbLine
 62
7
  6
CONTINUOUS
 10
54.9139514322
 20
252.1021653816
 11
58.6040245274
 21
249.9708796703
  0
LINE
  5
352
100
AcDbEntity
  8
0
100
AcDbLine
 62
7
  6
CONTINUOUS
 10
34.5935007762
 20
265.4139577924
 11
34.2181829622
 21
265.630731139
  0
LINE
  5
353
100
AcDbEntity
  8
0
100
AcDbLine
 62
7
  6
CONTINUOUS
 10
-13.2300638753
 20
293.1016866193
 11
33.8576459868
 21
265.9051079572
  0
LINE
  5
354
100
AcDbEntity
  8
0
100
AcDbLine
 62
7
  6
CONTINUOUS
 10
57.8776186929
 20
246.572525523
 11
57.6150966331
 21
246.7644412573
  0
LINE
  5
355
100
AcDbEntity
  8
0
100
AcDbLine
 62
7
  6
CONTINUOUS
 10
57.3535326421
 20
246.955656599
 11
57.209503057
 21
247.060948869
  0
LINE
  5
356
100
AcDbEntity
  8
0
100
AcDbLine
 62
7
  6
CONTINUOUS
 10
47.1073608358
 20
265.7438450389
 11
46.4116267932
 21
268.5819187974
  0
LINE
  5
357
100
AcDbEntity
  8
0
100
AcDbLine
 62
7
  6
CONTINUOUS
 10
53.997648757
 20
241.3649782768
 11
53.997648757
 21
187.6022900833
  0
LINE
  5
358
100
AcDbEntity
  8
0
100
AcDbLine
 62
7
  6
CONTINUOUS
 10
54.8654132548
 20
238.6854252621
 11
54.8654132548
 21
190.7470681408
  0
LINE
  5
359
100
AcDbEntity
  8
0
100
AcDbLine
 62
7
  6
CONTINUOUS
 10
55.0833799937
 20
249.0271374409
 11
55.0833799937
 21
247.188468214
  0
LINE
  5
35A
100
AcDbEntity
  8
0
100
AcDbLine
 62
7
  6
CONTINUOUS
 10
55.0833799937
 20
181.474430046
 11
55.0833799937
 21
183.3130992728
  0
LINE
  5
35B
100
AcDbEntity
  8
0
100
AcDbLine
 62
7
  6
CONTINUOUS
 10
55.4046282266
 20
239.686385737
 11
55.4046282266
 21
238.9225318501
  0
LINE
  5
35C
100
AcDbEntity
  8
0
100
AcDbLine
 62
7
  6
CONTINUOUS
 10
55.4046282266
 20
237.1474113405
 11
55.4046282266
 21
236.587421932
  0
LINE
  5
35D
100
AcDbEntity
  8
0
100
AcDbLine
 62
7
  6
CONTINUOUS
 10
55.4046282266
 20
234.8123014224
 11
55.4046282266
 21
234.2523120138
  0
LINE
  5
35E
100
AcDbEntity
  8
0
100
AcDbLine
 62
7
  6
CONTINUOUS
 10
55.4046282266
 20
232.4771915043
 11
55.4046282266
 21
231.9172020957
  0
LINE
  5
35F
100
AcDbEntity
  8
0
100
AcDbLine
 62
7
  6
CONTINUOUS
 10
55.4046282266
 20
230.1420815862
 11
55.4046282266
 21
229.5820921776
  0
LINE
  5
360
100
AcDbEntity
  8
0
100
AcDbLine
 62
7
  6
CONTINUOUS
 10
55.4046282266
 20
227.8069716681
 11
55.4046282266
 21
227.2469822595
  0
LINE
  5
361
100
AcDbEntity
  8
0
100
AcDbLine
 62
7
  6
CONTINUOUS
 10
55.4046282266
 20
225.4718617499
 11
55.4046282266
 21
224.9118723414
  0
LINE
  5
362
100
AcDbEntity
  8
0
100
AcDbLine
 62
7
  6
CONTINUOUS
 10
55.4046282266
 20
223.1367518318
 11
55.4046282266
 21
222.5767624233
  0
LINE
  5
363
100
AcDbEntity
  8
0
100
AcDbLine
 62
7
  6
CONTINUOUS
 10
55.4046282266
 20
220.8016419137
 11
55.4046282266
 21
220.2416525052
  0
LINE
  5
364
100
AcDbEntity
  8
0
100
AcDbLine
 62
7
  6
CONTINUOUS
 10
55.4046282266
 20
218.4665319956
 11
55.4046282266
 21
217.906542587
  0
LINE
  5
365
100
AcDbEntity
  8
0
100
AcDbLine
 62
7
  6
CONTINUOUS
 10
55.4046282266
 20
194.5554434059
 11
55.4046282266
 21
195.1154328144
  0
LINE
  5
366
100
AcDbEntity
  8
0
100
AcDbLine
 62
7
  6
CONTINUOUS
 10
55.4046282266
 20
196.890553324
 11
55.4046282266
 21
197.4505427326
  0
LINE
  5
367
100
AcDbEntity
  8
0
100
AcDbLine
 62
7
  6
CONTINUOUS
 10
55.4046282266
 20
199.2256632421
 11
55.4046282266
 21
199.7856526507
  0
LINE
  5
368
100
AcDbEntity
  8
0
100
AcDbLine
 62
7
  6
CONTINUOUS
 10
55.4046282266
 20
201.5607731602
 11
55.4046282266
 21
202.1207625688
  0
LINE
  5
369
100
AcDbEntity
  8
0
100
AcDbLine
 62
7
  6
CONTINUOUS
 10
55.4046282266
 20
203.8958830783
 11
55.4046282266
 21
204.4558724869
  0
LINE
  5
36A
100
AcDbEntity
  8
0
100
AcDbLine
 62
7
  6
CONTINUOUS
 10
55.4046282266
 20
206.2309929965
 11
55.4046282266
 21
206.790982405
  0
LINE
  5
36B
100
AcDbEntity
  8
0
100
AcDbLine
 62
7
  6
CONTINUOUS
 10
55.4046282266
 20
208.5661029146
 11
55.4046282266
 21
209.1260923231
  0
LINE
  5
36C
100
AcDbEntity
  8
0
100
AcDbLine
 62
7
  6
CONTINUOUS
 10
55.4046282266
 20
210.9012128327
 11
55.4046282266
 21
211.4612022412
  0
LINE
  5
36D
100
AcDbEntity
  8
0
100
AcDbLine
 62
7
  6
CONTINUOUS
 10
55.4046282266
 20
213.2363227508
 11
55.4046282266
 21
213.7963121594
  0
LINE
  5
36E
100
AcDbEntity
  8
0
100
AcDbLine
 62
7
  6
CONTINUOUS
 10
55.4046282266
 20
215.5714326689
 11
55.4046282266
 21
216.1314220775
  0
LINE
  5
36F
100
AcDbEntity
  8
0
100
AcDbLine
 62
7
  6
CONTINUOUS
 10
55.6701540826
 20
238.1891858358
 11
55.6701540826
 21
236.9940508384
  0
LINE
  5
370
100
AcDbEntity
  8
0
100
AcDbLine
 62
7
  6
CONTINUOUS
 10
55.6701540826
 20
235.8540759177
 11
55.6701540826
 21
234.6589409203
  0
LINE
  5
371
100
AcDbEntity
  8
0
100
AcDbLine
 62
7
  6
CONTINUOUS
 10
55.6701540826
 20
233.5189659996
 11
55.6701540826
 21
232.3238310021
  0
LINE
  5
372
100
AcDbEntity
  8
0
100
AcDbLine
 62
7
  6
CONTINUOUS
 10
55.6701540826
 20
231.1838560815
 11
55.6701540826
 21
229.988721084
  0
LINE
  5
373
100
AcDbEntity
  8
0
100
AcDbLine
 62
7
  6
CONTINUOUS
 10
55.6701540826
 20
228.8487461634
 11
55.6701540826
 21
227.6536111659
  0
LINE
  5
374
100
AcDbEntity
  8
0
100
AcDbLine
 62
7
  6
CONTINUOUS
 10
55.6701540826
 20
226.5136362452
 11
55.6701540826
 21
225.3185012478
  0
LINE
  5
375
100
AcDbEntity
  8
0
100
AcDbLine
 62
7
  6
CONTINUOUS
 10
55.6701540826
 20
224.1785263271
 11
55.6701540826
 21
222.9833913297
  0
LINE
  5
376
100
AcDbEntity
  8
0
100
AcDbLine
 62
7
  6
CONTINUOUS
 10
55.6701540826
 20
221.843416409
 11
55.6701540826
 21
220.6482814116
  0
LINE
  5
377
100
AcDbEntity
  8
0
100
AcDbLine
 62
7
  6
CONTINUOUS
 10
55.6701540826
 20
219.5083064909
 11
55.6701540826
 21
218.3131714934
  0
LINE
  5
378
100
AcDbEntity
  8
0
100
AcDbLine
 62
7
  6
CONTINUOUS
 10
55.6701540826
 20
217.1731965728
 11
55.6701540826
 21
215.9780615753
  0
LINE
  5
379
100
AcDbEntity
  8
0
100
AcDbLine
 62
7
  6
CONTINUOUS
 10
55.6701540826
 20
192.6269623942
 11
55.6701540826
 21
193.8220973916
  0
LINE
  5
37A
100
AcDbEntity
  8
0
100
AcDbLine
 62
7
  6
CONTINUOUS
 10
55.6701540826
 20
194.9620723123
 11
55.6701540826
 21
196.1572073097
  0
LINE
  5
37B
100
AcDbEntity
  8
0
100
AcDbLine
 62
7
  6
CONTINUOUS
 10
55.6701540826
 20
197.2971822304
 11
55.6701540826
 21
198.4923172279
  0
LINE
  5
37C
100
AcDbEntity
  8
0
100
AcDbLine
 62
7
  6
CONTINUOUS
 10
55.6701540826
 20
199.6322921485
 11
55.6701540826
 21
200.827427146
  0
LINE
  5
37D
100
AcDbEntity
  8
0
100
AcDbLine
 62
7
  6
CONTINUOUS
 10
55.6701540826
 20
201.9674020666
 11
55.6701540826
 21
203.1625370641
  0
LINE
  5
37E
100
AcDbEntity
  8
0
100
AcDbLine
 62
7
  6
CONTINUOUS
 10
55.6701540826
 20
204.3025119847
 11
55.6701540826
 21
205.4976469822
  0
LINE
  5
37F
100
AcDbEntity
  8
0
100
AcDbLine
 62
7
  6
CONTINUOUS
 10
55.6701540826
 20
206.6376219029
 11
55.6701540826
 21
207.8327569003
  0
LINE
  5
380
100
AcDbEntity
  8
0
100
AcDbLine
 62
7
  6
CONTINUOUS
 10
55.6701540826
 20
208.972731821
 11
55.6701540826
 21
210.1678668184
  0
LINE
  5
381
100
AcDbEntity
  8
0
100
AcDbLine
 62
7
  6
CONTINUOUS
 10
55.6701540826
 20
211.3078417391
 11
55.6701540826
 21
212.5029767366
  0
LINE
  5
382
100
AcDbEntity
  8
0
100
AcDbLine
 62
7
  6
CONTINUOUS
 10
55.6701540826
 20
213.6429516572
 11
55.6701540826
 21
214.8380866547
  0
LINE
  5
383
100
AcDbEntity
  8
0
100
AcDbLine
 62
7
  6
CONTINUOUS
 10
55.9180867963
 20
238.2556465562
 11
55.9180867963
 21
237.0605115587
  0
LINE
  5
384
100
AcDbEntity
  8
0
100
AcDbLine
 62
7
  6
CONTINUOUS
 10
55.9180867963
 20
235.9205366381
 11
55.9180867963
 21
234.7254016406
  0
LINE
  5
385
100
AcDbEntity
  8
0
100
AcDbLine
 62
7
  6
CONTINUOUS
 10
55.9180867963
 20
233.58542672
 11
55.9180867963
 21
232.3902917225
  0
LINE
  5
386
100
AcDbEntity
  8
0
100
AcDbLine
 62
7
  6
CONTINUOUS
 10
55.9180867963
 20
231.2503168019
 11
55.9180867963
 21
230.0551818044
  0
LINE
  5
387
100
AcDbEntity
  8
0
100
AcDbLine
 62
7
  6
CONTINUOUS
 10
55.9180867963
 20
228.9152068837
 11
55.9180867963
 21
227.7200718863
  0
LINE
  5
388
100
AcDbEntity
  8
0
100
AcDbLine
 62
7
  6
CONTINUOUS
 10
55.9180867963
 20
226.5800969656
 11
55.9180867963
 21
225.3849619682
  0
LINE
  5
389
100
AcDbEntity
  8
0
100
AcDbLine
 62
7
  6
CONTINUOUS
 10
55.9180867963
 20
224.2449870475
 11
55.9180867963
 21
223.0498520501
  0
LINE
  5
38A
100
AcDbEntity
  8
0
100
AcDbLine
 62
7
  6
CONTINUOUS
 10
55.9180867963
 20
221.9098771294
 11
55.9180867963
 21
220.7147421319
  0
LINE
  5
38B
100
AcDbEntity
  8
0
100
AcDbLine
 62
7
  6
CONTINUOUS
 10
55.9180867963
 20
219.5747672113
 11
55.9180867963
 21
218.3796322138
  0
LINE
  5
38C
100
AcDbEntity
  8
0
100
AcDbLine
 62
7
  6
CONTINUOUS
 10
55.9180867963
 20
217.2396572932
 11
55.9180867963
 21
216.0445222957
  0
LINE
  5
38D
100
AcDbEntity
  8
0
100
AcDbLine
 62
7
  6
CONTINUOUS
 10
55.9180867963
 20
192.6934231146
 11
55.9180867963
 21
193.888558112
  0
LINE
  5
38E
100
AcDbEntity
  8
0
100
AcDbLine
 62
7
  6
CONTINUOUS
 10
55.9180867963
 20
195.0285330327
 11
55.9180867963
 21
196.2236680301
  0
LINE
  5
38F
100
AcDbEntity
  8
0
100
AcDbLine
 62
7
  6
CONTINUOUS
 10
55.9180867963
 20
197.3636429508
 11
55.9180867963
 21
198.5587779482
  0
LINE
  5
390
100
AcDbEntity
  8
0
100
AcDbLine
 62
7
  6
CONTINUOUS
 10
55.9180867963
 20
199.6987528689
 11
55.9180867963
 21
200.8938878664
  0
LINE
  5
391
100
AcDbEntity
  8
0
100
AcDbLine
 62
7
  6
CONTINUOUS
 10
55.9180867963
 20
202.033862787
 11
55.9180867963
 21
203.2289977845
  0
LINE
  5
392
100
AcDbEntity
  8
0
100
AcDbLine
 62
7
  6
CONTINUOUS
 10
55.9180867963
 20
204.3689727051
 11
55.9180867963
 21
205.5641077026
  0
LINE
  5
393
100
AcDbEntity
  8
0
100
AcDbLine
 62
7
  6
CONTINUOUS
 10
55.9180867963
 20
206.7040826232
 11
55.9180867963
 21
207.8992176207
  0
LINE
  5
394
100
AcDbEntity
  8
0
100
AcDbLine
 62
7
  6
CONTINUOUS
 10
55.9180867963
 20
209.0391925414
 11
55.9180867963
 21
210.2343275388
  0
LINE
  5
395
100
AcDbEntity
  8
0
100
AcDbLine
 62
7
  6
CONTINUOUS
 10
55.9180867963
 20
211.3743024595
 11
55.9180867963
 21
212.5694374569
  0
LINE
  5
396
100
AcDbEntity
  8
0
100
AcDbLine
 62
7
  6
CONTINUOUS
 10
55.9180867963
 20
213.7094123776
 11
55.9180867963
 21
214.9045473751
  0
LINE
  5
397
100
AcDbEntity
  8
0
100
AcDbLine
 62
7
  6
CONTINUOUS
 10
56.8771758097
 20
252.6284263355
 11
56.8771758097
 21
250.9682604546
  0
LINE
  5
398
100
AcDbEntity
  8
0
100
AcDbLine
 62
7
  6
CONTINUOUS
 10
57.0203230772
 20
195.0270569679
 11
57.0203230772
 21
195.9573719859
  0
LINE
  5
399
100
AcDbEntity
  8
0
100
AcDbLine
 62
7
  6
CONTINUOUS
 10
57.0203230772
 20
197.362166886
 11
57.0203230772
 21
198.292481904
  0
LINE
  5
39A
100
AcDbEntity
  8
0
100
AcDbLine
 62
7
  6
CONTINUOUS
 10
57.0203230772
 20
199.6972768042
 11
57.0203230772
 21
200.6275918221
  0
LINE
  5
39B
100
AcDbEntity
  8
0
100
AcDbLine
 62
7
  6
CONTINUOUS
 10
57.0203230772
 20
202.0323867223
 11
57.0203230772
 21
202.9627017402
  0
LINE
  5
39C
100
AcDbEntity
  8
0
100
AcDbLine
 62
7
  6
CONTINUOUS
 10
57.0203230772
 20
204.3674966404
 11
57.0203230772
 21
205.2978116583
  0
LINE
  5
39D
100
AcDbEntity
  8
0
100
AcDbLine
 62
7
  6
CONTINUOUS
 10
57.0203230772
 20
206.7026065585
 11
57.0203230772
 21
207.6329215765
  0
LINE
  5
39E
100
AcDbEntity
  8
0
100
AcDbLine
 62
7
  6
CONTINUOUS
 10
57.0203230772
 20
209.0377164766
 11
57.0203230772
 21
209.9680314946
  0
LINE
  5
39F
100
AcDbEntity
  8
0
100
AcDbLine
 62
7
  6
CONTINUOUS
 10
57.0203230772
 20
211.3728263947
 11
57.0203230772
 21
212.3031414127
  0
LINE
  5
3A0
100
AcDbEntity
  8
0
100
AcDbLine
 62
7
  6
CONTINUOUS
 10
57.0203230772
 20
213.7079363129
 11
57.0203230772
 21
214.6382513308
  0
LINE
  5
3A1
100
AcDbEntity
  8
0
100
AcDbLine
 62
7
  6
CONTINUOUS
 10
57.0203230772
 20
216.043046231
 11
57.0203230772
 21
216.9733612489
  0
LINE
  5
3A2
100
AcDbEntity
  8
0
100
AcDbLine
 62
7
  6
CONTINUOUS
 10
57.0203230772
 20
218.3781561491
 11
57.0203230772
 21
219.308471167
  0
LINE
  5
3A3
100
AcDbEntity
  8
0
100
AcDbLine
 62
7
  6
CONTINUOUS
 10
57.0203230772
 20
220.7132660672
 11
57.0203230772
 21
221.6435810852
  0
LINE
  5
3A4
100
AcDbEntity
  8
0
100
AcDbLine
 62
7
  6
CONTINUOUS
 10
57.0203230772
 20
223.0483759853
 11
57.0203230772
 21
223.9786910033
  0
LINE
  5
3A5
100
AcDbEntity
  8
0
100
AcDbLine
 62
7
  6
CONTINUOUS
 10
57.0203230772
 20
225.3834859034
 11
57.0203230772
 21
226.3138009214
  0
LINE
  5
3A6
100
AcDbEntity
  8
0
100
AcDbLine
 62
7
  6
CONTINUOUS
 10
57.0203230772
 20
227.7185958215
 11
57.0203230772
 21
228.6489108395
  0
LINE
  5
3A7
100
AcDbEntity
  8
0
100
AcDbLine
 62
7
  6
CONTINUOUS
 10
57.0203230772
 20
230.0537057397
 11
57.0203230772
 21
230.9840207576
  0
LINE
  5
3A8
100
AcDbEntity
  8
0
100
AcDbLine
 62
7
  6
CONTINUOUS
 10
57.0203230772
 20
232.3888156578
 11
57.0203230772
 21
233.3191306757
  0
LINE
  5
3A9
100
AcDbEntity
  8
0
100
AcDbLine
 62
7
  6
CONTINUOUS
 10
57.0203230772
 20
234.7239255759
 11
57.0203230772
 21
235.6542405938
  0
LINE
  5
3AA
100
AcDbEntity
  8
0
100
AcDbLine
 62
7
  6
CONTINUOUS
 10
57.0203230772
 20
237.059035494
 11
57.0203230772
 21
237.989350512
  0
LINE
  5
3AB
100
AcDbEntity
  8
0
100
AcDbLine
 62
7
  6
CONTINUOUS
 10
57.0203230772
 20
239.3941454121
 11
57.0203230772
 21
239.959805032
  0
LINE
  5
3AC
100
AcDbEntity
  8
0
100
AcDbLine
 62
7
  6
CONTINUOUS
 10
57.7693177248
 20
238.7518866017
 11
57.7693177248
 21
237.5567516043
  0
LINE
  5
3AD
100
AcDbEntity
  8
0
100
AcDbLine
 62
7
  6
CONTINUOUS
 10
57.7693177248
 20
236.4167766836
 11
57.7693177248
 21
235.2216416862
  0
LINE
  5
3AE
100
AcDbEntity
  8
0
100
AcDbLine
 62
7
  6
CONTINUOUS
 10
57.7693177248
 20
234.0816667655
 11
57.7693177248
 21
232.886531768
  0
LINE
  5
3AF
100
AcDbEntity
  8
0
100
AcDbLine
 62
7
  6
CONTINUOUS
 10
57.7693177248
 20
231.7465568474
 11
57.7693177248
 21
230.5514218499
  0
LINE
  5
3B0
100
AcDbEntity
  8
0
100
AcDbLine
 62
7
  6
CONTINUOUS
 10
57.7693177248
 20
229.4114469293
 11
57.7693177248
 21
228.2163119318
  0
LINE
  5
3B1
100
AcDbEntity
  8
0
100
AcDbLine
 62
7
  6
CONTINUOUS
 10
57.7693177248
 20
227.0763370112
 11
57.7693177248
 21
225.8812020137
  0
LINE
  5
3B2
100
AcDbEntity
  8
0
100
AcDbLine
 62
7
  6
CONTINUOUS
 10
57.7693177248
 20
224.741227093
 11
57.7693177248
 21
223.5460920956
  0
LINE
  5
3B3
100
AcDbEntity
  8
0
100
AcDbLine
 62
7
  6
CONTINUOUS
 10
57.7693177248
 20
222.4061171749
 11
57.7693177248
 21
221.2109821775
  0
LINE
  5
3B4
100
AcDbEntity
  8
0
100
AcDbLine
 62
7
  6
CONTINUOUS
 10
57.7693177248
 20
220.0710072568
 11
57.7693177248
 21
218.8758722594
  0
LINE
  5
3B5
100
AcDbEntity
  8
0
100
AcDbLine
 62
7
  6
CONTINUOUS
 10
57.7693177248
 20
217.7358973387
 11
57.7693177248
 21
216.5407623412
  0
LINE
  5
3B6
100
AcDbEntity
  8
0
100
AcDbLine
 62
7
  6
CONTINUOUS
 10
57.7693177248
 20
193.1896631601
 11
57.7693177248
 21
194.3847981575
  0
LINE
  5
3B7
100
AcDbEntity
  8
0
100
AcDbLine
 62
7
  6
CONTINUOUS
 10
57.7693177248
 20
195.5247730782
 11
57.7693177248
 21
196.7199080757
  0
LINE
  5
3B8
100
AcDbEntity
  8
0
100
AcDbLine
 62
7
  6
CONTINUOUS
 10
57.7693177248
 20
197.8598829963
 11
57.7693177248
 21
199.0550179938
  0
LINE
  5
3B9
100
AcDbEntity
  8
0
100
AcDbLine
 62
7
  6
CONTINUOUS
 10
57.7693177248
 20
200.1949929144
 11
57.7693177248
 21
201.3901279119
  0
LINE
  5
3BA
100
AcDbEntity
  8
0
100
AcDbLine
 62
7
  6
CONTINUOUS
 10
57.7693177248
 20
202.5301028325
 11
57.7693177248
 21
203.72523783
  0
LINE
  5
3BB
100
AcDbEntity
  8
0
100
AcDbLine
 62
7
  6
CONTINUOUS
 10
57.7693177248
 20
204.8652127507
 11
57.7693177248
 21
206.0603477481
  0
LINE
  5
3BC
100
AcDbEntity
  8
0
100
AcDbLine
 62
7
  6
CONTINUOUS
 10
57.7693177248
 20
207.2003226688
 11
57.7693177248
 21
208.3954576662
  0
LINE
  5
3BD
100
AcDbEntity
  8
0
100
AcDbLine
 62
7
  6
CONTINUOUS
 10
57.7693177248
 20
209.5354325869
 11
57.7693177248
 21
210.7305675844
  0
LINE
  5
3BE
100
AcDbEntity
  8
0
100
AcDbLine
 62
7
  6
CONTINUOUS
 10
57.7693177248
 20
211.870542505
 11
57.7693177248
 21
213.0656775025
  0
LINE
  5
3BF
100
AcDbEntity
  8
0
100
AcDbLine
 62
7
  6
CONTINUOUS
 10
57.7693177248
 20
214.2056524231
 11
57.7693177248
 21
215.4007874206
  0
LINE
  5
3C0
100
AcDbEntity
  8
0
100
AcDbLine
 62
7
  6
CONTINUOUS
 10
57.7780099042
 20
250.4479632181
 11
57.7780099042
 21
252.8699034766
  0
LINE
  5
3C1
100
AcDbEntity
  8
0
100
AcDbLine
 62
7
  6
CONTINUOUS
 10
58.0172504385
 20
238.8183473221
 11
58.0172504385
 21
237.6232123247
  0
LINE
  5
3C2
100
AcDbEntity
  8
0
100
AcDbLine
 62
7
  6
CONTINUOUS
 10
58.0172504385
 20
236.483237404
 11
58.0172504385
 21
235.2881024065
  0
LINE
  5
3C3
100
AcDbEntity
  8
0
100
AcDbLine
 62
7
  6
CONTINUOUS
 10
58.0172504385
 20
234.1481274859
 11
58.0172504385
 21
232.9529924884
  0
LINE
  5
3C4
100
AcDbEntity
  8
0
100
AcDbLine
 62
7
  6
CONTINUOUS
 10
58.0172504385
 20
231.8130175678
 11
58.0172504385
 21
230.6178825703
  0
LINE
  5
3C5
100
AcDbEntity
  8
0
100
AcDbLine
 62
7
  6
CONTINUOUS
 10
58.0172504385
 20
229.4779076497
 11
58.0172504385
 21
228.2827726522
  0
LINE
  5
3C6
100
AcDbEntity
  8
0
100
AcDbLine
 62
7
  6
CONTINUOUS
 10
58.0172504385
 20
227.1427977315
 11
58.0172504385
 21
225.9476627341
  0
LINE
  5
3C7
100
AcDbEntity
  8
0
100
AcDbLine
 62
7
  6
CONTINUOUS
 10
58.0172504385
 20
224.8076878134
 11
58.0172504385
 21
223.612552816
  0
LINE
  5
3C8
100
AcDbEntity
  8
0
100
AcDbLine
 62
7
  6
CONTINUOUS
 10
58.0172504385
 20
222.4725778953
 11
58.0172504385
 21
221.2774428979
  0
LINE
  5
3C9
100
AcDbEntity
  8
0
100
AcDbLine
 62
7
  6
CONTINUOUS
 10
58.0172504385
 20
220.1374679772
 11
58.0172504385
 21
218.9423329797
  0
LINE
  5
3CA
100
AcDbEntity
  8
0
100
AcDbLine
 62
7
  6
CONTINUOUS
 10
58.0172504385
 20
217.8023580591
 11
58.0172504385
 21
216.6072230616
  0
LINE
  5
3CB
100
AcDbEntity
  8
0
100
AcDbLine
 62
7
  6
CONTINUOUS
 10
58.0172504385
 20
193.2561238805
 11
58.0172504385
 21
194.4512588779
  0
LINE
  5
3CC
100
AcDbEntity
  8
0
100
AcDbLine
 62
7
  6
CONTINUOUS
 10
58.0172504385
 20
195.5912337986
 11
58.0172504385
 21
196.786368796
  0
LINE
  5
3CD
100
AcDbEntity
  8
0
100
AcDbLine
 62
7
  6
CONTINUOUS
 10
58.0172504385
 20
197.9263437167
 11
58.0172504385
 21
199.1214787142
  0
LINE
  5
3CE
100
AcDbEntity
  8
0
100
AcDbLine
 62
7
  6
CONTINUOUS
 10
58.0172504385
 20
200.2614536348
 11
58.0172504385
 21
201.4565886323
  0
LINE
  5
3CF
100
AcDbEntity
  8
0
100
AcDbLine
 62
7
  6
CONTINUOUS
 10
58.0172504385
 20
202.5965635529
 11
58.0172504385
 21
203.7916985504
  0
LINE
  5
3D0
100
AcDbEntity
  8
0
100
AcDbLine
 62
7
  6
CONTINUOUS
 10
58.0172504385
 20
204.931673471
 11
58.0172504385
 21
206.1268084685
  0
LINE
  5
3D1
100
AcDbEntity
  8
0
100
AcDbLine
 62
7
  6
CONTINUOUS
 10
58.0172504385
 20
207.2667833892
 11
58.0172504385
 21
208.4619183866
  0
LINE
  5
3D2
100
AcDbEntity
  8
0
100
AcDbLine
 62
7
  6
CONTINUOUS
 10
58.0172504385
 20
209.6018933073
 11
58.0172504385
 21
210.7970283047
  0
LINE
  5
3D3
100
AcDbEntity
  8
0
100
AcDbLine
 62
7
  6
CONTINUOUS
 10
58.0172504385
 20
211.9370032254
 11
58.0172504385
 21
213.1321382229
  0
LINE
  5
3D4
100
AcDbEntity
  8
0
100
AcDbLine
 62
7
  6
CONTINUOUS
 10
58.0172504385
 20
214.2721131435
 11
58.0172504385
 21
215.467248141
  0
LINE
  5
3D5
100
AcDbEntity
  8
0
100
AcDbLine
 62
7
  6
CONTINUOUS
 10
58.6040245274
 20
249.9708796703
 11
58.6040245274
 21
248.1322104435
  0
LINE
  5
3D6
100
AcDbEntity
  8
0
100
AcDbLine
 62
7
  6
CONTINUOUS
 10
58.6040245274
 20
182.4181722754
 11
58.6040245274
 21
184.2568415023
  0
LINE
  5
3D7
100
AcDbEntity
  8
0
100
AcDbLine
 62
7
  6
CONTINUOUS
 10
24.8493050412
 20
271.1080803221
 11
51.2954611633
 21
278.1972238297
  0
LINE
  5
3D8
100
AcDbEntity
  8
0
100
AcDbLine
 62
7
  6
CONTINUOUS
 10
-11.3320278379
 20
293.308632217
 11
-11.6935508246
 21
293.5135688253
  0
LINE
  5
3D9
100
AcDbEntity
  8
0
100
AcDbLine
 62
7
  6
CONTINUOUS
 10
-8.1089988051
 20
294.1725957827
 11
-6.9652679018
 21
293.5120079654
  0
LINE
  5
3DA
100
AcDbEntity
  8
0
100
AcDbLine
 62
7
  6
CONTINUOUS
 10
46.815306011
 20
268.9500337962
 11
47.5055542908
 21
266.2093010153
  0
LINE
  5
3DB
100
AcDbEntity
  8
0
100
AcDbLine
 62
7
  6
CONTINUOUS
 10
59.9480338845
 20
192.7137873462
 11
59.9480338845
 21
239.4435955923
  0
LINE
  5
3DC
100
AcDbEntity
  8
0
100
AcDbLine
 62
7
  6
CONTINUOUS
 10
60.2527770732
 20
248.574174234
 11
60.2527770732
 21
243.5178338602
  0
LINE
  5
3DD
100
AcDbEntity
  8
0
100
AcDbLine
 62
7
  6
CONTINUOUS
 10
60.2527770732
 20
184.6988052928
 11
60.2527770732
 21
189.2790366807
  0
LINE
  5
3DE
100
AcDbEntity
  8
0
100
AcDbLine
 62
7
  6
CONTINUOUS
 10
60.8157983823
 20
189.4299598939
 11
60.8157983823
 21
243.1926480873
  0
LINE
  5
3DF
100
AcDbEntity
  8
0
100
AcDbLine
 62
7
  6
CONTINUOUS
 10
61.9928660362
 20
179.9327974823
 11
61.9928660362
 21
257.6318624399
  0
LINE
  5
3E0
100
AcDbEntity
  8
0
100
AcDbLine
 62
7
  6
CONTINUOUS
 10
47.5055542908
 20
266.2093010153
 11
46.9169802392
 21
266.5204552698
  0
LINE
  5
3E1
100
AcDbEntity
  8
0
100
AcDbLine
 62
7
  6
CONTINUOUS
 10
46.815306011
 20
268.9500337962
 11
46.2956037879
 21
269.2392207631
  0
LINE
  5
3E2
100
AcDbEntity
  8
0
100
AcDbLine
 62
7
  6
CONTINUOUS
 10
5.6654335674
 20
291.1994374963
 11
18.4285612545
 21
283.904662828
  0
LINE
  5
3E3
100
AcDbEntity
  8
0
100
AcDbLine
 62
9
  6
CONTINUOUS
 10
10.7204690177
 20
291.583701023
 11
7.6584892254
 21
293.3507902539
  0
LINE
  5
3E4
100
AcDbEntity
  8
0
100
AcDbLine
 62
7
  6
CONTINUOUS
 10
4.4237008545
 20
290.8665792405
 11
-0.6434909274
 21
293.7932511958
  0
LINE
  5
3E5
100
AcDbEntity
  8
0
100
AcDbLine
 62
7
  6
CONTINUOUS
 10
61.7422627929
 20
257.7766039541
 11
61.9928660362
 21
257.6318624399
  0
LINE
  5
3E6
100
AcDbEntity
  8
0
100
AcDbLine
 62
7
  6
CONTINUOUS
 10
-5.4319789479
 20
296.6094977249
 11
-9.4679724891
 21
298.9405776637
  0
LINE
  5
3E7
100
AcDbEntity
  8
0
100
AcDbLine
 62
7
  6
CONTINUOUS
 10
-0.1666716891
 20
293.9210671246
 11
-1.8380473313
 21
294.8864081713
  0
LINE
  5
3E8
100
AcDbEntity
  8
0
100
AcDbLine
 62
7
  6
CONTINUOUS
 10
4.0861135787
 20
292.2402502517
 11
3.241581615
 21
292.7280289109
  0
LINE
  5
3E9
100
AcDbEntity
  8
0
100
AcDbLine
 62
7
  6
CONTINUOUS
 10
46.0363089793
 20
268.798692144
 11
46.4116267932
 21
268.5819187974
  0
LINE
  5
3EA
100
AcDbEntity
  8
0
100
AcDbLine
 62
7
  6
CONTINUOUS
 10
5.0778444333
 20
292.5060931332
 11
4.2333124696
 21
292.9938717924
  0
LINE
  5
3EB
100
AcDbEntity
  8
0
100
AcDbLine
 62
7
  6
CONTINUOUS
 10
5.0778444333
 20
293.453007785
 11
4.2333124696
 21
293.9407864443
  0
LINE
  5
3EC
100
AcDbEntity
  8
0
100
AcDbLine
 62
7
  6
CONTINUOUS
 10
6.2537747709
 20
292.8213124369
 11
6.0935945132
 21
292.9138281909
  0
LINE
  5
3ED
100
AcDbEntity
  8
0
100
AcDbLine
 62
7
  6
CONTINUOUS
 10
-0.158395862
 20
297.2478479316
 11
-2.9558141224
 21
298.863560524
  0
LINE
  5
3EE
100
AcDbEntity
  8
0
100
AcDbLine
 62
7
  6
CONTINUOUS
 10
-2.8879807626
 20
298.8817439008
 11
-3.6473653669
 21
299.3203437645
  0
LINE
  5
3EF
100
AcDbEntity
  8
0
100
AcDbLine
 62
9
  6
CONTINUOUS
 10
1.8679164035
 20
296.4211844626
 11
1.7541075985
 21
296.4869173285
  0
LINE
  5
3F0
100
AcDbEntity
  8
0
100
AcDbLine
 62
7
  6
CONTINUOUS
 10
-3.6637133391
 20
299.6300369763
 11
-7.7174667646
 21
301.9713745405
  0
LINE
  5
3F1
100
AcDbEntity
  8
0
100
AcDbLine
 62
9
  6
CONTINUOUS
 10
10.6456851932
 20
290.6400582844
 11
23.3804191
 21
285.2320560126
  0
LINE
  5
3F2
100
AcDbEntity
  8
0
100
AcDbLine
 62
7
  6
CONTINUOUS
 10
1.5243039858
 20
297.2492134042
 11
2.3708132091
 21
296.7602927336
  0
LINE
  5
3F3
100
AcDbEntity
  8
0
100
AcDbLine
 62
7
  6
CONTINUOUS
 10
3.241581615
 20
296.6045768823
 11
4.0861135787
 21
296.1167982231
  0
LINE
  5
3F4
100
AcDbEntity
  8
0
100
AcDbLine
 62
7
  6
CONTINUOUS
 10
-1.3029293648
 20
299.3066319932
 11
1.4944888956
 21
297.6909194009
  0
LINE
  5
3F5
100
AcDbEntity
  8
0
100
AcDbLine
 62
7
  6
CONTINUOUS
 10
5.0778444333
 20
296.3826411046
 11
4.2333124696
 21
296.8704197638
  0
LINE
  5
3F6
100
AcDbEntity
  8
0
100
AcDbLine
 62
7
  6
CONTINUOUS
 10
6.4575208537
 20
296.0939113864
 11
5.0499675809
 21
296.9068758184
  0
LINE
  5
3F7
100
AcDbEntity
  8
0
100
AcDbLine
 62
7
  6
CONTINUOUS
 10
6.9736148041
 20
295.8350887843
 11
12.040806586
 21
292.9084168291
  0
LINE
  5
3F8
100
AcDbEntity
  8
0
100
AcDbLine
 62
7
  6
CONTINUOUS
 10
2.0028401505
 20
299.8448765863
 11
4.8021177644
 21
298.228090082
  0
LINE
  5
3F9
100
AcDbEntity
  8
0
100
AcDbLine
 62
7
  6
CONTINUOUS
 10
2.0028401505
 20
300.1927749317
 11
4.8002584109
 21
298.5770623393
  0
LINE
  5
3FA
100
AcDbEntity
  8
0
100
AcDbLine
 62
7
  6
CONTINUOUS
 10
6.4531431685
 20
299.0201338085
 11
3.6557249081
 21
300.6358464009
  0
LINE
  5
3FB
100
AcDbEntity
  8
0
100
AcDbLine
 62
7
  6
CONTINUOUS
 10
9.9526404941
 20
298.0470141082
 11
8.8089095908
 21
298.7076019255
  0
LINE
  5
3FC
100
AcDbEntity
  8
0
100
AcDbLine
 62
7
  6
CONTINUOUS
 10
23.3804198335
 20
285.2320555842
 11
10.799073873
 21
292.5755585732
  0
LINE
  5
3FD
100
AcDbEntity
  8
0
100
AcDbLine
 62
7
  6
CONTINUOUS
 10
61.4835259917
 20
269.9562291842
 11
60.8105212871
 21
272.7015842693
  0
LINE
  5
3FE
100
AcDbEntity
  8
0
100
AcDbLine
 62
7
  6
CONTINUOUS
 10
4.9604059242
 20
293.1887761036
 11
6.0935945132
 21
292.9138281909
  0
LINE
  5
3FF
100
AcDbEntity
  8
0
100
AcDbLine
 62
7
  6
CONTINUOUS
 10
60.8153264259
 20
269.7771119396
 11
61.2395255136
 21
269.5321061007
  0
LINE
  5
400
100
AcDbEntity
  8
0
100
AcDbLine
 62
7
  6
CONTINUOUS
 10
60.8105212871
 20
272.7015842693
 11
13.2160922468
 21
300.1908301269
  0
LINE
  5
401
100
AcDbEntity
  8
0
100
AcDbLine
 62
7
  6
CONTINUOUS
 10
12.0319386236
 20
299.5715654912
 11
11.6795583431
 21
299.778955465
  0
LINE
  5
402
100
AcDbEntity
  8
0
100
AcDbLine
 62
7
  6
CONTINUOUS
 10
56.3231647698
 20
193.3098573756
 11
55.9180867963
 21
193.1299029533
  0
LINE
  5
403
100
AcDbEntity
  8
0
100
AcDbLine
 62
7
  6
CONTINUOUS
 10
55.2857442258
 20
192.8489870571
 11
54.8654132548
 21
192.662256546
  0
LINE
  5
404
100
AcDbEntity
  8
0
100
AcDbLine
 62
7
  6
CONTINUOUS
 10
8.8089095908
 20
298.7076019255
 11
3.6557249081
 21
300.6358464009
  0
LINE
  5
405
100
AcDbEntity
  8
0
100
AcDbLine
 62
7
  6
CONTINUOUS
 10
4.7817675263
 20
299.9854748553
 11
9.9526404941
 21
298.0470141082
  0
LINE
  5
406
100
AcDbEntity
  8
0
100
AcDbLine
 62
7
  6
CONTINUOUS
 10
55.821139705
 20
190.0952436207
 11
59.2508755772
 21
191.618891357
  0
LINE
  5
407
100
AcDbEntity
  8
0
100
AcDbLine
 62
7
  6
CONTINUOUS
 10
12.040806586
 20
292.9084168291
 11
10.799073873
 21
292.5755585732
  0
LINE
  5
408
100
AcDbEntity
  8
0
100
AcDbLine
 62
7
  6
CONTINUOUS
 10
5.6654335674
 20
291.1994374963
 11
4.4237008545
 21
290.8665792405
  0
LINE
  5
409
100
AcDbEntity
  8
0
100
AcDbLine
 62
7
  6
CONTINUOUS
 10
2.9043735382
 20
291.9234736019
 11
4.0861135787
 21
292.2402502517
  0
LINE
  5
40A
100
AcDbEntity
  8
0
100
AcDbLine
 62
7
  6
CONTINUOUS
 10
5.0778444333
 20
292.5060931332
 11
6.2537747709
 21
292.8213124369
  0
LINE
  5
40B
100
AcDbEntity
  8
0
100
AcDbLine
 62
7
  6
CONTINUOUS
 10
4.9604059242
 20
293.1887761036
 11
4.2333124696
 21
292.9938717924
  0
LINE
  5
40C
100
AcDbEntity
  8
0
100
AcDbLine
 62
7
  6
CONTINUOUS
 10
3.241581615
 20
292.7280289109
 11
2.9043735382
 21
292.6376370809
  0
LINE
  5
40D
100
AcDbEntity
  8
0
100
AcDbLine
 62
7
  6
CONTINUOUS
 10
6.2537747709
 20
293.7682270888
 11
5.0778444333
 21
293.453007785
  0
LINE
  5
40E
100
AcDbEntity
  8
0
100
AcDbLine
 62
7
  6
CONTINUOUS
 10
4.0861135787
 20
293.1871649035
 11
2.9043735382
 21
292.8703882537
  0
LINE
  5
40F
100
AcDbEntity
  8
0
100
AcDbLine
 62
7
  6
CONTINUOUS
 10
6.9736148041
 20
295.8350887843
 11
6.8432327588
 21
295.8001386379
  0
LINE
  5
410
100
AcDbEntity
  8
0
100
AcDbLine
 62
7
  6
CONTINUOUS
 10
-0.1666716891
 20
293.9210671246
 11
-0.6434909274
 21
293.7932511958
  0
LINE
  5
411
100
AcDbEntity
  8
0
100
AcDbLine
 62
7
  6
CONTINUOUS
 10
9.9526404941
 20
298.0470141082
 11
6.4782376489
 21
297.1156674028
  0
LINE
  5
412
100
AcDbEntity
  8
0
100
AcDbLine
 62
7
  6
CONTINUOUS
 10
-6.9652679018
 20
293.5120079654
 11
-1.8380473313
 21
294.8864081713
  0
LINE
  5
413
100
AcDbEntity
  8
0
100
AcDbLine
 62
7
  6
CONTINUOUS
 10
-11.3320278379
 20
293.308632217
 11
-8.1089988051
 21
294.1725957827
  0
LINE
  5
414
100
AcDbEntity
  8
0
100
AcDbLine
 62
7
  6
CONTINUOUS
 10
8.8089095908
 20
298.7076019255
 11
12.0319386236
 21
299.5715654912
  0
LINE
  5
415
100
AcDbEntity
  8
0
100
AcDbLine
 62
7
  6
CONTINUOUS
 10
11.6795583431
 20
299.778955465
 11
13.2160922468
 21
300.1908301269
  0
LINE
  5
416
100
AcDbEntity
  8
0
100
AcDbLine
 62
7
  6
CONTINUOUS
 10
-13.2300638753
 20
293.1016866193
 11
-11.6935485495
 21
293.5135720113
  0
LINE
  5
417
100
AcDbEntity
  8
0
100
AcDbLine
 62
7
  6
CONTINUOUS
 10
6.4531431685
 20
299.0201338085
 11
4.8002584109
 21
298.5770623393
  0
LINE
  5
418
100
AcDbEntity
  8
0
100
AcDbLine
 62
7
  6
CONTINUOUS
 10
1.4944888956
 20
297.6909194009
 11
-0.158395862
 21
297.2478479316
  0
LINE
  5
419
100
AcDbEntity
  8
0
100
AcDbLine
 62
7
  6
CONTINUOUS
 10
3.6557249081
 20
300.6358464009
 11
2.0028401505
 21
300.1927749317
  0
LINE
  5
41A
100
AcDbEntity
  8
0
100
AcDbLine
 62
7
  6
CONTINUOUS
 10
-1.3029293648
 20
299.3066319932
 11
-2.9558141224
 21
298.863560524
  0
LINE
  5
41B
100
AcDbEntity
  8
0
100
AcDbLine
 62
7
  6
CONTINUOUS
 10
-9.9163737282
 20
301.7945654471
 11
-8.5122282588
 21
302.0838946154
  0
ARC
  5
41C
100
AcDbEntity
  8
0
100
AcDbCircle
 62
7
  6
CONTINUOUS
 10
5.7736895699
 20
413.7132127487
 40
165.8933293344
100
AcDbArc
 50
286.1698023259
 51
287.0079319654
  0
ARC
  5
41D
100
AcDbEntity
  8
0
100
AcDbCircle
 62
7
  6
CONTINUOUS
 10
-129.160339845
 20
249.4483704146
 40
164.9727075031
100
AcDbArc
 50
4.2061040411
 51
4.5640710969
  0
ARC
  5
41E
100
AcDbEntity
  8
0
100
AcDbCircle
 62
7
  6
CONTINUOUS
 10
-129.9363080775
 20
249.7993028874
 40
164.6810965566
100
AcDbArc
 50
3.5301202262
 51
4.5424064926
  0
ARC
  5
41F
100
AcDbEntity
  8
0
100
AcDbCircle
 62
7
  6
CONTINUOUS
 10
6.1697491794
 20
412.3553059828
 40
164.3460520577
100
AcDbArc
 50
286.1727024477
 51
287.0140993283
  0
ARC
  5
420
100
AcDbEntity
  8
0
100
AcDbCircle
 62
7
  6
CONTINUOUS
 10
-127.4722810516
 20
249.8484956152
 40
162.6637955943
100
AcDbArc
 50
4.0633777138
 51
4.6151929754
  0
ARC
  5
421
100
AcDbEntity
  8
0
100
AcDbCircle
 62
7
  6
CONTINUOUS
 10
6.6780515515
 20
410.5365294797
 40
162.5904633649
100
AcDbArc
 50
284.3071955564
 51
286.1754661692
  0
ARC
  5
422
100
AcDbEntity
  8
0
100
AcDbCircle
 62
7
  6
CONTINUOUS
 10
8.7203378972
 20
401.6878797095
 40
153.5074144899
100
AcDbArc
 50
280.4557390505
 51
281.5128872698
  0
ARC
  5
423
100
AcDbEntity
  8
0
100
AcDbCircle
 62
7
  6
CONTINUOUS
 10
8.948288949
 20
400.4606947738
 40
152.2592388633
100
AcDbArc
 50
280.1652852562
 51
280.4551890769
  0
ARC
  5
424
100
AcDbEntity
  8
0
100
AcDbCircle
 62
7
  6
CONTINUOUS
 10
9.3265416307
 20
399.4194438131
 40
151.0252611506
100
AcDbArc
 50
280.0931170512
 51
281.4643860718
  0
ARC
  5
425
100
AcDbEntity
  8
0
100
AcDbCircle
 62
7
  6
CONTINUOUS
 10
-4.1054601717
 20
297.6999945914
 40
1.5185196338
100
AcDbArc
 50
179.5643958656
 51
179.999720751
  0
ARC
  5
426
100
AcDbEntity
  8
0
100
AcDbCircle
 62
7
  6
CONTINUOUS
 10
55.9580963434
 20
185.9549628787
 40
1.0872666506
100
AcDbArc
 50
246.1795649298
 51
254.3554733426
  0
ARC
  5
427
100
AcDbEntity
  8
0
100
AcDbCircle
 62
7
  6
CONTINUOUS
 10
55.9580963434
 20
244.773991446
 40
1.0872666506
100
AcDbArc
 50
246.1795649298
 51
254.3554733426
  0
ARC
  5
428
100
AcDbEntity
  8
0
100
AcDbCircle
 62
7
  6
CONTINUOUS
 10
56.7139928038
 20
187.2621753084
 40
1.0833624079
100
AcDbArc
 50
44.8701927136
 51
53.8197463212
  0
ARC
  5
429
100
AcDbEntity
  8
0
100
AcDbCircle
 62
7
  6
CONTINUOUS
 10
56.7139928038
 20
246.0812038758
 40
1.0833624078
100
AcDbArc
 50
44.8701927136
 51
53.8197463212
  0
ARC
  5
42A
100
AcDbEntity
  8
0
100
AcDbCircle
 62
7
  6
CONTINUOUS
 10
55.9491606685
 20
185.9335394111
 40
1.0640593684
100
AcDbArc
 50
234.7952188056
 51
246.1538352525
  0
ARC
  5
42B
100
AcDbEntity
  8
0
100
AcDbCircle
 62
7
  6
CONTINUOUS
 10
55.9491606685
 20
244.7525679784
 40
1.0640593684
100
AcDbArc
 50
234.7952188055
 51
246.1538352525
  0
ARC
  5
42C
100
AcDbEntity
  8
0
100
AcDbCircle
 62
7
  6
CONTINUOUS
 10
56.7258161663
 20
187.2782144803
 40
1.0634365151
100
AcDbArc
 50
53.8237885508
 51
64.9894120547
  0
ARC
  5
42D
100
AcDbEntity
  8
0
100
AcDbCircle
 62
7
  6
CONTINUOUS
 10
56.7258161663
 20
246.0972430477
 40
1.0634365151
100
AcDbArc
 50
53.8237885508
 51
64.9894120547
  0
ARC
  5
42E
100
AcDbEntity
  8
0
100
AcDbCircle
 62
7
  6
CONTINUOUS
 10
-4.0782491099
 20
298.5742316641
 40
0.8615866008
100
AcDbArc
 50
59.993335578
 51
60.2133929856
  0
SPLINE
  5
42F
100
AcDbEntity
  8
0
100
AcDbSpline
 62
7
  6
CONTINUOUS
 70
0
 71
3
 72
11
 73
7
 74
0
 42
0.0000001
 43
0.0000001
 44
0.0000000001
 40
0.0
 40
0.0
 40
0.0
 40
0.0
 40
0.2397178305
 40
0.4829447159
 40
0.7351339106
 40
1.0
 40
1.0
 40
1.0
 40
1.0
 10
57.6150954642
 20
187.945410929
 30
0.0
 10
57.5452429521
 20
187.9964783348
 30
0.0
 10
57.3909334678
 20
188.0821207401
 30
0.0
 10
57.1317833191
 20
188.1500371088
 30
0.0
 10
56.8551162539
 20
188.1556985316
 30
0.0
 10
56.6705370964
 20
188.1192338672
 30
0.0
 10
56.5788952401
 20
188.0919874475
 30
0.0
  0
SPLINE
  5
430
100
AcDbEntity
  8
0
100
AcDbSpline
 62
7
  6
CONTINUOUS
 70
0
 71
3
 72
13
 73
9
 74
0
 42
0.0000001
 43
0.0000001
 44
0.0000000001
 40
0.0
 40
0.0
 40
0.0
 40
0.0
 40
0.1155625841
 40
0.2327095338
 40
0.3522066889
 40
0.4746805976
 40
0.7297848522
 40
1.0
 40
1.0
 40
1.0
 40
1.0
 10
57.8776171093
 20
187.7534945722
 30
0.0
 10
57.9158056832
 20
187.7255759983
 30
0.0
 10
57.9889143059
 20
187.6639603193
 30
0.0
 10
58.0859057827
 20
187.5567444126
 30
0.0
 10
58.1697488536
 20
187.4354913507
 30
0.0
 10
58.2640057791
 20
187.2546492945
 30
0.0
 10
58.343369148
 20
186.9991378453
 30
0.0
 10
58.3630493448
 20
186.7834176602
 30
0.0
 10
58.3630493448
 20
186.6728051025
 30
0.0
  0
SPLINE
  5
431
100
AcDbEntity
  8
0
100
AcDbSpline
 62
7
  6
CONTINUOUS
 70
0
 71
3
 72
11
 73
7
 74
0
 42
0.0000001
 43
0.0000001
 44
0.0000000001
 40
0.0
 40
0.0
 40
0.0
 40
0.0
 40
0.2648619323
 40
0.5170529194
 40
0.7602811255
 40
1.0
 40
1.0
 40
1.0
 40
1.0
 10
55.1705442705
 20
185.653630529
 30
0.0
 10
55.1927342683
 20
185.5606339659
 30
0.0
 10
55.253385977
 20
185.382527022
 30
0.0
 10
55.3965437489
 20
185.1457024382
 30
0.0
 10
55.5848773673
 20
184.95515954
 30
0.0
 10
55.736175054
 20
184.8642936908
 30
0.0
 10
55.8153158435
 20
184.8293019812
 30
0.0
  0
SPLINE
  5
432
100
AcDbEntity
  8
0
100
AcDbSpline
 62
7
  6
CONTINUOUS
 70
0
 71
3
 72
19
 73
15
 74
0
 42
0.0000001
 43
0.0000001
 44
0.0000000001
 40
0.0
 40
0.0
 40
0.0
 40
0.0
 40
0.1291214791
 40
0.2636934872
 40
0.3319786294
 40
0.4001932999
 40
0.5342166553
 40
0.6623485642
 40
0.72353207
 40
0.7825326761
 40
0.8393914952
 40
0.8943152447
 40
0.9476774189
 40
1.0
 40
1.0
 40
1.0
 40
1.0
 10
58.3630493448
 20
186.6728051025
 30
0.0
 10
58.3630493448
 20
186.523820364
 30
0.0
 10
58.3255255228
 20
186.218814873
 30
0.0
 10
58.1982789405
 20
185.8545954112
 30
0.0
 10
58.0516629403
 20
185.5777820152
 30
0.0
 10
57.8781607486
 20
185.3177552885
 30
0.0
 10
57.6192208536
 20
185.0341262336
 30
0.0
 10
57.3115082739
 20
184.8168808827
 30
0.0
 10
57.0504252341
 20
184.6972056349
 30
0.0
 10
56.8545827734
 20
184.6368828032
 30
0.0
 10
56.6592776055
 20
184.6058506001
 30
0.0
 10
56.4679312539
 20
184.6048005556
 30
0.0
 10
56.2840835627
 20
184.6338828378
 30
0.0
 10
56.1679526159
 20
184.6733975765
 30
0.0
 10
56.1127373296
 20
184.697810653
 30
0.0
  0
SPLINE
  5
433
100
AcDbEntity
  8
0
100
AcDbSpline
 62
7
  6
CONTINUOUS
 70
0
 71
3
 72
13
 73
9
 74
0
 42
0.0000001
 43
0.0000001
 44
0.0000000001
 40
0.0
 40
0.0
 40
0.0
 40
0.0
 40
0.2714348769
 40
0.5262146899
 40
0.6482261953
 40
0.7672626307
 40
0.8841832821
 40
1.0
 40
1.0
 40
1.0
 40
1.0
 10
55.8669514179
 20
186.0037023289
 30
0.0
 10
55.8669514179
 20
185.9182471297
 30
0.0
 10
55.8835308233
 20
185.7519293938
 30
0.0
 10
55.9509418537
 20
185.5568822821
 30
0.0
 10
56.0306282221
 20
185.4221392481
 30
0.0
 10
56.1012116659
 20
185.3337711462
 30
0.0
 10
56.182492053
 20
185.2579775488
 30
0.0
 10
56.2432514035
 20
185.2164341902
 30
0.0
 10
56.2748253938
 20
185.1981973408
 30
0.0
  0
SPLINE
  5
434
100
AcDbEntity
  8
0
100
AcDbSpline
 62
7
  6
CONTINUOUS
 70
0
 71
3
 72
19
 73
15
 74
0
 42
0.0000001
 43
0.0000001
 44
0.0000000001
 40
0.0
 40
0.0
 40
0.0
 40
0.0
 40
0.0523303465
 40
0.1053795642
 40
0.1597848772
 40
0.2160385251
 40
0.2744521184
 40
0.3351479996
 40
0.4627690029
 40
0.5970178805
 40
0.6655862665
 40
0.7343299341
 40
0.8699425461
 40
1.0
 40
1.0
 40
1.0
 40
1.0
 10
57.5251833892
 20
187.3630466536
 30
0.0
 10
57.4870974176
 20
187.385044764
 30
0.0
 10
57.4061340284
 20
187.4223676998
 30
0.0
 10
57.2753827381
 20
187.4558510236
 30
0.0
 10
57.1375352059
 20
187.4664852727
 30
0.0
 10
56.9953825427
 20
187.4541646468
 30
0.0
 10
56.8516369707
 20
187.4192583182
 30
0.0
 10
56.6584135894
 20
187.3424094999
 30
0.0
 10
56.4285578684
 20
187.1931806099
 30
0.0
 10
56.2341560522
 20
186.9916659305
 30
0.0
 10
56.1032440304
 20
186.8042614289
 30
0.0
 10
55.9921816727
 20
186.6031262487
 30
0.0
 10
55.8955627279
 20
186.3368813975
 30
0.0
 10
55.8669514179
 20
186.1130126827
 30
0.0
 10
55.8669514179
 20
186.0037023289
 30
0.0
  0
SPLINE
  5
435
100
AcDbEntity
  8
0
100
AcDbSpline
 62
7
  6
CONTINUOUS
 70
0
 71
3
 72
20
 73
16
 74
0
 42
0.0000001
 43
0.0000001
 44
0.0000000001
 40
0.0
 40
0.0
 40
0.0
 40
0.0
 40
0.1309094265
 40
0.1988501618
 40
0.2676872352
 40
0.4054854286
 40
0.4734651176
 40
0.5400324384
 40
0.6669897305
 40
0.7271430767
 40
0.7849451706
 40
0.8406146734
 40
0.8945810509
 40
0.9474608714
 40
1.0
 40
1.0
 40
1.0
 40
1.0
 10
55.4369594381
 20
185.8884388919
 30
0.0
 10
55.4369594381
 20
186.0490716148
 30
0.0
 10
55.4694651003
 20
186.294064075
 30
0.0
 10
55.5672239354
 20
186.608087109
 30
0.0
 10
55.7025791353
 20
186.9172606656
 30
0.0
 10
55.8877798297
 20
187.2025761444
 30
0.0
 10
56.1140982646
 20
187.449307967
 30
0.0
 10
56.3569832128
 20
187.6597283331
 30
0.0
 10
56.6281374462
 20
187.8208932253
 30
0.0
 10
56.9137138938
 20
187.9173371205
 30
0.0
 10
57.1243656287
 20
187.9547131617
 30
0.0
 10
57.3307726343
 20
187.9573609045
 30
0.0
 10
57.5286553166
 20
187.925001915
 30
0.0
 10
57.7136284686
 20
187.8581746087
 30
0.0
 10
57.8255734987
 20
187.791542167
 30
0.0
 10
57.8776171093
 20
187.7534945722
 30
0.0
  0
SPLINE
  5
436
100
AcDbEntity
  8
0
100
AcDbSpline
 62
7
  6
CONTINUOUS
 70
0
 71
3
 72
13
 73
9
 74
0
 42
0.0000001
 43
0.0000001
 44
0.0000000001
 40
0.0
 40
0.0
 40
0.0
 40
0.0
 40
0.2714348769
 40
0.5262146899
 40
0.6482261953
 40
0.7672626307
 40
0.8841832821
 40
1.0
 40
1.0
 40
1.0
 40
1.0
 10
57.933057365
 20
186.5575416655
 30
0.0
 10
57.933057365
 20
186.6429968647
 30
0.0
 10
57.9164779596
 20
186.8093146006
 30
0.0
 10
57.8490669292
 20
187.0043617123
 30
0.0
 10
57.7693805609
 20
187.1391047463
 30
0.0
 10
57.698797117
 20
187.2274728482
 30
0.0
 10
57.6175167299
 20
187.3032664456
 30
0.0
 10
57.5567573794
 20
187.3448098042
 30
0.0
 10
57.5251833892
 20
187.3630466536
 30
0.0
  0
SPLINE
  5
437
100
AcDbEntity
  8
0
100
AcDbSpline
 62
7
  6
CONTINUOUS
 70
0
 71
3
 72
13
 73
9
 74
0
 42
0.0000001
 43
0.0000001
 44
0.0000000001
 40
0.0
 40
0.0
 40
0.0
 40
0.0
 40
0.1164294907
 40
0.2333213619
 40
0.3519585936
 40
0.4734618638
 40
0.727658897
 40
1.0
 40
1.0
 40
1.0
 40
1.0
 10
56.1127373296
 20
184.697810653
 30
0.0
 10
56.0613741778
 20
184.7205205334
 30
0.0
 10
55.9619869357
 20
184.7746018091
 30
0.0
 10
55.827714572
 20
184.8796694243
 30
0.0
 10
55.7105062924
 20
185.0068671197
 30
0.0
 10
55.5775955014
 20
185.2058455478
 30
0.0
 10
55.4645293836
 20
185.5018796635
 30
0.0
 10
55.4369594381
 20
185.7570753098
 30
0.0
 10
55.4369594381
 20
185.8884388919
 30
0.0
  0
SPLINE
  5
438
100
AcDbEntity
  8
0
100
AcDbSpline
 62
7
  6
CONTINUOUS
 70
0
 71
3
 72
19
 73
15
 74
0
 42
0.0000001
 43
0.0000001
 44
0.0000000001
 40
0.0
 40
0.0
 40
0.0
 40
0.0
 40
0.0523303465
 40
0.1053795642
 40
0.1597848772
 40
0.2160385251
 40
0.2744521184
 40
0.3351479996
 40
0.4627690029
 40
0.5970178805
 40
0.6655862665
 40
0.7343299341
 40
0.8699425461
 40
1.0
 40
1.0
 40
1.0
 40
1.0
 10
56.2748253938
 20
185.1981973408
 30
0.0
 10
56.3129113653
 20
185.1761992304
 30
0.0
 10
56.3938747546
 20
185.1388762946
 30
0.0
 10
56.5246260448
 20
185.1053929708
 30
0.0
 10
56.6624735771
 20
185.0947587217
 30
0.0
 10
56.8046262402
 20
185.1070793476
 30
0.0
 10
56.9483718123
 20
185.1419856762
 30
0.0
 10
57.1415951935
 20
185.2188344945
 30
0.0
 10
57.3714509145
 20
185.3680633845
 30
0.0
 10
57.5658527307
 20
185.5695780639
 30
0.0
 10
57.6967647525
 20
185.7569825655
 30
0.0
 10
57.8078271103
 20
185.9581177457
 30
0.0
 10
57.904446055
 20
186.2243625969
 30
0.0
 10
57.933057365
 20
186.4482313117
 30
0.0
 10
57.933057365
 20
186.5575416655
 30
0.0
  0
SPLINE
  5
439
100
AcDbEntity
  8
0
100
AcDbSpline
 62
7
  6
CONTINUOUS
 70
0
 71
3
 72
11
 73
7
 74
0
 42
0.0000001
 43
0.0000001
 44
0.0000000001
 40
0.0
 40
0.0
 40
0.0
 40
0.0
 40
0.2397178305
 40
0.4829447159
 40
0.7351339106
 40
1.0
 40
1.0
 40
1.0
 40
1.0
 10
57.6150954642
 20
246.7644394963
 30
0.0
 10
57.5452429521
 20
246.8155069021
 30
0.0
 10
57.3909334678
 20
246.9011493074
 30
0.0
 10
57.1317833191
 20
246.9690656762
 30
0.0
 10
56.8551162539
 20
246.974727099
 30
0.0
 10
56.6705370964
 20
246.9382624345
 30
0.0
 10
56.5788952401
 20
246.9110160148
 30
0.0
  0
SPLINE
  5
43A
100
AcDbEntity
  8
0
100
AcDbSpline
 62
7
  6
CONTINUOUS
 70
0
 71
3
 72
13
 73
9
 74
0
 42
0.0000001
 43
0.0000001
 44
0.0000000001
 40
0.0
 40
0.0
 40
0.0
 40
0.0
 40
0.1155625841
 40
0.2327095338
 40
0.3522066889
 40
0.4746805976
 40
0.7297848522
 40
1.0
 40
1.0
 40
1.0
 40
1.0
 10
57.8776171093
 20
246.5725231395
 30
0.0
 10
57.9158056832
 20
246.5446045656
 30
0.0
 10
57.9889143059
 20
246.4829888867
 30
0.0
 10
58.0859057827
 20
246.37577298
 30
0.0
 10
58.1697488536
 20
246.254519918
 30
0.0
 10
58.2640057791
 20
246.0736778618
 30
0.0
 10
58.343369148
 20
245.8181664127
 30
0.0
 10
58.3630493448
 20
245.6024462276
 30
0.0
 10
58.3630493448
 20
245.4918336699
 30
0.0
  0
SPLINE
  5
43B
100
AcDbEntity
  8
0
100
AcDbSpline
 62
7
  6
CONTINUOUS
 70
0
 71
3
 72
11
 73
7
 74
0
 42
0.0000001
 43
0.0000001
 44
0.0000000001
 40
0.0
 40
0.0
 40
0.0
 40
0.0
 40
0.2648619323
 40
0.5170529194
 40
0.7602811255
 40
1.0
 40
1.0
 40
1.0
 40
1.0
 10
55.1705442705
 20
244.4726590963
 30
0.0
 10
55.1927342683
 20
244.3796625333
 30
0.0
 10
55.253385977
 20
244.2015555894
 30
0.0
 10
55.3965437489
 20
243.9647310055
 30
0.0
 10
55.5848773673
 20
243.7741881073
 30
0.0
 10
55.736175054
 20
243.6833222582
 30
0.0
 10
55.8153158435
 20
243.6483305486
 30
0.0
  0
SPLINE
  5
43C
100
AcDbEntity
  8
0
100
AcDbSpline
 62
7
  6
CONTINUOUS
 70
0
 71
3
 72
19
 73
15
 74
0
 42
0.0000001
 43
0.0000001
 44
0.0000000001
 40
0.0
 40
0.0
 40
0.0
 40
0.0
 40
0.1291214791
 40
0.2636934872
 40
0.3319786294
 40
0.4001932999
 40
0.5342166553
 40
0.6623485642
 40
0.72353207
 40
0.7825326761
 40
0.8393914952
 40
0.8943152447
 40
0.9476774189
 40
1.0
 40
1.0
 40
1.0
 40
1.0
 10
58.3630493448
 20
245.4918336699
 30
0.0
 10
58.3630493448
 20
245.3428489314
 30
0.0
 10
58.3255255228
 20
245.0378434404
 30
0.0
 10
58.1982789405
 20
244.6736239785
 30
0.0
 10
58.0516629403
 20
244.3968105825
 30
0.0
 10
57.8781607486
 20
244.1367838559
 30
0.0
 10
57.6192208536
 20
243.853154801
 30
0.0
 10
57.3115082739
 20
243.63590945
 30
0.0
 10
57.0504252341
 20
243.5162342023
 30
0.0
 10
56.8545827734
 20
243.4559113705
 30
0.0
 10
56.6592776055
 20
243.4248791674
 30
0.0
 10
56.4679312539
 20
243.4238291229
 30
0.0
 10
56.2840835627
 20
243.4529114052
 30
0.0
 10
56.1679526159
 20
243.4924261439
 30
0.0
 10
56.1127373296
 20
243.5168392203
 30
0.0
  0
SPLINE
  5
43D
100
AcDbEntity
  8
0
100
AcDbSpline
 62
7
  6
CONTINUOUS
 70
0
 71
3
 72
13
 73
9
 74
0
 42
0.0000001
 43
0.0000001
 44
0.0000000001
 40
0.0
 40
0.0
 40
0.0
 40
0.0
 40
0.2714348769
 40
0.5262146899
 40
0.6482261953
 40
0.7672626307
 40
0.8841832821
 40
1.0
 40
1.0
 40
1.0
 40
1.0
 10
55.8669514179
 20
244.8227308963
 30
0.0
 10
55.8669514179
 20
244.737275697
 30
0.0
 10
55.8835308233
 20
244.5709579612
 30
0.0
 10
55.9509418537
 20
244.3759108494
 30
0.0
 10
56.0306282221
 20
244.2411678154
 30
0.0
 10
56.1012116659
 20
244.1527997135
 30
0.0
 10
56.182492053
 20
244.0770061162
 30
0.0
 10
56.2432514035
 20
244.0354627575
 30
0.0
 10
56.2748253938
 20
244.0172259082
 30
0.0
  0
SPLINE
  5
43E
100
AcDbEntity
  8
0
100
AcDbSpline
 62
7
  6
CONTINUOUS
 70
0
 71
3
 72
19
 73
15
 74
0
 42
0.0000001
 43
0.0000001
 44
0.0000000001
 40
0.0
 40
0.0
 40
0.0
 40
0.0
 40
0.0523303465
 40
0.1053795642
 40
0.1597848772
 40
0.2160385251
 40
0.2744521184
 40
0.3351479996
 40
0.4627690029
 40
0.5970178805
 40
0.6655862665
 40
0.7343299341
 40
0.8699425461
 40
1.0
 40
1.0
 40
1.0
 40
1.0
 10
57.5251833892
 20
246.1820752209
 30
0.0
 10
57.4870974176
 20
246.2040733314
 30
0.0
 10
57.4061340284
 20
246.2413962671
 30
0.0
 10
57.2753827381
 20
246.274879591
 30
0.0
 10
57.1375352059
 20
246.28551384
 30
0.0
 10
56.9953825427
 20
246.2731932141
 30
0.0
 10
56.8516369707
 20
246.2382868856
 30
0.0
 10
56.6584135894
 20
246.1614380672
 30
0.0
 10
56.4285578684
 20
246.0122091772
 30
0.0
 10
56.2341560522
 20
245.8106944979
 30
0.0
 10
56.1032440304
 20
245.6232899963
 30
0.0
 10
55.9921816727
 20
245.422154816
 30
0.0
 10
55.8955627279
 20
245.1559099649
 30
0.0
 10
55.8669514179
 20
244.93204125
 30
0.0
 10
55.8669514179
 20
244.8227308963
 30
0.0
  0
SPLINE
  5
43F
100
AcDbEntity
  8
0
100
AcDbSpline
 62
7
  6
CONTINUOUS
 70
0
 71
3
 72
20
 73
16
 74
0
 42
0.0000001
 43
0.0000001
 44
0.0000000001
 40
0.0
 40
0.0
 40
0.0
 40
0.0
 40
0.1309094265
 40
0.1988501618
 40
0.2676872352
 40
0.4054854286
 40
0.4734651176
 40
0.5400324384
 40
0.6669897305
 40
0.7271430767
 40
0.7849451706
 40
0.8406146734
 40
0.8945810509
 40
0.9474608714
 40
1.0
 40
1.0
 40
1.0
 40
1.0
 10
55.4369594381
 20
244.7074674592
 30
0.0
 10
55.4369594381
 20
244.8681001821
 30
0.0
 10
55.4694651003
 20
245.1130926424
 30
0.0
 10
55.5672239354
 20
245.4271156764
 30
0.0
 10
55.7025791353
 20
245.7362892329
 30
0.0
 10
55.8877798297
 20
246.0216047117
 30
0.0
 10
56.1140982646
 20
246.2683365343
 30
0.0
 10
56.3569832128
 20
246.4787569004
 30
0.0
 10
56.6281374462
 20
246.6399217926
 30
0.0
 10
56.9137138938
 20
246.7363656879
 30
0.0
 10
57.1243656287
 20
246.773741729
 30
0.0
 10
57.3307726343
 20
246.7763894719
 30
0.0
 10
57.5286553166
 20
246.7440304823
 30
0.0
 10
57.7136284686
 20
246.677203176
 30
0.0
 10
57.8255734987
 20
246.6105707344
 30
0.0
 10
57.8776171093
 20
246.5725231395
 30
0.0
  0
SPLINE
  5
440
100
AcDbEntity
  8
0
100
AcDbSpline
 62
7
  6
CONTINUOUS
 70
0
 71
3
 72
13
 73
9
 74
0
 42
0.0000001
 43
0.0000001
 44
0.0000000001
 40
0.0
 40
0.0
 40
0.0
 40
0.0
 40
0.2714348769
 40
0.5262146899
 40
0.6482261953
 40
0.7672626307
 40
0.8841832821
 40
1.0
 40
1.0
 40
1.0
 40
1.0
 10
57.933057365
 20
245.3765702328
 30
0.0
 10
57.933057365
 20
245.462025432
 30
0.0
 10
57.9164779596
 20
245.6283431679
 30
0.0
 10
57.8490669292
 20
245.8233902797
 30
0.0
 10
57.7693805609
 20
245.9581333136
 30
0.0
 10
57.698797117
 20
246.0465014156
 30
0.0
 10
57.6175167299
 20
246.1222950129
 30
0.0
 10
57.5567573794
 20
246.1638383716
 30
0.0
 10
57.5251833892
 20
246.1820752209
 30
0.0
  0
SPLINE
  5
441
100
AcDbEntity
  8
0
100
AcDbSpline
 62
7
  6
CONTINUOUS
 70
0
 71
3
 72
13
 73
9
 74
0
 42
0.0000001
 43
0.0000001
 44
0.0000000001
 40
0.0
 40
0.0
 40
0.0
 40
0.0
 40
0.1164294907
 40
0.2333213619
 40
0.3519585936
 40
0.4734618638
 40
0.727658897
 40
1.0
 40
1.0
 40
1.0
 40
1.0
 10
56.1127373296
 20
243.5168392203
 30
0.0
 10
56.0613741778
 20
243.5395491008
 30
0.0
 10
55.9619869357
 20
243.5936303765
 30
0.0
 10
55.827714572
 20
243.6986979916
 30
0.0
 10
55.7105062924
 20
243.825895687
 30
0.0
 10
55.5775955014
 20
244.0248741151
 30
0.0
 10
55.4645293836
 20
244.3209082309
 30
0.0
 10
55.4369594381
 20
244.5761038771
 30
0.0
 10
55.4369594381
 20
244.7074674592
 30
0.0
  0
SPLINE
  5
442
100
AcDbEntity
  8
0
100
AcDbSpline
 62
7
  6
CONTINUOUS
 70
0
 71
3
 72
19
 73
15
 74
0
 42
0.0000001
 43
0.0000001
 44
0.0000000001
 40
0.0
 40
0.0
 40
0.0
 40
0.0
 40
0.0523303465
 40
0.1053795642
 40
0.1597848772
 40
0.2160385251
 40
0.2744521184
 40
0.3351479996
 40
0.4627690029
 40
0.5970178805
 40
0.6655862665
 40
0.7343299341
 40
0.8699425461
 40
1.0
 40
1.0
 40
1.0
 40
1.0
 10
56.2748253938
 20
244.0172259082
 30
0.0
 10
56.3129113653
 20
243.9952277977
 30
0.0
 10
56.3938747546
 20
243.9579048619
 30
0.0
 10
56.5246260448
 20
243.9244215381
 30
0.0
 10
56.6624735771
 20
243.9137872891
 30
0.0
 10
56.8046262402
 20
243.9261079149
 30
0.0
 10
56.9483718123
 20
243.9610142435
 30
0.0
 10
57.1415951935
 20
244.0378630619
 30
0.0
 10
57.3714509145
 20
244.1870919519
 30
0.0
 10
57.5658527307
 20
244.3886066312
 30
0.0
 10
57.6967647525
 20
244.5760111328
 30
0.0
 10
57.8078271103
 20
244.7771463131
 30
0.0
 10
57.904446055
 20
245.0433911642
 30
0.0
 10
57.933057365
 20
245.2672598791
 30
0.0
 10
57.933057365
 20
245.3765702328
 30
0.0
  0
SPLINE
  5
443
100
AcDbEntity
  8
0
100
AcDbSpline
 62
7
  6
CONTINUOUS
 70
0
 71
3
 72
14
 73
10
 74
0
 42
0.0000001
 43
0.0000001
 44
0.0000000001
 40
0.0
 40
0.0
 40
0.0
 40
0.0
 40
0.1130314309
 40
0.2276257979
 40
0.3451668422
 40
0.4667212025
 40
0.5929619625
 40
0.7241499706
 40
1.0
 40
1.0
 40
1.0
 40
1.0
 10
5.0499632188
 20
296.9068682343
 30
0.0
 10
4.935321293
 20
296.973073943
 30
0.0
 10
4.691578142
 20
297.0853682931
 30
0.0
 10
4.2978703064
 20
297.1858010139
 30
0.0
 10
3.8827942822
 20
297.2172199069
 30
0.0
 10
3.4548187371
 20
297.1793350806
 30
0.0
 10
3.0221014888
 20
297.0732397071
 30
0.0
 10
2.4408818832
 20
296.8404965505
 30
0.0
 10
2.0364817375
 20
296.576186962
 30
0.0
 10
1.7872414088
 20
296.3706091944
 30
0.0
  0
SPLINE
  5
444
100
AcDbEntity
  8
0
100
AcDbSpline
 62
7
  6
CONTINUOUS
 70
0
 71
3
 72
11
 73
7
 74
0
 42
0.0000001
 43
0.0000001
 44
0.0000000001
 40
0.0
 40
0.0
 40
0.0
 40
0.0
 40
0.2478107263
 40
0.5010466883
 40
0.7537362216
 40
1.0
 40
1.0
 40
1.0
 40
1.0
 10
1.7872414088
 20
296.3706091944
 30
0.0
 10
1.5625835825
 20
296.1853075032
 30
0.0
 10
1.1450783674
 20
295.7641568602
 30
0.0
 10
0.6443059749
 20
295.027936056
 30
0.0
 10
0.283850989
 20
294.2157428784
 30
0.0
 10
0.1477991704
 20
293.640962123
 30
0.0
 10
0.1101613819
 20
293.3540200757
 30
0.0
  0
SPLINE
  5
445
100
AcDbEntity
  8
0
100
AcDbSpline
 62
7
  6
CONTINUOUS
 70
0
 71
3
 72
13
 73
9
 74
0
 42
0.0000001
 43
0.0000001
 44
0.0000000001
 40
0.0
 40
0.0
 40
0.0
 40
0.0
 40
0.1158152201
 40
0.2327337532
 40
0.3517707419
 40
0.4737826355
 40
0.7285649952
 40
1.0
 40
1.0
 40
1.0
 40
1.0
 10
6.4575194885
 20
296.0939090257
 30
0.0
 10
6.5522394969
 20
296.0391978739
 30
0.0
 10
6.7345118672
 20
295.9145652423
 30
0.0
 10
6.9783471482
 20
295.6871832377
 30
0.0
 10
7.1901036959
 20
295.4220855827
 30
0.0
 10
7.4291689273
 20
295.0178554561
 30
0.0
 10
7.6313960978
 20
294.4327087186
 30
0.0
 10
7.6811379265
 20
293.9337537824
 30
0.0
 10
7.6811379265
 20
293.6773880232
 30
0.0
  0
SPLINE
  5
446
100
AcDbEntity
  8
0
100
AcDbSpline
 62
7
  6
CONTINUOUS
 70
0
 71
3
 72
10
 73
6
 74
0
 42
0.0000001
 43
0.0000001
 44
0.0000000001
 40
0.0
 40
0.0
 40
0.0
 40
0.0
 40
0.4896662728
 40
0.7450202051
 40
1.0
 40
1.0
 40
1.0
 40
1.0
 10
7.6811379265
 20
293.6773880232
 30
0.0
 10
7.6811379265
 20
293.1476523955
 30
0.0
 10
7.5138653761
 20
292.3351434361
 30
0.0
 10
7.0398596172
 20
291.3600877797
 30
0.0
 10
6.7174969425
 20
290.9075372005
 30
0.0
 10
6.5386030038
 20
290.6975674473
 30
0.0
  0
SPLINE
  5
447
100
AcDbEntity
  8
0
100
AcDbSpline
 62
7
  6
CONTINUOUS
 70
0
 71
3
 72
9
 73
5
 74
0
 42
0.0000001
 43
0.0000001
 44
0.0000000001
 40
0.0
 40
0.0
 40
0.0
 40
0.0
 40
0.2582019487
 40
1.0
 40
1.0
 40
1.0
 40
1.0
 10
-10.439836196
 20
301.103500516
 30
0.0
 10
-10.439836196
 20
301.0886708878
 30
0.0
 10
-10.4377408985
 20
301.0312745258
 30
0.0
 10
-10.4270471505
 20
300.9740469451
 30
0.0
 10
-10.4136407188
 20
300.9336066303
 30
0.0
  0
SPLINE
  5
448
100
AcDbEntity
  8
0
100
AcDbSpline
 62
7
  6
CONTINUOUS
 70
0
 71
3
 72
10
 73
6
 74
0
 42
0.0000001
 43
0.0000001
 44
0.0000000001
 40
0.0
 40
0.0
 40
0.0
 40
0.0
 40
0.2417033539
 40
0.4871990952
 40
1.0
 40
1.0
 40
1.0
 40
1.0
 10
-7.7174710582
 20
301.9713671062
 30
0.0
 10
-7.7745568336
 20
302.0043344497
 30
0.0
 10
-7.8965501775
 20
302.0595870839
 30
0.0
 10
-8.1631831208
 20
302.1226327085
 30
0.0
 10
-8.3752487722
 20
302.1121268093
 30
0.0
 10
-8.5122284674
 20
302.083890391
 30
0.0
  0
SPLINE
  5
449
100
AcDbEntity
  8
0
100
AcDbSpline
 62
7
  6
CONTINUOUS
 70
0
 71
3
 72
9
 73
5
 74
0
 42
0.0000001
 43
0.0000001
 44
0.0000000001
 40
0.0
 40
0.0
 40
0.0
 40
0.0
 40
0.487957204
 40
1.0
 40
1.0
 40
1.0
 40
1.0
 10
-3.6637176327
 20
299.630029542
 30
0.0
 10
-3.5585371523
 20
299.5692872467
 30
0.0
 10
-3.3646109831
 20
299.403696857
 30
0.0
 10
-3.2393999646
 20
299.1829674897
 30
0.0
 10
-3.193035172
 20
299.0642443519
 30
0.0
  0
SPLINE
  5
44A
100
AcDbEntity
  8
0
100
AcDbSpline
 62
7
  6
CONTINUOUS
 70
0
 71
3
 72
10
 73
6
 74
0
 42
0.0000001
 43
0.0000001
 44
0.0000000001
 40
0.0
 40
0.0
 40
0.0
 40
0.0
 40
0.5127914505
 40
0.7582930357
 40
1.0
 40
1.0
 40
1.0
 40
1.0
 10
-9.962587315
 20
299.5727665078
 30
0.0
 10
-9.9185852304
 20
299.4400118015
 30
0.0
 10
-9.8217331276
 20
299.2510625466
 30
0.0
 10
-9.6338667559
 20
299.0516294064
 30
0.0
 10
-9.5250548011
 20
298.9735529209
 30
0.0
 10
-9.4679681956
 20
298.940585098
 30
0.0
  0
SPLINE
  5
44B
100
AcDbEntity
  8
0
100
AcDbSpline
 62
7
  6
CONTINUOUS
 70
0
 71
3
 72
12
 73
8
 74
0
 42
0.0000001
 43
0.0000001
 44
0.0000000001
 40
0.0
 40
0.0
 40
0.0
 40
0.0
 40
0.2328661464
 40
0.4870428089
 40
0.6183149576
 40
0.7491125501
 40
1.0
 40
1.0
 40
1.0
 40
1.0
 10
-9.9163740498
 20
301.7945595098
 30
0.0
 10
-9.9868491
 20
301.7800489251
 30
0.0
 10
-10.1278149334
 20
301.7156178952
 30
0.0
 10
-10.2666763776
 20
301.5797792571
 30
0.0
 10
-10.3530894897
 20
301.4450092
 30
0.0
 10
-10.4174647743
 20
301.2997776823
 30
0.0
 10
-10.439836196
 20
301.1810223106
 30
0.0
 10
-10.439836196
 20
301.103500516
 30
0.0
  0
SPLINE
  5
44C
100
AcDbEntity
  8
0
100
AcDbSpline
 62
7
  6
CONTINUOUS
 70
0
 71
3
 72
9
 73
5
 74
0
 42
0.0000001
 43
0.0000001
 44
0.0000000001
 40
0.0
 40
0.0
 40
0.0
 40
0.0
 40
0.2584063521
 40
1.0
 40
1.0
 40
1.0
 40
1.0
 10
-10.0389937898
 20
300.0682885665
 30
0.0
 10
-10.0389937898
 20
300.0250010997
 30
0.0
 10
-10.0329158646
 20
299.8575921831
 30
0.0
 10
-10.0016726524
 20
299.6906873409
 30
0.0
 10
-9.962587315
 20
299.5727665078
 30
0.0
  0
SPLINE
  5
44D
100
AcDbEntity
  8
0
100
AcDbSpline
 62
7
  6
CONTINUOUS
 70
0
 71
3
 72
11
 73
7
 74
0
 42
0.0000001
 43
0.0000001
 44
0.0000000001
 40
0.0
 40
0.0
 40
0.0
 40
0.0
 40
0.2702886654
 40
0.5256720621
 40
0.7675404631
 40
1.0
 40
1.0
 40
1.0
 40
1.0
 10
-5.6239798055
 20
297.7000019924
 30
0.0
 10
-5.6239798055
 20
297.6080333215
 30
0.0
 10
-5.6077804151
 20
297.428571842
 30
0.0
 10
-5.5307638175
 20
297.1768715085
 30
0.0
 10
-5.4042057211
 20
296.9604739011
 30
0.0
 10
-5.2881696954
 20
296.8450576641
 30
0.0
 10
-5.2249636696
 20
296.7975043534
 30
0.0
  0
SPLINE
  5
44E
100
AcDbEntity
  8
0
100
AcDbSpline
 62
7
  6
CONTINUOUS
 70
0
 71
3
 72
11
 73
7
 74
0
 42
0.0000001
 43
0.0000001
 44
0.0000000001
 40
0.0
 40
0.0
 40
0.0
 40
0.0
 40
0.2510117484
 40
0.5081578391
 40
0.7609211766
 40
1.0
 40
1.0
 40
1.0
 40
1.0
 10
1.518078692
 20
292.5438636076
 30
0.0
 10
1.5680848271
 20
292.9230261533
 30
0.0
 10
1.7734753361
 20
293.6794948827
 30
0.0
 10
2.3385009807
 20
294.7036110952
 30
0.0
 10
3.1151841861
 20
295.554186318
 30
0.0
 10
3.7537299109
 20
295.9677685487
 30
0.0
 10
4.0861135787
 20
296.1167982231
 30
0.0
  0
SPLINE
  5
44F
100
AcDbEntity
  8
0
100
AcDbSpline
 62
7
  6
CONTINUOUS
 70
0
 71
3
 72
15
 73
11
 74
0
 42
0.0000001
 43
0.0000001
 44
0.0000000001
 40
0.0
 40
0.0
 40
0.0
 40
0.0
 40
0.2646694599
 40
0.4021382152
 40
0.5367260625
 40
0.6646701152
 40
0.7837860162
 40
0.8943550023
 40
0.9475380985
 40
1.0
 40
1.0
 40
1.0
 40
1.0
 10
-5.9852403643
 20
297.7269510023
 30
0.0
 10
-5.9852403643
 20
298.037595014
 30
0.0
 10
-5.8622224153
 20
298.5148423959
 30
0.0
 10
-5.5276108592
 20
299.051393671
 30
0.0
 10
-5.1988887662
 20
299.392320683
 30
0.0
 10
-4.8195882809
 20
299.6385599947
 30
0.0
 10
-4.4159448279
 20
299.7717527966
 30
0.0
 10
-4.0773452654
 20
299.7764084359
 30
0.0
 10
-3.8304011139
 20
299.7130808063
 30
0.0
 10
-3.7170394128
 20
299.6608231578
 30
0.0
 10
-3.6637176327
 20
299.630029542
 30
0.0
  0
SPLINE
  5
450
100
AcDbEntity
  8
0
100
AcDbSpline
 62
7
  6
CONTINUOUS
 70
0
 71
3
 72
15
 73
11
 74
0
 42
0.0000001
 43
0.0000001
 44
0.0000000001
 40
0.0
 40
0.0
 40
0.0
 40
0.0
 40
0.0524572082
 40
0.1056428046
 40
0.2162113517
 40
0.3352832558
 40
0.4631426842
 40
0.5976421499
 40
0.7350706256
 40
1.0
 40
1.0
 40
1.0
 40
1.0
 10
-3.6502377815
 20
299.3219868202
 30
0.0
 10
-3.695511584
 20
299.3479013205
 30
0.0
 10
-3.7917003176
 20
299.3918480714
 30
0.0
 10
-4.0010412866
 20
299.4450043478
 30
0.0
 10
-4.2878190371
 20
299.4408203064
 30
0.0
 10
-4.6297353455
 20
299.3282819112
 30
0.0
 10
-4.9512820649
 20
299.1203755715
 30
0.0
 10
-5.2304221206
 20
298.832463703
 30
0.0
 10
-5.5156504514
 20
298.3787835556
 30
0.0
 10
-5.6219342162
 20
297.9749897935
 30
0.0
 10
-5.6239359194
 20
297.7115393694
 30
0.0
  0
SPLINE
  5
451
100
AcDbEntity
  8
0
100
AcDbSpline
 62
7
  6
CONTINUOUS
 70
0
 71
3
 72
11
 73
7
 74
0
 42
0.0000001
 43
0.0000001
 44
0.0000000001
 40
0.0
 40
0.0
 40
0.0
 40
0.0
 40
0.258349201
 40
0.5098015552
 40
0.7561990008
 40
1.0
 40
1.0
 40
1.0
 40
1.0
 10
5.0778444333
 20
296.3826411046
 30
0.0
 10
5.2005726777
 20
296.3934108261
 30
0.0
 10
5.4446061863
 20
296.3981190852
 30
0.0
 10
5.8035957144
 20
296.3518881338
 30
0.0
 10
6.1445591499
 20
296.2527487533
 30
0.0
 10
6.3568447415
 20
296.1520596896
 30
0.0
 10
6.4575194885
 20
296.0939090257
 30
0.0
  0
SPLINE
  5
452
100
AcDbEntity
  8
0
100
AcDbSpline
 62
7
  6
CONTINUOUS
 70
0
 71
3
 72
9
 73
5
 74
0
 42
0.0000001
 43
0.0000001
 44
0.0000000001
 40
0.0
 40
0.0
 40
0.0
 40
0.0
 40
0.5111226061
 40
1.0
 40
1.0
 40
1.0
 40
1.0
 10
3.241581615
 20
296.6045768823
 30
0.0
 10
3.4017586932
 20
296.676394905
 30
0.0
 10
3.7262062847
 20
296.7937819931
 30
0.0
 10
4.0660544838
 20
296.8557424421
 30
0.0
 10
4.2333124696
 20
296.8704197638
 30
0.0
  0
SPLINE
  5
453
100
AcDbEntity
  8
0
100
AcDbSpline
 62
7
  6
CONTINUOUS
 70
0
 71
3
 72
11
 73
7
 74
0
 42
0.0000001
 43
0.0000001
 44
0.0000000001
 40
0.0
 40
0.0
 40
0.0
 40
0.0
 40
0.2323345329
 40
0.4732820525
 40
0.7284441347
 40
1.0
 40
1.0
 40
1.0
 40
1.0
 10
-5.4315792575
 20
296.6095077582
 30
0.0
 10
-5.5177862867
 20
296.6616114512
 30
0.0
 10
-5.6781308937
 20
296.7952808302
 30
0.0
 10
-5.8548888808
 20
297.0616247987
 30
0.0
 10
-5.9627022571
 20
297.3799211971
 30
0.0
 10
-5.9852403643
 20
297.6092168635
 30
0.0
 10
-5.9852403643
 20
297.7269510023
 30
0.0
  0
SPLINE
  5
454
100
AcDbEntity
  8
0
100
AcDbSpline
 62
7
  6
CONTINUOUS
 70
0
 71
3
 72
12
 73
8
 74
0
 42
0.0000001
 43
0.0000001
 44
0.0000000001
 40
0.0
 40
0.0
 40
0.0
 40
0.0
 40
0.2328616877
 40
0.3584392653
 40
0.4878815971
 40
0.749155687
 40
1.0
 40
1.0
 40
1.0
 40
1.0
 10
-8.5122284674
 20
302.083890391
 30
0.0
 10
-8.7177824417
 20
302.0415183593
 30
0.0
 10
-9.021294258
 20
301.9028103208
 30
0.0
 10
-9.3627438331
 20
301.6242925028
 30
0.0
 10
-9.6727960128
 20
301.2746417902
 30
0.0
 10
-9.9518114273
 20
300.7578909497
 30
0.0
 10
-10.0389937898
 20
300.2943718516
 30
0.0
 10
-10.0389937898
 20
300.0682885665
 30
0.0
  0
SPLINE
  5
455
100
AcDbEntity
  8
0
100
AcDbSpline
 62
7
  6
CONTINUOUS
 70
0
 71
3
 72
9
 73
5
 74
0
 42
0.0000001
 43
0.0000001
 44
0.0000000001
 40
0.0
 40
0.0
 40
0.0
 40
0.0
 40
0.2462935986
 40
1.0
 40
1.0
 40
1.0
 40
1.0
 10
61.7437762109
 20
257.6876354739
 30
0.0
 10
61.7399143576
 20
258.6610461108
 30
0.0
 10
61.685064154
 20
262.6130599141
 30
0.0
 10
61.4765578425
 20
266.5627019585
 30
0.0
 10
61.2395255136
 20
269.5321061007
 30
0.0
  0
SPLINE
  5
456
100
AcDbEntity
  8
0
100
AcDbSpline
 62
7
  6
CONTINUOUS
 70
0
 71
3
 72
9
 73
5
 74
0
 42
0.0000001
 43
0.0000001
 44
0.0000000001
 40
0.0
 40
0.0
 40
0.0
 40
0.0
 40
0.2511843297
 40
1.0
 40
1.0
 40
1.0
 40
1.0
 10
61.7437762109
 20
257.6876354739
 30
0.0
 10
61.1220648968
 20
257.464908607
 30
0.0
 10
58.6417994266
 20
256.5926370101
 30
0.0
 10
56.1411490665
 20
255.7782829391
 30
0.0
 10
54.2585582231
 20
255.2022236977
 30
0.0
  0
SPLINE
  5
457
100
AcDbEntity
  8
0
100
AcDbSpline
 62
7
  6
CONTINUOUS
 70
0
 71
3
 72
9
 73
5
 74
0
 42
0.0000001
 43
0.0000001
 44
0.0000000001
 40
0.0
 40
0.0
 40
0.0
 40
0.0
 40
0.2520627522
 40
1.0
 40
1.0
 40
1.0
 40
1.0
 10
51.9456400641
 20
254.5130029058
 30
0.0
 10
50.8981536339
 20
254.2092430009
 30
0.0
 10
46.7305569537
 20
253.0457949655
 30
0.0
 10
42.5158088885
 20
252.0505310234
 30
0.0
 10
39.3441404071
 20
251.4073724496
 30
0.0
  0
SPLINE
  5
458
100
AcDbEntity
  8
0
100
AcDbSpline
 62
7
  6
CONTINUOUS
 70
0
 71
3
 72
9
 73
5
 74
0
 42
0.0000001
 43
0.0000001
 44
0.0000000001
 40
0.0
 40
0.0
 40
0.0
 40
0.0
 40
0.2466811045
 40
1.0
 40
1.0
 40
1.0
 40
1.0
 10
35.1741488742
 20
251.089125146
 30
0.0
 10
35.1707524549
 20
251.9355835926
 30
0.0
 10
35.1270762623
 20
255.3668038858
 30
0.0
 10
34.9657790678
 20
258.7963807265
 30
0.0
 10
34.7826231233
 20
261.3748336429
 30
0.0
  0
SPLINE
  5
459
100
AcDbEntity
  8
0
100
AcDbSpline
 62
7
  6
CONTINUOUS
 70
0
 71
3
 72
9
 73
5
 74
0
 42
0.0000001
 43
0.0000001
 44
0.0000000001
 40
0.0
 40
0.0
 40
0.0
 40
0.0
 40
0.2533256892
 40
1.0
 40
1.0
 40
1.0
 40
1.0
 10
35.3680415654
 20
261.5482022884
 30
0.0
 10
35.4350871421
 20
260.6364654821
 30
0.0
 10
35.6696799998
 20
257.0352707927
 30
0.0
 10
35.7827952429
 20
253.4259812314
 30
0.0
 10
35.7934855161
 20
250.731413407
 30
0.0
  0
SPLINE
  5
45A
100
AcDbEntity
  8
0
100
AcDbSpline
 62
7
  6
CONTINUOUS
 70
0
 71
3
 72
9
 73
5
 74
0
 42
0.0000001
 43
0.0000001
 44
0.0000000001
 40
0.0
 40
0.0
 40
0.0
 40
0.0
 40
0.2461114575
 40
1.0
 40
1.0
 40
1.0
 40
1.0
 10
55.8211397054
 20
239.8496328996
 30
0.0
 10
55.8104000188
 20
239.8486462164
 30
0.0
 10
55.7668553643
 20
239.8436646142
 30
0.0
 10
55.7237654184
 20
239.8348493312
 30
0.0
 10
55.6918556336
 20
239.8262956101
 30
0.0
  0
SPLINE
  5
45B
100
AcDbEntity
  8
0
100
AcDbSpline
 62
7
  6
CONTINUOUS
 70
0
 71
3
 72
11
 73
7
 74
0
 42
0.0000001
 43
0.0000001
 44
0.0000000001
 40
0.0
 40
0.0
 40
0.0
 40
0.0
 40
0.2351889693
 40
0.4898339225
 40
0.7501789128
 40
1.0
 40
1.0
 40
1.0
 40
1.0
 10
55.6918556336
 20
239.8262956101
 30
0.0
 10
55.5784756772
 20
239.7959030352
 30
0.0
 10
55.3549366547
 20
239.681691836
 30
0.0
 10
55.0905359734
 20
239.4089995965
 30
0.0
 10
54.9118482669
 20
239.065873649
 30
0.0
 10
54.8654132548
 20
238.8101109575
 30
0.0
 10
54.8654132548
 20
238.6854252621
 30
0.0
  0
SPLINE
  5
45C
100
AcDbEntity
  8
0
100
AcDbSpline
 62
7
  6
CONTINUOUS
 70
0
 71
3
 72
10
 73
6
 74
0
 42
0.0000001
 43
0.0000001
 44
0.0000000001
 40
0.0
 40
0.0
 40
0.0
 40
0.0
 40
0.5252296462
 40
0.7667864652
 40
1.0
 40
1.0
 40
1.0
 40
1.0
 10
54.8654132548
 20
190.7470681408
 30
0.0
 10
54.8654132548
 20
190.6154237078
 30
0.0
 10
54.9039514773
 20
190.4172880388
 30
0.0
 10
55.0467204234
 20
190.2079269308
 30
0.0
 10
55.1411161215
 20
190.1319347668
 30
0.0
 10
55.1917189652
 20
190.1026754304
 30
0.0
  0
SPLINE
  5
45D
100
AcDbEntity
  8
0
100
AcDbSpline
 62
7
  6
CONTINUOUS
 70
0
 71
3
 72
9
 73
5
 74
0
 42
0.0000001
 43
0.0000001
 44
0.0000000001
 40
0.0
 40
0.0
 40
0.0
 40
0.0
 40
0.4900542891
 40
1.0
 40
1.0
 40
1.0
 40
1.0
 10
59.6217347914
 20
240.0879995583
 30
0.0
 10
59.5675144975
 20
240.1193138222
 30
0.0
 10
59.4455054517
 20
240.1650974922
 30
0.0
 10
59.3157571064
 20
240.1706925975
 30
0.0
 10
59.2508755772
 20
240.1647317606
 30
0.0
  0
SPLINE
  5
45E
100
AcDbEntity
  8
0
100
AcDbSpline
 62
7
  6
CONTINUOUS
 70
0
 71
3
 72
9
 73
5
 74
0
 42
0.0000001
 43
0.0000001
 44
0.0000000001
 40
0.0
 40
0.0
 40
0.0
 40
0.0
 40
0.4837082031
 40
1.0
 40
1.0
 40
1.0
 40
1.0
 10
57.868976144
 20
188.088283289
 30
0.0
 10
57.7221377345
 20
188.1731007826
 30
0.0
 10
57.3761722019
 20
188.2817989796
 30
0.0
 10
57.0185275384
 20
188.2446401094
 30
0.0
 10
56.8437022606
 20
188.197776532
 30
0.0
  0
SPLINE
  5
45F
100
AcDbEntity
  8
0
100
AcDbSpline
 62
7
  6
CONTINUOUS
 70
0
 71
3
 72
9
 73
5
 74
0
 42
0.0000001
 43
0.0000001
 44
0.0000000001
 40
0.0
 40
0.0
 40
0.0
 40
0.0
 40
0.4837082031
 40
1.0
 40
1.0
 40
1.0
 40
1.0
 10
57.868976144
 20
246.9073118564
 30
0.0
 10
57.7221377345
 20
246.9921293499
 30
0.0
 10
57.3761722019
 20
247.1008275469
 30
0.0
 10
57.0185275384
 20
247.0636686767
 30
0.0
 10
56.8437022606
 20
247.0168050993
 30
0.0
  0
SPLINE
  5
460
100
AcDbEntity
  8
0
100
AcDbSpline
 62
7
  6
CONTINUOUS
 70
0
 71
3
 72
12
 73
8
 74
0
 42
0.0000001
 43
0.0000001
 44
0.0000000001
 40
0.0
 40
0.0
 40
0.0
 40
0.0
 40
0.2339400358
 40
0.4867535745
 40
0.6170829304
 40
0.7473804259
 40
1.0
 40
1.0
 40
1.0
 40
1.0
 10
56.8437022606
 20
247.0168050993
 30
0.0
 10
56.6255573445
 20
246.9583292812
 30
0.0
 10
56.1944596123
 20
246.7448556476
 30
0.0
 10
55.7617612825
 20
246.3233464152
 30
0.0
 10
55.4845580589
 20
245.9106416657
 30
0.0
 10
55.2676118469
 20
245.4640691909
 30
0.0
 10
55.1768482179
 20
245.0983394495
 30
0.0
 10
55.1568651985
 20
244.8552797612
 30
0.0
  0
SPLINE
  5
461
100
AcDbEntity
  8
0
100
AcDbSpline
 62
7
  6
CONTINUOUS
 70
0
 71
3
 72
11
 73
7
 74
0
 42
0.0000001
 43
0.0000001
 44
0.0000000001
 40
0.0
 40
0.0
 40
0.0
 40
0.0
 40
0.2742220465
 40
0.5303901351
 40
0.7701446991
 40
1.0
 40
1.0
 40
1.0
 40
1.0
 10
55.1568651985
 20
244.8552797612
 30
0.0
 10
55.1439592608
 20
244.6983008224
 30
0.0
 10
55.1510092174
 20
244.3906001143
 30
0.0
 10
55.2699081543
 20
243.9592723616
 30
0.0
 10
55.4921292631
 20
243.5992160512
 30
0.0
 10
55.704104915
 20
243.4230624838
 30
0.0
 10
55.8184283771
 20
243.3570264273
 30
0.0
  0
SPLINE
  5
462
100
AcDbEntity
  8
0
100
AcDbSpline
 62
7
  6
CONTINUOUS
 70
0
 71
3
 72
12
 73
8
 74
0
 42
0.0000001
 43
0.0000001
 44
0.0000000001
 40
0.0
 40
0.0
 40
0.0
 40
0.0
 40
0.2339400358
 40
0.4867535745
 40
0.6170829304
 40
0.7473804259
 40
1.0
 40
1.0
 40
1.0
 40
1.0
 10
56.8437022606
 20
188.197776532
 30
0.0
 10
56.6255573445
 20
188.1393007139
 30
0.0
 10
56.1944596123
 20
187.9258270803
 30
0.0
 10
55.7617612825
 20
187.5043178479
 30
0.0
 10
55.4845580589
 20
187.0916130984
 30
0.0
 10
55.2676118469
 20
186.6450406235
 30
0.0
 10
55.1768482179
 20
186.2793108822
 30
0.0
 10
55.1568651985
 20
186.0362511938
 30
0.0
  0
SPLINE
  5
463
100
AcDbEntity
  8
0
100
AcDbSpline
 62
7
  6
CONTINUOUS
 70
0
 71
3
 72
11
 73
7
 74
0
 42
0.0000001
 43
0.0000001
 44
0.0000000001
 40
0.0
 40
0.0
 40
0.0
 40
0.0
 40
0.2742220465
 40
0.5303901351
 40
0.7701446991
 40
1.0
 40
1.0
 40
1.0
 40
1.0
 10
55.1568651985
 20
186.0362511938
 30
0.0
 10
55.1439592608
 20
185.8792722551
 30
0.0
 10
55.1510092174
 20
185.571571547
 30
0.0
 10
55.2699081543
 20
185.1402437943
 30
0.0
 10
55.4921292631
 20
184.7801874839
 30
0.0
 10
55.704104915
 20
184.6040339165
 30
0.0
 10
55.8184283771
 20
184.5379978599
 30
0.0
  0
SPLINE
  5
464
100
AcDbEntity
  8
0
100
AcDbSpline
 62
7
  6
CONTINUOUS
 70
0
 71
3
 72
9
 73
5
 74
0
 42
0.0000001
 43
0.0000001
 44
0.0000000001
 40
0.0
 40
0.0
 40
0.0
 40
0.0
 40
0.260746991
 40
1.0
 40
1.0
 40
1.0
 40
1.0
 10
56.8134437385
 20
193.7409263478
 30
0.0
 10
56.7821493221
 20
193.6930940198
 30
0.0
 10
56.6506503299
 20
193.5177697828
 30
0.0
 10
56.4712647533
 20
193.3756502567
 30
0.0
 10
56.3231647698
 20
193.3098573756
 30
0.0
  0
SPLINE
  5
465
100
AcDbEntity
  8
0
100
AcDbSpline
 62
7
  6
CONTINUOUS
 70
0
 71
3
 72
10
 73
6
 74
0
 42
0.0000001
 43
0.0000001
 44
0.0000000001
 40
0.0
 40
0.0
 40
0.0
 40
0.0
 40
0.5252164779
 40
0.7668068315
 40
1.0
 40
1.0
 40
1.0
 40
1.0
 10
59.9480338845
 20
239.4435955923
 30
0.0
 10
59.9480338845
 20
239.5752369306
 30
0.0
 10
59.9095078882
 20
239.7733922506
 30
0.0
 10
59.7667087817
 20
239.9827177265
 30
0.0
 10
59.6723481493
 20
240.058768436
 30
0.0
 10
59.6217347914
 20
240.0879995583
 30
0.0
  0
SPLINE
  5
466
100
AcDbEntity
  8
0
100
AcDbSpline
 62
7
  6
CONTINUOUS
 70
0
 71
3
 72
9
 73
5
 74
0
 42
0.0000001
 43
0.0000001
 44
0.0000000001
 40
0.0
 40
0.0
 40
0.0
 40
0.0
 40
0.2460517815
 40
1.0
 40
1.0
 40
1.0
 40
1.0
 10
55.6918556336
 20
190.0492692619
 30
0.0
 10
55.7027321561
 20
190.0521848172
 30
0.0
 10
55.7466907732
 20
190.0649383739
 30
0.0
 10
55.7896069562
 20
190.0812353113
 30
0.0
 10
55.821139705
 20
190.0952436207
 30
0.0
  0
SPLINE
  5
467
100
AcDbEntity
  8
0
100
AcDbSpline
 62
7
  6
CONTINUOUS
 70
0
 71
3
 72
15
 73
11
 74
0
 42
0.0000001
 43
0.0000001
 44
0.0000000001
 40
0.0
 40
0.0
 40
0.0
 40
0.0
 40
0.1229644169
 40
0.2549500445
 40
0.3920676545
 40
0.5289385702
 40
0.6602685659
 40
0.782330488
 40
0.8944541082
 40
1.0
 40
1.0
 40
1.0
 40
1.0
 10
56.8437022606
 20
243.2475331843
 30
0.0
 10
57.0265243511
 20
243.2965403833
 30
0.0
 10
57.3897730735
 20
243.4624613465
 30
0.0
 10
57.8558688247
 20
243.8551782115
 30
0.0
 10
58.2275563764
 20
244.3648381142
 30
0.0
 10
58.4711340053
 20
244.9455025085
 30
0.0
 10
58.5645214551
 20
245.5455689702
 30
0.0
 10
58.4962804978
 20
246.1125052337
 30
0.0
 10
58.2665215751
 20
246.5942585335
 30
0.0
 10
58.0096578955
 20
246.8260506006
 30
0.0
 10
57.868976144
 20
246.9073118564
 30
0.0
  0
SPLINE
  5
468
100
AcDbEntity
  8
0
100
AcDbSpline
 62
7
  6
CONTINUOUS
 70
0
 71
3
 72
9
 73
5
 74
0
 42
0.0000001
 43
0.0000001
 44
0.0000000001
 40
0.0
 40
0.0
 40
0.0
 40
0.0
 40
0.4837082031
 40
1.0
 40
1.0
 40
1.0
 40
1.0
 10
55.8184283771
 20
184.5379978599
 30
0.0
 10
55.9652667866
 20
184.4531803664
 30
0.0
 10
56.3112323192
 20
184.3444821693
 30
0.0
 10
56.6688769827
 20
184.3816410396
 30
0.0
 10
56.8437022606
 20
184.4285046169
 30
0.0
  0
SPLINE
  5
469
100
AcDbEntity
  8
0
100
AcDbSpline
 62
7
  6
CONTINUOUS
 70
0
 71
3
 72
15
 73
11
 74
0
 42
0.0000001
 43
0.0000001
 44
0.0000000001
 40
0.0
 40
0.0
 40
0.0
 40
0.0
 40
0.1229644169
 40
0.2549500445
 40
0.3920676545
 40
0.5289385702
 40
0.6602685659
 40
0.782330488
 40
0.8944541082
 40
1.0
 40
1.0
 40
1.0
 40
1.0
 10
56.8437022606
 20
184.4285046169
 30
0.0
 10
57.0265243511
 20
184.477511816
 30
0.0
 10
57.3897730735
 20
184.6434327792
 30
0.0
 10
57.8558688247
 20
185.0361496441
 30
0.0
 10
58.2275563764
 20
185.5458095468
 30
0.0
 10
58.4711340053
 20
186.1264739412
 30
0.0
 10
58.5645214551
 20
186.7265404028
 30
0.0
 10
58.4962804978
 20
187.2934766663
 30
0.0
 10
58.2665215751
 20
187.7752299661
 30
0.0
 10
58.0096578955
 20
188.0070220333
 30
0.0
 10
57.868976144
 20
188.088283289
 30
0.0
  0
SPLINE
  5
46A
100
AcDbEntity
  8
0
100
AcDbSpline
 62
7
  6
CONTINUOUS
 70
0
 71
3
 72
9
 73
5
 74
0
 42
0.0000001
 43
0.0000001
 44
0.0000000001
 40
0.0
 40
0.0
 40
0.0
 40
0.0
 40
0.4837082031
 40
1.0
 40
1.0
 40
1.0
 40
1.0
 10
55.8184283771
 20
243.3570264273
 30
0.0
 10
55.9652667866
 20
243.2722089337
 30
0.0
 10
56.3112323192
 20
243.1635107367
 30
0.0
 10
56.6688769827
 20
243.2006696069
 30
0.0
 10
56.8437022606
 20
243.2475331843
 30
0.0
  0
SPLINE
  5
46B
100
AcDbEntity
  8
0
100
AcDbSpline
 62
7
  6
CONTINUOUS
 70
0
 71
3
 72
9
 73
5
 74
0
 42
0.0000001
 43
0.0000001
 44
0.0000000001
 40
0.0
 40
0.0
 40
0.0
 40
0.0
 40
0.4958931926
 40
1.0
 40
1.0
 40
1.0
 40
1.0
 10
59.2508755772
 20
191.618891357
 30
0.0
 10
59.4545310319
 20
191.7093645549
 30
0.0
 10
59.8027779517
 20
192.0354074817
 30
0.0
 10
59.9480338845
 20
192.4872489092
 30
0.0
 10
59.9480338845
 20
192.7137873462
 30
0.0
  0
SPLINE
  5
46C
100
AcDbEntity
  8
0
100
AcDbSpline
 62
7
  6
CONTINUOUS
 70
0
 71
3
 72
9
 73
5
 74
0
 42
0.0000001
 43
0.0000001
 44
0.0000000001
 40
0.0
 40
0.0
 40
0.0
 40
0.0
 40
0.4837248301
 40
1.0
 40
1.0
 40
1.0
 40
1.0
 10
55.1917189652
 20
190.1026754304
 30
0.0
 10
55.2633316184
 20
190.0612679015
 30
0.0
 10
55.4321282152
 20
190.0083081619
 30
0.0
 10
55.6065777299
 20
190.0264097093
 30
0.0
 10
55.6918556336
 20
190.0492692619
 30
0.0
  0
SPLINE
  5
46D
100
AcDbEntity
  8
0
100
AcDbSpline
 62
7
  6
CONTINUOUS
 70
0
 71
3
 72
9
 73
5
 74
0
 42
0.0000001
 43
0.0000001
 44
0.0000000001
 40
0.0
 40
0.0
 40
0.0
 40
0.0
 40
0.2488133742
 40
1.0
 40
1.0
 40
1.0
 40
1.0
 10
39.3586278132
 20
251.2690594295
 30
0.0
 10
39.983916822
 20
251.3964005187
 30
0.0
 10
42.4938160699
 20
251.9237251022
 30
0.0
 10
44.9907120854
 20
252.5128349869
 30
0.0
 10
46.8575216032
 20
252.9888574449
 30
0.0
  0
SPLINE
  5
46E
100
AcDbEntity
  8
0
100
AcDbSpline
 62
7
  6
CONTINUOUS
 70
0
 71
3
 72
9
 73
5
 74
0
 42
0.0000001
 43
0.0000001
 44
0.0000000001
 40
0.0
 40
0.0
 40
0.0
 40
0.0
 40
0.2488265053
 40
1.0
 40
1.0
 40
1.0
 40
1.0
 10
54.2981671878
 20
255.0753490794
 30
0.0
 10
54.923801431
 20
255.2667042172
 30
0.0
 10
57.4336046153
 20
256.050496073
 30
0.0
 10
59.9250677551
 20
256.8929484024
 30
0.0
 10
61.7850015525
 20
257.5574493071
 30
0.0
  0
SPLINE
  5
46F
100
AcDbEntity
  8
0
100
AcDbSpline
 62
7
  6
CONTINUOUS
 70
0
 71
3
 72
9
 73
5
 74
0
 42
0.0000001
 43
0.0000001
 44
0.0000000001
 40
0.0
 40
0.0
 40
0.0
 40
0.0
 40
0.2528165718
 40
1.0
 40
1.0
 40
1.0
 40
1.0
 10
34.4323172079
 20
259.9392528311
 30
0.0
 10
34.4786131642
 20
259.1881332767
 30
0.0
 10
34.6410623895
 20
256.2159001304
 30
0.0
 10
34.7200876924
 20
253.2390213344
 30
0.0
 10
34.7291122734
 20
251.0149405229
 30
0.0
  0
SPLINE
  5
470
100
AcDbEntity
  8
0
100
AcDbSpline
 62
7
  6
CONTINUOUS
 70
0
 71
3
 72
10
 73
6
 74
0
 42
0.0000001
 43
0.0000001
 44
0.0000000001
 40
0.0
 40
0.0
 40
0.0
 40
0.0
 40
0.2307777507
 40
0.4701171682
 40
1.0
 40
1.0
 40
1.0
 40
1.0
 10
-15.2259587244
 20
215.4709784257
 30
0.0
 10
-15.0659914381
 20
215.5139140072
 30
0.0
 10
-14.7285412632
 20
215.563136969
 30
0.0
 10
-14.0085242029
 20
215.5050087888
 30
0.0
 10
-13.4839481809
 20
215.2887480601
 30
0.0
 10
-13.1546333228
 20
215.0985447677
 30
0.0
  0
SPLINE
  5
471
100
AcDbEntity
  8
0
100
AcDbSpline
 62
7
  6
CONTINUOUS
 70
0
 71
3
 72
15
 73
11
 74
0
 42
0.0000001
 43
0.0000001
 44
0.0000000001
 40
0.0
 40
0.0
 40
0.0
 40
0.0
 40
0.2646694599
 40
0.4021382152
 40
0.5367260625
 40
0.6646701152
 40
0.7837860162
 40
0.8943550023
 40
0.9475380985
 40
1.0
 40
1.0
 40
1.0
 40
1.0
 10
-10.143561374
 20
300.3383438577
 30
0.0
 10
-10.143561374
 20
300.5957346103
 30
0.0
 10
-10.0416322163
 20
300.9911681552
 30
0.0
 10
-9.7643826412
 20
301.4357392117
 30
0.0
 10
-9.492012907
 20
301.7182215931
 30
0.0
 10
-9.1777353621
 20
301.9222484514
 30
0.0
 10
-8.8432879296
 20
302.0326082016
 30
0.0
 10
-8.5627340064
 20
302.0364657313
 30
0.0
 10
-8.358123138
 20
301.9839942667
 30
0.0
 10
-8.2641948713
 20
301.9406950723
 30
0.0
 10
-8.2200139678
 20
301.915180362
 30
0.0
  0
ELLIPSE
  5
472
100
AcDbEntity
  8
0
100
AcDbEllipse
 62
7
  6
CONTINUOUS
 10
-11.4717537769
 20
208.1949797176
 30
0.0
 11
-2.1079303093
 21
7.7173616231
 31
0.0
 40
0.524226928
 41
-0.1662512392
 42
-0.0024822769
  0
ELLIPSE
  5
473
100
AcDbEntity
  8
0
100
AcDbEllipse
 62
7
  6
CONTINUOUS
 10
8.1744318917
 20
290.119350474
 30
0.0
 11
1.6258488036
 21
2.5439986443
 31
0.0
 40
0.7366131053
 41
-1.6365204847
 42
-0.9445486019
  0
ELLIPSE
  5
474
100
AcDbEntity
  8
0
100
AcDbEllipse
 62
7
  6
CONTINUOUS
 10
19.956369415
 20
285.1159681458
 30
0.0
 11
18.2630757319
 21
-10.3657320623
 31
0.0
 40
0.0861292999
 41
4.677581917
 42
7.714454569
  0
ENDSEC
  0
SECTION
  2
OBJECTS
  0
DICTIONARY
  5
C
100
AcDbDictionary
280
0
281
1
  3
ACAD_GROUP
350
D
  3
ACAD_MLINESTYLE
350
17
  3
ACAD_LAYOUT
350
1A
  3
ACAD_PLOTSETTINGS
350
19
  3
ACAD_PLOTSTYLENAME
350
E
  0
DICTIONARY
  5
D
102
{ACAD_REACTORS
330
C
102
}
100
AcDbDictionary
280
0
281
1
  0
ACDBDICTIONARYWDFLT
  5
E
102
{ACAD_REACTORS
330
C
102
}
100
AcDbDictionary
281
1
  3
Normal
350
F
100
AcDbDictionaryWithDefault
340
F
  0
DICTIONARY
  5
17
102
{ACAD_REACTORS
330
C
102
}
100
AcDbDictionary
280
0
281
1
  3
Standard
350
18
  0
DICTIONARY
  5
19
102
{ACAD_REACTORS
330
C
102
}
100
AcDbDictionary
281
1
  0
DICTIONARY
  5
1A
102
{ACAD_REACTORS
330
C
102
}
100
AcDbDictionary
281
1
  3
Model
350
475
  3
Layout1
350
476
  0
ACDBPLACEHOLDER
  5
F
102
{ACAD_REACTORS
330
E
102
}
  0
MLINESTYLE
  5
18
102
{ACAD_REACTORS
330
17
102
}
100
AcDbMlineStyle
  2
STANDARD
 70
0
  3

 62
256
 51
90.0
 52
90.0
 71
2
 49
0.5
 62
256
  6
BYLAYER
 49
-0.5
 62
256
  6
BYLAYER
  0
LAYOUT
  5
475
102
{ACAD_REACTORS
330
1A
102
}
100
AcDbPlotSettings
  1

  2
none_device
  4
ANSI_C_(22.00_x_17.00_Inches)
  6

 40
0.0
 41
0.0
 42
0.0
 43
0.0
 44
558.8
 45
431.8
 46
0.0
 47
0.0
 48
0.0
 49
0.0
140
0.0
141
0.0
142
1.0
143
1.0
 70
1024
 72
1
 73
0
 74
0
  7

 75
0
147
1.0
148
0.0
149
0.0
100
AcDbLayout
  1
Model
 70
0
 71
0
 10
0.0
 20
0.0
 11
558.8
 21
431.8
 12
0.0
 22
0.0
 32
0.0
 14
0.0
 24
0.0
 34
0.0
 15
0.0
 25
0.0
 35
0.0
146
0.0
 13
0.0
 23
0.0
 33
0.0
 16
1.0
 26
0.0
 36
0.0
 17
0.0
 27
1.0
 37
0.0
 76
0
330
216
345
0
346
0
  0
LAYOUT
  5
476
102
{ACAD_REACTORS
330
1A
102
}
100
AcDbPlotSettings
  1

  2
none_device
  4
ANSI_C_(22.00_x_17.00_Inches)
  6

 40
0.0
 41
0.0
 42
0.0
 43
0.0
 44
558.8
 45
431.8
 46
0.0
 47
0.0
 48
0.0
 49
0.0
140
0.0
141
0.0
142
1.0
143
1.0
 70
0
 72
1
 73
0
 74
0
  7

 75
0
147
1.0
148
0.0
149
0.0
100
AcDbLayout
  1
Layout1
 70
0
 71
1
 10
0.0
 20
0.0
 11
558.8
 21
431.8
 12
0.0
 22
0.0
 32
0.0
 14
0.0
 24
0.0
 34
0.0
 15
0.0
 25
0.0
 35
0.0
146
0.0
 13
0.0
 23
0.0
 33
0.0
 16
1.0
 26
0.0
 36
0.0
 17
0.0
 27
1.0
 37
0.0
 76
0
330
217
345
0
346
0
  0
ENDSEC
  0
EOF
