999
DXF file: C:\Users\sesa63760\Dev\_Creo\CAD\MCADDE0000199_3D-CAD\drw0001_5.dxf
999
Pro/ENGINEER 2019471 by Parametric Technology Corporation
  0
SECTION
  2
HEADER
  9
$ACADVER
  1
AC1024
  9
$DWGCODEPAGE
  3
ANSI_1252
  9
$EXTMAX
 10
133.2683941815
 20
188.4795860566
 30
0.0
  9
$EXTMIN
 10
0.0
 20
0.0
 30
0.0
  9
$LIMMIN
 10
0.0
 20
0.0
  9
$LIMMAX
 10
133.2683941815
 20
188.4795860566
  9
$VIEWCTR
 10
66.6341970907
 20
94.2397930283
  9
$VIEWSIZE
 40
188.4795860566
  9
$CLAYER
  8
0
  9
$LTSCALE
 40
12.2860767207
  9
$CELTYPE
  6
BYLAYER
  9
$DIMSCALE
 40
1.0
  9
$DIMASZ
 40
1.5865285022
  9
$DIMEXO
 40
1.0
  9
$DIMDLI
 40
8.488562098
  9
$DIMEXE
 40
1.0
  9
$DIMCEN
 40
2.0104489179
  9
$DIMLFAC
 40
1.0
  9
$DIMBLK
  1
_FILLED
  9
$DIMALT
 70
0
  9
$DIMALTF
 40
0.0393700787
  9
$DIMTXT
 40
2.221139903
  9
$DIMTOL
 70
1
  9
$DIMLIM
 70
0
  9
$DIMTFAC
 40
1.0
  9
$DIMTP
 40
0.01
  9
$DIMTM
 40
0.01
  9
$DIMGAP
 40
0.625
  9
$DIMDSEP
 70
46
  9
$AUNITS
 70
0
  9
$PDMODE
 70
3
  9
$PDSIZE
 40
0.3125
  9
$HANDSEED
  5
30B
  9
$TILEMODE
 70
1
  9
$MEASUREMENT
 70
1
  9
$INSUNITS
 70
4
  0
ENDSEC
  0
SECTION
  2
CLASSES
  0
CLASS
  1
ACDBDICTIONARYWDFLT
  2
AcDbDictionaryWithDefault
  3
AutoCAD 2000
 90
0
 91
1
280
0
281
0
  0
CLASS
  1
ACDBPLACEHOLDER
  2
AcDbPlaceHolder
  3
AutoCAD 2000
 90
0
 91
1
280
0
281
0
  0
CLASS
  1
LAYOUT
  2
AcDbLayout
  3
AutoCAD 2000
 90
0
 91
0
280
0
281
0
  0
ENDSEC
  0
SECTION
  2
TABLES
  0
TABLE
  2
VPORT
  5
8
100
AcDbSymbolTable
 70
2
  0
VPORT
  5
1F4
100
AcDbSymbolTableRecord
100
AcDbViewportTableRecord
  2
*ACTIVE
 70
0
 10
0.0
 20
0.0
 11
1.0
 21
1.0
 12
66.6341970907
 22
94.2397930283
 13
0.0
 23
0.0
 14
1.0
 24
1.0
 15
0.0
 25
0.0
 16
0.0
 26
0.0
 36
1.0
 17
0.0
 27
0.0
 37
0.0
 40
188.4795860566
 41
0.7070707071
 42
50.0
 43
0.0
 44
0.0
 50
0.0
 51
0.0
 71
0
 72
100
 73
1
 74
1
 75
0
 76
0
 77
0
 78
0
  0
ENDTAB
  0
TABLE
  2
LTYPE
  5
5
100
AcDbSymbolTable
 70
6
  0
LTYPE
  5
14
100
AcDbSymbolTableRecord
100
AcDbLinetypeTableRecord
  2
BYBLOCK
 70
0
  3

 72
65
 73
0
 40
0.0
  0
LTYPE
  5
15
100
AcDbSymbolTableRecord
100
AcDbLinetypeTableRecord
  2
BYLAYER
 70
0
  3

 72
65
 73
0
 40
0.0
  0
LTYPE
  5
16
100
AcDbSymbolTableRecord
100
AcDbLinetypeTableRecord
  2
CONTINUOUS
 70
64
  3
Solid line
 72
65
 73
0
 40
0.0
  0
LTYPE
  5
1F5
100
AcDbSymbolTableRecord
100
AcDbLinetypeTableRecord
  2
CENTER
 70
64
  3
____ _ ____ _ ____ _ ____ _ ____ _ ____ _ ____
 72
65
 73
4
 40
0.6
 49
0.375
 74
0
 49
-0.075
 74
0
 49
0.075
 74
0
 49
-0.075
 74
0
  0
LTYPE
  5
1F6
100
AcDbSymbolTableRecord
100
AcDbLinetypeTableRecord
  2
HIDDEN
 70
64
  3
- - - - - - - - - - - - - - - - - - - -
 72
65
 73
2
 40
0.2
 49
0.1
 74
0
 49
-0.1
 74
0
  0
LTYPE
  5
1F7
100
AcDbSymbolTableRecord
100
AcDbLinetypeTableRecord
  2
PHANTOM
 70
64
  3
_____ _ _ _____ _ _ _____ _ _ _____
 72
65
 73
6
 40
0.8
 49
0.45
 74
0
 49
-0.05
 74
0
 49
0.1
 74
0
 49
-0.05
 74
0
 49
0.1
 74
0
 49
-0.05
 74
0
  0
LTYPE
  5
1F8
100
AcDbSymbolTableRecord
100
AcDbLinetypeTableRecord
  2
DOT
 70
64
  3
. . . . . . . . . . . . . . . . . . . .
 72
65
 73
2
 40
0.2
 49
0.1
 74
0
 49
-0.1
 74
0
  0
LTYPE
  5
1F9
100
AcDbSymbolTableRecord
100
AcDbLinetypeTableRecord
  2
DASHED
 70
64
  3
- - - - - - - - - - - - - - - - - - - -
 72
65
 73
2
 40
0.2
 49
0.1
 74
0
 49
-0.1
 74
0
  0
ENDTAB
  0
TABLE
  2
LAYER
  5
2
100
AcDbSymbolTable
 70
36
  0
LAYER
  5
10
100
AcDbSymbolTableRecord
100
AcDbLayerTableRecord
  2
0
 70
0
 62
7
  6
CONTINUOUS
370
-3
390
F
  0
LAYER
  5
1FA
100
AcDbSymbolTableRecord
100
AcDbLayerTableRecord
  2
DEFAULT_1
 70
0
 62
7
  6
CENTER
370
-3
390
F
  0
LAYER
  5
1FB
100
AcDbSymbolTableRecord
100
AcDbLayerTableRecord
  2
DEFAULT_2
 70
0
 62
7
  6
HIDDEN
370
-3
390
F
  0
LAYER
  5
1FC
100
AcDbSymbolTableRecord
100
AcDbLayerTableRecord
  2
DEFAULT_3
 70
0
 62
7
  6
PHANTOM
370
-3
390
F
  0
LAYER
  5
1FD
100
AcDbSymbolTableRecord
100
AcDbLayerTableRecord
  2
00_COMPONENTS
 70
0
 62
7
  6
CONTINUOUS
370
-3
390
F
  0
LAYER
  5
1FE
100
AcDbSymbolTableRecord
100
AcDbLayerTableRecord
  2
01_1_DEFAULT_DATUMS
 70
0
 62
7
  6
CONTINUOUS
370
-3
390
F
  0
LAYER
  5
1FF
100
AcDbSymbolTableRecord
100
AcDbLayerTableRecord
  2
01_PLANES
 70
0
 62
7
  6
CONTINUOUS
370
-3
390
F
  0
LAYER
  5
200
100
AcDbSymbolTableRecord
100
AcDbLayerTableRecord
  2
02_COORD_SYS
 70
0
 62
7
  6
CONTINUOUS
370
-3
390
F
  0
LAYER
  5
201
100
AcDbSymbolTableRecord
100
AcDbLayerTableRecord
  2
03_AXES
 70
0
 62
7
  6
CONTINUOUS
370
-3
390
F
  0
LAYER
  5
202
100
AcDbSymbolTableRecord
100
AcDbLayerTableRecord
  2
04_POINTS
 70
0
 62
7
  6
CONTINUOUS
370
-3
390
F
  0
LAYER
  5
203
100
AcDbSymbolTableRecord
100
AcDbLayerTableRecord
  2
05_CURVES
 70
0
 62
7
  6
CONTINUOUS
370
-3
390
F
  0
LAYER
  5
204
100
AcDbSymbolTableRecord
100
AcDbLayerTableRecord
  2
06_SURFS
 70
0
 62
7
  6
CONTINUOUS
370
-3
390
F
  0
LAYER
  5
205
100
AcDbSymbolTableRecord
100
AcDbLayerTableRecord
  2
07_COSMETICS
 70
0
 62
7
  6
CONTINUOUS
370
-3
390
F
  0
LAYER
  5
206
100
AcDbSymbolTableRecord
100
AcDbLayerTableRecord
  2
10_NOTES
 70
0
 62
7
  6
CONTINUOUS
370
-3
390
F
  0
LAYER
  5
207
100
AcDbSymbolTableRecord
100
AcDbLayerTableRecord
  2
11_NOTES_PUB
 70
0
 62
7
  6
CONTINUOUS
370
-3
390
F
  0
LAYER
  5
208
100
AcDbSymbolTableRecord
100
AcDbLayerTableRecord
  2
13_REF_GTOL
 70
0
 62
7
  6
CONTINUOUS
370
-3
390
F
  0
LAYER
  5
209
100
AcDbSymbolTableRecord
100
AcDbLayerTableRecord
  2
16_MISC
 70
0
 62
7
  6
CONTINUOUS
370
-3
390
F
  0
LAYER
  5
20A
100
AcDbSymbolTableRecord
100
AcDbLayerTableRecord
  2
17_NO_PRINT
 70
0
 62
7
  6
CONTINUOUS
370
-3
390
F
  0
LAYER
  5
20B
100
AcDbSymbolTableRecord
100
AcDbLayerTableRecord
  2
18_DATUM_CAMS_JOINTS
 70
0
 62
7
  6
CONTINUOUS
370
-3
390
F
  0
LAYER
  5
20C
100
AcDbSymbolTableRecord
100
AcDbLayerTableRecord
  2
19_DATUM_FUNCTIONAL
 70
0
 62
7
  6
CONTINUOUS
370
-3
390
F
  0
LAYER
  5
20D
100
AcDbSymbolTableRecord
100
AcDbLayerTableRecord
  2
20_DATUM_KINEMATIC_SCHEME
 70
0
 62
7
  6
CONTINUOUS
370
-3
390
F
  0
LAYER
  5
20E
100
AcDbSymbolTableRecord
100
AcDbLayerTableRecord
  2
NONE
 70
0
 62
7
  6
CONTINUOUS
370
-3
390
F
  0
ENDTAB
  0
TABLE
  2
STYLE
  5
3
100
AcDbSymbolTable
 70
1
  0
STYLE
  5
11
100
AcDbSymbolTableRecord
100
AcDbTextStyleTableRecord
  2
STANDARD
 70
0
 40
0.0
 41
1.0
 50
0.0
 71
0
 42
0.2
  3
ARIAL.TTF
  4

  0
STYLE
  5
20F
100
AcDbSymbolTableRecord
100
AcDbTextStyleTableRecord
  2
TEXTSTYLE_1
 70
0
 40
0.0
 41
0.8
 50
0.0
 71
0
 42
0.2
  3
gdt
  4

  0
ENDTAB
  0
TABLE
  2
VIEW
  5
6
100
AcDbSymbolTable
 70
0
  0
ENDTAB
  0
TABLE
  2
UCS
  5
7
100
AcDbSymbolTable
 70
0
  0
ENDTAB
  0
TABLE
  2
APPID
  5
9
100
AcDbSymbolTable
 70
1
  0
APPID
  5
210
100
AcDbSymbolTableRecord
100
AcDbRegAppTableRecord
  2
ACAD
 70
0
  0
ENDTAB
  0
TABLE
  2
BLOCK_RECORD
  5
1
100
AcDbSymbolTable
 70
0
  0
BLOCK_RECORD
  5
211
100
AcDbSymbolTableRecord
100
AcDbBlockTableRecord
  2
*Model_Space
  0
BLOCK_RECORD
  5
212
100
AcDbSymbolTableRecord
100
AcDbBlockTableRecord
  2
*Paper_Space
  0
BLOCK_RECORD
  5
213
100
AcDbSymbolTableRecord
100
AcDbBlockTableRecord
  2
_FILLED
  0
ENDTAB
  0
TABLE
  2
DIMSTYLE
  5
A
100
AcDbSymbolTable
 70
1
100
AcDbDimStyleTable
 71
0
  0
DIMSTYLE
105
214
100
AcDbSymbolTableRecord
100
AcDbDimStyleTableRecord
  2
STANDARD
 70
0
  3

  4

 40
1.0
 41
1.5865285022
 42
1.0
 43
0.38
 44
1.0
 45
0.0
 46
0.0
 47
0.01
 48
0.01
140
2.221139903
141
0.09
142
0.0
143
25.4
144
1.0
145
0.0
146
1.0
147
0.625
 71
1
 72
0
 73
0
 74
0
 75
0
 76
0
 77
1
 78
8
 79
2
170
0
171
1
172
0
173
0
174
0
175
0
176
0
177
0
178
0
270
2
179
2
271
2
272
2
273
2
274
2
275
0
280
0
281
0
282
0
283
1
284
8
285
0
286
0
287
3
288
0
340
11
278
46
341
213
342
213
343
213
344
213
  0
ENDTAB
  0
ENDSEC
  0
SECTION
  2
BLOCKS
  0
BLOCK
  5
20
100
AcDbEntity
  8
0
100
AcDbBlockBegin
  2
*Model_Space
 70
0
 10
0.0
 20
0.0
 30
0.0
  3
*Model_Space
  1

  0
ENDBLK
  5
21
100
AcDbEntity
  8
0
100
AcDbBlockEnd
  0
BLOCK
  5
1C
100
AcDbEntity
  8
0
100
AcDbBlockBegin
  2
*Paper_Space
 70
0
 10
0.0
 20
0.0
 30
0.0
  3
*Paper_Space
  1

  0
ENDBLK
  5
1D
100
AcDbEntity
  8
0
100
AcDbBlockEnd
  0
BLOCK
  5
215
100
AcDbEntity
  8
0
100
AcDbBlockBegin
  2
_FILLED
 70
64
 10
0.0
 20
0.0
  3
_FILLED
  1

  0
SOLID
  5
216
100
AcDbEntity
  8
0
  6
BYBLOCK
 62
0
100
AcDbTrace
 10
0.0
 20
0.0
 11
-1.0
 21
0.25
 12
-1.0
 22
-0.25
 13
-1.0
 23
-0.25
  0
ENDBLK
  5
217
100
AcDbEntity
  8
0
  6
BYBLOCK
 62
0
100
AcDbBlockEnd
  0
ENDSEC
  0
SECTION
  2
ENTITIES
  0
LINE
  5
218
100
AcDbEntity
  8
0
100
AcDbLine
 62
7
  6
BYLAYER
 10
121.4247744328
 20
43.5505720832
 11
120.5847744328
 21
43.432517782
  0
LINE
  5
219
100
AcDbEntity
  8
0
100
AcDbLine
 62
7
  6
BYLAYER
 10
114.5847744328
 20
41.0434987674
 11
115.636241274
 21
41.1354901961
  0
LINE
  5
21A
100
AcDbEntity
  8
0
100
AcDbLine
 62
7
  6
BYLAYER
 10
118.5219840756
 20
41.3879599771
 11
119.8809211556
 21
41.506851566
  0
LINE
  5
21B
100
AcDbEntity
  8
0
100
AcDbLine
 62
7
  6
BYLAYER
 10
113.6022268392
 20
39.4063483354
 11
98.0847744328
 21
39.1354901961
  0
LINE
  5
21C
100
AcDbEntity
  8
0
100
AcDbLine
 62
7
  6
BYLAYER
 10
15.5347744328
 20
68.4704901961
 11
15.5347744328
 21
98.4704901961
  0
LINE
  5
21D
100
AcDbEntity
  8
0
100
AcDbLine
 62
7
  6
BYLAYER
 10
16.5347744328
 20
63.2204901961
 11
16.5347744328
 21
138.7204901961
  0
LINE
  5
21E
100
AcDbEntity
  8
0
100
AcDbLine
 62
7
  6
BYLAYER
 10
17.5347744328
 20
62.2204901961
 11
17.5347744328
 21
66.5204901961
  0
LINE
  5
21F
100
AcDbEntity
  8
0
100
AcDbLine
 62
7
  6
BYLAYER
 10
17.5347744328
 20
71.5204901961
 11
17.5347744328
 21
94.4254901961
  0
LINE
  5
220
100
AcDbEntity
  8
0
100
AcDbLine
 62
7
  6
BYLAYER
 10
17.5347744328
 20
94.5154901961
 11
17.5347744328
 21
114.1179901961
  0
LINE
  5
221
100
AcDbEntity
  8
0
100
AcDbLine
 62
7
  6
BYLAYER
 10
17.5347744328
 20
119.1179901961
 11
17.5347744328
 21
139.7204901961
  0
LINE
  5
222
100
AcDbEntity
  8
0
100
AcDbLine
 62
7
  6
BYLAYER
 10
98.0847744328
 20
40.1353378912
 11
113.6022268392
 21
40.4061960305
  0
LINE
  5
223
100
AcDbEntity
  8
0
100
AcDbLine
 62
7
  6
BYLAYER
 10
96.0847744328
 20
39.1354901961
 11
98.0847744328
 21
39.1354901961
  0
LINE
  5
224
100
AcDbEntity
  8
0
100
AcDbLine
 62
7
  6
BYLAYER
 10
114.5847744328
 20
40.4061960305
 11
113.6022268392
 21
40.4061960305
  0
LINE
  5
225
100
AcDbEntity
  8
0
100
AcDbLine
 62
7
  6
BYLAYER
 10
114.5847744328
 20
41.1354901961
 11
118.1847744328
 21
41.1354901961
  0
LINE
  5
226
100
AcDbEntity
  8
0
100
AcDbLine
 62
7
  6
BYLAYER
 10
118.5847744328
 20
41.6354901961
 11
120.5847744328
 21
41.6354901961
  0
LINE
  5
227
100
AcDbEntity
  8
0
100
AcDbLine
 62
7
  6
BYLAYER
 10
22.5347744328
 20
119.6179901961
 11
22.5347744328
 21
119.1179901961
  0
LINE
  5
228
100
AcDbEntity
  8
0
100
AcDbLine
 62
7
  6
BYLAYER
 10
22.5347744328
 20
114.1179901961
 11
22.5347744328
 21
113.6179901961
  0
LINE
  5
229
100
AcDbEntity
  8
0
100
AcDbLine
 62
7
  6
BYLAYER
 10
22.5347744328
 20
72.0204901961
 11
22.5347744328
 21
71.5204901961
  0
LINE
  5
22A
100
AcDbEntity
  8
0
100
AcDbLine
 62
7
  6
BYLAYER
 10
22.5347744328
 20
66.5204901961
 11
22.5347744328
 21
66.0204901961
  0
LINE
  5
22B
100
AcDbEntity
  8
0
100
AcDbLine
 62
7
  6
BYLAYER
 10
121.4247744328
 20
55.2005720832
 11
120.5847744328
 21
55.082517782
  0
LINE
  5
22C
100
AcDbEntity
  8
0
100
AcDbLine
 62
7
  6
BYLAYER
 10
93.5347744328
 20
46.7704901961
 11
96.0847744328
 21
46.7704901961
  0
LINE
  5
22D
100
AcDbEntity
  8
0
100
AcDbLine
 62
7
  6
BYLAYER
 10
53.7645703299
 20
47.2204901961
 11
51.8049785357
 21
47.2204901961
  0
LINE
  5
22E
100
AcDbEntity
  8
0
100
AcDbLine
 62
7
  6
BYLAYER
 10
49.0347744328
 20
47.2204901961
 11
50.5434865853
 21
47.2204901961
  0
LINE
  5
22F
100
AcDbEntity
  8
0
100
AcDbLine
 62
7
  6
BYLAYER
 10
55.0260622803
 20
47.2204901961
 11
60.0347744328
 21
47.2204901961
  0
LINE
  5
230
100
AcDbEntity
  8
0
100
AcDbLine
 62
7
  6
BYLAYER
 10
60.0347744328
 20
47.4704901961
 11
55.0347744328
 21
47.4704901961
  0
LINE
  5
231
100
AcDbEntity
  8
0
100
AcDbLine
 62
7
  6
BYLAYER
 10
50.5347744328
 20
47.4704901961
 11
49.0347744328
 21
47.4704901961
  0
LINE
  5
232
100
AcDbEntity
  8
0
100
AcDbLine
 62
7
  6
BYLAYER
 10
60.5347744328
 20
47.7204901961
 11
60.2847744328
 21
47.7204901961
  0
LINE
  5
233
100
AcDbEntity
  8
0
100
AcDbLine
 62
7
  6
BYLAYER
 10
48.7847744328
 20
47.7204901961
 11
48.5347744328
 21
47.7204901961
  0
LINE
  5
234
100
AcDbEntity
  8
0
100
AcDbLine
 62
7
  6
BYLAYER
 10
60.2847744328
 20
48.7204901961
 11
60.5347744328
 21
48.7204901961
  0
LINE
  5
235
100
AcDbEntity
  8
0
100
AcDbLine
 62
7
  6
BYLAYER
 10
96.0847744328
 20
48.7704901961
 11
93.5347744328
 21
48.7704901961
  0
LINE
  5
236
100
AcDbEntity
  8
0
100
AcDbLine
 62
7
  6
BYLAYER
 10
55.0347744328
 20
48.9704901961
 11
60.0347744328
 21
48.9704901961
  0
LINE
  5
237
100
AcDbEntity
  8
0
100
AcDbLine
 62
7
  6
BYLAYER
 10
24.5347744328
 20
117.1179901961
 11
24.5347744328
 21
116.1179901961
  0
LINE
  5
238
100
AcDbEntity
  8
0
100
AcDbLine
 62
7
  6
BYLAYER
 10
24.5347744328
 20
69.5204901961
 11
24.5347744328
 21
68.5204901961
  0
LINE
  5
239
100
AcDbEntity
  8
0
100
AcDbLine
 62
7
  6
BYLAYER
 10
25.0347744328
 20
68.5204901961
 11
25.0347744328
 21
69.5204901961
  0
LINE
  5
23A
100
AcDbEntity
  8
0
100
AcDbLine
 62
7
  6
BYLAYER
 10
25.0347744328
 20
116.1179901961
 11
25.0347744328
 21
117.1179901961
  0
LINE
  5
23B
100
AcDbEntity
  8
0
100
AcDbLine
 62
7
  6
BYLAYER
 10
55.0347744328
 20
49.2204901961
 11
88.8547744328
 21
49.2204901961
  0
LINE
  5
23C
100
AcDbEntity
  8
0
100
AcDbLine
 62
7
  6
BYLAYER
 10
89.0347744328
 20
49.2204901961
 11
93.5347744328
 21
49.2204901961
  0
LINE
  5
23D
100
AcDbEntity
  8
0
100
AcDbLine
 62
7
  6
BYLAYER
 10
51.5347744328
 20
49.6204901961
 11
55.0347744328
 21
49.6204901961
  0
LINE
  5
23E
100
AcDbEntity
  8
0
100
AcDbLine
 62
7
  6
BYLAYER
 10
50.9431664545
 20
50.1204901961
 11
50.2847744328
 21
50.1204901961
  0
LINE
  5
23F
100
AcDbEntity
  8
0
100
AcDbLine
 62
7
  6
BYLAYER
 10
50.5347744328
 20
50.2204901961
 11
93.5347744328
 21
50.2204901961
  0
LINE
  5
240
100
AcDbEntity
  8
0
100
AcDbLine
 62
7
  6
BYLAYER
 10
121.4247744328
 20
45.780408309
 11
120.5847744328
 21
45.8984626101
  0
LINE
  5
241
100
AcDbEntity
  8
0
100
AcDbLine
 62
7
  6
BYLAYER
 10
84.5347744328
 20
60.2204901961
 11
82.0347744328
 21
60.2204901961
  0
LINE
  5
242
100
AcDbEntity
  8
0
100
AcDbLine
 62
7
  6
BYLAYER
 10
84.3547744328
 20
60.4004901961
 11
82.2147744328
 21
60.4004901961
  0
LINE
  5
243
100
AcDbEntity
  8
0
100
AcDbLine
 62
7
  6
BYLAYER
 10
50.5347744328
 20
61.2204901961
 11
51.5347744328
 21
61.2204901961
  0
LINE
  5
244
100
AcDbEntity
  8
0
100
AcDbLine
 62
7
  6
BYLAYER
 10
50.2847744328
 20
61.3204901961
 11
50.5347744328
 21
61.3204901961
  0
LINE
  5
245
100
AcDbEntity
  8
0
100
AcDbLine
 62
7
  6
BYLAYER
 10
48.5347744328
 20
61.7204901961
 11
48.7847744328
 21
61.7204901961
  0
LINE
  5
246
100
AcDbEntity
  8
0
100
AcDbLine
 62
7
  6
BYLAYER
 10
49.0347744328
 20
61.9704901961
 11
49.6347744328
 21
61.9704901961
  0
LINE
  5
247
100
AcDbEntity
  8
0
100
AcDbLine
 62
7
  6
BYLAYER
 10
120.5847744328
 20
62.1507141369
 11
118.5847744328
 21
62.1507141369
  0
LINE
  5
248
100
AcDbEntity
  8
0
100
AcDbLine
 62
7
  6
BYLAYER
 10
17.5347744328
 20
62.2204901961
 11
49.6347744328
 21
62.2204901961
  0
LINE
  5
249
100
AcDbEntity
  8
0
100
AcDbLine
 62
7
  6
BYLAYER
 10
118.1847744328
 20
62.6507141369
 11
114.5847744328
 21
62.6507141369
  0
LINE
  5
24A
100
AcDbEntity
  8
0
100
AcDbLine
 62
7
  6
BYLAYER
 10
49.5347744328
 20
63.2204901961
 11
16.5347744328
 21
63.2204901961
  0
LINE
  5
24B
100
AcDbEntity
  8
0
100
AcDbLine
 62
7
  6
BYLAYER
 10
80.2281300159
 20
130.1052121091
 11
88.1685664746
 21
134.4515562759
  0
LINE
  5
24C
100
AcDbEntity
  8
0
100
AcDbLine
 62
7
  6
BYLAYER
 10
88.2549926621
 20
134.2936622795
 11
80.3145562034
 21
129.9473181126
  0
LINE
  5
24D
100
AcDbEntity
  8
0
100
AcDbLine
 62
7
  6
BYLAYER
 10
82.2147744328
 20
64.7404901961
 11
84.3547744328
 21
64.7404901961
  0
LINE
  5
24E
100
AcDbEntity
  8
0
100
AcDbLine
 62
7
  6
BYLAYER
 10
82.0347744328
 20
64.9204901961
 11
84.5347744328
 21
64.9204901961
  0
LINE
  5
24F
100
AcDbEntity
  8
0
100
AcDbLine
 62
7
  6
BYLAYER
 10
16.5347744328
 20
66.0204901961
 11
22.5347744328
 21
66.0204901961
  0
LINE
  5
250
100
AcDbEntity
  8
0
100
AcDbLine
 62
7
  6
BYLAYER
 10
17.0347744328
 20
66.5204901961
 11
22.5347744328
 21
66.5204901961
  0
LINE
  5
251
100
AcDbEntity
  8
0
100
AcDbLine
 62
7
  6
BYLAYER
 10
115.8297744328
 20
67.7674816248
 11
114.5797744328
 21
67.7674816248
  0
LINE
  5
252
100
AcDbEntity
  8
0
100
AcDbLine
 62
7
  6
BYLAYER
 10
15.5347744328
 20
68.4704901961
 11
16.5347744328
 21
68.4704901961
  0
LINE
  5
253
100
AcDbEntity
  8
0
100
AcDbLine
 62
7
  6
BYLAYER
 10
25.0347744328
 20
68.5204901961
 11
24.5347744328
 21
68.5204901961
  0
LINE
  5
254
100
AcDbEntity
  8
0
100
AcDbLine
 62
7
  6
BYLAYER
 10
16.5347744328
 20
69.4704901961
 11
15.5347744328
 21
69.4704901961
  0
LINE
  5
255
100
AcDbEntity
  8
0
100
AcDbLine
 62
7
  6
BYLAYER
 10
24.5347744328
 20
69.5204901961
 11
25.0347744328
 21
69.5204901961
  0
LINE
  5
256
100
AcDbEntity
  8
0
100
AcDbLine
 62
7
  6
BYLAYER
 10
119.8809211556
 20
62.8801459688
 11
116.3297744328
 21
63.1908310495
  0
LINE
  5
257
100
AcDbEntity
  8
0
100
AcDbLine
 62
7
  6
BYLAYER
 10
121.4247744328
 20
57.430408309
 11
120.5847744328
 21
57.5484626101
  0
LINE
  5
258
100
AcDbEntity
  8
0
100
AcDbLine
 62
7
  6
BYLAYER
 10
88.1685664746
 20
54.4894241162
 11
80.2281300159
 21
58.8357682831
  0
LINE
  5
259
100
AcDbEntity
  8
0
100
AcDbLine
 62
7
  6
BYLAYER
 10
80.3145562034
 20
58.9936622795
 11
88.2549926621
 21
54.6473181126
  0
LINE
  5
25A
100
AcDbEntity
  8
0
100
AcDbLine
 62
7
  6
BYLAYER
 10
48.5347744328
 20
61.7204901961
 11
48.5347744328
 21
47.7204901961
  0
LINE
  5
25B
100
AcDbEntity
  8
0
100
AcDbLine
 62
7
  6
BYLAYER
 10
114.5797744328
 20
70.5174816248
 11
115.8297744328
 21
70.5174816248
  0
LINE
  5
25C
100
AcDbEntity
  8
0
100
AcDbLine
 62
7
  6
BYLAYER
 10
17.0347744328
 20
71.5204901961
 11
22.5347744328
 21
71.5204901961
  0
LINE
  5
25D
100
AcDbEntity
  8
0
100
AcDbLine
 62
7
  6
BYLAYER
 10
22.5347744328
 20
72.0204901961
 11
16.5347744328
 21
72.0204901961
  0
LINE
  5
25E
100
AcDbEntity
  8
0
100
AcDbLine
 62
7
  6
BYLAYER
 10
116.3297744328
 20
72.5174816248
 11
114.5797744328
 21
72.5174816248
  0
LINE
  5
25F
100
AcDbEntity
  8
0
100
AcDbLine
 62
7
  6
BYLAYER
 10
48.7847744328
 20
47.7204901961
 11
48.7847744328
 21
61.7204901961
  0
LINE
  5
260
100
AcDbEntity
  8
0
100
AcDbLine
 62
7
  6
BYLAYER
 10
49.0347744328
 20
47.2204901961
 11
49.0347744328
 21
47.4704901961
  0
LINE
  5
261
100
AcDbEntity
  8
0
100
AcDbLine
 62
7
  6
BYLAYER
 10
49.0347744328
 20
61.9704901961
 11
49.0347744328
 21
62.2204901961
  0
LINE
  5
262
100
AcDbEntity
  8
0
100
AcDbLine
 62
7
  6
BYLAYER
 10
49.5347744328
 20
63.2204901961
 11
49.5347744328
 21
62.2204901961
  0
LINE
  5
263
100
AcDbEntity
  8
0
100
AcDbLine
 62
7
  6
BYLAYER
 10
49.6347744328
 20
62.2204901961
 11
49.6347744328
 21
61.9704901961
  0
LINE
  5
264
100
AcDbEntity
  8
0
100
AcDbLine
 62
7
  6
BYLAYER
 10
50.2847744328
 20
61.3204901961
 11
50.2847744328
 21
50.1204901961
  0
LINE
  5
265
100
AcDbEntity
  8
0
100
AcDbLine
 62
7
  6
BYLAYER
 10
50.3547744328
 20
77.9492146781
 11
50.3547744328
 21
94.4254901961
  0
LINE
  5
266
100
AcDbEntity
  8
0
100
AcDbLine
 62
7
  6
BYLAYER
 10
50.3547744328
 20
94.5154901961
 11
50.3547744328
 21
110.9917657141
  0
LINE
  5
267
100
AcDbEntity
  8
0
100
AcDbLine
 62
7
  6
BYLAYER
 10
50.5347744328
 20
139.7704901961
 11
50.5347744328
 21
139.7204901961
  0
LINE
  5
268
100
AcDbEntity
  8
0
100
AcDbLine
 62
7
  6
BYLAYER
 10
50.5347744328
 20
110.9917657141
 11
50.5347744328
 21
77.9492146781
  0
LINE
  5
269
100
AcDbEntity
  8
0
100
AcDbLine
 62
7
  6
BYLAYER
 10
50.5347744328
 20
47.4204901961
 11
50.5347744328
 21
61.3204901961
  0
LINE
  5
26A
100
AcDbEntity
  8
0
100
AcDbLine
 62
7
  6
BYLAYER
 10
51.5347744328
 20
49.6204901961
 11
51.5347744328
 21
61.2204901961
  0
LINE
  5
26B
100
AcDbEntity
  8
0
100
AcDbLine
 62
7
  6
BYLAYER
 10
114.5797744328
 20
76.5174816248
 11
116.3297744328
 21
76.5174816248
  0
LINE
  5
26C
100
AcDbEntity
  8
0
100
AcDbLine
 62
7
  6
BYLAYER
 10
115.8297744328
 20
78.5174816248
 11
114.5797744328
 21
78.5174816248
  0
LINE
  5
26D
100
AcDbEntity
  8
0
100
AcDbLine
 62
7
  6
BYLAYER
 10
87.5536296517
 20
75.7616310408
 11
52.0107768814
 21
76.2693860804
  0
LINE
  5
26E
100
AcDbEntity
  8
0
100
AcDbLine
 62
7
  6
BYLAYER
 10
52.0133480476
 20
76.4493677159
 11
87.556200818
 21
75.9416126763
  0
LINE
  5
26F
100
AcDbEntity
  8
0
100
AcDbLine
 62
7
  6
BYLAYER
 10
55.0347744328
 20
47.4204901961
 11
55.0347744328
 21
49.6204901961
  0
LINE
  5
270
100
AcDbEntity
  8
0
100
AcDbLine
 62
7
  6
BYLAYER
 10
55.1547744328
 20
87.2204901961
 11
55.1547744328
 21
89.7204901961
  0
LINE
  5
271
100
AcDbEntity
  8
0
100
AcDbLine
 62
7
  6
BYLAYER
 10
55.1547744328
 20
99.2204901961
 11
55.1547744328
 21
101.7204901961
  0
LINE
  5
272
100
AcDbEntity
  8
0
100
AcDbLine
 62
7
  6
BYLAYER
 10
55.5347744328
 20
139.7704901961
 11
55.5347744328
 21
139.7204901961
  0
LINE
  5
273
100
AcDbEntity
  8
0
100
AcDbLine
 62
7
  6
BYLAYER
 10
56.4047744328
 20
93.2204901961
 11
56.4047744328
 21
95.7204901961
  0
LINE
  5
274
100
AcDbEntity
  8
0
100
AcDbLine
 62
7
  6
BYLAYER
 10
58.9047744328
 20
95.7204901961
 11
58.9047744328
 21
93.2204901961
  0
LINE
  5
275
100
AcDbEntity
  8
0
100
AcDbLine
 62
7
  6
BYLAYER
 10
60.0347744328
 20
49.2204901961
 11
60.0347744328
 21
48.9704901961
  0
LINE
  5
276
100
AcDbEntity
  8
0
100
AcDbLine
 62
7
  6
BYLAYER
 10
60.0347744328
 20
47.4704901961
 11
60.0347744328
 21
47.2204901961
  0
LINE
  5
277
100
AcDbEntity
  8
0
100
AcDbLine
 62
7
  6
BYLAYER
 10
60.2847744328
 20
48.7204901961
 11
60.2847744328
 21
47.7204901961
  0
LINE
  5
278
100
AcDbEntity
  8
0
100
AcDbLine
 62
7
  6
BYLAYER
 10
60.5347744328
 20
139.7704901961
 11
60.5347744328
 21
139.7204901961
  0
LINE
  5
279
100
AcDbEntity
  8
0
100
AcDbLine
 62
7
  6
BYLAYER
 10
60.5347744328
 20
47.7204901961
 11
60.5347744328
 21
48.7204901961
  0
LINE
  5
27A
100
AcDbEntity
  8
0
100
AcDbLine
 62
7
  6
BYLAYER
 10
62.1547744328
 20
101.7204901961
 11
62.1547744328
 21
99.2204901961
  0
LINE
  5
27B
100
AcDbEntity
  8
0
100
AcDbLine
 62
7
  6
BYLAYER
 10
62.1547744328
 20
89.7204901961
 11
62.1547744328
 21
87.2204901961
  0
LINE
  5
27C
100
AcDbEntity
  8
0
100
AcDbLine
 62
7
  6
BYLAYER
 10
62.1547744328
 20
87.2204901961
 11
55.1547744328
 21
87.2204901961
  0
LINE
  5
27D
100
AcDbEntity
  8
0
100
AcDbLine
 62
7
  6
BYLAYER
 10
55.1547744328
 20
89.7204901961
 11
62.1547744328
 21
89.7204901961
  0
LINE
  5
27E
100
AcDbEntity
  8
0
100
AcDbLine
 62
7
  6
BYLAYER
 10
65.5347744328
 20
139.7704901961
 11
65.5347744328
 21
139.7204901961
  0
LINE
  5
27F
100
AcDbEntity
  8
0
100
AcDbLine
 62
7
  6
BYLAYER
 10
16.5347744328
 20
90.4704901961
 11
15.5347744328
 21
90.4704901961
  0
LINE
  5
280
100
AcDbEntity
  8
0
100
AcDbLine
 62
7
  6
BYLAYER
 10
58.9047744328
 20
93.2204901961
 11
56.4047744328
 21
93.2204901961
  0
LINE
  5
281
100
AcDbEntity
  8
0
100
AcDbLine
 62
7
  6
BYLAYER
 10
16.5347744328
 20
94.4254901961
 11
50.3547744328
 21
94.4254901961
  0
LINE
  5
282
100
AcDbEntity
  8
0
100
AcDbLine
 62
7
  6
BYLAYER
 10
16.5347744328
 20
94.5154901961
 11
50.3547744328
 21
94.5154901961
  0
LINE
  5
283
100
AcDbEntity
  8
0
100
AcDbLine
 62
7
  6
BYLAYER
 10
56.4047744328
 20
95.7204901961
 11
58.9047744328
 21
95.7204901961
  0
LINE
  5
284
100
AcDbEntity
  8
0
100
AcDbLine
 62
7
  6
BYLAYER
 10
16.5347744328
 20
98.4704901961
 11
15.5347744328
 21
98.4704901961
  0
LINE
  5
285
100
AcDbEntity
  8
0
100
AcDbLine
 62
7
  6
BYLAYER
 10
62.1547744328
 20
99.2204901961
 11
55.1547744328
 21
99.2204901961
  0
LINE
  5
286
100
AcDbEntity
  8
0
100
AcDbLine
 62
7
  6
BYLAYER
 10
79.3547744328
 20
60.3094455831
 11
79.3547744328
 21
64.831534809
  0
LINE
  5
287
100
AcDbEntity
  8
0
100
AcDbLine
 62
7
  6
BYLAYER
 10
79.3547744328
 20
124.1094455831
 11
79.3547744328
 21
128.631534809
  0
LINE
  5
288
100
AcDbEntity
  8
0
100
AcDbLine
 62
7
  6
BYLAYER
 10
55.1547744328
 20
101.7204901961
 11
62.1547744328
 21
101.7204901961
  0
LINE
  5
289
100
AcDbEntity
  8
0
100
AcDbLine
 62
7
  6
BYLAYER
 10
79.5347744328
 20
128.631534809
 11
79.5347744328
 21
124.1094455831
  0
LINE
  5
28A
100
AcDbEntity
  8
0
100
AcDbLine
 62
7
  6
BYLAYER
 10
79.5347744328
 20
64.831534809
 11
79.5347744328
 21
60.3094455831
  0
LINE
  5
28B
100
AcDbEntity
  8
0
100
AcDbLine
 62
7
  6
BYLAYER
 10
82.0347744328
 20
60.2204901961
 11
82.0347744328
 21
64.9204901961
  0
LINE
  5
28C
100
AcDbEntity
  8
0
100
AcDbLine
 62
7
  6
BYLAYER
 10
82.0347744328
 20
124.0204901961
 11
82.0347744328
 21
128.7204901961
  0
LINE
  5
28D
100
AcDbEntity
  8
0
100
AcDbLine
 62
7
  6
BYLAYER
 10
82.2147744328
 20
60.4004901961
 11
82.2147744328
 21
64.7404901961
  0
LINE
  5
28E
100
AcDbEntity
  8
0
100
AcDbLine
 62
7
  6
BYLAYER
 10
82.2147744328
 20
124.2004901961
 11
82.2147744328
 21
128.5404901961
  0
LINE
  5
28F
100
AcDbEntity
  8
0
100
AcDbLine
 62
7
  6
BYLAYER
 10
84.3547744328
 20
128.5404901961
 11
84.3547744328
 21
124.2004901961
  0
LINE
  5
290
100
AcDbEntity
  8
0
100
AcDbLine
 62
7
  6
BYLAYER
 10
84.3547744328
 20
64.7404901961
 11
84.3547744328
 21
60.4004901961
  0
LINE
  5
291
100
AcDbEntity
  8
0
100
AcDbLine
 62
7
  6
BYLAYER
 10
84.5347744328
 20
128.7204901961
 11
84.5347744328
 21
124.0204901961
  0
LINE
  5
292
100
AcDbEntity
  8
0
100
AcDbLine
 62
7
  6
BYLAYER
 10
84.5347744328
 20
64.9204901961
 11
84.5347744328
 21
60.2204901961
  0
LINE
  5
293
100
AcDbEntity
  8
0
100
AcDbLine
 62
7
  6
BYLAYER
 10
88.8547744328
 20
49.2204901961
 11
88.8547744328
 21
53.331534809
  0
LINE
  5
294
100
AcDbEntity
  8
0
100
AcDbLine
 62
7
  6
BYLAYER
 10
88.8547744328
 20
71.8094455831
 11
88.8547744328
 21
74.4417657141
  0
LINE
  5
295
100
AcDbEntity
  8
0
100
AcDbLine
 62
7
  6
BYLAYER
 10
88.8547744328
 20
114.4992146781
 11
88.8547744328
 21
117.131534809
  0
LINE
  5
296
100
AcDbEntity
  8
0
100
AcDbLine
 62
7
  6
BYLAYER
 10
88.8547744328
 20
135.6094455831
 11
88.8547744328
 21
139.7204901961
  0
LINE
  5
297
100
AcDbEntity
  8
0
100
AcDbLine
 62
7
  6
BYLAYER
 10
89.0347744328
 20
117.131534809
 11
89.0347744328
 21
114.4992146781
  0
LINE
  5
298
100
AcDbEntity
  8
0
100
AcDbLine
 62
7
  6
BYLAYER
 10
89.0347744328
 20
74.4417657141
 11
89.0347744328
 21
71.8094455831
  0
LINE
  5
299
100
AcDbEntity
  8
0
100
AcDbLine
 62
7
  6
BYLAYER
 10
89.0347744328
 20
49.2204901961
 11
89.0347744328
 21
53.331534809
  0
LINE
  5
29A
100
AcDbEntity
  8
0
100
AcDbLine
 62
7
  6
BYLAYER
 10
89.0347744328
 20
135.6094455831
 11
89.0347744328
 21
139.7204901961
  0
LINE
  5
29B
100
AcDbEntity
  8
0
100
AcDbLine
 62
7
  6
BYLAYER
 10
87.556200818
 20
112.9993677159
 11
52.0133480476
 21
112.4916126763
  0
LINE
  5
29C
100
AcDbEntity
  8
0
100
AcDbLine
 62
7
  6
BYLAYER
 10
52.0107768814
 20
112.6715943118
 11
87.5536296517
 21
113.1793493513
  0
LINE
  5
29D
100
AcDbEntity
  8
0
100
AcDbLine
 62
7
  6
BYLAYER
 10
16.5347744328
 20
113.6179901961
 11
22.5347744328
 21
113.6179901961
  0
LINE
  5
29E
100
AcDbEntity
  8
0
100
AcDbLine
 62
7
  6
BYLAYER
 10
17.0347744328
 20
114.1179901961
 11
22.5347744328
 21
114.1179901961
  0
LINE
  5
29F
100
AcDbEntity
  8
0
100
AcDbLine
 62
7
  6
BYLAYER
 10
93.5347744328
 20
46.7704901961
 11
93.5347744328
 21
142.1704901961
  0
LINE
  5
2A0
100
AcDbEntity
  8
0
100
AcDbLine
 62
7
  6
BYLAYER
 10
25.0347744328
 20
116.1179901961
 11
24.5347744328
 21
116.1179901961
  0
LINE
  5
2A1
100
AcDbEntity
  8
0
100
AcDbLine
 62
7
  6
BYLAYER
 10
24.5347744328
 20
117.1179901961
 11
25.0347744328
 21
117.1179901961
  0
LINE
  5
2A2
100
AcDbEntity
  8
0
100
AcDbLine
 62
7
  6
BYLAYER
 10
17.0347744328
 20
119.1179901961
 11
22.5347744328
 21
119.1179901961
  0
LINE
  5
2A3
100
AcDbEntity
  8
0
100
AcDbLine
 62
7
  6
BYLAYER
 10
22.5347744328
 20
119.6179901961
 11
16.5347744328
 21
119.6179901961
  0
LINE
  5
2A4
100
AcDbEntity
  8
0
100
AcDbLine
 62
7
  6
BYLAYER
 10
96.0847744328
 20
39.1354901961
 11
96.0847744328
 21
149.8054901961
  0
LINE
  5
2A5
100
AcDbEntity
  8
0
100
AcDbLine
 62
7
  6
BYLAYER
 10
98.0847744328
 20
40.1353378912
 11
98.0847744328
 21
148.8056425009
  0
LINE
  5
2A6
100
AcDbEntity
  8
0
100
AcDbLine
 62
7
  6
BYLAYER
 10
80.2281300159
 20
66.3052121091
 11
88.1685664746
 21
70.6515562759
  0
LINE
  5
2A7
100
AcDbEntity
  8
0
100
AcDbLine
 62
7
  6
BYLAYER
 10
88.2549926621
 20
70.4936622795
 11
80.3145562034
 21
66.1473181126
  0
LINE
  5
2A8
100
AcDbEntity
  8
0
100
AcDbLine
 62
7
  6
BYLAYER
 10
84.5347744328
 20
124.0204901961
 11
82.0347744328
 21
124.0204901961
  0
LINE
  5
2A9
100
AcDbEntity
  8
0
100
AcDbLine
 62
7
  6
BYLAYER
 10
84.3547744328
 20
124.2004901961
 11
82.2147744328
 21
124.2004901961
  0
LINE
  5
2AA
100
AcDbEntity
  8
0
100
AcDbLine
 62
7
  6
BYLAYER
 10
88.1685664746
 20
118.2894241162
 11
80.2281300159
 21
122.6357682831
  0
LINE
  5
2AB
100
AcDbEntity
  8
0
100
AcDbLine
 62
7
  6
BYLAYER
 10
80.3145562034
 20
122.7936622795
 11
88.2549926621
 21
118.4473181126
  0
LINE
  5
2AC
100
AcDbEntity
  8
0
100
AcDbLine
 62
7
  6
BYLAYER
 10
82.2147744328
 20
128.5404901961
 11
84.3547744328
 21
128.5404901961
  0
LINE
  5
2AD
100
AcDbEntity
  8
0
100
AcDbLine
 62
7
  6
BYLAYER
 10
82.0347744328
 20
128.7204901961
 11
84.5347744328
 21
128.7204901961
  0
LINE
  5
2AE
100
AcDbEntity
  8
0
100
AcDbLine
 62
7
  6
BYLAYER
 10
113.6022268392
 20
148.5347843616
 11
113.6022268392
 21
40.4061960305
  0
LINE
  5
2AF
100
AcDbEntity
  8
0
100
AcDbLine
 62
7
  6
BYLAYER
 10
114.5847744328
 20
40.4061960305
 11
114.5847744328
 21
148.5347843616
  0
LINE
  5
2B0
100
AcDbEntity
  8
0
100
AcDbLine
 62
7
  6
BYLAYER
 10
16.5347744328
 20
138.7204901961
 11
93.5347744328
 21
138.7204901961
  0
LINE
  5
2B1
100
AcDbEntity
  8
0
100
AcDbLine
 62
7
  6
BYLAYER
 10
93.5347744328
 20
139.7204901961
 11
89.0347744328
 21
139.7204901961
  0
LINE
  5
2B2
100
AcDbEntity
  8
0
100
AcDbLine
 62
7
  6
BYLAYER
 10
88.8547744328
 20
139.7204901961
 11
17.5347744328
 21
139.7204901961
  0
LINE
  5
2B3
100
AcDbEntity
  8
0
100
AcDbLine
 62
7
  6
BYLAYER
 10
65.5347744328
 20
139.7704901961
 11
50.5347744328
 21
139.7704901961
  0
LINE
  5
2B4
100
AcDbEntity
  8
0
100
AcDbLine
 62
7
  6
BYLAYER
 10
93.5347744328
 20
140.1704901961
 11
96.0847744328
 21
140.1704901961
  0
LINE
  5
2B5
100
AcDbEntity
  8
0
100
AcDbLine
 62
7
  6
BYLAYER
 10
115.8297744328
 20
78.5174816248
 11
115.8297744328
 21
70.5174816248
  0
LINE
  5
2B6
100
AcDbEntity
  8
0
100
AcDbLine
 62
7
  6
BYLAYER
 10
115.8297744328
 20
67.7674816248
 11
115.8297744328
 21
62.6507141369
  0
LINE
  5
2B7
100
AcDbEntity
  8
0
100
AcDbLine
 62
7
  6
BYLAYER
 10
116.3297744328
 20
67.2670412588
 11
116.3297744328
 21
62.6507141369
  0
LINE
  5
2B8
100
AcDbEntity
  8
0
100
AcDbLine
 62
7
  6
BYLAYER
 10
116.3297744328
 20
71.0174816248
 11
116.3297744328
 21
78.0174816248
  0
LINE
  5
2B9
100
AcDbEntity
  8
0
100
AcDbLine
 62
7
  6
BYLAYER
 10
118.1847744328
 20
62.6507141369
 11
118.1847744328
 21
41.1354901961
  0
LINE
  5
2BA
100
AcDbEntity
  8
0
100
AcDbLine
 62
7
  6
BYLAYER
 10
118.5847744328
 20
62.2506913933
 11
118.5847744328
 21
41.5354901961
  0
LINE
  5
2BB
100
AcDbEntity
  8
0
100
AcDbLine
 62
7
  6
BYLAYER
 10
119.8809211556
 20
62.8801459688
 11
119.8809211556
 21
62.1507141369
  0
LINE
  5
2BC
100
AcDbEntity
  8
0
100
AcDbLine
 62
7
  6
BYLAYER
 10
119.8809211556
 20
41.6354901961
 11
119.8809211556
 21
41.506851566
  0
LINE
  5
2BD
100
AcDbEntity
  8
0
100
AcDbLine
 62
7
  6
BYLAYER
 10
120.1547744328
 20
62.5812875593
 11
120.1547744328
 21
62.1507141369
  0
LINE
  5
2BE
100
AcDbEntity
  8
0
100
AcDbLine
 62
7
  6
BYLAYER
 10
96.0847744328
 20
142.1704901961
 11
93.5347744328
 21
142.1704901961
  0
LINE
  5
2BF
100
AcDbEntity
  8
0
100
AcDbLine
 62
7
  6
BYLAYER
 10
120.5847744328
 20
62.1506916108
 11
120.5847744328
 21
41.6354901961
  0
LINE
  5
2C0
100
AcDbEntity
  8
0
100
AcDbLine
 62
7
  6
BYLAYER
 10
121.4247744328
 20
57.4299867167
 11
121.4247744328
 21
55.2009936755
  0
LINE
  5
2C1
100
AcDbEntity
  8
0
100
AcDbLine
 62
7
  6
BYLAYER
 10
121.4247744328
 20
45.7799867167
 11
121.4247744328
 21
43.5509936755
  0
LINE
  5
2C2
100
AcDbEntity
  8
0
100
AcDbLine
 62
7
  6
BYLAYER
 10
113.6022268392
 20
148.5347843616
 11
114.5847744328
 21
148.5347843616
  0
LINE
  5
2C3
100
AcDbEntity
  8
0
100
AcDbLine
 62
7
  6
BYLAYER
 10
98.0847744328
 20
149.8054901961
 11
96.0847744328
 21
149.8054901961
  0
LINE
  5
2C4
100
AcDbEntity
  8
0
100
AcDbLine
 62
7
  6
BYLAYER
 10
113.6022268392
 20
148.5347843616
 11
98.0847744328
 21
148.8056425009
  0
LINE
  5
2C5
100
AcDbEntity
  8
0
100
AcDbLine
 62
7
  6
BYLAYER
 10
98.0847744328
 20
149.8054901961
 11
113.6022268392
 21
149.5346320568
  0
ARC
  5
2C6
100
AcDbEntity
  8
0
100
AcDbCircle
 62
7
  6
BYLAYER
 10
22.5347744328
 20
68.5204901961
 40
2.5
100
AcDbArc
 50
270.0
 51
360.0
  0
ARC
  5
2C7
100
AcDbEntity
  8
0
100
AcDbCircle
 62
7
  6
BYLAYER
 10
22.5347744328
 20
69.5204901961
 40
2.5
100
AcDbArc
 50
0.0
 51
90.0
  0
ARC
  5
2C8
100
AcDbEntity
  8
0
100
AcDbCircle
 62
7
  6
BYLAYER
 10
52.7347744328
 20
47.4204901961
 40
2.3
100
AcDbArc
 50
271.2456585516
 51
360.0
  0
ARC
  5
2C9
100
AcDbEntity
  8
0
100
AcDbCircle
 62
7
  6
BYLAYER
 10
52.8347744328
 20
47.4204901961
 40
2.3
100
AcDbArc
 50
180.0
 51
268.7543414484
  0
ARC
  5
2CA
100
AcDbEntity
  8
0
100
AcDbCircle
 62
7
  6
BYLAYER
 10
22.5347744328
 20
68.5204901961
 40
2.0
100
AcDbArc
 50
270.0
 51
360.0
  0
ARC
  5
2CB
100
AcDbEntity
  8
0
100
AcDbCircle
 62
7
  6
BYLAYER
 10
22.5347744328
 20
69.5204901961
 40
2.0
100
AcDbArc
 50
0.0
 51
90.0
  0
ARC
  5
2CC
100
AcDbEntity
  8
0
100
AcDbCircle
 62
7
  6
BYLAYER
 10
49.5347744328
 20
61.2204901961
 40
2.0
100
AcDbArc
 50
0.0
 51
90.0
  0
ARC
  5
2CD
100
AcDbEntity
  8
0
100
AcDbCircle
 62
7
  6
BYLAYER
 10
52.0347744328
 20
77.9492146781
 40
1.68
100
AcDbArc
 50
180.0
 51
269.1815445383
  0
ARC
  5
2CE
100
AcDbEntity
  8
0
100
AcDbCircle
 62
7
  6
BYLAYER
 10
52.0347744328
 20
77.9492146781
 40
1.5
100
AcDbArc
 50
180.0
 51
269.1815445383
  0
ARC
  5
2CF
100
AcDbEntity
  8
0
100
AcDbCircle
 62
7
  6
BYLAYER
 10
51.4347744328
 20
50.1204901961
 40
1.15
100
AcDbArc
 50
180.0
 51
218.4999504094
  0
CIRCLE
  5
2D0
100
AcDbEntity
  8
0
100
AcDbCircle
 62
7
  6
BYLAYER
 10
52.7847744328
 20
47.4204901961
 40
1.0
  0
ARC
  5
2D1
100
AcDbEntity
  8
0
100
AcDbCircle
 62
7
  6
BYLAYER
 10
17.5347744328
 20
63.2204901961
 40
1.0
100
AcDbArc
 50
180.0
 51
270.0
  0
ARC
  5
2D2
100
AcDbEntity
  8
0
100
AcDbCircle
 62
7
  6
BYLAYER
 10
49.6347744328
 20
61.3204901961
 40
0.9
100
AcDbArc
 50
0.0
 51
90.0
  0
ARC
  5
2D3
100
AcDbEntity
  8
0
100
AcDbCircle
 62
7
  6
BYLAYER
 10
49.6347744328
 20
61.3204901961
 40
0.65
100
AcDbArc
 50
0.0
 51
90.0
  0
ARC
  5
2D4
100
AcDbEntity
  8
0
100
AcDbCircle
 62
7
  6
BYLAYER
 10
51.5347744328
 20
50.2204901961
 40
0.6
100
AcDbArc
 50
189.5940682269
 51
270.0
  0
ARC
  5
2D5
100
AcDbEntity
  8
0
100
AcDbCircle
 62
7
  6
BYLAYER
 10
17.0347744328
 20
72.0204901961
 40
0.5
100
AcDbArc
 50
180.0
 51
270.0
  0
ARC
  5
2D6
100
AcDbEntity
  8
0
100
AcDbCircle
 62
7
  6
BYLAYER
 10
49.0347744328
 20
61.7204901961
 40
0.5
100
AcDbArc
 50
90.0
 51
180.0
  0
ARC
  5
2D7
100
AcDbEntity
  8
0
100
AcDbCircle
 62
7
  6
BYLAYER
 10
17.0347744328
 20
66.0204901961
 40
0.5
100
AcDbArc
 50
90.0
 51
180.0
  0
ARC
  5
2D8
100
AcDbEntity
  8
0
100
AcDbCircle
 62
7
  6
BYLAYER
 10
60.0347744328
 20
47.7204901961
 40
0.5
100
AcDbArc
 50
270.0
 51
360.0
  0
ARC
  5
2D9
100
AcDbEntity
  8
0
100
AcDbCircle
 62
7
  6
BYLAYER
 10
60.0347744328
 20
48.7204901961
 40
0.5
100
AcDbArc
 50
0.0
 51
90.0
  0
ARC
  5
2DA
100
AcDbEntity
  8
0
100
AcDbCircle
 62
7
  6
BYLAYER
 10
49.0347744328
 20
47.7204901961
 40
0.5
100
AcDbArc
 50
180.0
 51
270.0
  0
ARC
  5
2DB
100
AcDbEntity
  8
0
100
AcDbCircle
 62
7
  6
BYLAYER
 10
49.0347744328
 20
47.7204901961
 40
0.25
100
AcDbArc
 50
180.0
 51
270.0
  0
ARC
  5
2DC
100
AcDbEntity
  8
0
100
AcDbCircle
 62
7
  6
BYLAYER
 10
49.0347744328
 20
61.7204901961
 40
0.25
100
AcDbArc
 50
90.0
 51
180.0
  0
ARC
  5
2DD
100
AcDbEntity
  8
0
100
AcDbCircle
 62
7
  6
BYLAYER
 10
60.0347744328
 20
47.7204901961
 40
0.25
100
AcDbArc
 50
270.0
 51
360.0
  0
ARC
  5
2DE
100
AcDbEntity
  8
0
100
AcDbCircle
 62
7
  6
BYLAYER
 10
60.0347744328
 20
48.7204901961
 40
0.25
100
AcDbArc
 50
0.0
 51
90.0
  0
ARC
  5
2DF
100
AcDbEntity
  8
0
100
AcDbCircle
 62
7
  6
BYLAYER
 10
22.5347744328
 20
117.1179901961
 40
2.5
100
AcDbArc
 50
0.0
 51
90.0
  0
ARC
  5
2E0
100
AcDbEntity
  8
0
100
AcDbCircle
 62
7
  6
BYLAYER
 10
22.5347744328
 20
116.1179901961
 40
2.5
100
AcDbArc
 50
270.0
 51
360.0
  0
ARC
  5
2E1
100
AcDbEntity
  8
0
100
AcDbCircle
 62
7
  6
BYLAYER
 10
22.5347744328
 20
117.1179901961
 40
2.0
100
AcDbArc
 50
0.0
 51
90.0
  0
ARC
  5
2E2
100
AcDbEntity
  8
0
100
AcDbCircle
 62
7
  6
BYLAYER
 10
22.5347744328
 20
116.1179901961
 40
2.0
100
AcDbArc
 50
270.0
 51
360.0
  0
ARC
  5
2E3
100
AcDbEntity
  8
0
100
AcDbCircle
 62
7
  6
BYLAYER
 10
52.0347744328
 20
110.9917657141
 40
1.68
100
AcDbArc
 50
90.8184554617
 51
180.0
  0
ARC
  5
2E4
100
AcDbEntity
  8
0
100
AcDbCircle
 62
7
  6
BYLAYER
 10
52.0347744328
 20
110.9917657141
 40
1.5
100
AcDbArc
 50
90.8184554617
 51
180.0
  0
ARC
  5
2E5
100
AcDbEntity
  8
0
100
AcDbCircle
 62
7
  6
BYLAYER
 10
17.5347744328
 20
138.7204901961
 40
1.0
100
AcDbArc
 50
90.0
 51
180.0
  0
ARC
  5
2E6
100
AcDbEntity
  8
0
100
AcDbCircle
 62
7
  6
BYLAYER
 10
17.0347744328
 20
113.6179901961
 40
0.5
100
AcDbArc
 50
90.0
 51
180.0
  0
ARC
  5
2E7
100
AcDbEntity
  8
0
100
AcDbCircle
 62
7
  6
BYLAYER
 10
17.0347744328
 20
119.6179901961
 40
0.5
100
AcDbArc
 50
180.0
 51
270.0
  0
ARC
  5
2E8
100
AcDbEntity
  8
0
100
AcDbCircle
 62
7
  6
BYLAYER
 10
81.0347744328
 20
64.831534809
 40
1.68
100
AcDbArc
 50
118.6949043793
 51
180.0
  0
ARC
  5
2E9
100
AcDbEntity
  8
0
100
AcDbCircle
 62
7
  6
BYLAYER
 10
81.0347744328
 20
60.3094455831
 40
1.68
100
AcDbArc
 50
180.0
 51
241.3050956207
  0
ARC
  5
2EA
100
AcDbEntity
  8
0
100
AcDbCircle
 62
7
  6
BYLAYER
 10
87.5347744328
 20
53.331534809
 40
1.5
100
AcDbArc
 50
0.0
 51
61.3050956207
  0
ARC
  5
2EB
100
AcDbEntity
  8
0
100
AcDbCircle
 62
7
  6
BYLAYER
 10
81.0347744328
 20
60.3094455831
 40
1.5
100
AcDbArc
 50
180.0
 51
241.3050956207
  0
ARC
  5
2EC
100
AcDbEntity
  8
0
100
AcDbCircle
 62
7
  6
BYLAYER
 10
81.0347744328
 20
64.831534809
 40
1.5
100
AcDbArc
 50
118.6949043793
 51
180.0
  0
ARC
  5
2ED
100
AcDbEntity
  8
0
100
AcDbCircle
 62
7
  6
BYLAYER
 10
87.5347744328
 20
71.8094455831
 40
1.5
100
AcDbArc
 50
298.6949043793
 51
360.0
  0
ARC
  5
2EE
100
AcDbEntity
  8
0
100
AcDbCircle
 62
7
  6
BYLAYER
 10
87.5347744328
 20
74.4417657141
 40
1.5
100
AcDbArc
 50
0.0
 51
89.1815445383
  0
ARC
  5
2EF
100
AcDbEntity
  8
0
100
AcDbCircle
 62
7
  6
BYLAYER
 10
87.5347744328
 20
74.4417657141
 40
1.32
100
AcDbArc
 50
0.0
 51
89.1815445383
  0
ARC
  5
2F0
100
AcDbEntity
  8
0
100
AcDbCircle
 62
7
  6
BYLAYER
 10
87.5347744328
 20
71.8094455831
 40
1.32
100
AcDbArc
 50
298.6949043793
 51
360.0
  0
ARC
  5
2F1
100
AcDbEntity
  8
0
100
AcDbCircle
 62
7
  6
BYLAYER
 10
87.5347744328
 20
53.331534809
 40
1.32
100
AcDbArc
 50
0.0
 51
61.3050956207
  0
ARC
  5
2F2
100
AcDbEntity
  8
0
100
AcDbCircle
 62
7
  6
BYLAYER
 10
113.5847744328
 20
40.4061960305
 40
1.0
100
AcDbArc
 50
271.0
 51
360.0
  0
ARC
  5
2F3
100
AcDbEntity
  8
0
100
AcDbCircle
 62
7
  6
BYLAYER
 10
115.8297744328
 20
67.2674816248
 40
0.5
100
AcDbArc
 50
0.0
 51
90.0
  0
ARC
  5
2F4
100
AcDbEntity
  8
0
100
AcDbCircle
 62
7
  6
BYLAYER
 10
115.8297744328
 20
71.0174816248
 40
0.5
100
AcDbArc
 50
270.0
 51
360.0
  0
ARC
  5
2F5
100
AcDbEntity
  8
0
100
AcDbCircle
 62
7
  6
BYLAYER
 10
115.8297744328
 20
78.0174816248
 40
0.5
100
AcDbArc
 50
0.0
 51
90.0
  0
ARC
  5
2F6
100
AcDbEntity
  8
0
100
AcDbCircle
 62
7
  6
BYLAYER
 10
118.1847744328
 20
62.2507141369
 40
0.4
100
AcDbArc
 50
0.0
 51
90.0
  0
ARC
  5
2F7
100
AcDbEntity
  8
0
100
AcDbCircle
 62
7
  6
BYLAYER
 10
118.1847744328
 20
41.5354901961
 40
0.4
100
AcDbArc
 50
270.0
 51
360.0
  0
ARC
  5
2F8
100
AcDbEntity
  8
0
100
AcDbCircle
 62
7
  6
BYLAYER
 10
119.8547744328
 20
62.5812875593
 40
0.3
100
AcDbArc
 50
0.0
 51
85.0
  0
ARC
  5
2F9
100
AcDbEntity
  8
0
100
AcDbCircle
 62
7
  6
BYLAYER
 10
119.8547744328
 20
41.8057099754
 40
0.3
100
AcDbArc
 50
275.0
 51
324.3810099344
  0
ARC
  5
2FA
100
AcDbEntity
  8
0
100
AcDbCircle
 62
7
  6
BYLAYER
 10
81.0347744328
 20
124.1094455831
 40
1.68
100
AcDbArc
 50
180.0
 51
241.3050956207
  0
ARC
  5
2FB
100
AcDbEntity
  8
0
100
AcDbCircle
 62
7
  6
BYLAYER
 10
81.0347744328
 20
128.631534809
 40
1.68
100
AcDbArc
 50
118.6949043793
 51
180.0
  0
ARC
  5
2FC
100
AcDbEntity
  8
0
100
AcDbCircle
 62
7
  6
BYLAYER
 10
87.5347744328
 20
114.4992146781
 40
1.5
100
AcDbArc
 50
270.8184554617
 51
360.0
  0
ARC
  5
2FD
100
AcDbEntity
  8
0
100
AcDbCircle
 62
7
  6
BYLAYER
 10
87.5347744328
 20
117.131534809
 40
1.5
100
AcDbArc
 50
0.0
 51
61.3050956207
  0
ARC
  5
2FE
100
AcDbEntity
  8
0
100
AcDbCircle
 62
7
  6
BYLAYER
 10
81.0347744328
 20
124.1094455831
 40
1.5
100
AcDbArc
 50
180.0
 51
241.3050956207
  0
ARC
  5
2FF
100
AcDbEntity
  8
0
100
AcDbCircle
 62
7
  6
BYLAYER
 10
81.0347744328
 20
128.631534809
 40
1.5
100
AcDbArc
 50
118.6949043793
 51
180.0
  0
ARC
  5
300
100
AcDbEntity
  8
0
100
AcDbCircle
 62
7
  6
BYLAYER
 10
87.5347744328
 20
135.6094455831
 40
1.5
100
AcDbArc
 50
298.6949043793
 51
360.0
  0
ARC
  5
301
100
AcDbEntity
  8
0
100
AcDbCircle
 62
7
  6
BYLAYER
 10
87.5347744328
 20
114.4992146781
 40
1.32
100
AcDbArc
 50
270.8184554617
 51
360.0
  0
ARC
  5
302
100
AcDbEntity
  8
0
100
AcDbCircle
 62
7
  6
BYLAYER
 10
87.5347744328
 20
117.131534809
 40
1.32
100
AcDbArc
 50
0.0
 51
61.3050956207
  0
ARC
  5
303
100
AcDbEntity
  8
0
100
AcDbCircle
 62
7
  6
BYLAYER
 10
87.5347744328
 20
135.6094455831
 40
1.32
100
AcDbArc
 50
298.6949043793
 51
360.0
  0
ARC
  5
304
100
AcDbEntity
  8
0
100
AcDbCircle
 62
7
  6
BYLAYER
 10
113.5847744328
 20
148.5347843616
 40
1.0
100
AcDbArc
 50
0.0
 51
89.0
  0
SPLINE
  5
305
100
AcDbEntity
  8
0
100
AcDbSpline
 62
7
  6
BYLAYER
 70
0
 71
3
 72
21
 73
17
 74
0
 42
0.0000001
 43
0.0000001
 44
0.0000000001
 40
0.0
 40
0.0
 40
0.0
 40
0.0
 40
0.1948110237
 40
0.3824960649
 40
0.5552418146
 40
0.7066424536
 40
0.7725321731
 40
0.8309736691
 40
0.88139365
 40
0.9233573487
 40
0.9564412511
 40
0.9803046448
 40
0.9887294231
 40
0.9947997303
 40
0.9985188152
 40
1.0
 40
1.0
 40
1.0
 40
1.0
 10
113.6022268392
 20
40.4061960305
 30
0.0
 10
113.603360219
 20
40.3412449636
 30
0.0
 10
113.6053687958
 20
40.2137148046
 30
0.0
 10
113.6076422651
 20
40.0285794109
 30
0.0
 10
113.6090650369
 20
39.8579117431
 30
0.0
 10
113.60953029
 20
39.7278511257
 30
0.0
 10
113.6093852298
 20
39.6359076601
 30
0.0
 10
113.6090503753
 20
39.5776337618
 30
0.0
 10
113.6084886654
 20
39.5273512965
 30
0.0
 10
113.6077162358
 20
39.4854964178
 30
0.0
 10
113.6067421208
 20
39.452588788
 30
0.0
 10
113.6057158707
 20
39.4306834525
 30
0.0
 10
113.6047177419
 20
39.4181029442
 30
0.0
 10
113.6040090966
 20
39.4117795123
 30
0.0
 10
113.6033637347
 20
39.4086056812
 30
0.0
 10
113.6027206743
 20
39.4063569553
 30
0.0
 10
113.6022268392
 20
39.4063483354
 30
0.0
  0
SPLINE
  5
306
100
AcDbEntity
  8
0
100
AcDbSpline
 62
7
  6
BYLAYER
 70
0
 71
3
 72
21
 73
17
 74
0
 42
0.0000001
 43
0.0000001
 44
0.0000000001
 40
0.0
 40
0.0
 40
0.0
 40
0.0
 40
0.0014811848
 40
0.0052002697
 40
0.0112705769
 40
0.0196953552
 40
0.0435587489
 40
0.0766426513
 40
0.11860635
 40
0.1690263309
 40
0.2274678269
 40
0.2933575464
 40
0.4447581854
 40
0.6175039351
 40
0.8051889763
 40
1.0
 40
1.0
 40
1.0
 40
1.0
 10
113.6022268392
 20
149.5346320568
 30
0.0
 10
113.6027206743
 20
149.5346234369
 30
0.0
 10
113.6033637347
 20
149.532374711
 30
0.0
 10
113.6040090966
 20
149.5292008799
 30
0.0
 10
113.6047177419
 20
149.5228774479
 30
0.0
 10
113.6057158707
 20
149.5102969396
 30
0.0
 10
113.6067421208
 20
149.4883916042
 30
0.0
 10
113.6077162358
 20
149.4554839744
 30
0.0
 10
113.6084886654
 20
149.4136290956
 30
0.0
 10
113.6090503753
 20
149.3633466304
 30
0.0
 10
113.6093852298
 20
149.305072732
 30
0.0
 10
113.60953029
 20
149.2131292665
 30
0.0
 10
113.6090650369
 20
149.0830686491
 30
0.0
 10
113.6076422651
 20
148.9124009813
 30
0.0
 10
113.6053687958
 20
148.7272655875
 30
0.0
 10
113.603360219
 20
148.5997354286
 30
0.0
 10
113.6022268392
 20
148.5347843616
 30
0.0
  0
ELLIPSE
  5
307
100
AcDbEntity
  8
0
100
AcDbEllipse
 62
7
  6
BYLAYER
 10
40.7860859342
 20
149.8054901961
 30
0.0
 11
57.2986858407
 21
-1.0001522817
 31
0.0
 40
0.0174497492
 41
0.0003045865
 42
0.2652943299
  0
ELLIPSE
  5
308
100
AcDbEntity
  8
0
100
AcDbEllipse
 62
7
  6
BYLAYER
 10
40.7860859342
 20
39.1354901961
 30
0.0
 11
57.2986858407
 21
1.0001522817
 31
0.0
 40
0.0174497492
 41
-0.2652943299
 42
-0.0003045865
  0
ENDSEC
  0
SECTION
  2
OBJECTS
  0
DICTIONARY
  5
C
100
AcDbDictionary
280
0
281
1
  3
ACAD_GROUP
350
D
  3
ACAD_MLINESTYLE
350
17
  3
ACAD_LAYOUT
350
1A
  3
ACAD_PLOTSETTINGS
350
19
  3
ACAD_PLOTSTYLENAME
350
E
  0
DICTIONARY
  5
D
102
{ACAD_REACTORS
330
C
102
}
100
AcDbDictionary
280
0
281
1
  0
ACDBDICTIONARYWDFLT
  5
E
102
{ACAD_REACTORS
330
C
102
}
100
AcDbDictionary
281
1
  3
Normal
350
F
100
AcDbDictionaryWithDefault
340
F
  0
DICTIONARY
  5
17
102
{ACAD_REACTORS
330
C
102
}
100
AcDbDictionary
280
0
281
1
  3
Standard
350
18
  0
DICTIONARY
  5
19
102
{ACAD_REACTORS
330
C
102
}
100
AcDbDictionary
281
1
  0
DICTIONARY
  5
1A
102
{ACAD_REACTORS
330
C
102
}
100
AcDbDictionary
281
1
  3
Model
350
309
  3
Layout1
350
30A
  0
ACDBPLACEHOLDER
  5
F
102
{ACAD_REACTORS
330
E
102
}
  0
MLINESTYLE
  5
18
102
{ACAD_REACTORS
330
17
102
}
100
AcDbMlineStyle
  2
STANDARD
 70
0
  3

 62
256
 51
90.0
 52
90.0
 71
2
 49
0.5
 62
256
  6
BYLAYER
 49
-0.5
 62
256
  6
BYLAYER
  0
LAYOUT
  5
309
102
{ACAD_REACTORS
330
1A
102
}
100
AcDbPlotSettings
  1

  2
none_device
  4

  6

 40
0.0
 41
0.0
 42
0.0
 43
0.0
 44
210.0
 45
297.0
 46
0.0
 47
0.0
 48
0.0
 49
0.0
140
0.0
141
0.0
142
1.0
143
1.0
 70
1024
 72
1
 73
0
 74
0
  7

 75
0
147
1.0
148
0.0
149
0.0
100
AcDbLayout
  1
Model
 70
0
 71
0
 10
0.0
 20
0.0
 11
210.0
 21
297.0
 12
0.0
 22
0.0
 32
0.0
 14
0.0
 24
0.0
 34
0.0
 15
0.0
 25
0.0
 35
0.0
146
0.0
 13
0.0
 23
0.0
 33
0.0
 16
1.0
 26
0.0
 36
0.0
 17
0.0
 27
1.0
 37
0.0
 76
0
330
211
345
0
346
0
  0
LAYOUT
  5
30A
102
{ACAD_REACTORS
330
1A
102
}
100
AcDbPlotSettings
  1

  2
none_device
  4

  6

 40
0.0
 41
0.0
 42
0.0
 43
0.0
 44
210.0
 45
297.0
 46
0.0
 47
0.0
 48
0.0
 49
0.0
140
0.0
141
0.0
142
1.0
143
1.0
 70
0
 72
1
 73
0
 74
0
  7

 75
0
147
1.0
148
0.0
149
0.0
100
AcDbLayout
  1
Layout1
 70
0
 71
1
 10
0.0
 20
0.0
 11
210.0
 21
297.0
 12
0.0
 22
0.0
 32
0.0
 14
0.0
 24
0.0
 34
0.0
 15
0.0
 25
0.0
 35
0.0
146
0.0
 13
0.0
 23
0.0
 33
0.0
 16
1.0
 26
0.0
 36
0.0
 17
0.0
 27
1.0
 37
0.0
 76
0
330
212
345
0
346
0
  0
ENDSEC
  0
EOF
