  0
SECTION
  2
HEADER
  9
$ACADVER
  1
AC1014
  9
$ACADMAINTVER
 70
     0
  9
$DWGCODEPAGE
  3
ANSI_1252
  9
$INSBASE
 10
93.894301
 20
236.06014
 30
0.0
  9
$EXTMIN
 10
20.240735
 20
110.264725
 30
0.0
  9
$EXTMAX
 10
104.171882
 20
169.681027
 30
0.0
  9
$LIMMIN
 10
0.0
 20
0.0
  9
$LIMMAX
 10
210.0
 20
297.0
  9
$ORTHOMODE
 70
     0
  9
$REGENMODE
 70
     1
  9
$FILLMODE
 70
     1
  9
$QTEXTMODE
 70
     0
  9
$MIRRTEXT
 70
     0
  9
$DRAGMODE
 70
     1
  9
$LTSCALE
 40
7.0
  9
$OSMODE
 70
     0
  9
$ATTMODE
 70
     1
  9
$TEXTSIZE
 40
2.5
  9
$TRACEWID
 40
0.05
  9
$TEXTSTYLE
  7
STANDARD
  9
$CLAYER
  8
COTATION1
  9
$CELTYPE
  6
BYLAYER
  9
$CECOLOR
 62
   256
  9
$CELTSCALE
 40
1.0
  9
$DELOBJ
 70
     1
  9
$DISPSILH
 70
     0
  9
$DIMSCALE
 40
1.0
  9
$DIMASZ
 40
3.0
  9
$DIMEXO
 40
0.0625
  9
$DIMDLI
 40
0.38
  9
$DIMRND
 40
0.01
  9
$DIMDLE
 40
0.0
  9
$DIMEXE
 40
0.18
  9
$DIMTP
 40
0.0
  9
$DIMTM
 40
0.0
  9
$DIMTXT
 40
2.5
  9
$DIMCEN
 40
0.09
  9
$DIMTSZ
 40
0.0
  9
$DIMTOL
 70
     0
  9
$DIMLIM
 70
     0
  9
$DIMTIH
 70
     0
  9
$DIMTOH
 70
     0
  9
$DIMSE1
 70
     0
  9
$DIMSE2
 70
     0
  9
$DIMTAD
 70
     1
  9
$DIMZIN
 70
    12
  9
$DIMBLK
  1

  9
$DIMASO
 70
     1
  9
$DIMSHO
 70
     0
  9
$DIMPOST
  1

  9
$DIMAPOST
  1

  9
$DIMALT
 70
     0
  9
$DIMALTD
 70
     2
  9
$DIMALTF
 40
25.4
  9
$DIMLFAC
 40
1.0
  9
$DIMTOFL
 70
     1
  9
$DIMTVP
 40
0.0
  9
$DIMTIX
 70
     0
  9
$DIMSOXD
 70
     0
  9
$DIMSAH
 70
     0
  9
$DIMBLK1
  1

  9
$DIMBLK2
  1

  9
$DIMSTYLE
  2
SC_STAND
  9
$DIMCLRD
 70
     0
  9
$DIMCLRE
 70
     0
  9
$DIMCLRT
 70
     0
  9
$DIMTFAC
 40
1.0
  9
$DIMGAP
 40
1.0
  9
$DIMJUST
 70
     0
  9
$DIMSD1
 70
     0
  9
$DIMSD2
 70
     0
  9
$DIMTOLJ
 70
     1
  9
$DIMTZIN
 70
    12
  9
$DIMALTZ
 70
    12
  9
$DIMALTTZ
 70
    12
  9
$DIMFIT
 70
     5
  9
$DIMUPT
 70
     0
  9
$DIMUNIT
 70
     2
  9
$DIMDEC
 70
     3
  9
$DIMTDEC
 70
     3
  9
$DIMALTU
 70
     2
  9
$DIMALTTD
 70
     2
  9
$DIMTXSTY
  7
STANDARD
  9
$DIMAUNIT
 70
     0
  9
$LUNITS
 70
     2
  9
$LUPREC
 70
     3
  9
$SKETCHINC
 40
0.1
  9
$FILLETRAD
 40
0.0625
  9
$AUNITS
 70
     0
  9
$AUPREC
 70
     0
  9
$MENU
  1
ACAD
  9
$ELEVATION
 40
0.0
  9
$PELEVATION
 40
0.0
  9
$THICKNESS
 40
0.0
  9
$LIMCHECK
 70
     0
  9
$BLIPMODE
 70
     1
  9
$CHAMFERA
 40
0.0
  9
$CHAMFERB
 40
0.0
  9
$CHAMFERC
 40
0.0
  9
$CHAMFERD
 40
0.0
  9
$SKPOLY
 70
     0
  9
$TDCREATE
 40
2450953.590960648
  9
$TDUPDATE
 40
2452850.654133391
  9
$TDINDWG
 40
0.0020325926
  9
$TDUSRTIMER
 40
0.0020325926
  9
$USRTIMER
 70
     1
  9
$ANGBASE
 50
0.0
  9
$ANGDIR
 70
     0
  9
$PDMODE
 70
     0
  9
$PDSIZE
 40
0.0
  9
$PLINEWID
 40
0.0
  9
$COORDS
 70
     0
  9
$SPLFRAME
 70
     0
  9
$SPLINETYPE
 70
     6
  9
$SPLINESEGS
 70
     8
  9
$ATTDIA
 70
     0
  9
$ATTREQ
 70
     1
  9
$HANDLING
 70
     1
  9
$HANDSEED
  5
754
  9
$SURFTAB1
 70
     6
  9
$SURFTAB2
 70
     6
  9
$SURFTYPE
 70
     6
  9
$SURFU
 70
     6
  9
$SURFV
 70
     6
  9
$UCSNAME
  2

  9
$UCSORG
 10
0.0
 20
0.0
 30
0.0
  9
$UCSXDIR
 10
1.0
 20
0.0
 30
0.0
  9
$UCSYDIR
 10
0.0
 20
1.0
 30
0.0
  9
$PUCSNAME
  2

  9
$PUCSORG
 10
0.0
 20
0.0
 30
0.0
  9
$PUCSXDIR
 10
1.0
 20
0.0
 30
0.0
  9
$PUCSYDIR
 10
0.0
 20
1.0
 30
0.0
  9
$USERI1
 70
     0
  9
$USERI2
 70
     0
  9
$USERI3
 70
     0
  9
$USERI4
 70
     0
  9
$USERI5
 70
     0
  9
$USERR1
 40
0.0
  9
$USERR2
 40
0.0
  9
$USERR3
 40
0.0
  9
$USERR4
 40
0.0
  9
$USERR5
 40
0.0
  9
$WORLDVIEW
 70
     1
  9
$SHADEDGE
 70
     3
  9
$SHADEDIF
 70
    70
  9
$TILEMODE
 70
     1
  9
$MAXACTVP
 70
    32
  9
$PINSBASE
 10
0.0
 20
0.0
 30
0.0
  9
$PLIMCHECK
 70
     0
  9
$PEXTMIN
 10
-3.174999
 20
-3.175
 30
0.0
  9
$PEXTMAX
 10
203.812116
 20
370.276807
 30
0.0
  9
$PLIMMIN
 10
-3.175
 20
-3.175
  9
$PLIMMAX
 10
203.812115
 20
370.276807
  9
$UNITMODE
 70
     0
  9
$VISRETAIN
 70
     0
  9
$PLINEGEN
 70
     0
  9
$PSLTSCALE
 70
     1
  9
$TREEDEPTH
 70
  3020
  9
$PICKSTYLE
 70
     1
  9
$CMLSTYLE
  2
STANDARD
  9
$CMLJUST
 70
     0
  9
$CMLSCALE
 40
1.0
  9
$PROXYGRAPHICS
 70
     1
  9
$MEASUREMENT
 70
     0
  0
ENDSEC
  0
SECTION
  2
CLASSES
  0
CLASS
  1
DICTIONARYVAR
  2
AcDbDictionaryVar
  3
"AutoCAD"
 90
        0
280
     0
281
     0
  0
ENDSEC
  0
SECTION
  2
TABLES
  0
TABLE
  2
VPORT
  5
F4
100
AcDbSymbolTable
 70
     1
  0
VPORT
  5
74F
100
AcDbSymbolTableRecord
100
AcDbViewportTableRecord
  2
*ACTIVE
 70
     0
 10
0.0
 20
0.0
 11
1.0
 21
1.0
 12
62.205964
 22
139.968774
 13
0.0
 23
0.0
 14
1.0
 24
1.0
 15
10.0
 25
10.0
 16
0.0
 26
0.0
 36
1.0
 17
0.0
 27
0.0
 37
0.0
 40
59.900292
 41
1.592689
 42
50.0
 43
0.0
 44
0.0
 50
0.0
 51
0.0
 71
     0
 72
   100
 73
     1
 74
     1
 75
     0
 76
     1
 77
     0
 78
     0
  0
ENDTAB
  0
TABLE
  2
LTYPE
  5
F1
100
AcDbSymbolTable
 70
     2
  0
LTYPE
  5
FD
100
AcDbSymbolTableRecord
100
AcDbLinetypeTableRecord
  2
BYBLOCK
 70
     0
  3

 72
    65
 73
     0
 40
0.0
  0
LTYPE
  5
FE
100
AcDbSymbolTableRecord
100
AcDbLinetypeTableRecord
  2
BYLAYER
 70
     0
  3

 72
    65
 73
     0
 40
0.0
  0
LTYPE
  5
FF
100
AcDbSymbolTableRecord
100
AcDbLinetypeTableRecord
  2
CONTINUOUS
 70
     0
  3
Solid line
 72
    65
 73
     0
 40
0.0
  0
LTYPE
  5
120
100
AcDbSymbolTableRecord
100
AcDbLinetypeTableRecord
  2
CACHE2
 70
     0
  3
_ _ _ _ _ _ _ _ _ _ _ _ _ _ _ _ _ _ _ _ _ _ _ _
 72
    65
 73
     2
 40
0.1875
 49
0.125
 74
     0
 49
-0.0625
 74
     0
  0
ENDTAB
  0
TABLE
  2
LAYER
  5
EE
100
AcDbSymbolTable
 70
     6
  0
LAYER
  5
FA
100
AcDbSymbolTableRecord
100
AcDbLayerTableRecord
  2
0
 70
     0
 62
     7
  6
CONTINUOUS
  0
LAYER
  5
12C
100
AcDbSymbolTableRecord
100
AcDbLayerTableRecord
  2
ALPHA
 70
     0
 62
   255
  6
CONTINUOUS
  0
LAYER
  5
12F
100
AcDbSymbolTableRecord
100
AcDbLayerTableRecord
  2
COTATION1
 70
     0
 62
     2
  6
CONTINUOUS
  0
LAYER
  5
132
100
AcDbSymbolTableRecord
100
AcDbLayerTableRecord
  2
TEXTE
 70
     0
 62
   131
  6
CONTINUOUS
  0
LAYER
  5
13B
100
AcDbSymbolTableRecord
100
AcDbLayerTableRecord
  2
ASHADE
 70
     0
 62
     7
  6
CONTINUOUS
  0
LAYER
  5
13C
100
AcDbSymbolTableRecord
100
AcDbLayerTableRecord
  2
POINTILLE_COURT
 70
     0
 62
    40
  6
CACHE2
  0
ENDTAB
  0
TABLE
  2
STYLE
  5
EF
100
AcDbSymbolTable
 70
     2
  0
STYLE
  5
FB
100
AcDbSymbolTableRecord
100
AcDbTextStyleTableRecord
  2
STANDARD
 70
     0
 40
0.0
 41
1.0
 50
0.0
 71
     0
 42
2.5
  3
txt
  4

  0
STYLE
  5
23D
100
AcDbSymbolTableRecord
100
AcDbTextStyleTableRecord
  2
STD
 70
     0
 40
0.0
 41
1.0
 50
0.0
 71
     0
 42
0.0
  3
txt
  4

  0
ENDTAB
  0
TABLE
  2
VIEW
  5
F2
100
AcDbSymbolTable
 70
     0
  0
ENDTAB
  0
TABLE
  2
UCS
  5
F3
100
AcDbSymbolTable
 70
     0
  0
ENDTAB
  0
TABLE
  2
APPID
  5
F5
100
AcDbSymbolTable
 70
     3
  0
APPID
  5
FC
100
AcDbSymbolTableRecord
100
AcDbRegAppTableRecord
  2
ACAD
 70
     0
  0
APPID
  5
127
100
AcDbSymbolTableRecord
100
AcDbRegAppTableRecord
  2
AVE_RENDER
 70
     0
  0
APPID
  5
128
100
AcDbSymbolTableRecord
100
AcDbRegAppTableRecord
  2
AVE_MATERIAL
 70
     0
  0
ENDTAB
  0
TABLE
  2
DIMSTYLE
  5
F6
100
AcDbSymbolTable
 70
     2
  0
DIMSTYLE
105
129
100
AcDbSymbolTableRecord
100
AcDbDimStyleTableRecord
  2
STANDARD
 70
     0
  3

  4

  5

  6

  7

 40
1.0
 41
0.18
 42
0.0625
 43
0.38
 44
0.18
 45
0.0
 46
0.0
 47
0.0
 48
0.0
140
0.18
141
0.09
142
0.0
143
25.4
144
1.0
145
0.0
146
1.0
147
0.09
 71
     0
 72
     0
 73
     1
 74
     1
 75
     0
 76
     0
 77
     0
 78
     0
170
     0
171
     2
172
     0
173
     0
174
     0
175
     0
176
     0
177
     0
178
     0
270
     2
271
     3
272
     3
273
     2
274
     2
340
FB
275
     0
280
     0
281
     0
282
     0
283
     1
284
    12
285
    12
286
    12
287
     5
288
     0
  0
DIMSTYLE
105
12A
100
AcDbSymbolTableRecord
100
AcDbDimStyleTableRecord
  2
SC_STAND
 70
     0
  3

  4

  5

  6

  7

 40
1.0
 41
3.0
 42
0.0625
 43
0.38
 44
0.18
 45
0.01
 46
0.0
 47
0.0
 48
0.0
140
2.5
141
0.09
142
0.0
143
25.4
144
1.0
145
0.0
146
1.0
147
1.0
 71
     0
 72
     0
 73
     0
 74
     0
 75
     0
 76
     0
 77
     1
 78
    12
170
     0
171
     2
172
     1
173
     0
174
     0
175
     0
176
     0
177
     0
178
     0
270
     2
271
     3
272
     3
273
     2
274
     2
340
FB
275
     0
280
     0
281
     0
282
     0
283
     1
284
    12
285
    12
286
    12
287
     5
288
     0
  0
ENDTAB
  0
TABLE
  2
BLOCK_RECORD
  5
ED
100
AcDbSymbolTable
 70
     3
  0
BLOCK_RECORD
  5
103
100
AcDbSymbolTableRecord
100
AcDbBlockTableRecord
  2
*MODEL_SPACE
  0
BLOCK_RECORD
  5
100
100
AcDbSymbolTableRecord
100
AcDbBlockTableRecord
  2
*PAPER_SPACE
  0
BLOCK_RECORD
  5
108
100
AcDbSymbolTableRecord
100
AcDbBlockTableRecord
  2
AVE_RENDER
  0
BLOCK_RECORD
  5
109
100
AcDbSymbolTableRecord
100
AcDbBlockTableRecord
  2
AVE_GLOBAL
  0
BLOCK_RECORD
  5
10A
100
AcDbSymbolTableRecord
100
AcDbBlockTableRecord
  2
SCH_IS
  0
ENDTAB
  0
ENDSEC
  0
SECTION
  2
BLOCKS
  0
BLOCK
  5
141
100
AcDbEntity
  8
0
100
AcDbBlockBegin
  2
*MODEL_SPACE
 70
     0
 10
0.0
 20
0.0
 30
0.0
  3
*MODEL_SPACE
  1

  0
ENDBLK
  5
142
100
AcDbEntity
  8
0
100
AcDbBlockEnd
  0
BLOCK
  5
13F
100
AcDbEntity
 67
     1
  8
0
100
AcDbBlockBegin
  2
*PAPER_SPACE
 70
     0
 10
0.0
 20
0.0
 30
0.0
  3
*PAPER_SPACE
  1

  0
ENDBLK
  5
140
100
AcDbEntity
 67
     1
  8
0
100
AcDbBlockEnd
  0
BLOCK
  5
8D
100
AcDbEntity
  8
0
100
AcDbBlockBegin
  2
AVE_RENDER
 70
     0
 10
0.0
 20
0.0
 30
0.0
  3
AVE_RENDER
  1
AVE_RENDER
  0
ENDBLK
  5
8E
100
AcDbEntity
  8
0
100
AcDbBlockEnd
  0
BLOCK
  5
90
100
AcDbEntity
  8
0
100
AcDbBlockBegin
  2
AVE_GLOBAL
 70
     0
 10
0.0
 20
0.0
 30
0.0
  3
AVE_GLOBAL
  1
AVE_GLOBAL
  0
ENDBLK
  5
91
100
AcDbEntity
  8
0
100
AcDbBlockEnd
  0
BLOCK
  5
C9
100
AcDbEntity
  8
0
100
AcDbBlockBegin
  2
SCH_IS
 70
     0
 10
0.0
 20
0.0
 30
0.0
  3
SCH_IS
  1

  0
INSERT
  5
C0
100
AcDbEntity
  8
ASHADE
 62
     1
100
AcDbBlockReference
  2
AVE_RENDER
 10
0.0
 20
0.0
 30
0.0
1001
AVE_RENDER
1002
{
1070
     6
1000
Pref
1070
    50
1070
    20
1070
     1
1070
     0
1000

1070
    10
1070
     1
1070
    30
1040
25.4
1070
     1
1040
0.3
1040
0.7
1040
0.0
1040
10.0
1010
-1.0
1020
-1.0
1030
-1.0
1040
0.3
1070
    49
1070
     0
1070
     0
1010
1.0
1020
1.0
1030
1.0
1040
45.0
1070
     1
1070
     0
1000
WCS
1040
0.0
1002
}
  0
INSERT
  5
C1
100
AcDbEntity
  8
ASHADE
 62
     3
100
AcDbBlockReference
  2
AVE_RENDER
 10
0.0
 20
0.0
 30
0.0
1001
AVE_RENDER
1002
{
1070
     0
1000
Full Opt
1070
     0
1070
     1
1070
     1
1070
     1
1070
     0
1070
     0
1070
     0
1070
     1
1070
     1
1040
0.0001
1040
0.0001
1002
}
  0
INSERT
  5
C2
100
AcDbEntity
  8
ASHADE
 62
     4
100
AcDbBlockReference
  2
AVE_RENDER
 10
0.0
 20
0.0
 30
0.0
1001
AVE_RENDER
1002
{
1070
     0
1000
Quick Opt
1070
     0
1070
     1
1070
     1
1070
     1
1070
     0
1070
     0
1070
     1
1002
}
  0
INSERT
  5
C3
100
AcDbEntity
  8
ASHADE
 62
     5
100
AcDbBlockReference
  2
AVE_RENDER
 10
0.0
 20
0.0
 30
0.0
1001
AVE_RENDER
1002
{
1070
     1
1000
Scanl Opt
1070
     2
1070
     0
1070
     2
1040
2.0
1040
4.0
1070
     0
1070
     1
1070
     0
1040
0.03
1002
}
  0
INSERT
  5
C4
100
AcDbEntity
  8
ASHADE
 62
     6
100
AcDbBlockReference
  2
AVE_RENDER
 10
0.0
 20
0.0
 30
0.0
1001
AVE_RENDER
1002
{
1070
     2
1000
Raytr Opt
1070
     2
1070
     0
1070
     2
1040
2.0
1040
4.0
1070
     0
1070
     1
1070
     1
1040
0.03
1070
     3
1040
0.03
1002
}
  0
INSERT
  5
C5
100
AcDbEntity
  8
ASHADE
 62
     7
100
AcDbBlockReference
  2
AVE_RENDER
 10
0.0
 20
0.0
 30
0.0
1001
AVE_RENDER
1002
{
1070
     0
1000
RFile Opt
1070
     5
1070
   640
1070
   480
1070
 10000
1070
     3
1070
    32
1070
    24
1070
     0
1070
     0
1070
     0
1070
     1
1070
     0
1070
     0
1070
     0
1002
}
  0
INSERT
  5
C6
100
AcDbEntity
  8
ASHADE
 62
     8
100
AcDbBlockReference
  2
AVE_RENDER
 10
0.0
 20
0.0
 30
0.0
1001
AVE_RENDER
1002
{
1070
     0
1000
Fog Opt
1070
     0
1070
     0
1040
0.0
1040
1.0
1040
0.0
1040
1.0
1010
0.5
1020
0.5
1030
0.5
1002
}
  0
INSERT
  5
C7
100
AcDbEntity
  8
ASHADE
 62
     9
100
AcDbBlockReference
  2
AVE_RENDER
 10
0.0
 20
0.0
 30
0.0
1001
AVE_RENDER
1002
{
1070
     0
1000
BG Opt
1070
     0
1070
     1
1010
0.0
1020
0.0
1030
0.0
1010
1.0
1020
0.0
1030
0.0
1010
0.0
1020
1.0
1030
0.0
1010
0.0
1020
0.0
1030
1.0
1040
0.5
1040
0.33
1040
0.0
1000

1070
     1
1000

1070
     1
1070
     1
1040
1.0
1040
1.0
1040
0.0
1040
0.0
1070
     0
1002
}
  0
INSERT
  5
C8
100
AcDbEntity
  8
ASHADE
 62
     1
100
AcDbBlockReference
  2
AVE_GLOBAL
 10
0.0
 20
0.0
 30
0.0
1001
AVE_MATERIAL
1002
{
1000
*GLOBAL*
1000
1
1000
Finition globale.
1002
{
1002
}
1002
{
1070
    63
1002
{
1002
{
1010
-1.0
1020
-1.0
1030
-1.0
1002
}
1040
0.1
1000

1040
0.0
1002
{
1002
}
1040
0.0
1002
{
1002
}
1040
0.0
1002
}
1002
{
1002
{
1010
-1.0
1020
-1.0
1030
-1.0
1002
}
1040
0.7
1000

1040
0.0
1002
{
1002
}
1040
0.0
1002
{
1002
}
1040
0.0
1002
}
1002
{
1002
{
1010
-1.0
1020
-1.0
1030
-1.0
1002
}
1040
0.2
1000

1040
0.0
1002
{
1002
}
1040
0.0
1002
{
1002
}
1040
0.0
1002
}
1002
{
1070
     0
1002
{
1070
     1
1002
{
1040
1.0
1040
1.0
1000

1040
0.0
1002
{
1002
}
1040
0.0
1002
{
1002
}
1040
0.0
1002
}
1002
}
1040
1.0
1040
0.0
1040
0.0
1002
}
1002
{
1040
1.0
1040
1.0
1000

1040
0.0
1002
{
1002
}
1040
0.0
1002
{
1002
}
1040
0.0
1002
}
1002
{
1040
0.5
1040
1.0
1000

1040
0.0
1002
{
1002
}
1040
0.0
1002
{
1002
}
1040
0.0
1002
}
1002
{
1070
     0
1040
0.0
1002
{
1002
}
1040
1.0
1002
{
1002
}
1040
0.0
1002
}
1002
{
1040
0.0
1002
{
1002
{
1010
0.0
1020
0.0
1030
0.0
1002
}
1040
1.0
1000

1040
0.0
1002
{
1002
}
1040
0.0
1002
{
1002
}
1040
0.0
1002
}
1002
}
1002
{
1002
{
1070
     1
1002
{
1040
0.0
1040
1.0
1000

1040
0.0
1002
{
1002
}
1040
0.0
1002
{
1002
}
1040
0.0
1002
}
1002
}
1040
0.0
1002
{
1002
}
1010
1.0
1020
0.0
1030
0.0
1010
0.0
1020
1.0
1030
0.0
1010
0.0
1020
0.0
1030
1.0
1070
     0
1002
}
1002
{
1002
{
1040
1.0
1040
1.0
1002
{
1070
     1
1002
{
1040
1.0
1040
1.0
1000

1040
0.0
1002
{
1002
}
1040
0.0
1002
{
1002
}
1040
0.0
1002
}
1002
}
1002
}
1070
     0
1040
0.0
1002
{
1002
}
1002
}
1002
{
1002
}
1002
}
1002
{
1071
        3
1070
     3
1070
     0
1002
{
1070
     2
1070
     0
1070
     0
1040
0.0
1002
}
1070
     0
1070
     2
1002
{
1002
}
1002
}
1002
{
1040
8030.0
1040
190.300003
1040
0.305
1040
228.0
1040
545.0
1040
14.0
1040
17.4
1040
0.456
1002
}
1002
}
  0
ENDBLK
  5
CA
100
AcDbEntity
  8
0
100
AcDbBlockEnd
  0
ENDSEC
  0
SECTION
  2
ENTITIES
  0
INSERT
  5
CC
100
AcDbEntity
  8
0
100
AcDbBlockReference
  2
SCH_IS
 10
-68.718396
 20
-140.042541
 30
0.0
  0
INSERT
  5
EC
100
AcDbEntity
  8
COTATION1
100
AcDbBlockReference
  2
SCH_IS
 10
0.0
 20
0.0
 30
0.0
  0
MTEXT
  5
4C6
100
AcDbEntity
  8
TEXTE
 62
     7
100
AcDbMText
 10
60.471019
 20
135.655948
 30
0.0
 40
1.312417
 41
0.0
 71
     1
 72
     2
  1
\fTxt|b0|i0;2N
  7
STD
  0
MTEXT
  5
4C7
100
AcDbEntity
  8
TEXTE
 62
     7
100
AcDbMText
 10
60.584018
 20
166.142115
 30
0.0
 40
1.312417
 41
0.0
 71
     1
 72
     2
  1
\fTxt|b0|i0;M-
  7
STD
  0
POLYLINE
  5
4C8
100
AcDbEntity
  8
POINTILLE_COURT
 62
     7
100
AcDb2dPolyline
 66
     1
 10
0.0
 20
0.0
 30
0.0
 70
     1
  0
VERTEX
  5
4C9
100
AcDbEntity
  8
POINTILLE_COURT
 62
     7
100
AcDbVertex
100
AcDb2dVertex
 10
60.606584
 20
148.637576
 30
0.0
  0
VERTEX
  5
4CA
100
AcDbEntity
  8
POINTILLE_COURT
 62
     7
100
AcDbVertex
100
AcDb2dVertex
 10
72.516796
 20
148.637576
 30
0.0
  0
VERTEX
  5
4CB
100
AcDbEntity
  8
POINTILLE_COURT
 62
     7
100
AcDbVertex
100
AcDb2dVertex
 10
72.516796
 20
153.942334
 30
0.0
  0
VERTEX
  5
4CC
100
AcDbEntity
  8
POINTILLE_COURT
 62
     7
100
AcDbVertex
100
AcDb2dVertex
 10
60.606584
 20
153.942334
 30
0.0
  0
SEQEND
  5
4CD
100
AcDbEntity
  8
POINTILLE_COURT
 62
     7
  0
POLYLINE
  5
4CE
100
AcDbEntity
  8
ALPHA
 62
     7
100
AcDb2dPolyline
 66
     1
 10
0.0
 20
0.0
 30
0.0
  0
VERTEX
  5
4CF
100
AcDbEntity
  8
ALPHA
 62
     7
100
AcDbVertex
100
AcDb2dVertex
 10
71.381637
 20
163.086651
 30
0.0
  0
VERTEX
  5
4D0
100
AcDbEntity
  8
ALPHA
 62
     7
100
AcDbVertex
100
AcDb2dVertex
 10
70.381525
 20
164.086762
 30
0.0
  0
VERTEX
  5
4D1
100
AcDbEntity
  8
ALPHA
 62
     7
100
AcDbVertex
100
AcDb2dVertex
 10
59.527924
 20
164.086762
 30
0.0
  0
VERTEX
  5
4D2
100
AcDbEntity
  8
ALPHA
 62
     7
100
AcDbVertex
100
AcDb2dVertex
 10
58.527813
 20
163.086651
 30
0.0
  0
VERTEX
  5
4D3
100
AcDbEntity
  8
ALPHA
 62
     7
100
AcDbVertex
100
AcDb2dVertex
 10
55.3144
 20
163.086651
 30
0.0
  0
VERTEX
  5
4D4
100
AcDbEntity
  8
ALPHA
 62
     7
100
AcDbVertex
100
AcDb2dVertex
 10
53.57411
 20
158.94289
 30
0.0
  0
VERTEX
  5
4D5
100
AcDbEntity
  8
ALPHA
 62
     7
100
AcDbVertex
100
AcDb2dVertex
 10
53.57411
 20
157.442379
 30
0.0
  0
VERTEX
  5
4D6
100
AcDbEntity
  8
ALPHA
 62
     7
100
AcDbVertex
100
AcDb2dVertex
 10
47.443046
 20
157.442379
 30
0.0
  0
VERTEX
  5
4D7
100
AcDbEntity
  8
ALPHA
 62
     7
100
AcDbVertex
100
AcDb2dVertex
 10
47.443046
 20
151.792939
 30
0.0
  0
VERTEX
  5
4D8
100
AcDbEntity
  8
ALPHA
 62
     7
100
AcDbVertex
100
AcDb2dVertex
 10
46.674273
 20
151.792939
 30
0.0
  0
VERTEX
  5
4D9
100
AcDbEntity
  8
ALPHA
 62
     7
100
AcDbVertex
100
AcDb2dVertex
 10
45.674162
 20
150.792656
 30
0.0
  0
SEQEND
  5
4DA
100
AcDbEntity
  8
ALPHA
 62
     7
  0
POLYLINE
  5
4DB
100
AcDbEntity
  8
ALPHA
 62
     7
100
AcDb2dPolyline
 66
     1
 10
0.0
 20
0.0
 30
0.0
  0
VERTEX
  5
4DC
100
AcDbEntity
  8
ALPHA
 62
     7
100
AcDbVertex
100
AcDb2dVertex
 10
74.59505
 20
132.600484
 30
0.0
  0
VERTEX
  5
4DD
100
AcDbEntity
  8
ALPHA
 62
     7
100
AcDbVertex
100
AcDb2dVertex
 10
73.594938
 20
131.600373
 30
0.0
  0
VERTEX
  5
4DE
100
AcDbEntity
  8
ALPHA
 62
     7
100
AcDbVertex
100
AcDb2dVertex
 10
59.527924
 20
131.600373
 30
0.0
  0
VERTEX
  5
4DF
100
AcDbEntity
  8
ALPHA
 62
     7
100
AcDbVertex
100
AcDb2dVertex
 10
58.527813
 20
132.600484
 30
0.0
  0
SEQEND
  5
4E0
100
AcDbEntity
  8
ALPHA
 62
     7
  0
POLYLINE
  5
4E1
100
AcDbEntity
  8
ALPHA
 62
     7
100
AcDb2dPolyline
 66
     1
 10
0.0
 20
0.0
 30
0.0
  0
VERTEX
  5
4E2
100
AcDbEntity
  8
ALPHA
 62
     7
100
AcDbVertex
100
AcDb2dVertex
 10
77.808462
 20
132.600484
 30
0.0
  0
VERTEX
  5
4E3
100
AcDbEntity
  8
ALPHA
 62
     7
100
AcDbVertex
100
AcDb2dVertex
 10
76.808351
 20
133.600596
 30
0.0
  0
VERTEX
  5
4E4
100
AcDbEntity
  8
ALPHA
 62
     7
100
AcDbVertex
100
AcDb2dVertex
 10
72.381748
 20
133.600596
 30
0.0
  0
VERTEX
  5
4E5
100
AcDbEntity
  8
ALPHA
 62
     7
100
AcDbVertex
100
AcDb2dVertex
 10
71.381637
 20
132.600484
 30
0.0
  0
VERTEX
  5
4E6
100
AcDbEntity
  8
ALPHA
 62
     7
100
AcDbVertex
100
AcDb2dVertex
 10
61.741398
 20
132.600484
 30
0.0
  0
SEQEND
  5
4E7
100
AcDbEntity
  8
ALPHA
 62
     7
  0
POLYLINE
  5
4E8
100
AcDbEntity
  8
ALPHA
 62
     7
100
AcDb2dPolyline
 66
     1
 10
0.0
 20
0.0
 30
0.0
  0
VERTEX
  5
4E9
100
AcDbEntity
  8
ALPHA
 62
     7
100
AcDbVertex
100
AcDb2dVertex
 10
45.674162
 20
132.600484
 30
0.0
  0
VERTEX
  5
4EA
100
AcDbEntity
  8
ALPHA
 62
     7
100
AcDbVertex
100
AcDb2dVertex
 10
46.674273
 20
133.600596
 30
0.0
  0
VERTEX
  5
4EB
100
AcDbEntity
  8
ALPHA
 62
     7
100
AcDbVertex
100
AcDb2dVertex
 10
47.828552
 20
133.600596
 30
0.0
  0
VERTEX
  5
4EC
100
AcDbEntity
  8
ALPHA
 62
     7
100
AcDbVertex
100
AcDb2dVertex
 10
49.328719
 20
139.749919
 30
0.0
  0
VERTEX
  5
4ED
100
AcDbEntity
  8
ALPHA
 62
     7
100
AcDbVertex
100
AcDb2dVertex
 10
50.500052
 20
139.749919
 30
0.0
  0
VERTEX
  5
4EE
100
AcDbEntity
  8
ALPHA
 62
     7
100
AcDbVertex
100
AcDb2dVertex
 10
50.500052
 20
155.942384
 30
0.0
  0
VERTEX
  5
4EF
100
AcDbEntity
  8
ALPHA
 62
     7
100
AcDbVertex
100
AcDb2dVertex
 10
60.001108
 20
155.942384
 30
0.0
  0
VERTEX
  5
4F0
100
AcDbEntity
  8
ALPHA
 62
     7
100
AcDbVertex
100
AcDb2dVertex
 10
60.001108
 20
158.94289
 30
0.0
  0
VERTEX
  5
4F1
100
AcDbEntity
  8
ALPHA
 62
     7
100
AcDbVertex
100
AcDb2dVertex
 10
61.741398
 20
163.086651
 30
0.0
  0
VERTEX
  5
4F2
100
AcDbEntity
  8
ALPHA
 62
     7
100
AcDbVertex
100
AcDb2dVertex
 10
68.168224
 20
163.086651
 30
0.0
  0
SEQEND
  5
4F3
100
AcDbEntity
  8
ALPHA
 62
     7
  0
LINE
  5
4F4
100
AcDbEntity
  8
ALPHA
 62
     7
100
AcDbLine
 10
23.1801
 20
121.409264
 30
0.0
 11
77.808635
 21
121.409264
 31
0.0
  0
POLYLINE
  5
4F5
100
AcDbEntity
  8
ALPHA
 62
     7
100
AcDb2dPolyline
 66
     1
 10
0.0
 20
0.0
 30
0.0
 70
     1
  0
VERTEX
  5
4F6
100
AcDbEntity
  8
ALPHA
 62
     7
100
AcDbVertex
100
AcDb2dVertex
 10
80.614665
 20
118.266131
 30
0.0
  0
VERTEX
  5
4F7
100
AcDbEntity
  8
ALPHA
 62
     7
100
AcDbVertex
100
AcDb2dVertex
 10
20.445383
 20
118.266131
 30
0.0
  0
VERTEX
  5
4F8
100
AcDbEntity
  8
ALPHA
 62
     7
100
AcDbVertex
100
AcDb2dVertex
 10
20.445383
 20
125.559054
 30
0.0
  0
VERTEX
  5
4F9
100
AcDbEntity
  8
ALPHA
 62
     7
100
AcDbVertex
100
AcDb2dVertex
 10
80.614665
 20
125.559054
 30
0.0
  0
SEQEND
  5
4FA
100
AcDbEntity
  8
ALPHA
 62
     7
  0
POLYLINE
  5
4FB
100
AcDbEntity
  8
ALPHA
 62
     7
100
AcDb2dPolyline
 66
     1
 10
0.0
 20
0.0
 30
0.0
 70
     1
  0
VERTEX
  5
4FC
100
AcDbEntity
  8
ALPHA
 62
     7
100
AcDbVertex
100
AcDb2dVertex
 10
80.114609
 20
118.76567
 30
0.0
  0
VERTEX
  5
4FD
100
AcDbEntity
  8
ALPHA
 62
     7
100
AcDbVertex
100
AcDb2dVertex
 10
20.945267
 20
118.76567
 30
0.0
  0
VERTEX
  5
4FE
100
AcDbEntity
  8
ALPHA
 62
     7
100
AcDbVertex
100
AcDb2dVertex
 10
20.945267
 20
125.058481
 30
0.0
  0
VERTEX
  5
4FF
100
AcDbEntity
  8
ALPHA
 62
     7
100
AcDbVertex
100
AcDb2dVertex
 10
80.114609
 20
125.058481
 30
0.0
  0
SEQEND
  5
500
100
AcDbEntity
  8
ALPHA
 62
     7
  0
POLYLINE
  5
501
100
AcDbEntity
  8
ALPHA
 62
     7
100
AcDb2dPolyline
 66
     1
 10
0.0
 20
0.0
 30
0.0
 70
     1
  0
VERTEX
  5
502
100
AcDbEntity
  8
ALPHA
 62
     7
100
AcDbVertex
100
AcDb2dVertex
 10
80.614665
 20
129.456835
 30
0.0
  0
VERTEX
  5
503
100
AcDbEntity
  8
ALPHA
 62
     7
100
AcDbVertex
100
AcDb2dVertex
 10
20.445383
 20
129.456835
 30
0.0
  0
VERTEX
  5
504
100
AcDbEntity
  8
ALPHA
 62
     7
100
AcDbVertex
100
AcDb2dVertex
 10
20.445383
 20
136.749757
 30
0.0
  0
VERTEX
  5
505
100
AcDbEntity
  8
ALPHA
 62
     7
100
AcDbVertex
100
AcDb2dVertex
 10
80.614665
 20
136.749757
 30
0.0
  0
SEQEND
  5
506
100
AcDbEntity
  8
ALPHA
 62
     7
  0
POLYLINE
  5
507
100
AcDbEntity
  8
ALPHA
 62
     7
100
AcDb2dPolyline
 66
     1
 10
0.0
 20
0.0
 30
0.0
 70
     1
  0
VERTEX
  5
508
100
AcDbEntity
  8
ALPHA
 62
     7
100
AcDbVertex
100
AcDb2dVertex
 10
80.614665
 20
159.943002
 30
0.0
  0
VERTEX
  5
509
100
AcDbEntity
  8
ALPHA
 62
     7
100
AcDbVertex
100
AcDb2dVertex
 10
20.445383
 20
159.943002
 30
0.0
  0
VERTEX
  5
50A
100
AcDbEntity
  8
ALPHA
 62
     7
100
AcDbVertex
100
AcDb2dVertex
 10
20.445383
 20
167.235924
 30
0.0
  0
VERTEX
  5
50B
100
AcDbEntity
  8
ALPHA
 62
     7
100
AcDbVertex
100
AcDb2dVertex
 10
80.614665
 20
167.235924
 30
0.0
  0
SEQEND
  5
50C
100
AcDbEntity
  8
ALPHA
 62
     7
  0
POLYLINE
  5
50D
100
AcDbEntity
  8
ALPHA
 62
     7
100
AcDb2dPolyline
 66
     1
 10
0.0
 20
0.0
 30
0.0
 70
     1
  0
VERTEX
  5
50E
100
AcDbEntity
  8
ALPHA
 62
     7
100
AcDbVertex
100
AcDb2dVertex
 10
80.614665
 20
147.648317
 30
0.0
  0
VERTEX
  5
50F
100
AcDbEntity
  8
ALPHA
 62
     7
100
AcDbVertex
100
AcDb2dVertex
 10
20.445383
 20
147.648317
 30
0.0
  0
VERTEX
  5
510
100
AcDbEntity
  8
ALPHA
 62
     7
100
AcDbVertex
100
AcDb2dVertex
 10
20.445383
 20
154.942445
 30
0.0
  0
VERTEX
  5
511
100
AcDbEntity
  8
ALPHA
 62
     7
100
AcDbVertex
100
AcDb2dVertex
 10
80.614665
 20
154.942445
 30
0.0
  0
SEQEND
  5
512
100
AcDbEntity
  8
ALPHA
 62
     7
  0
LINE
  5
513
100
AcDbEntity
  8
ALPHA
 62
     7
100
AcDbLine
 10
23.1801
 20
132.600484
 30
0.0
 11
45.674162
 21
132.600484
 31
0.0
  0
POLYLINE
  5
514
100
AcDbEntity
  8
ALPHA
 62
     7
100
AcDb2dPolyline
 66
     1
 10
0.0
 20
0.0
 30
0.0
 70
     1
  0
VERTEX
  5
515
100
AcDbEntity
  8
ALPHA
 62
     7
100
AcDbVertex
100
AcDb2dVertex
 10
36.433727
 20
121.009288
 30
0.0
  0
VERTEX
  5
516
100
AcDbEntity
  8
ALPHA
 62
     7
100
AcDbVertex
100
AcDb2dVertex
 10
35.633776
 20
121.009288
 30
0.0
  0
VERTEX
  5
517
100
AcDbEntity
  8
ALPHA
 62
     7
100
AcDbVertex
100
AcDb2dVertex
 10
35.633776
 20
121.80924
 30
0.0
  0
VERTEX
  5
518
100
AcDbEntity
  8
ALPHA
 62
     7
100
AcDbVertex
100
AcDb2dVertex
 10
36.433727
 20
121.80924
 30
0.0
  0
SEQEND
  5
519
100
AcDbEntity
  8
ALPHA
 62
     7
  0
POLYLINE
  5
51A
100
AcDbEntity
  8
ALPHA
 62
     7
100
AcDb2dPolyline
 66
     1
 10
0.0
 20
0.0
 30
0.0
 70
     1
  0
VERTEX
  5
51B
100
AcDbEntity
  8
ALPHA
 62
     7
100
AcDbVertex
100
AcDb2dVertex
 10
36.433727
 20
132.200509
 30
0.0
  0
VERTEX
  5
51C
100
AcDbEntity
  8
ALPHA
 62
     7
100
AcDbVertex
100
AcDb2dVertex
 10
35.633776
 20
132.200509
 30
0.0
  0
VERTEX
  5
51D
100
AcDbEntity
  8
ALPHA
 62
     7
100
AcDbVertex
100
AcDb2dVertex
 10
35.633776
 20
133.00046
 30
0.0
  0
VERTEX
  5
51E
100
AcDbEntity
  8
ALPHA
 62
     7
100
AcDbVertex
100
AcDb2dVertex
 10
36.433727
 20
133.00046
 30
0.0
  0
SEQEND
  5
51F
100
AcDbEntity
  8
ALPHA
 62
     7
  0
POLYLINE
  5
520
100
AcDbEntity
  8
ALPHA
 62
     7
100
AcDb2dPolyline
 66
     1
 10
0.0
 20
0.0
 30
0.0
 70
     1
  0
VERTEX
  5
521
100
AcDbEntity
  8
ALPHA
 62
     7
100
AcDbVertex
100
AcDb2dVertex
 10
33.220314
 20
121.009288
 30
0.0
  0
VERTEX
  5
522
100
AcDbEntity
  8
ALPHA
 62
     7
100
AcDbVertex
100
AcDb2dVertex
 10
32.420363
 20
121.009288
 30
0.0
  0
VERTEX
  5
523
100
AcDbEntity
  8
ALPHA
 62
     7
100
AcDbVertex
100
AcDb2dVertex
 10
32.420363
 20
121.80924
 30
0.0
  0
VERTEX
  5
524
100
AcDbEntity
  8
ALPHA
 62
     7
100
AcDbVertex
100
AcDb2dVertex
 10
33.220314
 20
121.80924
 30
0.0
  0
SEQEND
  5
525
100
AcDbEntity
  8
ALPHA
 62
     7
  0
POLYLINE
  5
526
100
AcDbEntity
  8
ALPHA
 62
     7
100
AcDb2dPolyline
 66
     1
 10
0.0
 20
0.0
 30
0.0
 70
     1
  0
VERTEX
  5
527
100
AcDbEntity
  8
ALPHA
 62
     7
100
AcDbVertex
100
AcDb2dVertex
 10
30.006901
 20
121.009288
 30
0.0
  0
VERTEX
  5
528
100
AcDbEntity
  8
ALPHA
 62
     7
100
AcDbVertex
100
AcDb2dVertex
 10
29.20695
 20
121.009288
 30
0.0
  0
VERTEX
  5
529
100
AcDbEntity
  8
ALPHA
 62
     7
100
AcDbVertex
100
AcDb2dVertex
 10
29.20695
 20
121.80924
 30
0.0
  0
VERTEX
  5
52A
100
AcDbEntity
  8
ALPHA
 62
     7
100
AcDbVertex
100
AcDb2dVertex
 10
30.006901
 20
121.80924
 30
0.0
  0
SEQEND
  5
52B
100
AcDbEntity
  8
ALPHA
 62
     7
  0
POLYLINE
  5
52C
100
AcDbEntity
  8
ALPHA
 62
     7
100
AcDb2dPolyline
 66
     1
 10
0.0
 20
0.0
 30
0.0
 70
     1
  0
VERTEX
  5
52D
100
AcDbEntity
  8
ALPHA
 62
     7
100
AcDbVertex
100
AcDb2dVertex
 10
26.793488
 20
121.009288
 30
0.0
  0
VERTEX
  5
52E
100
AcDbEntity
  8
ALPHA
 62
     7
100
AcDbVertex
100
AcDb2dVertex
 10
25.993365
 20
121.009288
 30
0.0
  0
VERTEX
  5
52F
100
AcDbEntity
  8
ALPHA
 62
     7
100
AcDbVertex
100
AcDb2dVertex
 10
25.993365
 20
121.80924
 30
0.0
  0
VERTEX
  5
530
100
AcDbEntity
  8
ALPHA
 62
     7
100
AcDbVertex
100
AcDb2dVertex
 10
26.793488
 20
121.80924
 30
0.0
  0
SEQEND
  5
531
100
AcDbEntity
  8
ALPHA
 62
     7
  0
POLYLINE
  5
532
100
AcDbEntity
  8
ALPHA
 62
     7
100
AcDb2dPolyline
 66
     1
 10
0.0
 20
0.0
 30
0.0
 70
     1
  0
VERTEX
  5
533
100
AcDbEntity
  8
ALPHA
 62
     7
100
AcDbVertex
100
AcDb2dVertex
 10
23.580076
 20
121.009288
 30
0.0
  0
VERTEX
  5
534
100
AcDbEntity
  8
ALPHA
 62
     7
100
AcDbVertex
100
AcDb2dVertex
 10
22.780124
 20
121.009288
 30
0.0
  0
VERTEX
  5
535
100
AcDbEntity
  8
ALPHA
 62
     7
100
AcDbVertex
100
AcDb2dVertex
 10
22.780124
 20
121.80924
 30
0.0
  0
VERTEX
  5
536
100
AcDbEntity
  8
ALPHA
 62
     7
100
AcDbVertex
100
AcDb2dVertex
 10
23.580076
 20
121.80924
 30
0.0
  0
SEQEND
  5
537
100
AcDbEntity
  8
ALPHA
 62
     7
  0
MTEXT
  5
538
100
AcDbEntity
  8
TEXTE
 62
     7
100
AcDbMText
 10
20.445383
 20
117.578326
 30
0.0
 40
1.312417
 41
0.0
 71
     1
 72
     2
  1
\fTxt|b0|i0;Option
  7
STD
  0
POLYLINE
  5
539
100
AcDbEntity
  8
ALPHA
 62
     7
100
AcDb2dPolyline
 66
     1
 10
0.0
 20
0.0
 30
0.0
 70
     1
  0
VERTEX
  5
53A
100
AcDbEntity
  8
ALPHA
 62
     7
100
AcDbVertex
100
AcDb2dVertex
 10
23.580076
 20
132.200509
 30
0.0
  0
VERTEX
  5
53B
100
AcDbEntity
  8
ALPHA
 62
     7
100
AcDbVertex
100
AcDb2dVertex
 10
22.780124
 20
132.200509
 30
0.0
  0
VERTEX
  5
53C
100
AcDbEntity
  8
ALPHA
 62
     7
100
AcDbVertex
100
AcDb2dVertex
 10
22.780124
 20
133.00046
 30
0.0
  0
VERTEX
  5
53D
100
AcDbEntity
  8
ALPHA
 62
     7
100
AcDbVertex
100
AcDb2dVertex
 10
23.580076
 20
133.00046
 30
0.0
  0
SEQEND
  5
53E
100
AcDbEntity
  8
ALPHA
 62
     7
  0
POLYLINE
  5
53F
100
AcDbEntity
  8
ALPHA
 62
     7
100
AcDb2dPolyline
 66
     1
 10
0.0
 20
0.0
 30
0.0
 70
     1
  0
VERTEX
  5
540
100
AcDbEntity
  8
ALPHA
 62
     7
100
AcDbVertex
100
AcDb2dVertex
 10
30.007073
 20
132.200509
 30
0.0
  0
VERTEX
  5
541
100
AcDbEntity
  8
ALPHA
 62
     7
100
AcDbVertex
100
AcDb2dVertex
 10
29.20695
 20
132.200509
 30
0.0
  0
VERTEX
  5
542
100
AcDbEntity
  8
ALPHA
 62
     7
100
AcDbVertex
100
AcDb2dVertex
 10
29.20695
 20
133.00046
 30
0.0
  0
VERTEX
  5
543
100
AcDbEntity
  8
ALPHA
 62
     7
100
AcDbVertex
100
AcDb2dVertex
 10
30.007073
 20
133.00046
 30
0.0
  0
SEQEND
  5
544
100
AcDbEntity
  8
ALPHA
 62
     7
  0
POLYLINE
  5
545
100
AcDbEntity
  8
ALPHA
 62
     7
100
AcDb2dPolyline
 66
     1
 10
0.0
 20
0.0
 30
0.0
 70
     1
  0
VERTEX
  5
546
100
AcDbEntity
  8
ALPHA
 62
     7
100
AcDbVertex
100
AcDb2dVertex
 10
26.793661
 20
132.200509
 30
0.0
  0
VERTEX
  5
547
100
AcDbEntity
  8
ALPHA
 62
     7
100
AcDbVertex
100
AcDb2dVertex
 10
25.993537
 20
132.200509
 30
0.0
  0
VERTEX
  5
548
100
AcDbEntity
  8
ALPHA
 62
     7
100
AcDbVertex
100
AcDb2dVertex
 10
25.993537
 20
133.00046
 30
0.0
  0
VERTEX
  5
549
100
AcDbEntity
  8
ALPHA
 62
     7
100
AcDbVertex
100
AcDb2dVertex
 10
26.793661
 20
133.00046
 30
0.0
  0
SEQEND
  5
54A
100
AcDbEntity
  8
ALPHA
 62
     7
  0
POLYLINE
  5
54B
100
AcDbEntity
  8
ALPHA
 62
     7
100
AcDb2dPolyline
 66
     1
 10
0.0
 20
0.0
 30
0.0
 70
     1
  0
VERTEX
  5
54C
100
AcDbEntity
  8
ALPHA
 62
     7
100
AcDbVertex
100
AcDb2dVertex
 10
33.220486
 20
132.200509
 30
0.0
  0
VERTEX
  5
54D
100
AcDbEntity
  8
ALPHA
 62
     7
100
AcDbVertex
100
AcDb2dVertex
 10
32.420535
 20
132.200509
 30
0.0
  0
VERTEX
  5
54E
100
AcDbEntity
  8
ALPHA
 62
     7
100
AcDbVertex
100
AcDb2dVertex
 10
32.420535
 20
133.00046
 30
0.0
  0
VERTEX
  5
54F
100
AcDbEntity
  8
ALPHA
 62
     7
100
AcDbVertex
100
AcDb2dVertex
 10
33.220486
 20
133.00046
 30
0.0
  0
SEQEND
  5
550
100
AcDbEntity
  8
ALPHA
 62
     7
  0
POLYLINE
  5
551
100
AcDbEntity
  8
ALPHA
 62
     7
100
AcDb2dPolyline
 66
     1
 10
0.0
 20
0.0
 30
0.0
 70
     1
  0
VERTEX
  5
552
100
AcDbEntity
  8
ALPHA
 62
     7
100
AcDbVertex
100
AcDb2dVertex
 10
62.141202
 20
121.009288
 30
0.0
  0
VERTEX
  5
553
100
AcDbEntity
  8
ALPHA
 62
     7
100
AcDbVertex
100
AcDb2dVertex
 10
61.34125
 20
121.009288
 30
0.0
  0
VERTEX
  5
554
100
AcDbEntity
  8
ALPHA
 62
     7
100
AcDbVertex
100
AcDb2dVertex
 10
61.34125
 20
121.80924
 30
0.0
  0
VERTEX
  5
555
100
AcDbEntity
  8
ALPHA
 62
     7
100
AcDbVertex
100
AcDb2dVertex
 10
62.141202
 20
121.80924
 30
0.0
  0
SEQEND
  5
556
100
AcDbEntity
  8
ALPHA
 62
     7
  0
POLYLINE
  5
557
100
AcDbEntity
  8
ALPHA
 62
     7
100
AcDb2dPolyline
 66
     1
 10
0.0
 20
0.0
 30
0.0
 70
     1
  0
VERTEX
  5
558
100
AcDbEntity
  8
ALPHA
 62
     7
100
AcDbVertex
100
AcDb2dVertex
 10
58.927789
 20
121.009288
 30
0.0
  0
VERTEX
  5
559
100
AcDbEntity
  8
ALPHA
 62
     7
100
AcDbVertex
100
AcDb2dVertex
 10
58.127665
 20
121.009288
 30
0.0
  0
VERTEX
  5
55A
100
AcDbEntity
  8
ALPHA
 62
     7
100
AcDbVertex
100
AcDb2dVertex
 10
58.127665
 20
121.80924
 30
0.0
  0
VERTEX
  5
55B
100
AcDbEntity
  8
ALPHA
 62
     7
100
AcDbVertex
100
AcDb2dVertex
 10
58.927789
 20
121.80924
 30
0.0
  0
SEQEND
  5
55C
100
AcDbEntity
  8
ALPHA
 62
     7
  0
POLYLINE
  5
55D
100
AcDbEntity
  8
ALPHA
 62
     7
100
AcDb2dPolyline
 66
     1
 10
0.0
 20
0.0
 30
0.0
 70
     1
  0
VERTEX
  5
55E
100
AcDbEntity
  8
ALPHA
 62
     7
100
AcDbVertex
100
AcDb2dVertex
 10
55.714376
 20
121.009288
 30
0.0
  0
VERTEX
  5
55F
100
AcDbEntity
  8
ALPHA
 62
     7
100
AcDbVertex
100
AcDb2dVertex
 10
54.914253
 20
121.009288
 30
0.0
  0
VERTEX
  5
560
100
AcDbEntity
  8
ALPHA
 62
     7
100
AcDbVertex
100
AcDb2dVertex
 10
54.914253
 20
121.80924
 30
0.0
  0
VERTEX
  5
561
100
AcDbEntity
  8
ALPHA
 62
     7
100
AcDbVertex
100
AcDb2dVertex
 10
55.714376
 20
121.80924
 30
0.0
  0
SEQEND
  5
562
100
AcDbEntity
  8
ALPHA
 62
     7
  0
POLYLINE
  5
563
100
AcDbEntity
  8
ALPHA
 62
     7
100
AcDb2dPolyline
 66
     1
 10
0.0
 20
0.0
 30
0.0
 70
     1
  0
VERTEX
  5
564
100
AcDbEntity
  8
ALPHA
 62
     7
100
AcDbVertex
100
AcDb2dVertex
 10
52.500963
 20
121.009288
 30
0.0
  0
VERTEX
  5
565
100
AcDbEntity
  8
ALPHA
 62
     7
100
AcDbVertex
100
AcDb2dVertex
 10
51.70084
 20
121.009288
 30
0.0
  0
VERTEX
  5
566
100
AcDbEntity
  8
ALPHA
 62
     7
100
AcDbVertex
100
AcDb2dVertex
 10
51.70084
 20
121.80924
 30
0.0
  0
VERTEX
  5
567
100
AcDbEntity
  8
ALPHA
 62
     7
100
AcDbVertex
100
AcDb2dVertex
 10
52.500963
 20
121.80924
 30
0.0
  0
SEQEND
  5
568
100
AcDbEntity
  8
ALPHA
 62
     7
  0
POLYLINE
  5
569
100
AcDbEntity
  8
ALPHA
 62
     7
100
AcDb2dPolyline
 66
     1
 10
0.0
 20
0.0
 30
0.0
 70
     1
  0
VERTEX
  5
56A
100
AcDbEntity
  8
ALPHA
 62
     7
100
AcDbVertex
100
AcDb2dVertex
 10
49.28755
 20
121.009288
 30
0.0
  0
VERTEX
  5
56B
100
AcDbEntity
  8
ALPHA
 62
     7
100
AcDbVertex
100
AcDb2dVertex
 10
48.487427
 20
121.009288
 30
0.0
  0
VERTEX
  5
56C
100
AcDbEntity
  8
ALPHA
 62
     7
100
AcDbVertex
100
AcDb2dVertex
 10
48.487427
 20
121.80924
 30
0.0
  0
VERTEX
  5
56D
100
AcDbEntity
  8
ALPHA
 62
     7
100
AcDbVertex
100
AcDb2dVertex
 10
49.28755
 20
121.80924
 30
0.0
  0
SEQEND
  5
56E
100
AcDbEntity
  8
ALPHA
 62
     7
  0
POLYLINE
  5
56F
100
AcDbEntity
  8
ALPHA
 62
     7
100
AcDb2dPolyline
 66
     1
 10
0.0
 20
0.0
 30
0.0
 70
     1
  0
VERTEX
  5
570
100
AcDbEntity
  8
ALPHA
 62
     7
100
AcDbVertex
100
AcDb2dVertex
 10
46.074138
 20
121.009288
 30
0.0
  0
VERTEX
  5
571
100
AcDbEntity
  8
ALPHA
 62
     7
100
AcDbVertex
100
AcDb2dVertex
 10
45.274014
 20
121.009288
 30
0.0
  0
VERTEX
  5
572
100
AcDbEntity
  8
ALPHA
 62
     7
100
AcDbVertex
100
AcDb2dVertex
 10
45.274014
 20
121.80924
 30
0.0
  0
VERTEX
  5
573
100
AcDbEntity
  8
ALPHA
 62
     7
100
AcDbVertex
100
AcDb2dVertex
 10
46.074138
 20
121.80924
 30
0.0
  0
SEQEND
  5
574
100
AcDbEntity
  8
ALPHA
 62
     7
  0
POLYLINE
  5
575
100
AcDbEntity
  8
ALPHA
 62
     7
100
AcDb2dPolyline
 66
     1
 10
0.0
 20
0.0
 30
0.0
 70
     1
  0
VERTEX
  5
576
100
AcDbEntity
  8
ALPHA
 62
     7
100
AcDbVertex
100
AcDb2dVertex
 10
42.860725
 20
121.009288
 30
0.0
  0
VERTEX
  5
577
100
AcDbEntity
  8
ALPHA
 62
     7
100
AcDbVertex
100
AcDb2dVertex
 10
42.060601
 20
121.009288
 30
0.0
  0
VERTEX
  5
578
100
AcDbEntity
  8
ALPHA
 62
     7
100
AcDbVertex
100
AcDb2dVertex
 10
42.060601
 20
121.80924
 30
0.0
  0
VERTEX
  5
579
100
AcDbEntity
  8
ALPHA
 62
     7
100
AcDbVertex
100
AcDb2dVertex
 10
42.860725
 20
121.80924
 30
0.0
  0
SEQEND
  5
57A
100
AcDbEntity
  8
ALPHA
 62
     7
  0
POLYLINE
  5
57B
100
AcDbEntity
  8
ALPHA
 62
     7
100
AcDb2dPolyline
 66
     1
 10
0.0
 20
0.0
 30
0.0
 70
     1
  0
VERTEX
  5
57C
100
AcDbEntity
  8
ALPHA
 62
     7
100
AcDbVertex
100
AcDb2dVertex
 10
39.647312
 20
121.009288
 30
0.0
  0
VERTEX
  5
57D
100
AcDbEntity
  8
ALPHA
 62
     7
100
AcDbVertex
100
AcDb2dVertex
 10
38.847188
 20
121.009288
 30
0.0
  0
VERTEX
  5
57E
100
AcDbEntity
  8
ALPHA
 62
     7
100
AcDbVertex
100
AcDb2dVertex
 10
38.847188
 20
121.80924
 30
0.0
  0
VERTEX
  5
57F
100
AcDbEntity
  8
ALPHA
 62
     7
100
AcDbVertex
100
AcDb2dVertex
 10
39.647312
 20
121.80924
 30
0.0
  0
SEQEND
  5
580
100
AcDbEntity
  8
ALPHA
 62
     7
  0
LINE
  5
581
100
AcDbEntity
  8
ALPHA
 62
     7
100
AcDbLine
 10
48.887575
 20
132.600484
 30
0.0
 11
58.527813
 21
132.600484
 31
0.0
  0
POLYLINE
  5
582
100
AcDbEntity
  8
ALPHA
 62
     7
100
AcDb2dPolyline
 66
     1
 10
0.0
 20
0.0
 30
0.0
 70
     1
  0
VERTEX
  5
583
100
AcDbEntity
  8
ALPHA
 62
     7
100
AcDbVertex
100
AcDb2dVertex
 10
49.287723
 20
132.200509
 30
0.0
  0
VERTEX
  5
584
100
AcDbEntity
  8
ALPHA
 62
     7
100
AcDbVertex
100
AcDb2dVertex
 10
48.487427
 20
132.200509
 30
0.0
  0
VERTEX
  5
585
100
AcDbEntity
  8
ALPHA
 62
     7
100
AcDbVertex
100
AcDb2dVertex
 10
48.487427
 20
133.00046
 30
0.0
  0
VERTEX
  5
586
100
AcDbEntity
  8
ALPHA
 62
     7
100
AcDbVertex
100
AcDb2dVertex
 10
49.287723
 20
133.00046
 30
0.0
  0
SEQEND
  5
587
100
AcDbEntity
  8
ALPHA
 62
     7
  0
POLYLINE
  5
588
100
AcDbEntity
  8
ALPHA
 62
     7
100
AcDb2dPolyline
 66
     1
 10
0.0
 20
0.0
 30
0.0
 70
     1
  0
VERTEX
  5
589
100
AcDbEntity
  8
ALPHA
 62
     7
100
AcDbVertex
100
AcDb2dVertex
 10
42.860897
 20
132.200509
 30
0.0
  0
VERTEX
  5
58A
100
AcDbEntity
  8
ALPHA
 62
     7
100
AcDbVertex
100
AcDb2dVertex
 10
42.060601
 20
132.200509
 30
0.0
  0
VERTEX
  5
58B
100
AcDbEntity
  8
ALPHA
 62
     7
100
AcDbVertex
100
AcDb2dVertex
 10
42.060601
 20
133.00046
 30
0.0
  0
VERTEX
  5
58C
100
AcDbEntity
  8
ALPHA
 62
     7
100
AcDbVertex
100
AcDb2dVertex
 10
42.860897
 20
133.00046
 30
0.0
  0
SEQEND
  5
58D
100
AcDbEntity
  8
ALPHA
 62
     7
  0
POLYLINE
  5
58E
100
AcDbEntity
  8
ALPHA
 62
     7
100
AcDb2dPolyline
 66
     1
 10
0.0
 20
0.0
 30
0.0
 70
     1
  0
VERTEX
  5
58F
100
AcDbEntity
  8
ALPHA
 62
     7
100
AcDbVertex
100
AcDb2dVertex
 10
39.647312
 20
132.200509
 30
0.0
  0
VERTEX
  5
590
100
AcDbEntity
  8
ALPHA
 62
     7
100
AcDbVertex
100
AcDb2dVertex
 10
38.847361
 20
132.200509
 30
0.0
  0
VERTEX
  5
591
100
AcDbEntity
  8
ALPHA
 62
     7
100
AcDbVertex
100
AcDb2dVertex
 10
38.847361
 20
133.00046
 30
0.0
  0
VERTEX
  5
592
100
AcDbEntity
  8
ALPHA
 62
     7
100
AcDbVertex
100
AcDb2dVertex
 10
39.647312
 20
133.00046
 30
0.0
  0
SEQEND
  5
593
100
AcDbEntity
  8
ALPHA
 62
     7
  0
MTEXT
  5
594
100
AcDbEntity
  8
TEXTE
 62
     7
100
AcDbMText
 10
44.403783
 20
135.655948
 30
0.0
 40
1.312417
 41
0.0
 71
     1
 72
     2
  1
\fTxt|b0|i0;M-
  7
STD
  0
POLYLINE
  5
595
100
AcDbEntity
  8
ALPHA
 62
     7
100
AcDb2dPolyline
 66
     1
 10
0.0
 20
0.0
 30
0.0
 70
     1
  0
VERTEX
  5
596
100
AcDbEntity
  8
ALPHA
 62
     7
100
AcDbVertex
100
AcDb2dVertex
 10
46.074138
 20
132.200509
 30
0.0
  0
VERTEX
  5
597
100
AcDbEntity
  8
ALPHA
 62
     7
100
AcDbVertex
100
AcDb2dVertex
 10
45.274186
 20
132.200509
 30
0.0
  0
VERTEX
  5
598
100
AcDbEntity
  8
ALPHA
 62
     7
100
AcDbVertex
100
AcDb2dVertex
 10
45.274186
 20
133.00046
 30
0.0
  0
VERTEX
  5
599
100
AcDbEntity
  8
ALPHA
 62
     7
100
AcDbVertex
100
AcDb2dVertex
 10
46.074138
 20
133.00046
 30
0.0
  0
SEQEND
  5
59A
100
AcDbEntity
  8
ALPHA
 62
     7
  0
POLYLINE
  5
59B
100
AcDbEntity
  8
ALPHA
 62
     7
100
AcDb2dPolyline
 66
     1
 10
0.0
 20
0.0
 30
0.0
 70
     1
  0
VERTEX
  5
59C
100
AcDbEntity
  8
ALPHA
 62
     7
100
AcDbVertex
100
AcDb2dVertex
 10
52.500963
 20
132.200509
 30
0.0
  0
VERTEX
  5
59D
100
AcDbEntity
  8
ALPHA
 62
     7
100
AcDbVertex
100
AcDb2dVertex
 10
51.701012
 20
132.200509
 30
0.0
  0
VERTEX
  5
59E
100
AcDbEntity
  8
ALPHA
 62
     7
100
AcDbVertex
100
AcDb2dVertex
 10
51.701012
 20
133.00046
 30
0.0
  0
VERTEX
  5
59F
100
AcDbEntity
  8
ALPHA
 62
     7
100
AcDbVertex
100
AcDb2dVertex
 10
52.500963
 20
133.00046
 30
0.0
  0
SEQEND
  5
5A0
100
AcDbEntity
  8
ALPHA
 62
     7
  0
POLYLINE
  5
5A1
100
AcDbEntity
  8
ALPHA
 62
     7
100
AcDb2dPolyline
 66
     1
 10
0.0
 20
0.0
 30
0.0
 70
     1
  0
VERTEX
  5
5A2
100
AcDbEntity
  8
ALPHA
 62
     7
100
AcDbVertex
100
AcDb2dVertex
 10
55.714548
 20
132.200509
 30
0.0
  0
VERTEX
  5
5A3
100
AcDbEntity
  8
ALPHA
 62
     7
100
AcDbVertex
100
AcDb2dVertex
 10
54.914253
 20
132.200509
 30
0.0
  0
VERTEX
  5
5A4
100
AcDbEntity
  8
ALPHA
 62
     7
100
AcDbVertex
100
AcDb2dVertex
 10
54.914253
 20
133.00046
 30
0.0
  0
VERTEX
  5
5A5
100
AcDbEntity
  8
ALPHA
 62
     7
100
AcDbVertex
100
AcDb2dVertex
 10
55.714548
 20
133.00046
 30
0.0
  0
SEQEND
  5
5A6
100
AcDbEntity
  8
ALPHA
 62
     7
  0
MTEXT
  5
5A7
100
AcDbEntity
  8
TEXTE
 62
     7
100
AcDbMText
 10
57.468963
 20
135.655948
 30
0.0
 40
1.312417
 41
0.0
 71
     1
 72
     2
  1
\fTxt|b0|i0;1N
  7
STD
  0
POLYLINE
  5
5A8
100
AcDbEntity
  8
ALPHA
 62
     7
100
AcDb2dPolyline
 66
     1
 10
0.0
 20
0.0
 30
0.0
 70
     1
  0
VERTEX
  5
5A9
100
AcDbEntity
  8
ALPHA
 62
     7
100
AcDbVertex
100
AcDb2dVertex
 10
58.927789
 20
132.200509
 30
0.0
  0
VERTEX
  5
5AA
100
AcDbEntity
  8
ALPHA
 62
     7
100
AcDbVertex
100
AcDb2dVertex
 10
58.127838
 20
132.200509
 30
0.0
  0
VERTEX
  5
5AB
100
AcDbEntity
  8
ALPHA
 62
     7
100
AcDbVertex
100
AcDb2dVertex
 10
58.127838
 20
133.00046
 30
0.0
  0
VERTEX
  5
5AC
100
AcDbEntity
  8
ALPHA
 62
     7
100
AcDbVertex
100
AcDb2dVertex
 10
58.927789
 20
133.00046
 30
0.0
  0
SEQEND
  5
5AD
100
AcDbEntity
  8
ALPHA
 62
     7
  0
POLYLINE
  5
5AE
100
AcDbEntity
  8
ALPHA
 62
     7
100
AcDb2dPolyline
 66
     1
 10
0.0
 20
0.0
 30
0.0
 70
     1
  0
VERTEX
  5
5AF
100
AcDbEntity
  8
ALPHA
 62
     7
100
AcDbVertex
100
AcDb2dVertex
 10
62.141374
 20
132.200509
 30
0.0
  0
VERTEX
  5
5B0
100
AcDbEntity
  8
ALPHA
 62
     7
100
AcDbVertex
100
AcDb2dVertex
 10
61.341423
 20
132.200509
 30
0.0
  0
VERTEX
  5
5B1
100
AcDbEntity
  8
ALPHA
 62
     7
100
AcDbVertex
100
AcDb2dVertex
 10
61.341423
 20
133.00046
 30
0.0
  0
VERTEX
  5
5B2
100
AcDbEntity
  8
ALPHA
 62
     7
100
AcDbVertex
100
AcDb2dVertex
 10
62.141374
 20
133.00046
 30
0.0
  0
SEQEND
  5
5B3
100
AcDbEntity
  8
ALPHA
 62
     7
  0
MTEXT
  5
5B4
100
AcDbEntity
  8
TEXTE
 62
     7
100
AcDbMText
 10
35.398648
 20
165.642059
 30
0.0
 40
1.312417
 41
0.0
 71
     1
 72
     2
  1
\fTxt|b0|i0;5
  7
STD
  0
POLYLINE
  5
5B5
100
AcDbEntity
  8
POINTILLE_COURT
 62
     7
100
AcDb2dPolyline
 66
     1
 10
0.0
 20
0.0
 30
0.0
 70
     1
  0
VERTEX
  5
5B6
100
AcDbEntity
  8
POINTILLE_COURT
 62
     7
100
AcDbVertex
100
AcDb2dVertex
 10
53.235802
 20
160.931916
 30
0.0
  0
VERTEX
  5
5B7
100
AcDbEntity
  8
POINTILLE_COURT
 62
     7
100
AcDbVertex
100
AcDb2dVertex
 10
21.439982
 20
160.931916
 30
0.0
  0
VERTEX
  5
5B8
100
AcDbEntity
  8
POINTILLE_COURT
 62
     7
100
AcDbVertex
100
AcDb2dVertex
 10
21.439982
 20
166.235813
 30
0.0
  0
VERTEX
  5
5B9
100
AcDbEntity
  8
POINTILLE_COURT
 62
     7
100
AcDbVertex
100
AcDb2dVertex
 10
53.235802
 20
166.235813
 30
0.0
  0
SEQEND
  5
5BA
100
AcDbEntity
  8
POINTILLE_COURT
 62
     7
  0
POLYLINE
  5
5BB
100
AcDbEntity
  8
ALPHA
 62
     7
100
AcDb2dPolyline
 66
     1
 10
0.0
 20
0.0
 30
0.0
 70
     1
  0
VERTEX
  5
5BC
100
AcDbEntity
  8
ALPHA
 62
     7
100
AcDbVertex
100
AcDb2dVertex
 10
36.433727
 20
162.686676
 30
0.0
  0
VERTEX
  5
5BD
100
AcDbEntity
  8
ALPHA
 62
     7
100
AcDbVertex
100
AcDb2dVertex
 10
35.633776
 20
162.686676
 30
0.0
  0
VERTEX
  5
5BE
100
AcDbEntity
  8
ALPHA
 62
     7
100
AcDbVertex
100
AcDb2dVertex
 10
35.633776
 20
163.486627
 30
0.0
  0
VERTEX
  5
5BF
100
AcDbEntity
  8
ALPHA
 62
     7
100
AcDbVertex
100
AcDb2dVertex
 10
36.433727
 20
163.486627
 30
0.0
  0
SEQEND
  5
5C0
100
AcDbEntity
  8
ALPHA
 62
     7
  0
POLYLINE
  5
5C1
100
AcDbEntity
  8
ALPHA
 62
     7
100
AcDb2dPolyline
 66
     1
 10
0.0
 20
0.0
 30
0.0
 70
     1
  0
VERTEX
  5
5C2
100
AcDbEntity
  8
ALPHA
 62
     7
100
AcDbVertex
100
AcDb2dVertex
 10
36.433727
 20
150.39268
 30
0.0
  0
VERTEX
  5
5C3
100
AcDbEntity
  8
ALPHA
 62
     7
100
AcDbVertex
100
AcDb2dVertex
 10
35.633776
 20
150.39268
 30
0.0
  0
VERTEX
  5
5C4
100
AcDbEntity
  8
ALPHA
 62
     7
100
AcDbVertex
100
AcDb2dVertex
 10
35.633776
 20
151.192804
 30
0.0
  0
VERTEX
  5
5C5
100
AcDbEntity
  8
ALPHA
 62
     7
100
AcDbVertex
100
AcDb2dVertex
 10
36.433727
 20
151.192804
 30
0.0
  0
SEQEND
  5
5C6
100
AcDbEntity
  8
ALPHA
 62
     7
  0
POLYLINE
  5
5C7
100
AcDbEntity
  8
ALPHA
 62
     7
100
AcDb2dPolyline
 66
     1
 10
0.0
 20
0.0
 30
0.0
 70
     1
  0
VERTEX
  5
5C8
100
AcDbEntity
  8
ALPHA
 62
     7
100
AcDbVertex
100
AcDb2dVertex
 10
23.580076
 20
150.39268
 30
0.0
  0
VERTEX
  5
5C9
100
AcDbEntity
  8
ALPHA
 62
     7
100
AcDbVertex
100
AcDb2dVertex
 10
22.780124
 20
150.39268
 30
0.0
  0
VERTEX
  5
5CA
100
AcDbEntity
  8
ALPHA
 62
     7
100
AcDbVertex
100
AcDb2dVertex
 10
22.780124
 20
151.192804
 30
0.0
  0
VERTEX
  5
5CB
100
AcDbEntity
  8
ALPHA
 62
     7
100
AcDbVertex
100
AcDb2dVertex
 10
23.580076
 20
151.192804
 30
0.0
  0
SEQEND
  5
5CC
100
AcDbEntity
  8
ALPHA
 62
     7
  0
POLYLINE
  5
5CD
100
AcDbEntity
  8
ALPHA
 62
     7
100
AcDb2dPolyline
 66
     1
 10
0.0
 20
0.0
 30
0.0
 70
     1
  0
VERTEX
  5
5CE
100
AcDbEntity
  8
ALPHA
 62
     7
100
AcDbVertex
100
AcDb2dVertex
 10
30.007073
 20
150.39268
 30
0.0
  0
VERTEX
  5
5CF
100
AcDbEntity
  8
ALPHA
 62
     7
100
AcDbVertex
100
AcDb2dVertex
 10
29.20695
 20
150.39268
 30
0.0
  0
VERTEX
  5
5D0
100
AcDbEntity
  8
ALPHA
 62
     7
100
AcDbVertex
100
AcDb2dVertex
 10
29.20695
 20
151.192804
 30
0.0
  0
VERTEX
  5
5D1
100
AcDbEntity
  8
ALPHA
 62
     7
100
AcDbVertex
100
AcDb2dVertex
 10
30.007073
 20
151.192804
 30
0.0
  0
SEQEND
  5
5D2
100
AcDbEntity
  8
ALPHA
 62
     7
  0
POLYLINE
  5
5D3
100
AcDbEntity
  8
ALPHA
 62
     7
100
AcDb2dPolyline
 66
     1
 10
0.0
 20
0.0
 30
0.0
 70
     1
  0
VERTEX
  5
5D4
100
AcDbEntity
  8
ALPHA
 62
     7
100
AcDbVertex
100
AcDb2dVertex
 10
26.793661
 20
150.39268
 30
0.0
  0
VERTEX
  5
5D5
100
AcDbEntity
  8
ALPHA
 62
     7
100
AcDbVertex
100
AcDb2dVertex
 10
25.993537
 20
150.39268
 30
0.0
  0
VERTEX
  5
5D6
100
AcDbEntity
  8
ALPHA
 62
     7
100
AcDbVertex
100
AcDb2dVertex
 10
25.993537
 20
151.192804
 30
0.0
  0
VERTEX
  5
5D7
100
AcDbEntity
  8
ALPHA
 62
     7
100
AcDbVertex
100
AcDb2dVertex
 10
26.793661
 20
151.192804
 30
0.0
  0
SEQEND
  5
5D8
100
AcDbEntity
  8
ALPHA
 62
     7
  0
POLYLINE
  5
5D9
100
AcDbEntity
  8
ALPHA
 62
     7
100
AcDb2dPolyline
 66
     1
 10
0.0
 20
0.0
 30
0.0
 70
     1
  0
VERTEX
  5
5DA
100
AcDbEntity
  8
ALPHA
 62
     7
100
AcDbVertex
100
AcDb2dVertex
 10
33.220486
 20
150.39268
 30
0.0
  0
VERTEX
  5
5DB
100
AcDbEntity
  8
ALPHA
 62
     7
100
AcDbVertex
100
AcDb2dVertex
 10
32.420535
 20
150.39268
 30
0.0
  0
VERTEX
  5
5DC
100
AcDbEntity
  8
ALPHA
 62
     7
100
AcDbVertex
100
AcDb2dVertex
 10
32.420535
 20
151.192804
 30
0.0
  0
VERTEX
  5
5DD
100
AcDbEntity
  8
ALPHA
 62
     7
100
AcDbVertex
100
AcDb2dVertex
 10
33.220486
 20
151.192804
 30
0.0
  0
SEQEND
  5
5DE
100
AcDbEntity
  8
ALPHA
 62
     7
  0
MTEXT
  5
5DF
100
AcDbEntity
  8
TEXTE
 62
     7
100
AcDbMText
 10
22.756353
 20
165.642059
 30
0.0
 40
1.312417
 41
0.0
 71
     1
 72
     2
  1
\fTxt|b0|i0;1
  7
STD
  0
POLYLINE
  5
5E0
100
AcDbEntity
  8
ALPHA
 62
     7
100
AcDb2dPolyline
 66
     1
 10
0.0
 20
0.0
 30
0.0
 70
     1
  0
VERTEX
  5
5E1
100
AcDbEntity
  8
ALPHA
 62
     7
100
AcDbVertex
100
AcDb2dVertex
 10
23.580076
 20
162.686676
 30
0.0
  0
VERTEX
  5
5E2
100
AcDbEntity
  8
ALPHA
 62
     7
100
AcDbVertex
100
AcDb2dVertex
 10
22.780124
 20
162.686676
 30
0.0
  0
VERTEX
  5
5E3
100
AcDbEntity
  8
ALPHA
 62
     7
100
AcDbVertex
100
AcDb2dVertex
 10
22.780124
 20
163.486627
 30
0.0
  0
VERTEX
  5
5E4
100
AcDbEntity
  8
ALPHA
 62
     7
100
AcDbVertex
100
AcDb2dVertex
 10
23.580076
 20
163.486627
 30
0.0
  0
SEQEND
  5
5E5
100
AcDbEntity
  8
ALPHA
 62
     7
  0
MTEXT
  5
5E6
100
AcDbEntity
  8
TEXTE
 62
     7
100
AcDbMText
 10
28.971822
 20
165.642059
 30
0.0
 40
1.312417
 41
0.0
 71
     1
 72
     2
  1
\fTxt|b0|i0;3
  7
STD
  0
POLYLINE
  5
5E7
100
AcDbEntity
  8
ALPHA
 62
     7
100
AcDb2dPolyline
 66
     1
 10
0.0
 20
0.0
 30
0.0
 70
     1
  0
VERTEX
  5
5E8
100
AcDbEntity
  8
ALPHA
 62
     7
100
AcDbVertex
100
AcDb2dVertex
 10
30.007073
 20
162.686676
 30
0.0
  0
VERTEX
  5
5E9
100
AcDbEntity
  8
ALPHA
 62
     7
100
AcDbVertex
100
AcDb2dVertex
 10
29.20695
 20
162.686676
 30
0.0
  0
VERTEX
  5
5EA
100
AcDbEntity
  8
ALPHA
 62
     7
100
AcDbVertex
100
AcDb2dVertex
 10
29.20695
 20
163.486627
 30
0.0
  0
VERTEX
  5
5EB
100
AcDbEntity
  8
ALPHA
 62
     7
100
AcDbVertex
100
AcDb2dVertex
 10
30.007073
 20
163.486627
 30
0.0
  0
SEQEND
  5
5EC
100
AcDbEntity
  8
ALPHA
 62
     7
  0
POLYLINE
  5
5ED
100
AcDbEntity
  8
ALPHA
 62
     7
100
AcDb2dPolyline
 66
     1
 10
0.0
 20
0.0
 30
0.0
 70
     1
  0
VERTEX
  5
5EE
100
AcDbEntity
  8
ALPHA
 62
     7
100
AcDbVertex
100
AcDb2dVertex
 10
26.793661
 20
162.686676
 30
0.0
  0
VERTEX
  5
5EF
100
AcDbEntity
  8
ALPHA
 62
     7
100
AcDbVertex
100
AcDb2dVertex
 10
25.993537
 20
162.686676
 30
0.0
  0
VERTEX
  5
5F0
100
AcDbEntity
  8
ALPHA
 62
     7
100
AcDbVertex
100
AcDb2dVertex
 10
25.993537
 20
163.486627
 30
0.0
  0
VERTEX
  5
5F1
100
AcDbEntity
  8
ALPHA
 62
     7
100
AcDbVertex
100
AcDb2dVertex
 10
26.793661
 20
163.486627
 30
0.0
  0
SEQEND
  5
5F2
100
AcDbEntity
  8
ALPHA
 62
     7
  0
MTEXT
  5
5F3
100
AcDbEntity
  8
TEXTE
 62
     7
100
AcDbMText
 10
25.758582
 20
165.642059
 30
0.0
 40
1.312417
 41
0.0
 71
     1
 72
     2
  1
\fTxt|b0|i0;2
  7
STD
  0
POLYLINE
  5
5F4
100
AcDbEntity
  8
ALPHA
 62
     7
100
AcDb2dPolyline
 66
     1
 10
0.0
 20
0.0
 30
0.0
 70
     1
  0
VERTEX
  5
5F5
100
AcDbEntity
  8
ALPHA
 62
     7
100
AcDbVertex
100
AcDb2dVertex
 10
33.220486
 20
162.686676
 30
0.0
  0
VERTEX
  5
5F6
100
AcDbEntity
  8
ALPHA
 62
     7
100
AcDbVertex
100
AcDb2dVertex
 10
32.420535
 20
162.686676
 30
0.0
  0
VERTEX
  5
5F7
100
AcDbEntity
  8
ALPHA
 62
     7
100
AcDbVertex
100
AcDb2dVertex
 10
32.420535
 20
163.486627
 30
0.0
  0
VERTEX
  5
5F8
100
AcDbEntity
  8
ALPHA
 62
     7
100
AcDbVertex
100
AcDb2dVertex
 10
33.220486
 20
163.486627
 30
0.0
  0
SEQEND
  5
5F9
100
AcDbEntity
  8
ALPHA
 62
     7
  0
MTEXT
  5
5FA
100
AcDbEntity
  8
TEXTE
 62
     7
100
AcDbMText
 10
32.185407
 20
165.642059
 30
0.0
 40
1.312417
 41
0.0
 71
     1
 72
     2
  1
\fTxt|b0|i0;4
  7
STD
  0
MTEXT
  5
5FB
100
AcDbEntity
  8
TEXTE
 62
     7
100
AcDbMText
 10
48.252299
 20
153.348236
 30
0.0
 40
1.312417
 41
0.0
 71
     1
 72
     2
  1
\fTxt|b0|i0;9
  7
STD
  0
POLYLINE
  5
5FC
100
AcDbEntity
  8
POINTILLE_COURT
 62
     7
100
AcDb2dPolyline
 66
     1
 10
0.0
 20
0.0
 30
0.0
 70
     1
  0
VERTEX
  5
5FD
100
AcDbEntity
  8
POINTILLE_COURT
 62
     7
100
AcDbVertex
100
AcDb2dVertex
 10
47.752588
 20
148.637576
 30
0.0
  0
VERTEX
  5
5FE
100
AcDbEntity
  8
POINTILLE_COURT
 62
     7
100
AcDbVertex
100
AcDb2dVertex
 10
59.6628
 20
148.637576
 30
0.0
  0
VERTEX
  5
5FF
100
AcDbEntity
  8
POINTILLE_COURT
 62
     7
100
AcDbVertex
100
AcDb2dVertex
 10
59.6628
 20
153.942334
 30
0.0
  0
VERTEX
  5
600
100
AcDbEntity
  8
POINTILLE_COURT
 62
     7
100
AcDbVertex
100
AcDb2dVertex
 10
47.752588
 20
153.942334
 30
0.0
  0
SEQEND
  5
601
100
AcDbEntity
  8
POINTILLE_COURT
 62
     7
  0
POLYLINE
  5
602
100
AcDbEntity
  8
ALPHA
 62
     7
100
AcDb2dPolyline
 66
     1
 10
0.0
 20
0.0
 30
0.0
 70
     1
  0
VERTEX
  5
603
100
AcDbEntity
  8
ALPHA
 62
     7
100
AcDbVertex
100
AcDb2dVertex
 10
49.287723
 20
150.39268
 30
0.0
  0
VERTEX
  5
604
100
AcDbEntity
  8
ALPHA
 62
     7
100
AcDbVertex
100
AcDb2dVertex
 10
48.487427
 20
150.39268
 30
0.0
  0
VERTEX
  5
605
100
AcDbEntity
  8
ALPHA
 62
     7
100
AcDbVertex
100
AcDb2dVertex
 10
48.487427
 20
151.192804
 30
0.0
  0
VERTEX
  5
606
100
AcDbEntity
  8
ALPHA
 62
     7
100
AcDbVertex
100
AcDb2dVertex
 10
49.287723
 20
151.192804
 30
0.0
  0
SEQEND
  5
607
100
AcDbEntity
  8
ALPHA
 62
     7
  0
POLYLINE
  5
608
100
AcDbEntity
  8
ALPHA
 62
     7
100
AcDb2dPolyline
 66
     1
 10
0.0
 20
0.0
 30
0.0
 70
     1
  0
VERTEX
  5
609
100
AcDbEntity
  8
ALPHA
 62
     7
100
AcDbVertex
100
AcDb2dVertex
 10
42.860897
 20
150.39268
 30
0.0
  0
VERTEX
  5
60A
100
AcDbEntity
  8
ALPHA
 62
     7
100
AcDbVertex
100
AcDb2dVertex
 10
42.060601
 20
150.39268
 30
0.0
  0
VERTEX
  5
60B
100
AcDbEntity
  8
ALPHA
 62
     7
100
AcDbVertex
100
AcDb2dVertex
 10
42.060601
 20
151.192804
 30
0.0
  0
VERTEX
  5
60C
100
AcDbEntity
  8
ALPHA
 62
     7
100
AcDbVertex
100
AcDb2dVertex
 10
42.860897
 20
151.192804
 30
0.0
  0
SEQEND
  5
60D
100
AcDbEntity
  8
ALPHA
 62
     7
  0
POLYLINE
  5
60E
100
AcDbEntity
  8
ALPHA
 62
     7
100
AcDb2dPolyline
 66
     1
 10
0.0
 20
0.0
 30
0.0
 70
     1
  0
VERTEX
  5
60F
100
AcDbEntity
  8
ALPHA
 62
     7
100
AcDbVertex
100
AcDb2dVertex
 10
39.647312
 20
150.39268
 30
0.0
  0
VERTEX
  5
610
100
AcDbEntity
  8
ALPHA
 62
     7
100
AcDbVertex
100
AcDb2dVertex
 10
38.847361
 20
150.39268
 30
0.0
  0
VERTEX
  5
611
100
AcDbEntity
  8
ALPHA
 62
     7
100
AcDbVertex
100
AcDb2dVertex
 10
38.847361
 20
151.192804
 30
0.0
  0
VERTEX
  5
612
100
AcDbEntity
  8
ALPHA
 62
     7
100
AcDbVertex
100
AcDb2dVertex
 10
39.647312
 20
151.192804
 30
0.0
  0
SEQEND
  5
613
100
AcDbEntity
  8
ALPHA
 62
     7
  0
MTEXT
  5
614
100
AcDbEntity
  8
TEXTE
 62
     7
100
AcDbMText
 10
43.980036
 20
153.348236
 30
0.0
 40
1.312417
 41
0.0
 71
     1
 72
     2
  1
\fTxt|b0|i0;1L+
  7
STD
  0
POLYLINE
  5
615
100
AcDbEntity
  8
ALPHA
 62
     7
100
AcDb2dPolyline
 66
     1
 10
0.0
 20
0.0
 30
0.0
 70
     1
  0
VERTEX
  5
616
100
AcDbEntity
  8
ALPHA
 62
     7
100
AcDbVertex
100
AcDb2dVertex
 10
46.074138
 20
150.39268
 30
0.0
  0
VERTEX
  5
617
100
AcDbEntity
  8
ALPHA
 62
     7
100
AcDbVertex
100
AcDb2dVertex
 10
45.274186
 20
150.39268
 30
0.0
  0
VERTEX
  5
618
100
AcDbEntity
  8
ALPHA
 62
     7
100
AcDbVertex
100
AcDb2dVertex
 10
45.274186
 20
151.192804
 30
0.0
  0
VERTEX
  5
619
100
AcDbEntity
  8
ALPHA
 62
     7
100
AcDbVertex
100
AcDb2dVertex
 10
46.074138
 20
151.192804
 30
0.0
  0
SEQEND
  5
61A
100
AcDbEntity
  8
ALPHA
 62
     7
  0
MTEXT
  5
61B
100
AcDbEntity
  8
TEXTE
 62
     7
100
AcDbMText
 10
51.168572
 20
153.348236
 30
0.0
 40
1.312417
 41
0.0
 71
     1
 72
     2
  1
\fTxt|b0|i0;10
  7
STD
  0
POLYLINE
  5
61C
100
AcDbEntity
  8
ALPHA
 62
     7
100
AcDb2dPolyline
 66
     1
 10
0.0
 20
0.0
 30
0.0
 70
     1
  0
VERTEX
  5
61D
100
AcDbEntity
  8
ALPHA
 62
     7
100
AcDbVertex
100
AcDb2dVertex
 10
52.500963
 20
150.39268
 30
0.0
  0
VERTEX
  5
61E
100
AcDbEntity
  8
ALPHA
 62
     7
100
AcDbVertex
100
AcDb2dVertex
 10
51.701012
 20
150.39268
 30
0.0
  0
VERTEX
  5
61F
100
AcDbEntity
  8
ALPHA
 62
     7
100
AcDbVertex
100
AcDb2dVertex
 10
51.701012
 20
151.192804
 30
0.0
  0
VERTEX
  5
620
100
AcDbEntity
  8
ALPHA
 62
     7
100
AcDbVertex
100
AcDb2dVertex
 10
52.500963
 20
151.192804
 30
0.0
  0
SEQEND
  5
621
100
AcDbEntity
  8
ALPHA
 62
     7
  0
POLYLINE
  5
622
100
AcDbEntity
  8
ALPHA
 62
     7
100
AcDb2dPolyline
 66
     1
 10
0.0
 20
0.0
 30
0.0
 70
     1
  0
VERTEX
  5
623
100
AcDbEntity
  8
ALPHA
 62
     7
100
AcDbVertex
100
AcDb2dVertex
 10
55.714548
 20
150.39268
 30
0.0
  0
VERTEX
  5
624
100
AcDbEntity
  8
ALPHA
 62
     7
100
AcDbVertex
100
AcDb2dVertex
 10
54.914253
 20
150.39268
 30
0.0
  0
VERTEX
  5
625
100
AcDbEntity
  8
ALPHA
 62
     7
100
AcDbVertex
100
AcDb2dVertex
 10
54.914253
 20
151.192804
 30
0.0
  0
VERTEX
  5
626
100
AcDbEntity
  8
ALPHA
 62
     7
100
AcDbVertex
100
AcDb2dVertex
 10
55.714548
 20
151.192804
 30
0.0
  0
SEQEND
  5
627
100
AcDbEntity
  8
ALPHA
 62
     7
  0
POLYLINE
  5
628
100
AcDbEntity
  8
ALPHA
 62
     7
100
AcDb2dPolyline
 66
     1
 10
0.0
 20
0.0
 30
0.0
 70
     1
  0
VERTEX
  5
629
100
AcDbEntity
  8
ALPHA
 62
     7
100
AcDbVertex
100
AcDb2dVertex
 10
58.927789
 20
150.39268
 30
0.0
  0
VERTEX
  5
62A
100
AcDbEntity
  8
ALPHA
 62
     7
100
AcDbVertex
100
AcDb2dVertex
 10
58.127838
 20
150.39268
 30
0.0
  0
VERTEX
  5
62B
100
AcDbEntity
  8
ALPHA
 62
     7
100
AcDbVertex
100
AcDb2dVertex
 10
58.127838
 20
151.192804
 30
0.0
  0
VERTEX
  5
62C
100
AcDbEntity
  8
ALPHA
 62
     7
100
AcDbVertex
100
AcDb2dVertex
 10
58.927789
 20
151.192804
 30
0.0
  0
SEQEND
  5
62D
100
AcDbEntity
  8
ALPHA
 62
     7
  0
POLYLINE
  5
62E
100
AcDbEntity
  8
ALPHA
 62
     7
100
AcDb2dPolyline
 66
     1
 10
0.0
 20
0.0
 30
0.0
 70
     1
  0
VERTEX
  5
62F
100
AcDbEntity
  8
ALPHA
 62
     7
100
AcDbVertex
100
AcDb2dVertex
 10
62.141374
 20
150.39268
 30
0.0
  0
VERTEX
  5
630
100
AcDbEntity
  8
ALPHA
 62
     7
100
AcDbVertex
100
AcDb2dVertex
 10
61.341423
 20
150.39268
 30
0.0
  0
VERTEX
  5
631
100
AcDbEntity
  8
ALPHA
 62
     7
100
AcDbVertex
100
AcDb2dVertex
 10
61.341423
 20
151.192804
 30
0.0
  0
VERTEX
  5
632
100
AcDbEntity
  8
ALPHA
 62
     7
100
AcDbVertex
100
AcDb2dVertex
 10
62.141374
 20
151.192804
 30
0.0
  0
SEQEND
  5
633
100
AcDbEntity
  8
ALPHA
 62
     7
  0
MTEXT
  5
634
100
AcDbEntity
  8
TEXTE
 62
     7
100
AcDbMText
 10
48.252299
 20
165.642059
 30
0.0
 40
1.312417
 41
0.0
 71
     1
 72
     2
  1
\fTxt|b0|i0;9
  7
STD
  0
POLYLINE
  5
635
100
AcDbEntity
  8
ALPHA
 62
     7
100
AcDb2dPolyline
 66
     1
 10
0.0
 20
0.0
 30
0.0
 70
     1
  0
VERTEX
  5
636
100
AcDbEntity
  8
ALPHA
 62
     7
100
AcDbVertex
100
AcDb2dVertex
 10
49.287723
 20
162.686676
 30
0.0
  0
VERTEX
  5
637
100
AcDbEntity
  8
ALPHA
 62
     7
100
AcDbVertex
100
AcDb2dVertex
 10
48.487427
 20
162.686676
 30
0.0
  0
VERTEX
  5
638
100
AcDbEntity
  8
ALPHA
 62
     7
100
AcDbVertex
100
AcDb2dVertex
 10
48.487427
 20
163.486627
 30
0.0
  0
VERTEX
  5
639
100
AcDbEntity
  8
ALPHA
 62
     7
100
AcDbVertex
100
AcDb2dVertex
 10
49.287723
 20
163.486627
 30
0.0
  0
SEQEND
  5
63A
100
AcDbEntity
  8
ALPHA
 62
     7
  0
MTEXT
  5
63B
100
AcDbEntity
  8
TEXTE
 62
     7
100
AcDbMText
 10
41.825474
 20
165.642059
 30
0.0
 40
1.312417
 41
0.0
 71
     1
 72
     2
  1
\fTxt|b0|i0;7
  7
STD
  0
POLYLINE
  5
63C
100
AcDbEntity
  8
ALPHA
 62
     7
100
AcDb2dPolyline
 66
     1
 10
0.0
 20
0.0
 30
0.0
 70
     1
  0
VERTEX
  5
63D
100
AcDbEntity
  8
ALPHA
 62
     7
100
AcDbVertex
100
AcDb2dVertex
 10
42.860897
 20
162.686676
 30
0.0
  0
VERTEX
  5
63E
100
AcDbEntity
  8
ALPHA
 62
     7
100
AcDbVertex
100
AcDb2dVertex
 10
42.060601
 20
162.686676
 30
0.0
  0
VERTEX
  5
63F
100
AcDbEntity
  8
ALPHA
 62
     7
100
AcDbVertex
100
AcDb2dVertex
 10
42.060601
 20
163.486627
 30
0.0
  0
VERTEX
  5
640
100
AcDbEntity
  8
ALPHA
 62
     7
100
AcDbVertex
100
AcDb2dVertex
 10
42.860897
 20
163.486627
 30
0.0
  0
SEQEND
  5
641
100
AcDbEntity
  8
ALPHA
 62
     7
  0
POLYLINE
  5
642
100
AcDbEntity
  8
ALPHA
 62
     7
100
AcDb2dPolyline
 66
     1
 10
0.0
 20
0.0
 30
0.0
 70
     1
  0
VERTEX
  5
643
100
AcDbEntity
  8
ALPHA
 62
     7
100
AcDbVertex
100
AcDb2dVertex
 10
39.647312
 20
162.686676
 30
0.0
  0
VERTEX
  5
644
100
AcDbEntity
  8
ALPHA
 62
     7
100
AcDbVertex
100
AcDb2dVertex
 10
38.847361
 20
162.686676
 30
0.0
  0
VERTEX
  5
645
100
AcDbEntity
  8
ALPHA
 62
     7
100
AcDbVertex
100
AcDb2dVertex
 10
38.847361
 20
163.486627
 30
0.0
  0
VERTEX
  5
646
100
AcDbEntity
  8
ALPHA
 62
     7
100
AcDbVertex
100
AcDb2dVertex
 10
39.647312
 20
163.486627
 30
0.0
  0
SEQEND
  5
647
100
AcDbEntity
  8
ALPHA
 62
     7
  0
MTEXT
  5
648
100
AcDbEntity
  8
TEXTE
 62
     7
100
AcDbMText
 10
38.612233
 20
165.642059
 30
0.0
 40
1.312417
 41
0.0
 71
     1
 72
     2
  1
\fTxt|b0|i0;6
  7
STD
  0
POLYLINE
  5
649
100
AcDbEntity
  8
ALPHA
 62
     7
100
AcDb2dPolyline
 66
     1
 10
0.0
 20
0.0
 30
0.0
 70
     1
  0
VERTEX
  5
64A
100
AcDbEntity
  8
ALPHA
 62
     7
100
AcDbVertex
100
AcDb2dVertex
 10
46.074138
 20
162.686676
 30
0.0
  0
VERTEX
  5
64B
100
AcDbEntity
  8
ALPHA
 62
     7
100
AcDbVertex
100
AcDb2dVertex
 10
45.274186
 20
162.686676
 30
0.0
  0
VERTEX
  5
64C
100
AcDbEntity
  8
ALPHA
 62
     7
100
AcDbVertex
100
AcDb2dVertex
 10
45.274186
 20
163.486627
 30
0.0
  0
VERTEX
  5
64D
100
AcDbEntity
  8
ALPHA
 62
     7
100
AcDbVertex
100
AcDb2dVertex
 10
46.074138
 20
163.486627
 30
0.0
  0
SEQEND
  5
64E
100
AcDbEntity
  8
ALPHA
 62
     7
  0
MTEXT
  5
64F
100
AcDbEntity
  8
TEXTE
 62
     7
100
AcDbMText
 10
45.039059
 20
165.642059
 30
0.0
 40
1.312417
 41
0.0
 71
     1
 72
     2
  1
\fTxt|b0|i0;8
  7
STD
  0
POLYLINE
  5
650
100
AcDbEntity
  8
ALPHA
 62
     7
100
AcDb2dPolyline
 66
     1
 10
0.0
 20
0.0
 30
0.0
 70
     1
  0
VERTEX
  5
651
100
AcDbEntity
  8
ALPHA
 62
     7
100
AcDbVertex
100
AcDb2dVertex
 10
55.714548
 20
162.686676
 30
0.0
  0
VERTEX
  5
652
100
AcDbEntity
  8
ALPHA
 62
     7
100
AcDbVertex
100
AcDb2dVertex
 10
54.914253
 20
162.686676
 30
0.0
  0
VERTEX
  5
653
100
AcDbEntity
  8
ALPHA
 62
     7
100
AcDbVertex
100
AcDb2dVertex
 10
54.914253
 20
163.486627
 30
0.0
  0
VERTEX
  5
654
100
AcDbEntity
  8
ALPHA
 62
     7
100
AcDbVertex
100
AcDb2dVertex
 10
55.714548
 20
163.486627
 30
0.0
  0
SEQEND
  5
655
100
AcDbEntity
  8
ALPHA
 62
     7
  0
POLYLINE
  5
656
100
AcDbEntity
  8
ALPHA
 62
     7
100
AcDb2dPolyline
 66
     1
 10
0.0
 20
0.0
 30
0.0
 70
     1
  0
VERTEX
  5
657
100
AcDbEntity
  8
ALPHA
 62
     7
100
AcDbVertex
100
AcDb2dVertex
 10
52.500963
 20
162.686676
 30
0.0
  0
VERTEX
  5
658
100
AcDbEntity
  8
ALPHA
 62
     7
100
AcDbVertex
100
AcDb2dVertex
 10
51.701012
 20
162.686676
 30
0.0
  0
VERTEX
  5
659
100
AcDbEntity
  8
ALPHA
 62
     7
100
AcDbVertex
100
AcDb2dVertex
 10
51.701012
 20
163.486627
 30
0.0
  0
VERTEX
  5
65A
100
AcDbEntity
  8
ALPHA
 62
     7
100
AcDbVertex
100
AcDb2dVertex
 10
52.500963
 20
163.486627
 30
0.0
  0
SEQEND
  5
65B
100
AcDbEntity
  8
ALPHA
 62
     7
  0
MTEXT
  5
65C
100
AcDbEntity
  8
TEXTE
 62
     7
100
AcDbMText
 10
51.147557
 20
165.642059
 30
0.0
 40
1.312417
 41
0.0
 71
     1
 72
     2
  1
\fTxt|b0|i0;10
  7
STD
  0
POLYLINE
  5
65D
100
AcDbEntity
  8
ALPHA
 62
     7
100
AcDb2dPolyline
 66
     1
 10
0.0
 20
0.0
 30
0.0
 70
     1
  0
VERTEX
  5
65E
100
AcDbEntity
  8
ALPHA
 62
     7
100
AcDbVertex
100
AcDb2dVertex
 10
62.141374
 20
162.686676
 30
0.0
  0
VERTEX
  5
65F
100
AcDbEntity
  8
ALPHA
 62
     7
100
AcDbVertex
100
AcDb2dVertex
 10
61.341423
 20
162.686676
 30
0.0
  0
VERTEX
  5
660
100
AcDbEntity
  8
ALPHA
 62
     7
100
AcDbVertex
100
AcDb2dVertex
 10
61.341423
 20
163.486627
 30
0.0
  0
VERTEX
  5
661
100
AcDbEntity
  8
ALPHA
 62
     7
100
AcDbVertex
100
AcDb2dVertex
 10
62.141374
 20
163.486627
 30
0.0
  0
SEQEND
  5
662
100
AcDbEntity
  8
ALPHA
 62
     7
  0
POLYLINE
  5
663
100
AcDbEntity
  8
ALPHA
 62
     7
100
AcDb2dPolyline
 66
     1
 10
0.0
 20
0.0
 30
0.0
 70
     1
  0
VERTEX
  5
664
100
AcDbEntity
  8
ALPHA
 62
     7
100
AcDbVertex
100
AcDb2dVertex
 10
58.927789
 20
162.686676
 30
0.0
  0
VERTEX
  5
665
100
AcDbEntity
  8
ALPHA
 62
     7
100
AcDbVertex
100
AcDb2dVertex
 10
58.127838
 20
162.686676
 30
0.0
  0
VERTEX
  5
666
100
AcDbEntity
  8
ALPHA
 62
     7
100
AcDbVertex
100
AcDb2dVertex
 10
58.127838
 20
163.486627
 30
0.0
  0
VERTEX
  5
667
100
AcDbEntity
  8
ALPHA
 62
     7
100
AcDbVertex
100
AcDb2dVertex
 10
58.927789
 20
163.486627
 30
0.0
  0
SEQEND
  5
668
100
AcDbEntity
  8
ALPHA
 62
     7
  0
MTEXT
  5
669
100
AcDbEntity
  8
TEXTE
 62
     7
100
AcDbMText
 10
56.946687
 20
166.142115
 30
0.0
 40
1.312417
 41
0.0
 71
     1
 72
     2
  1
\fTxt|b0|i0;1L+
  7
STD
  0
LINE
  5
66A
100
AcDbEntity
  8
ALPHA
 62
     7
100
AcDbLine
 10
99.115861
 20
162.235368
 30
0.0
 11
99.115861
 21
112.264947
 31
0.0
  0
LINE
  5
66B
100
AcDbEntity
  8
ALPHA
 62
     7
100
AcDbLine
 10
103.699216
 20
159.73509
 30
0.0
 11
103.699216
 21
110.264725
 31
0.0
  0
LINE
  5
66C
100
AcDbEntity
  8
ALPHA
 62
     7
100
AcDbLine
 10
94.532506
 20
164.735646
 30
0.0
 11
94.532506
 21
113.765114
 31
0.0
  0
LINE
  5
66D
100
AcDbEntity
  8
ALPHA
 62
     7
100
AcDbLine
 10
90.031833
 20
167.235924
 30
0.0
 11
90.031833
 21
115.265281
 31
0.0
  0
POLYLINE
  5
66E
100
AcDbEntity
  8
ALPHA
 62
     7
100
AcDb2dPolyline
 66
     1
 10
0.0
 20
0.0
 30
0.0
 70
     1
  0
VERTEX
  5
66F
100
AcDbEntity
  8
ALPHA
 62
     7
100
AcDbVertex
100
AcDb2dVertex
 10
87.011863
 20
140.489753
 30
0.0
  0
VERTEX
  5
670
100
AcDbEntity
  8
ALPHA
 62
     7
100
AcDbVertex
100
AcDb2dVertex
 10
83.217779
 20
140.489753
 30
0.0
  0
VERTEX
  5
671
100
AcDbEntity
  8
ALPHA
 62
     7
100
AcDbVertex
100
AcDb2dVertex
 10
83.217779
 20
138.989759
 30
0.0
  0
VERTEX
  5
672
100
AcDbEntity
  8
ALPHA
 62
     7
100
AcDbVertex
100
AcDb2dVertex
 10
87.011863
 20
138.989759
 30
0.0
  0
SEQEND
  5
673
100
AcDbEntity
  8
ALPHA
 62
     7
  0
POLYLINE
  5
674
100
AcDbEntity
  8
ALPHA
 62
     7
100
AcDb2dPolyline
 66
     1
 10
0.0
 20
0.0
 30
0.0
  0
VERTEX
  5
675
100
AcDbEntity
  8
ALPHA
 62
     7
100
AcDbVertex
100
AcDb2dVertex
 10
99.115861
 20
139.749919
 30
0.0
  0
VERTEX
  5
676
100
AcDbEntity
  8
ALPHA
 62
     7
100
AcDbVertex
100
AcDb2dVertex
 10
77.80829
 20
139.749919
 30
0.0
  0
VERTEX
  5
677
100
AcDbEntity
  8
ALPHA
 62
     7
100
AcDbVertex
100
AcDb2dVertex
 10
77.80829
 20
150.792656
 30
0.0
  0
SEQEND
  5
678
100
AcDbEntity
  8
ALPHA
 62
     7
  0
POLYLINE
  5
679
100
AcDbEntity
  8
ALPHA
 62
     7
100
AcDb2dPolyline
 66
     1
 10
0.0
 20
0.0
 30
0.0
  0
VERTEX
  5
67A
100
AcDbEntity
  8
ALPHA
 62
     7
100
AcDbVertex
100
AcDb2dVertex
 10
99.115861
 20
137.749696
 30
0.0
  0
VERTEX
  5
67B
100
AcDbEntity
  8
ALPHA
 62
     7
100
AcDbVertex
100
AcDb2dVertex
 10
74.59505
 20
137.749696
 30
0.0
  0
VERTEX
  5
67C
100
AcDbEntity
  8
ALPHA
 62
     7
100
AcDbVertex
100
AcDb2dVertex
 10
74.59505
 20
150.792656
 30
0.0
  0
SEQEND
  5
67D
100
AcDbEntity
  8
ALPHA
 62
     7
  0
MTEXT
  5
67E
100
AcDbEntity
  8
TEXTE
 62
     7
100
AcDbMText
 10
81.413066
 20
136.265902
 30
0.0
 40
1.312417
 41
0.0
 71
     1
 72
     2
  1
\fTxt|b0|i0;8A max.
  7
STD
  0
MTEXT
  5
67F
100
AcDbEntity
  8
TEXTE
 62
     7
100
AcDbMText
 10
82.048341
 20
134.149235
 30
0.0
 40
1.312417
 41
0.0
 71
     1
 72
     2
  1
\fTxt|b0|i0;fusion
  7
STD
  0
POLYLINE
  5
680
100
AcDbEntity
  8
ALPHA
 62
     7
100
AcDb2dPolyline
 66
     1
 10
0.0
 20
0.0
 30
0.0
  0
VERTEX
  5
681
100
AcDbEntity
  8
ALPHA
 62
     7
100
AcDbVertex
100
AcDb2dVertex
 10
103.699216
 20
126.456501
 30
0.0
  0
VERTEX
  5
682
100
AcDbEntity
  8
ALPHA
 62
     7
100
AcDbVertex
100
AcDb2dVertex
 10
74.59505
 20
126.456501
 30
0.0
  0
VERTEX
  5
683
100
AcDbEntity
  8
ALPHA
 62
     7
100
AcDbVertex
100
AcDb2dVertex
 10
74.59505
 20
132.600484
 30
0.0
  0
SEQEND
  5
684
100
AcDbEntity
  8
ALPHA
 62
     7
  0
POLYLINE
  5
685
100
AcDbEntity
  8
ALPHA
 62
     7
100
AcDb2dPolyline
 66
     1
 10
0.0
 20
0.0
 30
0.0
  0
VERTEX
  5
686
100
AcDbEntity
  8
ALPHA
 62
     7
100
AcDbVertex
100
AcDb2dVertex
 10
103.699216
 20
128.456724
 30
0.0
  0
VERTEX
  5
687
100
AcDbEntity
  8
ALPHA
 62
     7
100
AcDbVertex
100
AcDb2dVertex
 10
77.80829
 20
128.456724
 30
0.0
  0
VERTEX
  5
688
100
AcDbEntity
  8
ALPHA
 62
     7
100
AcDbVertex
100
AcDb2dVertex
 10
77.80829
 20
132.600484
 30
0.0
  0
SEQEND
  5
689
100
AcDbEntity
  8
ALPHA
 62
     7
  0
LINE
  5
68A
100
AcDbEntity
  8
ALPHA
 62
     7
100
AcDbLine
 10
77.808635
 20
115.765853
 30
0.0
 11
77.808635
 21
121.409264
 31
0.0
  0
POLYLINE
  5
68B
100
AcDbEntity
  8
ALPHA
 62
     7
100
AcDb2dPolyline
 66
     1
 10
0.0
 20
0.0
 30
0.0
 70
     1
  0
VERTEX
  5
68C
100
AcDbEntity
  8
ALPHA
 62
     7
100
AcDbVertex
100
AcDb2dVertex
 10
78.208438
 20
121.009288
 30
0.0
  0
VERTEX
  5
68D
100
AcDbEntity
  8
ALPHA
 62
     7
100
AcDbVertex
100
AcDb2dVertex
 10
77.408314
 20
121.009288
 30
0.0
  0
VERTEX
  5
68E
100
AcDbEntity
  8
ALPHA
 62
     7
100
AcDbVertex
100
AcDb2dVertex
 10
77.408314
 20
121.80924
 30
0.0
  0
VERTEX
  5
68F
100
AcDbEntity
  8
ALPHA
 62
     7
100
AcDbVertex
100
AcDb2dVertex
 10
78.208438
 20
121.80924
 30
0.0
  0
SEQEND
  5
690
100
AcDbEntity
  8
ALPHA
 62
     7
  0
POLYLINE
  5
691
100
AcDbEntity
  8
ALPHA
 62
     7
100
AcDb2dPolyline
 66
     1
 10
0.0
 20
0.0
 30
0.0
 70
     1
  0
VERTEX
  5
692
100
AcDbEntity
  8
ALPHA
 62
     7
100
AcDbVertex
100
AcDb2dVertex
 10
74.995025
 20
121.009288
 30
0.0
  0
VERTEX
  5
693
100
AcDbEntity
  8
ALPHA
 62
     7
100
AcDbVertex
100
AcDb2dVertex
 10
74.194902
 20
121.009288
 30
0.0
  0
VERTEX
  5
694
100
AcDbEntity
  8
ALPHA
 62
     7
100
AcDbVertex
100
AcDb2dVertex
 10
74.194902
 20
121.80924
 30
0.0
  0
VERTEX
  5
695
100
AcDbEntity
  8
ALPHA
 62
     7
100
AcDbVertex
100
AcDb2dVertex
 10
74.995025
 20
121.80924
 30
0.0
  0
SEQEND
  5
696
100
AcDbEntity
  8
ALPHA
 62
     7
  0
POLYLINE
  5
697
100
AcDbEntity
  8
ALPHA
 62
     7
100
AcDb2dPolyline
 66
     1
 10
0.0
 20
0.0
 30
0.0
 70
     1
  0
VERTEX
  5
698
100
AcDbEntity
  8
ALPHA
 62
     7
100
AcDbVertex
100
AcDb2dVertex
 10
71.781612
 20
121.009288
 30
0.0
  0
VERTEX
  5
699
100
AcDbEntity
  8
ALPHA
 62
     7
100
AcDbVertex
100
AcDb2dVertex
 10
70.981489
 20
121.009288
 30
0.0
  0
VERTEX
  5
69A
100
AcDbEntity
  8
ALPHA
 62
     7
100
AcDbVertex
100
AcDb2dVertex
 10
70.981489
 20
121.80924
 30
0.0
  0
VERTEX
  5
69B
100
AcDbEntity
  8
ALPHA
 62
     7
100
AcDbVertex
100
AcDb2dVertex
 10
71.781612
 20
121.80924
 30
0.0
  0
SEQEND
  5
69C
100
AcDbEntity
  8
ALPHA
 62
     7
  0
POLYLINE
  5
69D
100
AcDbEntity
  8
ALPHA
 62
     7
100
AcDb2dPolyline
 66
     1
 10
0.0
 20
0.0
 30
0.0
 70
     1
  0
VERTEX
  5
69E
100
AcDbEntity
  8
ALPHA
 62
     7
100
AcDbVertex
100
AcDb2dVertex
 10
68.568199
 20
121.009288
 30
0.0
  0
VERTEX
  5
69F
100
AcDbEntity
  8
ALPHA
 62
     7
100
AcDbVertex
100
AcDb2dVertex
 10
67.768076
 20
121.009288
 30
0.0
  0
VERTEX
  5
6A0
100
AcDbEntity
  8
ALPHA
 62
     7
100
AcDbVertex
100
AcDb2dVertex
 10
67.768076
 20
121.80924
 30
0.0
  0
VERTEX
  5
6A1
100
AcDbEntity
  8
ALPHA
 62
     7
100
AcDbVertex
100
AcDb2dVertex
 10
68.568199
 20
121.80924
 30
0.0
  0
SEQEND
  5
6A2
100
AcDbEntity
  8
ALPHA
 62
     7
  0
POLYLINE
  5
6A3
100
AcDbEntity
  8
ALPHA
 62
     7
100
AcDb2dPolyline
 66
     1
 10
0.0
 20
0.0
 30
0.0
 70
     1
  0
VERTEX
  5
6A4
100
AcDbEntity
  8
ALPHA
 62
     7
100
AcDbVertex
100
AcDb2dVertex
 10
65.354787
 20
121.009288
 30
0.0
  0
VERTEX
  5
6A5
100
AcDbEntity
  8
ALPHA
 62
     7
100
AcDbVertex
100
AcDb2dVertex
 10
64.554663
 20
121.009288
 30
0.0
  0
VERTEX
  5
6A6
100
AcDbEntity
  8
ALPHA
 62
     7
100
AcDbVertex
100
AcDb2dVertex
 10
64.554663
 20
121.80924
 30
0.0
  0
VERTEX
  5
6A7
100
AcDbEntity
  8
ALPHA
 62
     7
100
AcDbVertex
100
AcDb2dVertex
 10
65.354787
 20
121.80924
 30
0.0
  0
SEQEND
  5
6A8
100
AcDbEntity
  8
ALPHA
 62
     7
  0
LINE
  5
6A9
100
AcDbEntity
  8
ALPHA
 62
     7
100
AcDbLine
 10
79.083837
 20
115.765853
 30
0.0
 11
76.563405
 21
115.765853
 31
0.0
  0
LINE
  5
6AA
100
AcDbEntity
  8
ALPHA
 62
     7
100
AcDbLine
 10
78.652166
 20
115.265281
 30
0.0
 11
77.054675
 21
115.265281
 31
0.0
  0
LINE
  5
6AB
100
AcDbEntity
  8
ALPHA
 62
     7
100
AcDbLine
 10
78.146082
 20
114.753684
 30
0.0
 11
77.590388
 21
114.753684
 31
0.0
  0
MTEXT
  5
6AC
100
AcDbEntity
  8
TEXTE
 62
     7
100
AcDbMText
 10
73.534477
 20
135.655948
 30
0.0
 40
1.312417
 41
0.0
 71
     1
 72
     2
  1
\fTxt|b0|i0;1N
  7
STD
  0
POLYLINE
  5
6AD
100
AcDbEntity
  8
ALPHA
 62
     7
100
AcDb2dPolyline
 66
     1
 10
0.0
 20
0.0
 30
0.0
 70
     1
  0
VERTEX
  5
6AE
100
AcDbEntity
  8
ALPHA
 62
     7
100
AcDbVertex
100
AcDb2dVertex
 10
65.354959
 20
132.200509
 30
0.0
  0
VERTEX
  5
6AF
100
AcDbEntity
  8
ALPHA
 62
     7
100
AcDbVertex
100
AcDb2dVertex
 10
64.554663
 20
132.200509
 30
0.0
  0
VERTEX
  5
6B0
100
AcDbEntity
  8
ALPHA
 62
     7
100
AcDbVertex
100
AcDb2dVertex
 10
64.554663
 20
133.00046
 30
0.0
  0
VERTEX
  5
6B1
100
AcDbEntity
  8
ALPHA
 62
     7
100
AcDbVertex
100
AcDb2dVertex
 10
65.354959
 20
133.00046
 30
0.0
  0
SEQEND
  5
6B2
100
AcDbEntity
  8
ALPHA
 62
     7
  0
POLYLINE
  5
6B3
100
AcDbEntity
  8
ALPHA
 62
     7
100
AcDb2dPolyline
 66
     1
 10
0.0
 20
0.0
 30
0.0
 70
     1
  0
VERTEX
  5
6B4
100
AcDbEntity
  8
ALPHA
 62
     7
100
AcDbVertex
100
AcDb2dVertex
 10
68.568199
 20
132.200509
 30
0.0
  0
VERTEX
  5
6B5
100
AcDbEntity
  8
ALPHA
 62
     7
100
AcDbVertex
100
AcDb2dVertex
 10
67.768248
 20
132.200509
 30
0.0
  0
VERTEX
  5
6B6
100
AcDbEntity
  8
ALPHA
 62
     7
100
AcDbVertex
100
AcDb2dVertex
 10
67.768248
 20
133.00046
 30
0.0
  0
VERTEX
  5
6B7
100
AcDbEntity
  8
ALPHA
 62
     7
100
AcDbVertex
100
AcDb2dVertex
 10
68.568199
 20
133.00046
 30
0.0
  0
SEQEND
  5
6B8
100
AcDbEntity
  8
ALPHA
 62
     7
  0
POLYLINE
  5
6B9
100
AcDbEntity
  8
ALPHA
 62
     7
100
AcDb2dPolyline
 66
     1
 10
0.0
 20
0.0
 30
0.0
 70
     1
  0
VERTEX
  5
6BA
100
AcDbEntity
  8
ALPHA
 62
     7
100
AcDbVertex
100
AcDb2dVertex
 10
71.781785
 20
132.200509
 30
0.0
  0
VERTEX
  5
6BB
100
AcDbEntity
  8
ALPHA
 62
     7
100
AcDbVertex
100
AcDb2dVertex
 10
70.981489
 20
132.200509
 30
0.0
  0
VERTEX
  5
6BC
100
AcDbEntity
  8
ALPHA
 62
     7
100
AcDbVertex
100
AcDb2dVertex
 10
70.981489
 20
133.00046
 30
0.0
  0
VERTEX
  5
6BD
100
AcDbEntity
  8
ALPHA
 62
     7
100
AcDbVertex
100
AcDb2dVertex
 10
71.781785
 20
133.00046
 30
0.0
  0
SEQEND
  5
6BE
100
AcDbEntity
  8
ALPHA
 62
     7
  0
POLYLINE
  5
6BF
100
AcDbEntity
  8
ALPHA
 62
     7
100
AcDb2dPolyline
 66
     1
 10
0.0
 20
0.0
 30
0.0
 70
     1
  0
VERTEX
  5
6C0
100
AcDbEntity
  8
ALPHA
 62
     7
100
AcDbVertex
100
AcDb2dVertex
 10
74.995025
 20
132.200509
 30
0.0
  0
VERTEX
  5
6C1
100
AcDbEntity
  8
ALPHA
 62
     7
100
AcDbVertex
100
AcDb2dVertex
 10
74.195074
 20
132.200509
 30
0.0
  0
VERTEX
  5
6C2
100
AcDbEntity
  8
ALPHA
 62
     7
100
AcDbVertex
100
AcDb2dVertex
 10
74.195074
 20
133.00046
 30
0.0
  0
VERTEX
  5
6C3
100
AcDbEntity
  8
ALPHA
 62
     7
100
AcDbVertex
100
AcDb2dVertex
 10
74.995025
 20
133.00046
 30
0.0
  0
SEQEND
  5
6C4
100
AcDbEntity
  8
ALPHA
 62
     7
  0
MTEXT
  5
6C5
100
AcDbEntity
  8
TEXTE
 62
     7
100
AcDbMText
 10
82.577508
 20
132.032569
 30
0.0
 40
1.312417
 41
0.0
 71
     1
 72
     2
  1
\fTxt|b0|i0;lente
  7
STD
  0
MTEXT
  5
6C6
100
AcDbEntity
  8
TEXTE
 62
     7
100
AcDbMText
 10
76.538083
 20
123.964672
 30
0.0
 40
1.312417
 41
0.0
 71
     1
 72
     2
  1
\fTxt|b0|i0;PE
  7
STD
  0
MTEXT
  5
6C7
100
AcDbEntity
  8
TEXTE
 62
     7
100
AcDbMText
 10
76.537911
 20
135.655948
 30
0.0
 40
1.312417
 41
0.0
 71
     1
 72
     2
  1
\fTxt|b0|i0;2N
  7
STD
  0
POLYLINE
  5
6C8
100
AcDbEntity
  8
ALPHA
 62
     7
100
AcDb2dPolyline
 66
     1
 10
0.0
 20
0.0
 30
0.0
 70
     1
  0
VERTEX
  5
6C9
100
AcDbEntity
  8
ALPHA
 62
     7
100
AcDbVertex
100
AcDb2dVertex
 10
78.20861
 20
132.200509
 30
0.0
  0
VERTEX
  5
6CA
100
AcDbEntity
  8
ALPHA
 62
     7
100
AcDbVertex
100
AcDb2dVertex
 10
77.408314
 20
132.200509
 30
0.0
  0
VERTEX
  5
6CB
100
AcDbEntity
  8
ALPHA
 62
     7
100
AcDbVertex
100
AcDb2dVertex
 10
77.408314
 20
133.00046
 30
0.0
  0
VERTEX
  5
6CC
100
AcDbEntity
  8
ALPHA
 62
     7
100
AcDbVertex
100
AcDb2dVertex
 10
78.20861
 20
133.00046
 30
0.0
  0
SEQEND
  5
6CD
100
AcDbEntity
  8
ALPHA
 62
     7
  0
POLYLINE
  5
6CE
100
AcDbEntity
  8
ALPHA
 62
     7
100
AcDb2dPolyline
 66
     1
 10
0.0
 20
0.0
 30
0.0
 70
     1
  0
VERTEX
  5
6CF
100
AcDbEntity
  8
ALPHA
 62
     7
100
AcDbVertex
100
AcDb2dVertex
 10
87.011863
 20
138.489531
 30
0.0
  0
VERTEX
  5
6D0
100
AcDbEntity
  8
ALPHA
 62
     7
100
AcDbVertex
100
AcDb2dVertex
 10
83.217779
 20
138.489531
 30
0.0
  0
VERTEX
  5
6D1
100
AcDbEntity
  8
ALPHA
 62
     7
100
AcDbVertex
100
AcDb2dVertex
 10
83.217779
 20
136.989536
 30
0.0
  0
VERTEX
  5
6D2
100
AcDbEntity
  8
ALPHA
 62
     7
100
AcDbVertex
100
AcDb2dVertex
 10
87.011863
 20
136.989536
 30
0.0
  0
SEQEND
  5
6D3
100
AcDbEntity
  8
ALPHA
 62
     7
  0
LINE
  5
6D4
100
AcDbEntity
  8
TEXTE
 62
     7
100
AcDbLine
 10
89.415161
 20
168.58244
 30
0.0
 11
86.809291
 21
168.58244
 31
0.0
  0
MTEXT
  5
6D5
100
AcDbEntity
  8
TEXTE
 62
     7
100
AcDbMText
 10
82.048341
 20
164.032855
 30
0.0
 40
1.312417
 41
0.0
 71
     1
 72
     2
  1
\fTxt|b0|i0;fusion
  7
STD
  0
MTEXT
  5
6D6
100
AcDbEntity
  8
TEXTE
 62
     7
100
AcDbMText
 10
82.048341
 20
161.916188
 30
0.0
 40
1.312417
 41
0.0
 71
     1
 72
     2
  1
\fTxt|b0|i0;rapide
  7
STD
  0
MTEXT
  5
6D7
100
AcDbEntity
  8
TEXTE
 62
     7
100
AcDbMText
 10
81.413066
 20
146.992896
 30
0.0
 40
1.312417
 41
0.0
 71
     1
 72
     2
  1
\fTxt|b0|i0;8A max.
  7
STD
  0
MTEXT
  5
6D8
100
AcDbEntity
  8
TEXTE
 62
     7
100
AcDbMText
 10
82.048341
 20
144.876229
 30
0.0
 40
1.312417
 41
0.0
 71
     1
 72
     2
  1
\fTxt|b0|i0;fusion
  7
STD
  0
MTEXT
  5
6D9
100
AcDbEntity
  8
TEXTE
 62
     7
100
AcDbMText
 10
81.413066
 20
154.693718
 30
0.0
 40
1.312417
 41
0.0
 71
     1
 72
     2
  1
\fTxt|b0|i0;4A max.
  7
STD
  0
MTEXT
  5
6DA
100
AcDbEntity
  8
TEXTE
 62
     7
100
AcDbMText
 10
82.048341
 20
152.577051
 30
0.0
 40
1.312417
 41
0.0
 71
     1
 72
     2
  1
\fTxt|b0|i0;fusion
  7
STD
  0
MTEXT
  5
6DB
100
AcDbEntity
  8
TEXTE
 62
     7
100
AcDbMText
 10
82.048341
 20
150.460384
 30
0.0
 40
1.312417
 41
0.0
 71
     1
 72
     2
  1
\fTxt|b0|i0;rapide
  7
STD
  0
POLYLINE
  5
6DC
100
AcDbEntity
  8
ALPHA
 62
     7
100
AcDb2dPolyline
 66
     1
 10
0.0
 20
0.0
 30
0.0
  0
VERTEX
  5
6DD
100
AcDbEntity
  8
ALPHA
 62
     7
100
AcDbVertex
100
AcDb2dVertex
 10
90.031661
 20
155.942384
 30
0.0
  0
VERTEX
  5
6DE
100
AcDbEntity
  8
ALPHA
 62
     7
100
AcDbVertex
100
AcDb2dVertex
 10
71.381637
 20
155.942384
 30
0.0
  0
VERTEX
  5
6DF
100
AcDbEntity
  8
ALPHA
 62
     7
100
AcDbVertex
100
AcDb2dVertex
 10
71.381637
 20
163.086651
 30
0.0
  0
SEQEND
  5
6E0
100
AcDbEntity
  8
ALPHA
 62
     7
  0
POLYLINE
  5
6E1
100
AcDbEntity
  8
ALPHA
 62
     7
100
AcDb2dPolyline
 66
     1
 10
0.0
 20
0.0
 30
0.0
  0
VERTEX
  5
6E2
100
AcDbEntity
  8
ALPHA
 62
     7
100
AcDbVertex
100
AcDb2dVertex
 10
90.031833
 20
158.94289
 30
0.0
  0
VERTEX
  5
6E3
100
AcDbEntity
  8
ALPHA
 62
     7
100
AcDbVertex
100
AcDb2dVertex
 10
77.80829
 20
158.94289
 30
0.0
  0
VERTEX
  5
6E4
100
AcDbEntity
  8
ALPHA
 62
     7
100
AcDbVertex
100
AcDb2dVertex
 10
77.80829
 20
163.086651
 30
0.0
  0
SEQEND
  5
6E5
100
AcDbEntity
  8
ALPHA
 62
     7
  0
POLYLINE
  5
6E6
100
AcDbEntity
  8
ALPHA
 62
     7
100
AcDb2dPolyline
 66
     1
 10
0.0
 20
0.0
 30
0.0
  0
VERTEX
  5
6E7
100
AcDbEntity
  8
ALPHA
 62
     7
100
AcDbVertex
100
AcDb2dVertex
 10
94.532506
 20
157.442723
 30
0.0
  0
VERTEX
  5
6E8
100
AcDbEntity
  8
ALPHA
 62
     7
100
AcDbVertex
100
AcDb2dVertex
 10
74.59505
 20
157.442723
 30
0.0
  0
VERTEX
  5
6E9
100
AcDbEntity
  8
ALPHA
 62
     7
100
AcDbVertex
100
AcDb2dVertex
 10
74.59505
 20
163.086651
 30
0.0
  0
SEQEND
  5
6EA
100
AcDbEntity
  8
ALPHA
 62
     7
  0
POLYLINE
  5
6EB
100
AcDbEntity
  8
ALPHA
 62
     7
100
AcDb2dPolyline
 66
     1
 10
0.0
 20
0.0
 30
0.0
 70
     1
  0
VERTEX
  5
6EC
100
AcDbEntity
  8
ALPHA
 62
     7
100
AcDbVertex
100
AcDb2dVertex
 10
87.011863
 20
159.682725
 30
0.0
  0
VERTEX
  5
6ED
100
AcDbEntity
  8
ALPHA
 62
     7
100
AcDbVertex
100
AcDb2dVertex
 10
83.217779
 20
159.682725
 30
0.0
  0
VERTEX
  5
6EE
100
AcDbEntity
  8
ALPHA
 62
     7
100
AcDbVertex
100
AcDb2dVertex
 10
83.217779
 20
158.18273
 30
0.0
  0
VERTEX
  5
6EF
100
AcDbEntity
  8
ALPHA
 62
     7
100
AcDbVertex
100
AcDb2dVertex
 10
87.011863
 20
158.18273
 30
0.0
  0
SEQEND
  5
6F0
100
AcDbEntity
  8
ALPHA
 62
     7
  0
MTEXT
  5
6F1
100
AcDbEntity
  8
TEXTE
 62
     7
100
AcDbMText
 10
72.572606
 20
153.348236
 30
0.0
 40
1.312417
 41
0.0
 71
     1
 72
     2
  1
\fTxt|b0|i0;1L+
  7
STD
  0
POLYLINE
  5
6F2
100
AcDbEntity
  8
ALPHA
 62
     7
100
AcDb2dPolyline
 66
     1
 10
0.0
 20
0.0
 30
0.0
 70
     1
  0
VERTEX
  5
6F3
100
AcDbEntity
  8
ALPHA
 62
     7
100
AcDbVertex
100
AcDb2dVertex
 10
65.354959
 20
150.39268
 30
0.0
  0
VERTEX
  5
6F4
100
AcDbEntity
  8
ALPHA
 62
     7
100
AcDbVertex
100
AcDb2dVertex
 10
64.554663
 20
150.39268
 30
0.0
  0
VERTEX
  5
6F5
100
AcDbEntity
  8
ALPHA
 62
     7
100
AcDbVertex
100
AcDb2dVertex
 10
64.554663
 20
151.192804
 30
0.0
  0
VERTEX
  5
6F6
100
AcDbEntity
  8
ALPHA
 62
     7
100
AcDbVertex
100
AcDb2dVertex
 10
65.354959
 20
151.192804
 30
0.0
  0
SEQEND
  5
6F7
100
AcDbEntity
  8
ALPHA
 62
     7
  0
POLYLINE
  5
6F8
100
AcDbEntity
  8
ALPHA
 62
     7
100
AcDb2dPolyline
 66
     1
 10
0.0
 20
0.0
 30
0.0
 70
     1
  0
VERTEX
  5
6F9
100
AcDbEntity
  8
ALPHA
 62
     7
100
AcDbVertex
100
AcDb2dVertex
 10
68.568199
 20
150.39268
 30
0.0
  0
VERTEX
  5
6FA
100
AcDbEntity
  8
ALPHA
 62
     7
100
AcDbVertex
100
AcDb2dVertex
 10
67.768248
 20
150.39268
 30
0.0
  0
VERTEX
  5
6FB
100
AcDbEntity
  8
ALPHA
 62
     7
100
AcDbVertex
100
AcDb2dVertex
 10
67.768248
 20
151.192804
 30
0.0
  0
VERTEX
  5
6FC
100
AcDbEntity
  8
ALPHA
 62
     7
100
AcDbVertex
100
AcDb2dVertex
 10
68.568199
 20
151.192804
 30
0.0
  0
SEQEND
  5
6FD
100
AcDbEntity
  8
ALPHA
 62
     7
  0
MTEXT
  5
6FE
100
AcDbEntity
  8
TEXTE
 62
     7
100
AcDbMText
 10
70.322959
 20
153.348236
 30
0.0
 40
1.312417
 41
0.0
 71
     1
 72
     2
  1
\fTxt|b0|i0;16
  7
STD
  0
POLYLINE
  5
6FF
100
AcDbEntity
  8
ALPHA
 62
     7
100
AcDb2dPolyline
 66
     1
 10
0.0
 20
0.0
 30
0.0
 70
     1
  0
VERTEX
  5
700
100
AcDbEntity
  8
ALPHA
 62
     7
100
AcDbVertex
100
AcDb2dVertex
 10
71.781785
 20
150.39268
 30
0.0
  0
VERTEX
  5
701
100
AcDbEntity
  8
ALPHA
 62
     7
100
AcDbVertex
100
AcDb2dVertex
 10
70.981489
 20
150.39268
 30
0.0
  0
VERTEX
  5
702
100
AcDbEntity
  8
ALPHA
 62
     7
100
AcDbVertex
100
AcDb2dVertex
 10
70.981489
 20
151.192804
 30
0.0
  0
VERTEX
  5
703
100
AcDbEntity
  8
ALPHA
 62
     7
100
AcDbVertex
100
AcDb2dVertex
 10
71.781785
 20
151.192804
 30
0.0
  0
SEQEND
  5
704
100
AcDbEntity
  8
ALPHA
 62
     7
  0
POLYLINE
  5
705
100
AcDbEntity
  8
ALPHA
 62
     7
100
AcDb2dPolyline
 66
     1
 10
0.0
 20
0.0
 30
0.0
 70
     1
  0
VERTEX
  5
706
100
AcDbEntity
  8
ALPHA
 62
     7
100
AcDbVertex
100
AcDb2dVertex
 10
74.995025
 20
150.39268
 30
0.0
  0
VERTEX
  5
707
100
AcDbEntity
  8
ALPHA
 62
     7
100
AcDbVertex
100
AcDb2dVertex
 10
74.195074
 20
150.39268
 30
0.0
  0
VERTEX
  5
708
100
AcDbEntity
  8
ALPHA
 62
     7
100
AcDbVertex
100
AcDb2dVertex
 10
74.195074
 20
151.192804
 30
0.0
  0
VERTEX
  5
709
100
AcDbEntity
  8
ALPHA
 62
     7
100
AcDbVertex
100
AcDb2dVertex
 10
74.995025
 20
151.192804
 30
0.0
  0
SEQEND
  5
70A
100
AcDbEntity
  8
ALPHA
 62
     7
  0
MTEXT
  5
70B
100
AcDbEntity
  8
TEXTE
 62
     7
100
AcDbMText
 10
82.577508
 20
142.759562
 30
0.0
 40
1.312417
 41
0.0
 71
     1
 72
     2
  1
\fTxt|b0|i0;lente
  7
STD
  0
MTEXT
  5
70C
100
AcDbEntity
  8
TEXTE
 62
     7
100
AcDbMText
 10
76.80594
 20
153.348236
 30
0.0
 40
1.312417
 41
0.0
 71
     1
 72
     2
  1
\fTxt|b0|i0;2L1
  7
STD
  0
POLYLINE
  5
70D
100
AcDbEntity
  8
ALPHA
 62
     7
100
AcDb2dPolyline
 66
     1
 10
0.0
 20
0.0
 30
0.0
 70
     1
  0
VERTEX
  5
70E
100
AcDbEntity
  8
ALPHA
 62
     7
100
AcDbVertex
100
AcDb2dVertex
 10
78.20861
 20
150.39268
 30
0.0
  0
VERTEX
  5
70F
100
AcDbEntity
  8
ALPHA
 62
     7
100
AcDbVertex
100
AcDb2dVertex
 10
77.408314
 20
150.39268
 30
0.0
  0
VERTEX
  5
710
100
AcDbEntity
  8
ALPHA
 62
     7
100
AcDbVertex
100
AcDb2dVertex
 10
77.408314
 20
151.192804
 30
0.0
  0
VERTEX
  5
711
100
AcDbEntity
  8
ALPHA
 62
     7
100
AcDbVertex
100
AcDb2dVertex
 10
78.20861
 20
151.192804
 30
0.0
  0
SEQEND
  5
712
100
AcDbEntity
  8
ALPHA
 62
     7
  0
POLYLINE
  5
713
100
AcDbEntity
  8
ALPHA
 62
     7
100
AcDb2dPolyline
 66
     1
 10
0.0
 20
0.0
 30
0.0
 70
     1
  0
VERTEX
  5
714
100
AcDbEntity
  8
ALPHA
 62
     7
100
AcDbVertex
100
AcDb2dVertex
 10
87.01169
 20
156.682219
 30
0.0
  0
VERTEX
  5
715
100
AcDbEntity
  8
ALPHA
 62
     7
100
AcDbVertex
100
AcDb2dVertex
 10
83.217607
 20
156.682219
 30
0.0
  0
VERTEX
  5
716
100
AcDbEntity
  8
ALPHA
 62
     7
100
AcDbVertex
100
AcDb2dVertex
 10
83.217607
 20
155.182224
 30
0.0
  0
VERTEX
  5
717
100
AcDbEntity
  8
ALPHA
 62
     7
100
AcDbVertex
100
AcDb2dVertex
 10
87.01169
 20
155.182224
 30
0.0
  0
SEQEND
  5
718
100
AcDbEntity
  8
ALPHA
 62
     7
  0
MTEXT
  5
719
100
AcDbEntity
  8
TEXTE
 62
     7
100
AcDbMText
 10
73.324671
 20
166.142115
 30
0.0
 40
1.312417
 41
0.0
 71
     1
 72
     2
  1
\fTxt|b0|i0;M-
  7
STD
  0
MTEXT
  5
71A
100
AcDbEntity
  8
TEXTE
 62
     7
100
AcDbMText
 10
66.8975
 20
166.142115
 30
0.0
 40
1.312417
 41
0.0
 71
     1
 72
     2
  1
\fTxt|b0|i0;M-
  7
STD
  0
POLYLINE
  5
71B
100
AcDbEntity
  8
ALPHA
 62
     7
100
AcDb2dPolyline
 66
     1
 10
0.0
 20
0.0
 30
0.0
  0
VERTEX
  5
71C
100
AcDbEntity
  8
ALPHA
 62
     7
100
AcDbVertex
100
AcDb2dVertex
 10
74.59505
 20
163.086651
 30
0.0
  0
VERTEX
  5
71D
100
AcDbEntity
  8
ALPHA
 62
     7
100
AcDbVertex
100
AcDb2dVertex
 10
73.594938
 20
162.08654
 30
0.0
  0
VERTEX
  5
71E
100
AcDbEntity
  8
ALPHA
 62
     7
100
AcDbVertex
100
AcDb2dVertex
 10
69.168335
 20
162.08654
 30
0.0
  0
VERTEX
  5
71F
100
AcDbEntity
  8
ALPHA
 62
     7
100
AcDbVertex
100
AcDb2dVertex
 10
68.168224
 20
163.086651
 30
0.0
  0
SEQEND
  5
720
100
AcDbEntity
  8
ALPHA
 62
     7
  0
POLYLINE
  5
721
100
AcDbEntity
  8
ALPHA
 62
     7
100
AcDb2dPolyline
 66
     1
 10
0.0
 20
0.0
 30
0.0
 70
     1
  0
VERTEX
  5
722
100
AcDbEntity
  8
ALPHA
 62
     7
100
AcDbVertex
100
AcDb2dVertex
 10
68.568199
 20
162.686676
 30
0.0
  0
VERTEX
  5
723
100
AcDbEntity
  8
ALPHA
 62
     7
100
AcDbVertex
100
AcDb2dVertex
 10
67.768248
 20
162.686676
 30
0.0
  0
VERTEX
  5
724
100
AcDbEntity
  8
ALPHA
 62
     7
100
AcDbVertex
100
AcDb2dVertex
 10
67.768248
 20
163.486627
 30
0.0
  0
VERTEX
  5
725
100
AcDbEntity
  8
ALPHA
 62
     7
100
AcDbVertex
100
AcDb2dVertex
 10
68.568199
 20
163.486627
 30
0.0
  0
SEQEND
  5
726
100
AcDbEntity
  8
ALPHA
 62
     7
  0
POLYLINE
  5
727
100
AcDbEntity
  8
ALPHA
 62
     7
100
AcDb2dPolyline
 66
     1
 10
0.0
 20
0.0
 30
0.0
 70
     1
  0
VERTEX
  5
728
100
AcDbEntity
  8
ALPHA
 62
     7
100
AcDbVertex
100
AcDb2dVertex
 10
65.354959
 20
162.686676
 30
0.0
  0
VERTEX
  5
729
100
AcDbEntity
  8
ALPHA
 62
     7
100
AcDbVertex
100
AcDb2dVertex
 10
64.554663
 20
162.686676
 30
0.0
  0
VERTEX
  5
72A
100
AcDbEntity
  8
ALPHA
 62
     7
100
AcDbVertex
100
AcDb2dVertex
 10
64.554663
 20
163.486627
 30
0.0
  0
VERTEX
  5
72B
100
AcDbEntity
  8
ALPHA
 62
     7
100
AcDbVertex
100
AcDb2dVertex
 10
65.354959
 20
163.486627
 30
0.0
  0
SEQEND
  5
72C
100
AcDbEntity
  8
ALPHA
 62
     7
  0
POLYLINE
  5
72D
100
AcDbEntity
  8
ALPHA
 62
     7
100
AcDb2dPolyline
 66
     1
 10
0.0
 20
0.0
 30
0.0
 70
     1
  0
VERTEX
  5
72E
100
AcDbEntity
  8
ALPHA
 62
     7
100
AcDbVertex
100
AcDb2dVertex
 10
74.995025
 20
162.686676
 30
0.0
  0
VERTEX
  5
72F
100
AcDbEntity
  8
ALPHA
 62
     7
100
AcDbVertex
100
AcDb2dVertex
 10
74.195074
 20
162.686676
 30
0.0
  0
VERTEX
  5
730
100
AcDbEntity
  8
ALPHA
 62
     7
100
AcDbVertex
100
AcDb2dVertex
 10
74.195074
 20
163.486627
 30
0.0
  0
VERTEX
  5
731
100
AcDbEntity
  8
ALPHA
 62
     7
100
AcDbVertex
100
AcDb2dVertex
 10
74.995025
 20
163.486627
 30
0.0
  0
SEQEND
  5
732
100
AcDbEntity
  8
ALPHA
 62
     7
  0
POLYLINE
  5
733
100
AcDbEntity
  8
ALPHA
 62
     7
100
AcDb2dPolyline
 66
     1
 10
0.0
 20
0.0
 30
0.0
 70
     1
  0
VERTEX
  5
734
100
AcDbEntity
  8
ALPHA
 62
     7
100
AcDbVertex
100
AcDb2dVertex
 10
71.781785
 20
162.686676
 30
0.0
  0
VERTEX
  5
735
100
AcDbEntity
  8
ALPHA
 62
     7
100
AcDbVertex
100
AcDb2dVertex
 10
70.981489
 20
162.686676
 30
0.0
  0
VERTEX
  5
736
100
AcDbEntity
  8
ALPHA
 62
     7
100
AcDbVertex
100
AcDb2dVertex
 10
70.981489
 20
163.486627
 30
0.0
  0
VERTEX
  5
737
100
AcDbEntity
  8
ALPHA
 62
     7
100
AcDbVertex
100
AcDb2dVertex
 10
71.781785
 20
163.486627
 30
0.0
  0
SEQEND
  5
738
100
AcDbEntity
  8
ALPHA
 62
     7
  0
MTEXT
  5
739
100
AcDbEntity
  8
TEXTE
 62
     7
100
AcDbMText
 10
69.687339
 20
166.142115
 30
0.0
 40
1.312417
 41
0.0
 71
     1
 72
     2
  1
\fTxt|b0|i0;1L+
  7
STD
  0
POLYLINE
  5
73A
100
AcDbEntity
  8
ALPHA
 62
     7
100
AcDb2dPolyline
 66
     1
 10
0.0
 20
0.0
 30
0.0
 70
     1
  0
VERTEX
  5
73B
100
AcDbEntity
  8
ALPHA
 62
     7
100
AcDbVertex
100
AcDb2dVertex
 10
78.20861
 20
162.686676
 30
0.0
  0
VERTEX
  5
73C
100
AcDbEntity
  8
ALPHA
 62
     7
100
AcDbVertex
100
AcDb2dVertex
 10
77.408314
 20
162.686676
 30
0.0
  0
VERTEX
  5
73D
100
AcDbEntity
  8
ALPHA
 62
     7
100
AcDbVertex
100
AcDb2dVertex
 10
77.408314
 20
163.486627
 30
0.0
  0
VERTEX
  5
73E
100
AcDbEntity
  8
ALPHA
 62
     7
100
AcDbVertex
100
AcDb2dVertex
 10
78.20861
 20
163.486627
 30
0.0
  0
SEQEND
  5
73F
100
AcDbEntity
  8
ALPHA
 62
     7
  0
MTEXT
  5
740
100
AcDbEntity
  8
TEXTE
 62
     7
100
AcDbMText
 10
76.538083
 20
166.142115
 30
0.0
 40
1.312417
 41
0.0
 71
     1
 72
     2
  1
\fTxt|b0|i0;L+
  7
STD
  0
MTEXT
  5
741
100
AcDbEntity
  8
TEXTE
 62
     7
100
AcDbMText
 10
82.471571
 20
166.149522
 30
0.0
 40
1.312417
 41
0.0
 71
     1
 72
     2
  1
\fTxt|b0|i0;315mA
  7
STD
  0
LINE
  5
742
100
AcDbEntity
  8
TEXTE
 62
     7
100
AcDbLine
 10
87.446978
 20
167.73598
 30
0.0
 11
86.809291
 21
167.73598
 31
0.0
  0
LINE
  5
743
100
AcDbEntity
  8
TEXTE
 62
     7
100
AcDbLine
 10
88.433654
 20
167.73598
 30
0.0
 11
87.796311
 21
167.73598
 31
0.0
  0
MTEXT
  5
744
100
AcDbEntity
  8
TEXTE
 62
     7
100
AcDbMText
 10
90.219591
 20
169.048397
 30
0.0
 40
1.312417
 41
0.0
 71
     1
 72
     2
  1
\fTxt|b0|i0;24V
  7
STD
  0
MTEXT
  5
745
100
AcDbEntity
  8
TEXTE
 62
     7
100
AcDbMText
 10
90.721369
 20
166.548119
 30
0.0
 40
1.312417
 41
0.0
 71
     1
 72
     2
  1
\fTxt|b0|i0;Retour
  7
STD
  0
MTEXT
  5
746
100
AcDbEntity
  8
TEXTE
 62
     7
100
AcDbMText
 10
98.480758
 20
164.047841
 30
0.0
 40
1.312417
 41
0.0
 71
     1
 72
     2
  1
\fTxt|b0|i0;L
  7
STD
  0
LINE
  5
747
100
AcDbEntity
  8
TEXTE
 62
     7
100
AcDbLine
 10
89.415161
 20
167.73598
 30
0.0
 11
88.777819
 21
167.73598
 31
0.0
  0
MTEXT
  5
748
100
AcDbEntity
  8
TEXTE
 62
     7
100
AcDbMText
 10
103.064113
 20
161.547563
 30
0.0
 40
1.312417
 41
0.0
 71
     1
 72
     2
  1
\fTxt|b0|i0;N
  7
STD
  0
ENDSEC
  0
SECTION
  2
OBJECTS
  0
DICTIONARY
  5
F8
100
AcDbDictionary
  3
ACAD_GROUP
350
F9
  3
ACAD_MLINESTYLE
350
106
  3
ACDBVARIABLEDICTIONARY
350
143
  0
DICTIONARY
  5
F9
102
{ACAD_REACTORS
330
F8
102
}
100
AcDbDictionary
  0
DICTIONARY
  5
106
102
{ACAD_REACTORS
330
F8
102
}
100
AcDbDictionary
  3
STANDARD
350
107
  0
DICTIONARY
  5
143
102
{ACAD_REACTORS
330
F8
102
}
100
AcDbDictionary
  3
DIMADEC
350
144
  0
MLINESTYLE
  5
107
102
{ACAD_REACTORS
330
106
102
}
100
AcDbMlineStyle
  2
STANDARD
 70
     0
  3

 62
   256
 51
90.0
 52
90.0
 71
     2
 49
0.5
 62
   256
  6
BYLAYER
 49
-0.5
 62
   256
  6
BYLAYER
  0
DICTIONARYVAR
  5
144
102
{ACAD_REACTORS
330
143
102
}
100
DictionaryVariables
280
     0
  1
0
  0
ENDSEC
  0
EOF
