999
DXF file: C:\Users\sesa63760\Dev\_Creo\CAD\MCADPP0003149_3D-CAD\drw0001_1.dxf
999
Pro/ENGINEER 2019471 by Parametric Technology Corporation
  0
SECTION
  2
HEADER
  9
$ACADVER
  1
AC1024
  9
$DWGCODEPAGE
  3
ANSI_1252
  9
$EXTMAX
 10
214.973034339
 20
304.0332914223
 30
0.0
  9
$EXTMIN
 10
0.0
 20
0.0
 30
0.0
  9
$LIMMIN
 10
0.0
 20
0.0
  9
$LIMMAX
 10
214.973034339
 20
304.0332914223
  9
$VIEWCTR
 10
107.4865171695
 20
152.0166457111
  9
$VIEWSIZE
 40
304.0332914223
  9
$CLAYER
  8
0
  9
$LTSCALE
 40
19.8184664038
  9
$CELTYPE
  6
BYLAYER
  9
$DIMSCALE
 40
1.0
  9
$DIMASZ
 40
2.5592027897
  9
$DIMEXO
 40
1.0
  9
$DIMDLI
 40
13.6927586063
  9
$DIMEXE
 40
1.0
  9
$DIMCEN
 40
3.2430217752
  9
$DIMLFAC
 40
1.0
  9
$DIMBLK
  1
_FILLED
  9
$DIMALT
 70
0
  9
$DIMALTF
 40
0.0393700787
  9
$DIMTXT
 40
3.5828839056
  9
$DIMTOL
 70
1
  9
$DIMLIM
 70
0
  9
$DIMTFAC
 40
1.0
  9
$DIMTP
 40
0.01
  9
$DIMTM
 40
0.01
  9
$DIMGAP
 40
0.625
  9
$DIMDSEP
 70
46
  9
$AUNITS
 70
0
  9
$PDMODE
 70
3
  9
$PDSIZE
 40
0.3125
  9
$HANDSEED
  5
2E5
  9
$TILEMODE
 70
1
  9
$MEASUREMENT
 70
1
  9
$INSUNITS
 70
4
  0
ENDSEC
  0
SECTION
  2
CLASSES
  0
CLASS
  1
ACDBDICTIONARYWDFLT
  2
AcDbDictionaryWithDefault
  3
AutoCAD 2000
 90
0
 91
1
280
0
281
0
  0
CLASS
  1
ACDBPLACEHOLDER
  2
AcDbPlaceHolder
  3
AutoCAD 2000
 90
0
 91
1
280
0
281
0
  0
CLASS
  1
LAYOUT
  2
AcDbLayout
  3
AutoCAD 2000
 90
0
 91
0
280
0
281
0
  0
ENDSEC
  0
SECTION
  2
TABLES
  0
TABLE
  2
VPORT
  5
8
100
AcDbSymbolTable
 70
2
  0
VPORT
  5
1F4
100
AcDbSymbolTableRecord
100
AcDbViewportTableRecord
  2
*ACTIVE
 70
0
 10
0.0
 20
0.0
 11
1.0
 21
1.0
 12
107.4865171695
 22
152.0166457111
 13
0.0
 23
0.0
 14
1.0
 24
1.0
 15
0.0
 25
0.0
 16
0.0
 26
0.0
 36
1.0
 17
0.0
 27
0.0
 37
0.0
 40
304.0332914223
 41
0.7070707071
 42
50.0
 43
0.0
 44
0.0
 50
0.0
 51
0.0
 71
0
 72
100
 73
1
 74
1
 75
0
 76
0
 77
0
 78
0
  0
ENDTAB
  0
TABLE
  2
LTYPE
  5
5
100
AcDbSymbolTable
 70
6
  0
LTYPE
  5
14
100
AcDbSymbolTableRecord
100
AcDbLinetypeTableRecord
  2
BYBLOCK
 70
0
  3

 72
65
 73
0
 40
0.0
  0
LTYPE
  5
15
100
AcDbSymbolTableRecord
100
AcDbLinetypeTableRecord
  2
BYLAYER
 70
0
  3

 72
65
 73
0
 40
0.0
  0
LTYPE
  5
16
100
AcDbSymbolTableRecord
100
AcDbLinetypeTableRecord
  2
CONTINUOUS
 70
64
  3
Solid line
 72
65
 73
0
 40
0.0
  0
LTYPE
  5
1F5
100
AcDbSymbolTableRecord
100
AcDbLinetypeTableRecord
  2
CENTER
 70
64
  3
____ _ ____ _ ____ _ ____ _ ____ _ ____ _ ____
 72
65
 73
4
 40
0.6
 49
0.375
 74
0
 49
-0.075
 74
0
 49
0.075
 74
0
 49
-0.075
 74
0
  0
LTYPE
  5
1F6
100
AcDbSymbolTableRecord
100
AcDbLinetypeTableRecord
  2
HIDDEN
 70
64
  3
- - - - - - - - - - - - - - - - - - - -
 72
65
 73
2
 40
0.2
 49
0.1
 74
0
 49
-0.1
 74
0
  0
LTYPE
  5
1F7
100
AcDbSymbolTableRecord
100
AcDbLinetypeTableRecord
  2
PHANTOM
 70
64
  3
_____ _ _ _____ _ _ _____ _ _ _____
 72
65
 73
6
 40
0.8
 49
0.45
 74
0
 49
-0.05
 74
0
 49
0.1
 74
0
 49
-0.05
 74
0
 49
0.1
 74
0
 49
-0.05
 74
0
  0
LTYPE
  5
1F8
100
AcDbSymbolTableRecord
100
AcDbLinetypeTableRecord
  2
DOT
 70
64
  3
. . . . . . . . . . . . . . . . . . . .
 72
65
 73
2
 40
0.2
 49
0.1
 74
0
 49
-0.1
 74
0
  0
LTYPE
  5
1F9
100
AcDbSymbolTableRecord
100
AcDbLinetypeTableRecord
  2
DASHED
 70
64
  3
- - - - - - - - - - - - - - - - - - - -
 72
65
 73
2
 40
0.2
 49
0.1
 74
0
 49
-0.1
 74
0
  0
ENDTAB
  0
TABLE
  2
LAYER
  5
2
100
AcDbSymbolTable
 70
36
  0
LAYER
  5
10
100
AcDbSymbolTableRecord
100
AcDbLayerTableRecord
  2
0
 70
0
 62
7
  6
CONTINUOUS
370
-3
390
F
  0
LAYER
  5
1FA
100
AcDbSymbolTableRecord
100
AcDbLayerTableRecord
  2
DEFAULT_1
 70
0
 62
7
  6
CENTER
370
-3
390
F
  0
LAYER
  5
1FB
100
AcDbSymbolTableRecord
100
AcDbLayerTableRecord
  2
DEFAULT_2
 70
0
 62
8
  6
HIDDEN
370
-3
390
F
  0
LAYER
  5
1FC
100
AcDbSymbolTableRecord
100
AcDbLayerTableRecord
  2
DEFAULT_3
 70
0
 62
7
  6
PHANTOM
370
-3
390
F
  0
LAYER
  5
1FD
100
AcDbSymbolTableRecord
100
AcDbLayerTableRecord
  2
00_COMPONENTS
 70
0
 62
7
  6
CONTINUOUS
370
-3
390
F
  0
LAYER
  5
1FE
100
AcDbSymbolTableRecord
100
AcDbLayerTableRecord
  2
01_1_DEFAULT_DATUMS
 70
0
 62
7
  6
CONTINUOUS
370
-3
390
F
  0
LAYER
  5
1FF
100
AcDbSymbolTableRecord
100
AcDbLayerTableRecord
  2
01_PLANES
 70
0
 62
7
  6
CONTINUOUS
370
-3
390
F
  0
LAYER
  5
200
100
AcDbSymbolTableRecord
100
AcDbLayerTableRecord
  2
02_COORD_SYS
 70
0
 62
7
  6
CONTINUOUS
370
-3
390
F
  0
LAYER
  5
201
100
AcDbSymbolTableRecord
100
AcDbLayerTableRecord
  2
03_AXES
 70
0
 62
7
  6
CONTINUOUS
370
-3
390
F
  0
LAYER
  5
202
100
AcDbSymbolTableRecord
100
AcDbLayerTableRecord
  2
04_POINTS
 70
0
 62
7
  6
CONTINUOUS
370
-3
390
F
  0
LAYER
  5
203
100
AcDbSymbolTableRecord
100
AcDbLayerTableRecord
  2
05_CURVES
 70
0
 62
7
  6
CONTINUOUS
370
-3
390
F
  0
LAYER
  5
204
100
AcDbSymbolTableRecord
100
AcDbLayerTableRecord
  2
06_SURFS
 70
0
 62
7
  6
CONTINUOUS
370
-3
390
F
  0
LAYER
  5
205
100
AcDbSymbolTableRecord
100
AcDbLayerTableRecord
  2
07_COSMETICS
 70
0
 62
7
  6
CONTINUOUS
370
-3
390
F
  0
LAYER
  5
206
100
AcDbSymbolTableRecord
100
AcDbLayerTableRecord
  2
10_NOTES
 70
0
 62
7
  6
CONTINUOUS
370
-3
390
F
  0
LAYER
  5
207
100
AcDbSymbolTableRecord
100
AcDbLayerTableRecord
  2
11_NOTES_PUB
 70
0
 62
7
  6
CONTINUOUS
370
-3
390
F
  0
LAYER
  5
208
100
AcDbSymbolTableRecord
100
AcDbLayerTableRecord
  2
13_REF_GTOL
 70
0
 62
7
  6
CONTINUOUS
370
-3
390
F
  0
LAYER
  5
209
100
AcDbSymbolTableRecord
100
AcDbLayerTableRecord
  2
16_MISC
 70
0
 62
7
  6
CONTINUOUS
370
-3
390
F
  0
LAYER
  5
20A
100
AcDbSymbolTableRecord
100
AcDbLayerTableRecord
  2
17_NO_PRINT
 70
0
 62
7
  6
CONTINUOUS
370
-3
390
F
  0
LAYER
  5
20B
100
AcDbSymbolTableRecord
100
AcDbLayerTableRecord
  2
18_DATUM_CAMS_JOINTS
 70
0
 62
7
  6
CONTINUOUS
370
-3
390
F
  0
LAYER
  5
20C
100
AcDbSymbolTableRecord
100
AcDbLayerTableRecord
  2
19_DATUM_FUNCTIONAL
 70
0
 62
7
  6
CONTINUOUS
370
-3
390
F
  0
LAYER
  5
20D
100
AcDbSymbolTableRecord
100
AcDbLayerTableRecord
  2
20_DATUM_KINEMATIC_SCHEME
 70
0
 62
7
  6
CONTINUOUS
370
-3
390
F
  0
LAYER
  5
20E
100
AcDbSymbolTableRecord
100
AcDbLayerTableRecord
  2
SHELL165
 70
0
 62
7
  6
CONTINUOUS
370
-3
390
F
  0
ENDTAB
  0
TABLE
  2
STYLE
  5
3
100
AcDbSymbolTable
 70
1
  0
STYLE
  5
11
100
AcDbSymbolTableRecord
100
AcDbTextStyleTableRecord
  2
STANDARD
 70
0
 40
0.0
 41
0.8
 50
0.0
 71
0
 42
0.2
  3
txt
  4

  0
STYLE
  5
20F
100
AcDbSymbolTableRecord
100
AcDbTextStyleTableRecord
  2
TEXTSTYLE_1
 70
0
 40
0.0
 41
0.8
 50
0.0
 71
0
 42
0.2
  3
gdt
  4

  0
ENDTAB
  0
TABLE
  2
VIEW
  5
6
100
AcDbSymbolTable
 70
0
  0
ENDTAB
  0
TABLE
  2
UCS
  5
7
100
AcDbSymbolTable
 70
0
  0
ENDTAB
  0
TABLE
  2
APPID
  5
9
100
AcDbSymbolTable
 70
1
  0
APPID
  5
210
100
AcDbSymbolTableRecord
100
AcDbRegAppTableRecord
  2
ACAD
 70
0
  0
ENDTAB
  0
TABLE
  2
BLOCK_RECORD
  5
1
100
AcDbSymbolTable
 70
0
  0
BLOCK_RECORD
  5
211
100
AcDbSymbolTableRecord
100
AcDbBlockTableRecord
  2
*Model_Space
  0
BLOCK_RECORD
  5
212
100
AcDbSymbolTableRecord
100
AcDbBlockTableRecord
  2
*Paper_Space
  0
BLOCK_RECORD
  5
213
100
AcDbSymbolTableRecord
100
AcDbBlockTableRecord
  2
_FILLED
  0
ENDTAB
  0
TABLE
  2
DIMSTYLE
  5
A
100
AcDbSymbolTable
 70
1
100
AcDbDimStyleTable
 71
0
  0
DIMSTYLE
105
214
100
AcDbSymbolTableRecord
100
AcDbDimStyleTableRecord
  2
STANDARD
 70
0
  3

  4

 40
1.0
 41
2.5592027897
 42
1.0
 43
0.38
 44
1.0
 45
0.0
 46
0.0
 47
0.01
 48
0.01
140
3.5828839056
141
0.09
142
0.0
143
25.4
144
1.0
145
0.0
146
1.0
147
0.625
 71
1
 72
0
 73
0
 74
0
 75
0
 76
0
 77
1
 78
8
 79
2
170
0
171
1
172
0
173
0
174
0
175
0
176
0
177
0
178
0
270
2
179
2
271
2
272
2
273
2
274
2
275
0
280
0
281
0
282
0
283
1
284
8
285
0
286
0
287
3
288
0
340
11
278
46
341
213
342
213
343
213
344
213
  0
ENDTAB
  0
ENDSEC
  0
SECTION
  2
BLOCKS
  0
BLOCK
  5
20
100
AcDbEntity
  8
0
100
AcDbBlockBegin
  2
*Model_Space
 70
0
 10
0.0
 20
0.0
 30
0.0
  3
*Model_Space
  1

  0
ENDBLK
  5
21
100
AcDbEntity
  8
0
100
AcDbBlockEnd
  0
BLOCK
  5
1C
100
AcDbEntity
  8
0
100
AcDbBlockBegin
  2
*Paper_Space
 70
0
 10
0.0
 20
0.0
 30
0.0
  3
*Paper_Space
  1

  0
ENDBLK
  5
1D
100
AcDbEntity
  8
0
100
AcDbBlockEnd
  0
BLOCK
  5
215
100
AcDbEntity
  8
0
100
AcDbBlockBegin
  2
_FILLED
 70
64
 10
0.0
 20
0.0
  3
_FILLED
  1

  0
SOLID
  5
216
100
AcDbEntity
  8
0
  6
BYBLOCK
 62
0
100
AcDbTrace
 10
0.0
 20
0.0
 11
-1.0
 21
0.25
 12
-1.0
 22
-0.25
 13
-1.0
 23
-0.25
  0
ENDBLK
  5
217
100
AcDbEntity
  8
0
  6
BYBLOCK
 62
0
100
AcDbBlockEnd
  0
ENDSEC
  0
SECTION
  2
ENTITIES
  0
LINE
  5
218
100
AcDbEntity
  8
0
100
AcDbLine
 62
7
  6
CONTINUOUS
 10
24.9393453068
 20
184.6683834575
 11
24.9393453068
 21
185.4848858746
  0
LINE
  5
219
100
AcDbEntity
  8
0
100
AcDbLine
 62
7
  6
CONTINUOUS
 10
27.7677606557
 20
187.2811629736
 11
27.7677606557
 21
191.4453253009
  0
LINE
  5
21A
100
AcDbEntity
  8
0
100
AcDbLine
 62
7
  6
CONTINUOUS
 10
38.2279074782
 20
195.0787304987
 11
38.3743417746
 21
195.2828508812
  0
LINE
  5
21B
100
AcDbEntity
  8
0
100
AcDbLine
 62
7
  6
CONTINUOUS
 10
28.6162852603
 20
192.9150211861
 11
31.3032798417
 21
194.4663489708
  0
LINE
  5
21C
100
AcDbEntity
  8
0
100
AcDbLine
 62
7
  6
CONTINUOUS
 10
34.8387990278
 20
196.5075697402
 11
39.7885258883
 21
199.3652788173
  0
LINE
  5
21D
100
AcDbEntity
  8
0
100
AcDbLine
 62
7
  6
CONTINUOUS
 10
43.3240450744
 20
201.4064995867
 11
46.0110396558
 21
202.9578273714
  0
LINE
  5
21E
100
AcDbEntity
  8
0
100
AcDbLine
 62
7
  6
CONTINUOUS
 10
41.9098609517
 20
197.3240716453
 11
38.3743417656
 21
195.282850876
  0
LINE
  5
21F
100
AcDbEntity
  8
0
100
AcDbLine
 62
7
  6
CONTINUOUS
 10
38.7279117914
 20
194.6704809899
 11
41.9098609517
 21
196.5075692282
  0
LINE
  5
220
100
AcDbEntity
  8
0
100
AcDbLine
 62
7
  6
CONTINUOUS
 10
38.3743417656
 20
194.8746084166
 11
38.3743417656
 21
195.282850876
  0
LINE
  5
221
100
AcDbEntity
  8
0
100
AcDbLine
 62
7
  6
CONTINUOUS
 10
41.9098609517
 20
197.3240716453
 11
41.9098609517
 21
196.5075692282
  0
LINE
  5
222
100
AcDbEntity
  8
0
100
AcDbLine
 62
7
  6
CONTINUOUS
 10
42.6169677329
 20
196.5075709279
 11
42.6169677329
 21
197.324073345
  0
LINE
  5
223
100
AcDbEntity
  8
0
100
AcDbLine
 62
7
  6
CONTINUOUS
 10
54.7842702917
 20
190.1798584412
 11
54.6378359954
 21
189.9757380588
  0
LINE
  5
224
100
AcDbEntity
  8
0
100
AcDbLine
 62
7
  6
CONTINUOUS
 10
24.9393453068
 20
185.4848858746
 11
27.6263398882
 21
187.0362136594
  0
LINE
  5
225
100
AcDbEntity
  8
0
100
AcDbLine
 62
7
  6
CONTINUOUS
 10
55.9056506069
 20
184.8727116357
 11
56.0520849032
 21
185.0768320181
  0
LINE
  5
226
100
AcDbEntity
  8
0
100
AcDbLine
 62
7
  6
CONTINUOUS
 10
51.1023168183
 20
187.9345172946
 11
54.6378360043
 21
189.975738064
  0
LINE
  5
227
100
AcDbEntity
  8
0
100
AcDbLine
 62
7
  6
CONTINUOUS
 10
54.6378330604
 20
190.3839805182
 11
54.6378330604
 21
189.9757380588
  0
LINE
  5
228
100
AcDbEntity
  8
0
100
AcDbLine
 62
7
  6
CONTINUOUS
 10
56.0520848943
 20
184.6685895536
 11
56.0520848943
 21
185.076832013
  0
LINE
  5
229
100
AcDbEntity
  8
0
100
AcDbLine
 62
7
  6
CONTINUOUS
 10
59.5876040804
 20
187.1180527823
 11
56.0520848943
 21
185.076832013
  0
LINE
  5
22A
100
AcDbEntity
  8
0
100
AcDbLine
 62
7
  6
CONTINUOUS
 10
56.4056549201
 20
184.4644621269
 11
59.5876040804
 21
186.3015503652
  0
LINE
  5
22B
100
AcDbEntity
  8
0
100
AcDbLine
 62
7
  6
CONTINUOUS
 10
59.5876040804
 20
187.1180527823
 11
59.5876040804
 21
186.3015503652
  0
LINE
  5
22C
100
AcDbEntity
  8
0
100
AcDbLine
 62
7
  6
CONTINUOUS
 10
60.2947108615
 20
186.3015520649
 11
60.2947108615
 21
187.118054482
  0
LINE
  5
22D
100
AcDbEntity
  8
0
100
AcDbLine
 62
7
  6
CONTINUOUS
 10
72.4620134204
 20
179.9738395782
 11
72.3155791241
 21
179.7697191958
  0
LINE
  5
22E
100
AcDbEntity
  8
0
100
AcDbLine
 62
7
  6
CONTINUOUS
 10
73.5833937356
 20
174.6666927727
 11
73.7298280319
 21
174.8708131551
  0
LINE
  5
22F
100
AcDbEntity
  8
0
100
AcDbLine
 62
7
  6
CONTINUOUS
 10
68.7800599469
 20
177.7284984316
 11
72.315579133
 21
179.769719201
  0
LINE
  5
230
100
AcDbEntity
  8
0
100
AcDbLine
 62
7
  6
CONTINUOUS
 10
72.315576189
 20
180.1779616552
 11
72.315576189
 21
179.7697191958
  0
LINE
  5
231
100
AcDbEntity
  8
0
100
AcDbLine
 62
7
  6
CONTINUOUS
 10
73.729828023
 20
174.4625706906
 11
73.729828023
 21
174.87081315
  0
LINE
  5
232
100
AcDbEntity
  8
0
100
AcDbLine
 62
7
  6
CONTINUOUS
 10
77.265347209
 20
176.9120339193
 11
77.265347209
 21
176.0955315022
  0
LINE
  5
233
100
AcDbEntity
  8
0
100
AcDbLine
 62
7
  6
CONTINUOUS
 10
77.265347209
 20
176.9120339193
 11
73.729828023
 21
174.87081315
  0
LINE
  5
234
100
AcDbEntity
  8
0
100
AcDbLine
 62
7
  6
CONTINUOUS
 10
74.0833980487
 20
174.2584432639
 11
77.265347209
 21
176.0955315022
  0
LINE
  5
235
100
AcDbEntity
  8
0
100
AcDbLine
 62
7
  6
CONTINUOUS
 10
38.3743447185
 20
194.8746084166
 11
38.2279074782
 21
195.0787304987
  0
LINE
  5
236
100
AcDbEntity
  8
0
100
AcDbLine
 62
7
  6
CONTINUOUS
 10
77.9724539902
 20
176.0955332019
 11
77.9724539902
 21
176.912035619
  0
LINE
  5
237
100
AcDbEntity
  8
0
100
AcDbLine
 62
7
  6
CONTINUOUS
 10
90.139756549
 20
169.7678207152
 11
89.9933222527
 21
169.5637003328
  0
LINE
  5
238
100
AcDbEntity
  8
0
100
AcDbLine
 62
7
  6
CONTINUOUS
 10
89.9933193177
 20
169.9719427922
 11
89.9933193177
 21
169.5637003328
  0
LINE
  5
239
100
AcDbEntity
  8
0
100
AcDbLine
 62
7
  6
CONTINUOUS
 10
91.2611368643
 20
164.4606739097
 11
91.4075711606
 21
164.6647942921
  0
LINE
  5
23A
100
AcDbEntity
  8
0
100
AcDbLine
 62
7
  6
CONTINUOUS
 10
86.4578030756
 20
167.5224795686
 11
89.9933222617
 21
169.563700338
  0
LINE
  5
23B
100
AcDbEntity
  8
0
100
AcDbLine
 62
7
  6
CONTINUOUS
 10
94.9430903377
 20
166.7060150563
 11
91.4075711516
 21
164.664794287
  0
LINE
  5
23C
100
AcDbEntity
  8
0
100
AcDbLine
 62
7
  6
CONTINUOUS
 10
91.7611411774
 20
164.0524244009
 11
94.9430903377
 21
165.8895126392
  0
LINE
  5
23D
100
AcDbEntity
  8
0
100
AcDbLine
 62
7
  6
CONTINUOUS
 10
56.0520878472
 20
184.6685895536
 11
55.9056506069
 21
184.8727116357
  0
LINE
  5
23E
100
AcDbEntity
  8
0
100
AcDbLine
 62
7
  6
CONTINUOUS
 10
54.6378330514
 20
190.3839805233
 11
54.7842702917
 21
190.1798584412
  0
LINE
  5
23F
100
AcDbEntity
  8
0
100
AcDbLine
 62
7
  6
CONTINUOUS
 10
91.4075711516
 20
164.2565518276
 11
91.4075711516
 21
164.664794287
  0
LINE
  5
240
100
AcDbEntity
  8
0
100
AcDbLine
 62
7
  6
CONTINUOUS
 10
94.9430903377
 20
166.7060150563
 11
94.9430903377
 21
165.8895126392
  0
LINE
  5
241
100
AcDbEntity
  8
0
100
AcDbLine
 62
7
  6
CONTINUOUS
 10
95.6501971189
 20
165.8895143389
 11
95.6501971189
 21
166.706016756
  0
LINE
  5
242
100
AcDbEntity
  8
0
100
AcDbLine
 62
7
  6
CONTINUOUS
 10
168.6240414567
 20
101.713862139
 11
24.9393453068
 21
184.6683834575
  0
LINE
  5
243
100
AcDbEntity
  8
0
100
AcDbLine
 62
7
  6
CONTINUOUS
 10
168.6240414567
 20
102.5303645561
 11
24.9393453068
 21
185.4848858746
  0
LINE
  5
244
100
AcDbEntity
  8
0
100
AcDbLine
 62
7
  6
CONTINUOUS
 10
73.7298309759
 20
174.4625706906
 11
73.5833937356
 21
174.6666927727
  0
LINE
  5
245
100
AcDbEntity
  8
0
100
AcDbLine
 62
7
  6
CONTINUOUS
 10
72.3155761801
 20
180.1779616603
 11
72.4620134204
 21
179.9738395782
  0
LINE
  5
246
100
AcDbEntity
  8
0
100
AcDbLine
 62
7
  6
CONTINUOUS
 10
104.1355462043
 20
157.3164607056
 11
107.6710653904
 21
159.357681475
  0
LINE
  5
247
100
AcDbEntity
  8
0
100
AcDbLine
 62
7
  6
CONTINUOUS
 10
27.6263398882
 20
187.0362136594
 11
171.3110360381
 21
104.0816923408
  0
LINE
  5
248
100
AcDbEntity
  8
0
100
AcDbLine
 62
7
  6
CONTINUOUS
 10
171.4524568055
 20
104.326641655
 11
27.7677606557
 21
187.2811629736
  0
LINE
  5
249
100
AcDbEntity
  8
0
100
AcDbLine
 62
7
  6
CONTINUOUS
 10
27.7677606557
 20
191.4453253009
 11
171.4524568055
 21
108.4908039824
  0
LINE
  5
24A
100
AcDbEntity
  8
0
100
AcDbLine
 62
7
  6
CONTINUOUS
 10
91.4075741046
 20
164.2565518276
 11
91.2611368643
 21
164.4606739097
  0
LINE
  5
24B
100
AcDbEntity
  8
0
100
AcDbLine
 62
7
  6
CONTINUOUS
 10
107.6710624464
 20
159.7659239291
 11
107.6710624464
 21
159.3576814698
  0
LINE
  5
24C
100
AcDbEntity
  8
0
100
AcDbLine
 62
7
  6
CONTINUOUS
 10
109.0853142803
 20
154.0505329646
 11
109.0853142803
 21
154.458775424
  0
LINE
  5
24D
100
AcDbEntity
  8
0
100
AcDbLine
 62
7
  6
CONTINUOUS
 10
107.8174996777
 20
159.5618018522
 11
107.6710653814
 21
159.3576814698
  0
LINE
  5
24E
100
AcDbEntity
  8
0
100
AcDbLine
 62
7
  6
CONTINUOUS
 10
108.9388799929
 20
154.2546550467
 11
109.0853142893
 21
154.4587754291
  0
LINE
  5
24F
100
AcDbEntity
  8
0
100
AcDbLine
 62
7
  6
CONTINUOUS
 10
112.6208334664
 20
156.4999961933
 11
109.0853142803
 21
154.458775424
  0
LINE
  5
250
100
AcDbEntity
  8
0
100
AcDbLine
 62
7
  6
CONTINUOUS
 10
109.4388843061
 20
153.8464055379
 11
112.6208334664
 21
155.6834937762
  0
LINE
  5
251
100
AcDbEntity
  8
0
100
AcDbLine
 62
7
  6
CONTINUOUS
 10
172.3009814102
 20
109.9604998676
 11
28.6162852603
 21
192.9150211861
  0
LINE
  5
252
100
AcDbEntity
  8
0
100
AcDbLine
 62
7
  6
CONTINUOUS
 10
174.8896019084
 20
110.6385292708
 11
175.3123844015
 21
110.3944412066
  0
LINE
  5
253
100
AcDbEntity
  8
0
100
AcDbLine
 62
7
  6
CONTINUOUS
 10
31.3032798417
 20
194.4663489708
 11
174.9879759916
 21
111.5118276523
  0
LINE
  5
254
100
AcDbEntity
  8
0
100
AcDbLine
 62
7
  6
CONTINUOUS
 10
89.9933193088
 20
169.9719427973
 11
90.139756549
 21
169.7678207152
  0
LINE
  5
255
100
AcDbEntity
  8
0
100
AcDbLine
 62
7
  6
CONTINUOUS
 10
112.6208334664
 20
156.4999961933
 11
112.6208334664
 21
155.6834937762
  0
LINE
  5
256
100
AcDbEntity
  8
0
100
AcDbLine
 62
7
  6
CONTINUOUS
 10
113.3279402476
 20
155.6834954759
 11
113.3279402476
 21
156.499997893
  0
LINE
  5
257
100
AcDbEntity
  8
0
100
AcDbLine
 62
7
  6
CONTINUOUS
 10
178.5234951777
 20
113.5530484217
 11
34.8387990278
 21
196.5075697402
  0
LINE
  5
258
100
AcDbEntity
  8
0
100
AcDbLine
 62
7
  6
CONTINUOUS
 10
38.3743447096
 20
194.8746084218
 11
50.3952100371
 21
187.9345155949
  0
LINE
  5
259
100
AcDbEntity
  8
0
100
AcDbLine
 62
7
  6
CONTINUOUS
 10
56.0520878383
 20
184.6685895588
 11
68.0729531658
 21
177.7284967319
  0
LINE
  5
25A
100
AcDbEntity
  8
0
100
AcDbLine
 62
7
  6
CONTINUOUS
 10
73.7298309669
 20
174.4625706958
 11
85.7506962944
 21
167.5224778689
  0
LINE
  5
25B
100
AcDbEntity
  8
0
100
AcDbLine
 62
7
  6
CONTINUOUS
 10
91.4075740956
 20
164.2565518328
 11
103.4284394231
 21
157.3164590059
  0
LINE
  5
25C
100
AcDbEntity
  8
0
100
AcDbLine
 62
7
  6
CONTINUOUS
 10
109.0853172243
 20
154.0505329698
 11
121.1061825518
 21
147.1104401429
  0
LINE
  5
25D
100
AcDbEntity
  8
0
100
AcDbLine
 62
7
  6
CONTINUOUS
 10
126.763060353
 20
143.8445141067
 11
138.7839256805
 21
136.9044212799
  0
LINE
  5
25E
100
AcDbEntity
  8
0
100
AcDbLine
 62
7
  6
CONTINUOUS
 10
144.4408034816
 20
133.6384952437
 11
156.4616688091
 21
126.6984024169
  0
LINE
  5
25F
100
AcDbEntity
  8
0
100
AcDbLine
 62
7
  6
CONTINUOUS
 10
162.1185466103
 20
123.4324763807
 11
174.1394119378
 21
116.4923835539
  0
LINE
  5
260
100
AcDbEntity
  8
0
100
AcDbLine
 62
7
  6
CONTINUOUS
 10
42.6169677329
 20
196.5075709279
 11
54.2842659786
 21
189.7716055329
  0
LINE
  5
261
100
AcDbEntity
  8
0
100
AcDbLine
 62
7
  6
CONTINUOUS
 10
60.2947108615
 20
186.3015520649
 11
71.9620091072
 21
179.5655866699
  0
LINE
  5
262
100
AcDbEntity
  8
0
100
AcDbLine
 62
7
  6
CONTINUOUS
 10
77.9724539902
 20
176.0955332019
 11
89.6397522359
 21
169.3595678069
  0
LINE
  5
263
100
AcDbEntity
  8
0
100
AcDbLine
 62
7
  6
CONTINUOUS
 10
95.6501971189
 20
165.8895143389
 11
107.3174953646
 21
159.1535489439
  0
LINE
  5
264
100
AcDbEntity
  8
0
100
AcDbLine
 62
7
  6
CONTINUOUS
 10
113.3279402476
 20
155.6834954759
 11
124.9952384933
 21
148.9475300809
  0
LINE
  5
265
100
AcDbEntity
  8
0
100
AcDbLine
 62
7
  6
CONTINUOUS
 10
131.0056833762
 20
145.4774766128
 11
142.6729816219
 21
138.7415112179
  0
LINE
  5
266
100
AcDbEntity
  8
0
100
AcDbLine
 62
7
  6
CONTINUOUS
 10
148.6834265049
 20
135.2714577498
 11
160.3507247506
 21
128.5354923549
  0
LINE
  5
267
100
AcDbEntity
  8
0
100
AcDbLine
 62
7
  6
CONTINUOUS
 10
166.3611696336
 20
125.0654388868
 11
178.0284678793
 21
118.3294734919
  0
LINE
  5
268
100
AcDbEntity
  8
0
100
AcDbLine
 62
7
  6
CONTINUOUS
 10
183.374847955
 20
115.5374591173
 11
183.797630448
 21
115.2933710531
  0
LINE
  5
269
100
AcDbEntity
  8
0
100
AcDbLine
 62
7
  6
CONTINUOUS
 10
178.3820349611
 20
118.9418484771
 11
166.3611696336
 21
125.881941304
  0
LINE
  5
26A
100
AcDbEntity
  8
0
100
AcDbLine
 62
7
  6
CONTINUOUS
 10
160.7042918324
 20
129.1478673401
 11
148.6834265049
 21
136.087960167
  0
LINE
  5
26B
100
AcDbEntity
  8
0
100
AcDbLine
 62
7
  6
CONTINUOUS
 10
143.0265487037
 20
139.3538862031
 11
131.0056833762
 21
146.29397903
  0
LINE
  5
26C
100
AcDbEntity
  8
0
100
AcDbLine
 62
7
  6
CONTINUOUS
 10
125.3488055751
 20
149.5599050661
 11
113.3279402476
 21
156.499997893
  0
LINE
  5
26D
100
AcDbEntity
  8
0
100
AcDbLine
 62
7
  6
CONTINUOUS
 10
107.6710624464
 20
159.7659239291
 11
95.6501971189
 21
166.706016756
  0
LINE
  5
26E
100
AcDbEntity
  8
0
100
AcDbLine
 62
7
  6
CONTINUOUS
 10
89.9933193177
 20
169.9719427922
 11
77.9724539902
 21
176.912035619
  0
LINE
  5
26F
100
AcDbEntity
  8
0
100
AcDbLine
 62
7
  6
CONTINUOUS
 10
72.315576189
 20
180.1779616552
 11
60.2947108615
 21
187.118054482
  0
LINE
  5
270
100
AcDbEntity
  8
0
100
AcDbLine
 62
7
  6
CONTINUOUS
 10
54.6378330604
 20
190.3839805182
 11
42.6169677329
 21
197.324073345
  0
LINE
  5
271
100
AcDbEntity
  8
0
100
AcDbLine
 62
7
  6
CONTINUOUS
 10
39.7885258883
 20
199.3652788173
 11
183.4732220382
 21
116.4107574988
  0
LINE
  5
272
100
AcDbEntity
  8
0
100
AcDbLine
 62
7
  6
CONTINUOUS
 10
109.0853172332
 20
154.0505329646
 11
108.9388799929
 21
154.2546550467
  0
LINE
  5
273
100
AcDbEntity
  8
0
100
AcDbLine
 62
7
  6
CONTINUOUS
 10
107.6710624374
 20
159.7659239343
 11
107.8174996777
 21
159.5618018522
  0
LINE
  5
274
100
AcDbEntity
  8
0
100
AcDbLine
 62
7
  6
CONTINUOUS
 10
121.813289333
 20
147.1104418426
 11
125.348808519
 21
149.1516626119
  0
LINE
  5
275
100
AcDbEntity
  8
0
100
AcDbLine
 62
7
  6
CONTINUOUS
 10
186.3495226344
 20
116.5486754981
 11
190.085691358
 21
114.3916462783
  0
LINE
  5
276
100
AcDbEntity
  8
0
100
AcDbLine
 62
7
  6
CONTINUOUS
 10
189.8371565731
 20
114.9409896557
 11
186.5871197944
 21
116.8173568157
  0
LINE
  5
277
100
AcDbEntity
  8
0
100
AcDbLine
 62
7
  6
CONTINUOUS
 10
190.6856811778
 20
115.2675821569
 11
190.5442585996
 21
115.3492306733
  0
LINE
  5
278
100
AcDbEntity
  8
0
100
AcDbLine
 62
7
  6
CONTINUOUS
 10
187.0087412242
 20
118.4519782681
 11
43.3240450744
 21
201.4064995867
  0
LINE
  5
279
100
AcDbEntity
  8
0
100
AcDbLine
 62
7
  6
CONTINUOUS
 10
193.3726757592
 20
116.8189099416
 11
190.5442604103
 21
118.4518593624
  0
LINE
  5
27A
100
AcDbEntity
  8
0
100
AcDbLine
 62
7
  6
CONTINUOUS
 10
189.695733995
 20
119.1868004995
 11
189.8371565731
 21
119.1051519831
  0
LINE
  5
27B
100
AcDbEntity
  8
0
100
AcDbLine
 62
7
  6
CONTINUOUS
 10
46.0110396558
 20
202.9578273714
 11
189.6957358057
 21
120.0033060528
  0
LINE
  5
27C
100
AcDbEntity
  8
0
100
AcDbLine
 62
7
  6
CONTINUOUS
 10
46.6110294756
 20
203.0172608328
 11
190.2957256254
 21
120.0627395143
  0
LINE
  5
27D
100
AcDbEntity
  8
0
100
AcDbLine
 62
7
  6
CONTINUOUS
 10
126.7630603619
 20
143.8445141016
 11
126.6166231216
 21
144.0486361837
  0
LINE
  5
27E
100
AcDbEntity
  8
0
100
AcDbLine
 62
7
  6
CONTINUOUS
 10
125.3488055661
 20
149.5599050713
 11
125.4952428064
 21
149.3557829892
  0
LINE
  5
27F
100
AcDbEntity
  8
0
100
AcDbLine
 62
7
  6
CONTINUOUS
 10
125.3488055751
 20
149.5599050661
 11
125.3488055751
 21
149.1516626068
  0
LINE
  5
280
100
AcDbEntity
  8
0
100
AcDbLine
 62
7
  6
CONTINUOUS
 10
126.763057409
 20
143.8445141016
 11
126.763057409
 21
144.2527565609
  0
LINE
  5
281
100
AcDbEntity
  8
0
100
AcDbLine
 62
7
  6
CONTINUOUS
 10
125.4952428064
 20
149.3557829892
 11
125.3488085101
 21
149.1516626068
  0
LINE
  5
282
100
AcDbEntity
  8
0
100
AcDbLine
 62
7
  6
CONTINUOUS
 10
126.6166231216
 20
144.0486361837
 11
126.7630574179
 21
144.2527565661
  0
LINE
  5
283
100
AcDbEntity
  8
0
100
AcDbLine
 62
7
  6
CONTINUOUS
 10
130.2985765951
 20
146.2939773303
 11
126.763057409
 21
144.2527565609
  0
LINE
  5
284
100
AcDbEntity
  8
0
100
AcDbLine
 62
7
  6
CONTINUOUS
 10
127.1166274348
 20
143.6403866749
 11
130.2985765951
 21
145.4774749132
  0
LINE
  5
285
100
AcDbEntity
  8
0
100
AcDbLine
 62
7
  6
CONTINUOUS
 10
174.9879759916
 20
110.6953252352
 11
175.3124871805
 21
110.394618733
  0
LINE
  5
286
100
AcDbEntity
  8
0
100
AcDbLine
 62
7
  6
CONTINUOUS
 10
175.3124871805
 20
111.2111211501
 11
174.9879759916
 21
111.5118276523
  0
LINE
  5
287
100
AcDbEntity
  8
0
100
AcDbLine
 62
7
  6
CONTINUOUS
 10
144.4408034906
 20
133.6384952386
 11
144.2943662503
 21
133.8426173207
  0
LINE
  5
288
100
AcDbEntity
  8
0
100
AcDbLine
 62
7
  6
CONTINUOUS
 10
143.0265486948
 20
139.3538862083
 11
143.1729859351
 21
139.1497641262
  0
LINE
  5
289
100
AcDbEntity
  8
0
100
AcDbLine
 62
7
  6
CONTINUOUS
 10
130.2985765951
 20
146.2939773303
 11
130.2985765951
 21
145.4774749132
  0
LINE
  5
28A
100
AcDbEntity
  8
0
100
AcDbLine
 62
7
  6
CONTINUOUS
 10
131.0056833762
 20
145.4774766128
 11
131.0056833762
 21
146.29397903
  0
LINE
  5
28B
100
AcDbEntity
  8
0
100
AcDbLine
 62
7
  6
CONTINUOUS
 10
183.4732220382
 20
115.5942550816
 11
183.7977332271
 21
115.2935485794
  0
LINE
  5
28C
100
AcDbEntity
  8
0
100
AcDbLine
 62
7
  6
CONTINUOUS
 10
183.7977332271
 20
116.1100509966
 11
183.4732220382
 21
116.4107574988
  0
LINE
  5
28D
100
AcDbEntity
  8
0
100
AcDbLine
 62
7
  6
CONTINUOUS
 10
162.1185466193
 20
123.4324763756
 11
161.972109379
 21
123.6365984577
  0
LINE
  5
28E
100
AcDbEntity
  8
0
100
AcDbLine
 62
7
  6
CONTINUOUS
 10
139.4910324616
 20
136.9044229796
 11
143.0265516477
 21
138.9456437489
  0
LINE
  5
28F
100
AcDbEntity
  8
0
100
AcDbLine
 62
7
  6
CONTINUOUS
 10
147.9763197237
 20
136.0879584673
 11
144.4408005377
 21
134.0467376979
  0
LINE
  5
290
100
AcDbEntity
  8
0
100
AcDbLine
 62
7
  6
CONTINUOUS
 10
160.7042918235
 20
129.1478673453
 11
160.8507290637
 21
128.9437452632
  0
LINE
  5
291
100
AcDbEntity
  8
0
100
AcDbLine
 62
7
  6
CONTINUOUS
 10
143.0265487037
 20
139.3538862031
 11
143.0265487037
 21
138.9456437438
  0
LINE
  5
292
100
AcDbEntity
  8
0
100
AcDbLine
 62
7
  6
CONTINUOUS
 10
144.4408005377
 20
133.6384952386
 11
144.4408005377
 21
134.0467376979
  0
LINE
  5
293
100
AcDbEntity
  8
0
100
AcDbLine
 62
7
  6
CONTINUOUS
 10
147.9763197237
 20
136.0879584673
 11
147.9763197237
 21
135.2714560502
  0
LINE
  5
294
100
AcDbEntity
  8
0
100
AcDbLine
 62
7
  6
CONTINUOUS
 10
148.6834265049
 20
135.2714577498
 11
148.6834265049
 21
136.087960167
  0
LINE
  5
295
100
AcDbEntity
  8
0
100
AcDbLine
 62
7
  6
CONTINUOUS
 10
143.1729859351
 20
139.1497641262
 11
143.0265516388
 21
138.9456437438
  0
LINE
  5
296
100
AcDbEntity
  8
0
100
AcDbLine
 62
7
  6
CONTINUOUS
 10
144.2943662503
 20
133.8426173207
 11
144.4408005466
 21
134.0467377031
  0
LINE
  5
297
100
AcDbEntity
  8
0
100
AcDbLine
 62
7
  6
CONTINUOUS
 10
144.7943705634
 20
133.4343678119
 11
147.9763197237
 21
135.2714560502
  0
LINE
  5
298
100
AcDbEntity
  8
0
100
AcDbLine
 62
7
  6
CONTINUOUS
 10
178.3820349521
 20
118.9418484823
 11
178.5284721924
 21
118.7377264002
  0
LINE
  5
299
100
AcDbEntity
  8
0
100
AcDbLine
 62
7
  6
CONTINUOUS
 10
157.1687755903
 20
126.6984041166
 11
160.7042947764
 21
128.7396248859
  0
LINE
  5
29A
100
AcDbEntity
  8
0
100
AcDbLine
 62
7
  6
CONTINUOUS
 10
160.7042918324
 20
129.1478673401
 11
160.7042918324
 21
128.7396248808
  0
LINE
  5
29B
100
AcDbEntity
  8
0
100
AcDbLine
 62
7
  6
CONTINUOUS
 10
162.1185436663
 20
123.4324763756
 11
162.1185436663
 21
123.8407188349
  0
LINE
  5
29C
100
AcDbEntity
  8
0
100
AcDbLine
 62
7
  6
CONTINUOUS
 10
165.6540628524
 20
125.8819396043
 11
162.1185436663
 21
123.8407188349
  0
LINE
  5
29D
100
AcDbEntity
  8
0
100
AcDbLine
 62
7
  6
CONTINUOUS
 10
162.4721136921
 20
123.2283489489
 11
165.6540628524
 21
125.0654371872
  0
LINE
  5
29E
100
AcDbEntity
  8
0
100
AcDbLine
 62
7
  6
CONTINUOUS
 10
165.6540628524
 20
125.8819396043
 11
165.6540628524
 21
125.0654371872
  0
LINE
  5
29F
100
AcDbEntity
  8
0
100
AcDbLine
 62
7
  6
CONTINUOUS
 10
166.3611696336
 20
125.0654388868
 11
166.3611696336
 21
125.881941304
  0
LINE
  5
2A0
100
AcDbEntity
  8
0
100
AcDbLine
 62
7
  6
CONTINUOUS
 10
168.6240414567
 20
102.5303645561
 11
168.6240414567
 21
101.713862139
  0
LINE
  5
2A1
100
AcDbEntity
  8
0
100
AcDbLine
 62
7
  6
CONTINUOUS
 10
160.8507290637
 20
128.9437452632
 11
160.7042947674
 21
128.7396248808
  0
LINE
  5
2A2
100
AcDbEntity
  8
0
100
AcDbLine
 62
7
  6
CONTINUOUS
 10
161.972109379
 20
123.6365984577
 11
162.1185436753
 21
123.8407188401
  0
LINE
  5
2A3
100
AcDbEntity
  8
0
100
AcDbLine
 62
7
  6
CONTINUOUS
 10
171.4524568055
 20
108.4908039824
 11
171.4524568055
 21
104.326641655
  0
LINE
  5
2A4
100
AcDbEntity
  8
0
100
AcDbLine
 62
7
  6
CONTINUOUS
 10
172.1595606428
 20
104.7348858089
 11
172.1595606428
 21
108.8990481363
  0
LINE
  5
2A5
100
AcDbEntity
  8
0
100
AcDbLine
 62
7
  6
CONTINUOUS
 10
174.846518719
 20
116.4923852536
 11
178.3820379051
 21
118.5336060229
  0
LINE
  5
2A6
100
AcDbEntity
  8
0
100
AcDbLine
 62
7
  6
CONTINUOUS
 10
178.3820349611
 20
118.9418484771
 11
178.3820349611
 21
118.5336060229
  0
LINE
  5
2A7
100
AcDbEntity
  8
0
100
AcDbLine
 62
7
  6
CONTINUOUS
 10
189.6957358057
 20
120.0033060528
 11
187.0087412242
 21
118.4519782681
  0
LINE
  5
2A8
100
AcDbEntity
  8
0
100
AcDbLine
 62
7
  6
CONTINUOUS
 10
183.4732220382
 20
116.4107574988
 11
178.5234951777
 21
113.5530484217
  0
LINE
  5
2A9
100
AcDbEntity
  8
0
100
AcDbLine
 62
7
  6
CONTINUOUS
 10
174.9879759916
 20
111.5118276523
 11
172.3009814102
 21
109.9604998676
  0
LINE
  5
2AA
100
AcDbEntity
  8
0
100
AcDbLine
 62
7
  6
CONTINUOUS
 10
172.3009814102
 20
109.1439974505
 11
174.9879759916
 21
110.6953252352
  0
LINE
  5
2AB
100
AcDbEntity
  8
0
100
AcDbLine
 62
7
  6
CONTINUOUS
 10
178.5234951777
 20
112.7365460045
 11
183.4732220382
 21
115.5942550816
  0
LINE
  5
2AC
100
AcDbEntity
  8
0
100
AcDbLine
 62
7
  6
CONTINUOUS
 10
187.0087412242
 20
117.635475851
 11
189.6957358057
 21
119.1868036357
  0
LINE
  5
2AD
100
AcDbEntity
  8
0
100
AcDbLine
 62
7
  6
CONTINUOUS
 10
193.3726757592
 20
116.8189099416
 11
190.6856811778
 21
115.2675821569
  0
LINE
  5
2AE
100
AcDbEntity
  8
0
100
AcDbLine
 62
7
  6
CONTINUOUS
 10
171.3110360381
 20
104.0816923408
 11
168.6240414567
 21
102.5303645561
  0
LINE
  5
2AF
100
AcDbEntity
  8
0
100
AcDbLine
 62
7
  6
CONTINUOUS
 10
178.5284721924
 20
118.7377264002
 11
178.3820378961
 21
118.5336060178
  0
LINE
  5
2B0
100
AcDbEntity
  8
0
100
AcDbLine
 62
7
  6
CONTINUOUS
 10
168.6240414567
 20
101.713862139
 11
171.3110360381
 21
103.2651899237
  0
LINE
  5
2B1
100
AcDbEntity
  8
0
100
AcDbLine
 62
7
  6
CONTINUOUS
 10
190.6856811778
 20
114.4510797398
 11
193.3726757592
 21
116.0024075245
  0
LINE
  5
2B2
100
AcDbEntity
  8
0
100
AcDbLine
 62
7
  6
CONTINUOUS
 10
189.8371565731
 20
119.1051519831
 11
189.8371565731
 21
114.9409896557
  0
LINE
  5
2B3
100
AcDbEntity
  8
0
100
AcDbLine
 62
7
  6
CONTINUOUS
 10
190.5442604103
 20
115.3492338096
 11
190.5442604103
 21
119.5133961369
  0
LINE
  5
2B4
100
AcDbEntity
  8
0
100
AcDbLine
 62
7
  6
CONTINUOUS
 10
193.3726757592
 20
116.0024075245
 11
193.3726757592
 21
116.8189099416
  0
SPLINE
  5
2B5
100
AcDbEntity
  8
0
100
AcDbSpline
 62
7
  6
CONTINUOUS
 70
0
 71
3
 72
14
 73
10
 74
0
 42
0.0000001
 43
0.0000001
 44
0.0000000001
 40
0.0
 40
0.0
 40
0.0
 40
0.0
 40
0.0881481082
 40
0.1844915714
 40
0.2940796359
 40
0.4180958689
 40
0.5548520303
 40
0.7007026059
 40
1.0
 40
1.0
 40
1.0
 40
1.0
 10
175.3124123896
 20
110.3944892722
 30
0.0
 10
175.4237943279
 20
110.3300594586
 30
0.0
 10
175.6874749208
 20
110.2436740773
 30
0.0
 10
176.1233220578
 20
110.2666143088
 30
0.0
 10
176.5830408353
 20
110.4256791591
 30
0.0
 10
177.047080795
 20
110.7093081417
 30
0.0
 10
177.4950400013
 20
111.1027027938
 30
0.0
 10
178.0458695141
 20
111.7517239127
 30
0.0
 10
178.3654594179
 20
112.3292294659
 30
0.0
 10
178.5234951777
 20
112.7365460045
 30
0.0
  0
SPLINE
  5
2B6
100
AcDbEntity
  8
0
100
AcDbSpline
 62
7
  6
CONTINUOUS
 70
0
 71
3
 72
9
 73
5
 74
0
 42
0.0000001
 43
0.0000001
 44
0.0000000001
 40
0.0
 40
0.0
 40
0.0
 40
0.0
 40
0.293909939
 40
1.0
 40
1.0
 40
1.0
 40
1.0
 10
189.6957358057
 20
119.1868036357
 30
0.0
 10
189.7044614448
 20
119.1918413557
 30
0.0
 10
189.7349234387
 20
119.2066918301
 30
0.0
 10
189.7747807485
 20
119.2088276668
 30
0.0
 10
189.7957433418
 20
119.196725196
 30
0.0
  0
SPLINE
  5
2B7
100
AcDbEntity
  8
0
100
AcDbSpline
 62
7
  6
CONTINUOUS
 70
0
 71
3
 72
9
 73
5
 74
0
 42
0.0000001
 43
0.0000001
 44
0.0000000001
 40
0.0
 40
0.0
 40
0.0
 40
0.0
 40
0.4999998047
 40
1.0
 40
1.0
 40
1.0
 40
1.0
 10
172.1595606428
 20
108.8990481363
 30
0.0
 10
172.1595606428
 20
108.9475186662
 30
0.0
 10
172.1926620514
 20
109.0432360951
 30
0.0
 10
172.2590046045
 20
109.1197622751
 30
0.0
 10
172.3009814102
 20
109.1439974505
 30
0.0
  0
SPLINE
  5
2B8
100
AcDbEntity
  8
0
100
AcDbSpline
 62
7
  6
CONTINUOUS
 70
0
 71
3
 72
11
 73
7
 74
0
 42
0.0000001
 43
0.0000001
 44
0.0000000001
 40
0.0
 40
0.0
 40
0.0
 40
0.0
 40
0.2372518718
 40
0.4999985497
 40
0.7627460178
 40
1.0
 40
1.0
 40
1.0
 40
1.0
 10
171.3110360381
 20
103.2651899237
 30
0.0
 10
171.431508798
 20
103.3347444889
 30
0.0
 10
171.6594926383
 20
103.5265967806
 30
0.0
 10
171.9254789318
 20
103.8902350821
 30
0.0
 10
172.1074040386
 20
104.302407254
 30
0.0
 10
172.1595606428
 20
104.5957748184
 30
0.0
 10
172.1595606428
 20
104.7348858089
 30
0.0
  0
SPLINE
  5
2B9
100
AcDbEntity
  8
0
100
AcDbSpline
 62
7
  6
CONTINUOUS
 70
0
 71
3
 72
11
 73
7
 74
0
 42
0.0000001
 43
0.0000001
 44
0.0000000001
 40
0.0
 40
0.0
 40
0.0
 40
0.0
 40
0.2895411595
 40
0.5491183966
 40
0.7822559144
 40
1.0
 40
1.0
 40
1.0
 40
1.0
 10
190.5442604103
 20
119.5133961369
 30
0.0
 10
190.5442604103
 20
119.5741627592
 30
0.0
 10
190.5349819606
 20
119.689790982
 30
0.0
 10
190.4882382308
 20
119.8486843779
 30
0.0
 10
190.4093903533
 20
119.9776617422
 30
0.0
 10
190.3352682713
 20
120.0398325502
 30
0.0
 10
190.2956920546
 20
120.0626813658
 30
0.0
  0
SPLINE
  5
2BA
100
AcDbEntity
  8
0
100
AcDbSpline
 62
7
  6
CONTINUOUS
 70
0
 71
3
 72
9
 73
5
 74
0
 42
0.0000001
 43
0.0000001
 44
0.0000000001
 40
0.0
 40
0.0
 40
0.0
 40
0.0
 40
0.4999994563
 40
1.0
 40
1.0
 40
1.0
 40
1.0
 10
174.8465187279
 20
116.4923852587
 30
0.0
 10
174.7415791735
 20
116.431798741
 30
0.0
 10
174.4929656745
 20
116.3838835709
 30
0.0
 10
174.2443521484
 20
116.4317976663
 30
0.0
 10
174.1394119289
 20
116.4923835591
 30
0.0
  0
SPLINE
  5
2BB
100
AcDbEntity
  8
0
100
AcDbSpline
 62
7
  6
CONTINUOUS
 70
0
 71
3
 72
9
 73
5
 74
0
 42
0.0000001
 43
0.0000001
 44
0.0000000001
 40
0.0
 40
0.0
 40
0.0
 40
0.0
 40
0.4999994563
 40
1.0
 40
1.0
 40
1.0
 40
1.0
 10
157.1687755993
 20
126.6984041217
 30
0.0
 10
157.0638360448
 20
126.637817604
 30
0.0
 10
156.8152225458
 20
126.5899024339
 30
0.0
 10
156.5666090198
 20
126.6378165293
 30
0.0
 10
156.4616688002
 20
126.6984024221
 30
0.0
  0
SPLINE
  5
2BC
100
AcDbEntity
  8
0
100
AcDbSpline
 62
7
  6
CONTINUOUS
 70
0
 71
3
 72
9
 73
5
 74
0
 42
0.0000001
 43
0.0000001
 44
0.0000000001
 40
0.0
 40
0.0
 40
0.0
 40
0.0
 40
0.4999994563
 40
1.0
 40
1.0
 40
1.0
 40
1.0
 10
139.4910324706
 20
136.9044229847
 30
0.0
 10
139.3860929161
 20
136.843836467
 30
0.0
 10
139.1374794171
 20
136.7959212969
 30
0.0
 10
138.8888658911
 20
136.8438353923
 30
0.0
 10
138.7839256715
 20
136.9044212851
 30
0.0
  0
SPLINE
  5
2BD
100
AcDbEntity
  8
0
100
AcDbSpline
 62
7
  6
CONTINUOUS
 70
0
 71
3
 72
9
 73
5
 74
0
 42
0.0000001
 43
0.0000001
 44
0.0000000001
 40
0.0
 40
0.0
 40
0.0
 40
0.0
 40
0.4999994563
 40
1.0
 40
1.0
 40
1.0
 40
1.0
 10
121.8132893419
 20
147.1104418478
 30
0.0
 10
121.7083497875
 20
147.04985533
 30
0.0
 10
121.4597362884
 20
147.00194016
 30
0.0
 10
121.2111227624
 20
147.0498542553
 30
0.0
 10
121.1061825428
 20
147.1104401481
 30
0.0
  0
SPLINE
  5
2BE
100
AcDbEntity
  8
0
100
AcDbSpline
 62
7
  6
CONTINUOUS
 70
0
 71
3
 72
9
 73
5
 74
0
 42
0.0000001
 43
0.0000001
 44
0.0000000001
 40
0.0
 40
0.0
 40
0.0
 40
0.0
 40
0.4999994563
 40
1.0
 40
1.0
 40
1.0
 40
1.0
 10
104.1355462132
 20
157.3164607108
 30
0.0
 10
104.0306066588
 20
157.255874193
 30
0.0
 10
103.7819931598
 20
157.207959023
 30
0.0
 10
103.5333796337
 20
157.2558731183
 30
0.0
 10
103.4284394142
 20
157.3164590111
 30
0.0
  0
SPLINE
  5
2BF
100
AcDbEntity
  8
0
100
AcDbSpline
 62
7
  6
CONTINUOUS
 70
0
 71
3
 72
9
 73
5
 74
0
 42
0.0000001
 43
0.0000001
 44
0.0000000001
 40
0.0
 40
0.0
 40
0.0
 40
0.0
 40
0.4999994563
 40
1.0
 40
1.0
 40
1.0
 40
1.0
 10
86.4578030846
 20
167.5224795738
 30
0.0
 10
86.3528635301
 20
167.461893056
 30
0.0
 10
86.1042500311
 20
167.413977886
 30
0.0
 10
85.8556365051
 20
167.4618919813
 30
0.0
 10
85.7506962855
 20
167.5224778741
 30
0.0
  0
SPLINE
  5
2C0
100
AcDbEntity
  8
0
100
AcDbSpline
 62
7
  6
CONTINUOUS
 70
0
 71
3
 72
9
 73
5
 74
0
 42
0.0000001
 43
0.0000001
 44
0.0000000001
 40
0.0
 40
0.0
 40
0.0
 40
0.0
 40
0.4999994563
 40
1.0
 40
1.0
 40
1.0
 40
1.0
 10
68.7800599559
 20
177.7284984368
 30
0.0
 10
68.6751204014
 20
177.667911919
 30
0.0
 10
68.4265069024
 20
177.619996749
 30
0.0
 10
68.1778933764
 20
177.6679108443
 30
0.0
 10
68.0729531568
 20
177.7284967371
 30
0.0
  0
SPLINE
  5
2C1
100
AcDbEntity
  8
0
100
AcDbSpline
 62
7
  6
CONTINUOUS
 70
0
 71
3
 72
9
 73
5
 74
0
 42
0.0000001
 43
0.0000001
 44
0.0000000001
 40
0.0
 40
0.0
 40
0.0
 40
0.0
 40
0.4999994563
 40
1.0
 40
1.0
 40
1.0
 40
1.0
 10
51.1023168272
 20
187.9345172998
 30
0.0
 10
50.9973772728
 20
187.873930782
 30
0.0
 10
50.7487637737
 20
187.826015612
 30
0.0
 10
50.5001502477
 20
187.8739297073
 30
0.0
 10
50.3952100281
 20
187.9345156001
 30
0.0
  0
SPLINE
  5
2C2
100
AcDbEntity
  8
0
100
AcDbSpline
 62
7
  6
CONTINUOUS
 70
0
 71
3
 72
13
 73
9
 74
0
 42
0.0000001
 43
0.0000001
 44
0.0000000001
 40
0.0
 40
0.0
 40
0.0
 40
0.0
 40
0.0897524531
 40
0.1898195514
 40
0.3027219077
 40
0.4283354072
 40
0.7075989725
 40
1.0
 40
1.0
 40
1.0
 40
1.0
 10
31.8405814967
 20
194.0744180994
 30
0.0
 10
31.959603938
 20
194.0393241454
 30
0.0
 10
32.2263338677
 20
194.0120949568
 30
0.0
 10
32.6410368527
 20
194.0952590293
 30
0.0
 10
33.0701334417
 20
194.2904794985
 30
0.0
 10
33.6593954848
 20
194.702316759
 30
0.0
 10
34.3122506406
 20
195.4282937439
 30
0.0
 10
34.6925690195
 20
196.1306809848
 30
0.0
 10
34.8387990278
 20
196.5075697402
 30
0.0
  0
SPLINE
  5
2C3
100
AcDbEntity
  8
0
100
AcDbSpline
 62
7
  6
CONTINUOUS
 70
0
 71
3
 72
9
 73
5
 74
0
 42
0.0000001
 43
0.0000001
 44
0.0000000001
 40
0.0
 40
0.0
 40
0.0
 40
0.0
 40
0.5000005437
 40
1.0
 40
1.0
 40
1.0
 40
1.0
 10
166.3611696425
 20
125.0654388817
 30
0.0
 10
166.256229423
 20
125.1260247744
 30
0.0
 10
166.0076158969
 20
125.1739388698
 30
0.0
 10
165.7590023979
 20
125.1260236997
 30
0.0
 10
165.6540628435
 20
125.065437182
 30
0.0
  0
SPLINE
  5
2C4
100
AcDbEntity
  8
0
100
AcDbSpline
 62
7
  6
CONTINUOUS
 70
0
 71
3
 72
14
 73
10
 74
0
 42
0.0000001
 43
0.0000001
 44
0.0000000001
 40
0.0
 40
0.0
 40
0.0
 40
0.0
 40
0.0881481082
 40
0.1844915714
 40
0.2940796359
 40
0.4180958689
 40
0.5548520303
 40
0.7007026059
 40
1.0
 40
1.0
 40
1.0
 40
1.0
 10
183.7976584362
 20
115.2934191186
 30
0.0
 10
183.9090403744
 20
115.228989305
 30
0.0
 10
184.1727209673
 20
115.1426039238
 30
0.0
 10
184.6085681044
 20
115.1655441552
 30
0.0
 10
185.0682868819
 20
115.3246090056
 30
0.0
 10
185.5323268416
 20
115.6082379882
 30
0.0
 10
185.9802860479
 20
116.0016326403
 30
0.0
 10
186.5311155607
 20
116.6506537591
 30
0.0
 10
186.8507054644
 20
117.2281593124
 30
0.0
 10
187.0087412242
 20
117.635475851
 30
0.0
  0
SPLINE
  5
2C5
100
AcDbEntity
  8
0
100
AcDbSpline
 62
7
  6
CONTINUOUS
 70
0
 71
3
 72
9
 73
5
 74
0
 42
0.0000001
 43
0.0000001
 44
0.0000000001
 40
0.0
 40
0.0
 40
0.0
 40
0.0
 40
0.5000005437
 40
1.0
 40
1.0
 40
1.0
 40
1.0
 10
148.6834265139
 20
135.2714577447
 30
0.0
 10
148.5784862943
 20
135.3320436374
 30
0.0
 10
148.3298727683
 20
135.3799577328
 30
0.0
 10
148.0812592692
 20
135.3320425627
 30
0.0
 10
147.9763197148
 20
135.271456045
 30
0.0
  0
SPLINE
  5
2C6
100
AcDbEntity
  8
0
100
AcDbSpline
 62
7
  6
CONTINUOUS
 70
0
 71
3
 72
9
 73
5
 74
0
 42
0.0000001
 43
0.0000001
 44
0.0000000001
 40
0.0
 40
0.0
 40
0.0
 40
0.0
 40
0.5000005437
 40
1.0
 40
1.0
 40
1.0
 40
1.0
 10
131.0056833852
 20
145.4774766077
 30
0.0
 10
130.9007431656
 20
145.5380625004
 30
0.0
 10
130.6521296396
 20
145.5859765958
 30
0.0
 10
130.4035161406
 20
145.5380614257
 30
0.0
 10
130.2985765861
 20
145.477474908
 30
0.0
  0
SPLINE
  5
2C7
100
AcDbEntity
  8
0
100
AcDbSpline
 62
7
  6
CONTINUOUS
 70
0
 71
3
 72
9
 73
5
 74
0
 42
0.0000001
 43
0.0000001
 44
0.0000000001
 40
0.0
 40
0.0
 40
0.0
 40
0.0
 40
0.5000005437
 40
1.0
 40
1.0
 40
1.0
 40
1.0
 10
113.3279402565
 20
155.6834954707
 30
0.0
 10
113.2230000369
 20
155.7440813635
 30
0.0
 10
112.9743865109
 20
155.7919954588
 30
0.0
 10
112.7257730119
 20
155.7440802888
 30
0.0
 10
112.6208334574
 20
155.683493771
 30
0.0
  0
SPLINE
  5
2C8
100
AcDbEntity
  8
0
100
AcDbSpline
 62
7
  6
CONTINUOUS
 70
0
 71
3
 72
9
 73
5
 74
0
 42
0.0000001
 43
0.0000001
 44
0.0000000001
 40
0.0
 40
0.0
 40
0.0
 40
0.0
 40
0.5000005437
 40
1.0
 40
1.0
 40
1.0
 40
1.0
 10
95.6501971278
 20
165.8895143337
 30
0.0
 10
95.5452569083
 20
165.9501002265
 30
0.0
 10
95.2966433822
 20
165.9980143218
 30
0.0
 10
95.0480298832
 20
165.9500991518
 30
0.0
 10
94.9430903288
 20
165.889512634
 30
0.0
  0
SPLINE
  5
2C9
100
AcDbEntity
  8
0
100
AcDbSpline
 62
7
  6
CONTINUOUS
 70
0
 71
3
 72
9
 73
5
 74
0
 42
0.0000001
 43
0.0000001
 44
0.0000000001
 40
0.0
 40
0.0
 40
0.0
 40
0.0
 40
0.5000005437
 40
1.0
 40
1.0
 40
1.0
 40
1.0
 10
77.9724539992
 20
176.0955331967
 30
0.0
 10
77.8675137796
 20
176.1561190895
 30
0.0
 10
77.6189002536
 20
176.2040331848
 30
0.0
 10
77.3702867545
 20
176.1561180148
 30
0.0
 10
77.2653472001
 20
176.095531497
 30
0.0
  0
SPLINE
  5
2CA
100
AcDbEntity
  8
0
100
AcDbSpline
 62
7
  6
CONTINUOUS
 70
0
 71
3
 72
9
 73
5
 74
0
 42
0.0000001
 43
0.0000001
 44
0.0000000001
 40
0.0
 40
0.0
 40
0.0
 40
0.0
 40
0.5000005437
 40
1.0
 40
1.0
 40
1.0
 40
1.0
 10
60.2947108705
 20
186.3015520597
 30
0.0
 10
60.1897706509
 20
186.3621379525
 30
0.0
 10
59.9411571249
 20
186.4100520478
 30
0.0
 10
59.6925436259
 20
186.3621368778
 30
0.0
 10
59.5876040714
 20
186.30155036
 30
0.0
  0
SPLINE
  5
2CB
100
AcDbEntity
  8
0
100
AcDbSpline
 62
7
  6
CONTINUOUS
 70
0
 71
3
 72
9
 73
5
 74
0
 42
0.0000001
 43
0.0000001
 44
0.0000000001
 40
0.0
 40
0.0
 40
0.0
 40
0.0
 40
0.5000005437
 40
1.0
 40
1.0
 40
1.0
 40
1.0
 10
42.6169677418
 20
196.5075709227
 30
0.0
 10
42.5120275222
 20
196.5681568155
 30
0.0
 10
42.2634139962
 20
196.6160709108
 30
0.0
 10
42.0148004972
 20
196.5681557408
 30
0.0
 10
41.9098609427
 20
196.507569223
 30
0.0
  0
SPLINE
  5
2CC
100
AcDbEntity
  8
0
100
AcDbSpline
 62
7
  6
CONTINUOUS
 70
0
 71
3
 72
13
 73
9
 74
0
 42
0.0000001
 43
0.0000001
 44
0.0000000001
 40
0.0
 40
0.0
 40
0.0
 40
0.0
 40
0.0897524531
 40
0.1898195514
 40
0.3027219077
 40
0.4283354072
 40
0.7075989725
 40
1.0
 40
1.0
 40
1.0
 40
1.0
 10
40.3258275432
 20
198.9733479459
 30
0.0
 10
40.4448499845
 20
198.9382539918
 30
0.0
 10
40.7115799142
 20
198.9110248032
 30
0.0
 10
41.1262828992
 20
198.9941888757
 30
0.0
 10
41.5553794883
 20
199.189409345
 30
0.0
 10
42.1446415313
 20
199.6012466054
 30
0.0
 10
42.7974966871
 20
200.3272235904
 30
0.0
 10
43.1778150661
 20
201.0296108312
 30
0.0
 10
43.3240450744
 20
201.4064995867
 30
0.0
  0
SPLINE
  5
2CD
100
AcDbEntity
  8
0
100
AcDbSpline
 62
7
  6
CONTINUOUS
 70
0
 71
3
 72
8
 73
4
 74
0
 42
0.0000001
 43
0.0000001
 44
0.0000000001
 40
0.0
 40
0.0
 40
0.0
 40
0.0
 40
1.0
 40
1.0
 40
1.0
 40
1.0
 10
190.5856736416
 20
115.2576605966
 30
0.0
 10
190.576894993
 20
115.2627288312
 30
0.0
 10
190.5691885138
 20
115.2700279843
 30
0.0
 10
190.5633600472
 20
115.2783213944
 30
0.0
  0
SPLINE
  5
2CE
100
AcDbEntity
  8
0
100
AcDbSpline
 62
7
  6
CONTINUOUS
 70
0
 71
3
 72
9
 73
5
 74
0
 42
0.0000001
 43
0.0000001
 44
0.0000000001
 40
0.0
 40
0.0
 40
0.0
 40
0.0
 40
0.2254921008
 40
1.0
 40
1.0
 40
1.0
 40
1.0
 10
190.5633600472
 20
115.2783213944
 30
0.0
 10
190.5601569547
 20
115.2828791216
 30
0.0
 10
190.5481101908
 20
115.3046160257
 30
0.0
 10
190.5442604103
 20
115.3300998809
 30
0.0
 10
190.5442604103
 20
115.3492338096
 30
0.0
  0
SPLINE
  5
2CF
100
AcDbEntity
  8
0
100
AcDbSpline
 62
7
  6
CONTINUOUS
 70
0
 71
3
 72
11
 73
7
 74
0
 42
0.0000001
 43
0.0000001
 44
0.0000000001
 40
0.0
 40
0.0
 40
0.0
 40
0.0
 40
0.2177456295
 40
0.4508837762
 40
0.7104602913
 40
1.0
 40
1.0
 40
1.0
 40
1.0
 10
190.0857249288
 20
114.3917044269
 30
0.0
 10
190.125299859
 20
114.3688563541
 30
0.0
 10
190.2161995537
 20
114.3357525567
 30
0.0
 10
190.3673154137
 20
114.3319578205
 30
0.0
 10
190.5282862928
 20
114.3709215222
 30
0.0
 10
190.6330580082
 20
114.42069792
 30
0.0
 10
190.6856811778
 20
114.4510797398
 30
0.0
  0
SPLINE
  5
2D0
100
AcDbEntity
  8
0
100
AcDbSpline
 62
7
  6
CONTINUOUS
 70
0
 71
3
 72
9
 73
5
 74
0
 42
0.0000001
 43
0.0000001
 44
0.0000000001
 40
0.0
 40
0.0
 40
0.0
 40
0.0
 40
0.4999964594
 40
1.0
 40
1.0
 40
1.0
 40
1.0
 10
27.6263398882
 20
187.0362136594
 30
0.0
 10
27.6683163803
 20
187.0604486537
 30
0.0
 10
27.7346590298
 20
187.1369746384
 30
0.0
 10
27.7677606557
 20
187.2326920815
 30
0.0
 10
27.7677606557
 20
187.2811629736
 30
0.0
  0
SPLINE
  5
2D1
100
AcDbEntity
  8
0
100
AcDbSpline
 62
7
  6
CONTINUOUS
 70
0
 71
3
 72
11
 73
7
 74
0
 42
0.0000001
 43
0.0000001
 44
0.0000000001
 40
0.0
 40
0.0
 40
0.0
 40
0.0
 40
0.2372542275
 40
0.5000017852
 40
0.7627483734
 40
1.0
 40
1.0
 40
1.0
 40
1.0
 10
27.7677606557
 20
191.4453253009
 30
0.0
 10
27.7677606557
 20
191.5844364352
 30
0.0
 10
27.8199173451
 20
191.8778041958
 30
0.0
 10
28.0018426127
 20
192.2899764539
 30
0.0
 10
28.267828912
 20
192.6536145732
 30
0.0
 10
28.495812625
 20
192.8454666929
 30
0.0
 10
28.6162852603
 20
192.9150211861
 30
0.0
  0
SPLINE
  5
2D2
100
AcDbEntity
  8
0
100
AcDbSpline
 62
7
  6
CONTINUOUS
 70
0
 71
3
 72
11
 73
7
 74
0
 42
0.0000001
 43
0.0000001
 44
0.0000000001
 40
0.0
 40
0.0
 40
0.0
 40
0.0
 40
0.2895396729
 40
0.5491163863
 40
0.7822545095
 40
1.0
 40
1.0
 40
1.0
 40
1.0
 10
46.0110396558
 20
202.9578273714
 30
0.0
 10
46.063662818
 20
202.9882091869
 30
0.0
 10
46.1684345872
 20
203.0379855321
 30
0.0
 10
46.3294054768
 20
203.0769493255
 30
0.0
 10
46.4805213379
 20
203.0731545142
 30
0.0
 10
46.5714210118
 20
203.0400507637
 30
0.0
 10
46.6109959039
 20
203.0172026848
 30
0.0
  0
SPLINE
  5
2D3
100
AcDbEntity
  8
0
100
AcDbSpline
 62
7
  6
CONTINUOUS
 70
0
 71
3
 72
9
 73
5
 74
0
 42
0.0000001
 43
0.0000001
 44
0.0000000001
 40
0.0
 40
0.0
 40
0.0
 40
0.0
 40
0.220853087
 40
1.0
 40
1.0
 40
1.0
 40
1.0
 10
189.7957433418
 20
119.196725196
 30
0.0
 10
189.8023376348
 20
119.1929180698
 30
0.0
 10
189.8293118879
 20
119.1702153123
 30
0.0
 10
189.8371565731
 20
119.1320147599
 30
0.0
 10
189.8371565731
 20
119.1051519831
 30
0.0
  0
SPLINE
  5
2D4
100
AcDbEntity
  8
0
100
AcDbSpline
 62
7
  6
CONTINUOUS
 70
0
 71
3
 72
9
 73
5
 74
0
 42
0.0000001
 43
0.0000001
 44
0.0000000001
 40
0.0
 40
0.0
 40
0.0
 40
0.0
 40
0.4999998047
 40
1.0
 40
1.0
 40
1.0
 40
1.0
 10
171.4524568055
 20
104.326641655
 30
0.0
 10
171.4524568055
 20
104.2781711251
 30
0.0
 10
171.4193553969
 20
104.1824536962
 30
0.0
 10
171.3530128438
 20
104.1059275162
 30
0.0
 10
171.3110360381
 20
104.0816923408
 30
0.0
  0
SPLINE
  5
2D5
100
AcDbEntity
  8
0
100
AcDbSpline
 62
7
  6
CONTINUOUS
 70
0
 71
3
 72
9
 73
5
 74
0
 42
0.0000001
 43
0.0000001
 44
0.0000000001
 40
0.0
 40
0.0
 40
0.0
 40
0.0
 40
0.4999994563
 40
1.0
 40
1.0
 40
1.0
 40
1.0
 10
165.6540628435
 20
125.8819395991
 30
0.0
 10
165.7590023979
 20
125.9425261169
 30
0.0
 10
166.0076158969
 20
125.9904412869
 30
0.0
 10
166.256229423
 20
125.9425271916
 30
0.0
 10
166.3611696425
 20
125.8819412988
 30
0.0
  0
SPLINE
  5
2D6
100
AcDbEntity
  8
0
100
AcDbSpline
 62
7
  6
CONTINUOUS
 70
0
 71
3
 72
11
 73
7
 74
0
 42
0.0000001
 43
0.0000001
 44
0.0000000001
 40
0.0
 40
0.0
 40
0.0
 40
0.0
 40
0.2372518718
 40
0.4999985497
 40
0.7627460178
 40
1.0
 40
1.0
 40
1.0
 40
1.0
 10
172.3009814102
 20
109.9604998676
 30
0.0
 10
172.1805086503
 20
109.8909453024
 30
0.0
 10
171.95252481
 20
109.6990930107
 30
0.0
 10
171.6865385165
 20
109.3354547092
 30
0.0
 10
171.5046134097
 20
108.9232825373
 30
0.0
 10
171.4524568055
 20
108.6299149729
 30
0.0
 10
171.4524568055
 20
108.4908039824
 30
0.0
  0
SPLINE
  5
2D7
100
AcDbEntity
  8
0
100
AcDbSpline
 62
7
  6
CONTINUOUS
 70
0
 71
3
 72
9
 73
5
 74
0
 42
0.0000001
 43
0.0000001
 44
0.0000000001
 40
0.0
 40
0.0
 40
0.0
 40
0.0
 40
0.4999994563
 40
1.0
 40
1.0
 40
1.0
 40
1.0
 10
147.9763197148
 20
136.0879584621
 30
0.0
 10
148.0812592692
 20
136.1485449799
 30
0.0
 10
148.3298727683
 20
136.1964601499
 30
0.0
 10
148.5784862943
 20
136.1485460546
 30
0.0
 10
148.6834265139
 20
136.0879601618
 30
0.0
  0
SPLINE
  5
2D8
100
AcDbEntity
  8
0
100
AcDbSpline
 62
7
  6
CONTINUOUS
 70
0
 71
3
 72
14
 73
10
 74
0
 42
0.0000001
 43
0.0000001
 44
0.0000000001
 40
0.0
 40
0.0
 40
0.0
 40
0.0
 40
0.2992973941
 40
0.4451479697
 40
0.5819041311
 40
0.7059203641
 40
0.8155084286
 40
0.9118518918
 40
1.0
 40
1.0
 40
1.0
 40
1.0
 10
178.5234951777
 20
113.5530484217
 30
0.0
 10
178.3654594179
 20
113.1457318831
 30
0.0
 10
178.0458695141
 20
112.5682263298
 30
0.0
 10
177.4950400013
 20
111.919205211
 30
0.0
 10
177.047080795
 20
111.5258105589
 30
0.0
 10
176.5830408353
 20
111.2421815763
 30
0.0
 10
176.1233220578
 20
111.0831167259
 30
0.0
 10
175.6874749208
 20
111.0601764944
 30
0.0
 10
175.4237943279
 20
111.1465618757
 30
0.0
 10
175.3124123896
 20
111.2109916893
 30
0.0
  0
SPLINE
  5
2D9
100
AcDbEntity
  8
0
100
AcDbSpline
 62
7
  6
CONTINUOUS
 70
0
 71
3
 72
11
 73
7
 74
0
 42
0.0000001
 43
0.0000001
 44
0.0000000001
 40
0.0
 40
0.0
 40
0.0
 40
0.0
 40
0.2177456295
 40
0.4508837762
 40
0.7104602913
 40
1.0
 40
1.0
 40
1.0
 40
1.0
 10
190.2956920546
 20
120.0626813658
 30
0.0
 10
190.2561171244
 20
120.0855294385
 30
0.0
 10
190.1652174297
 20
120.118633236
 30
0.0
 10
190.0141015697
 20
120.1224279721
 30
0.0
 10
189.8531306906
 20
120.0834642704
 30
0.0
 10
189.7483589753
 20
120.0336878726
 30
0.0
 10
189.6957358057
 20
120.0033060528
 30
0.0
  0
SPLINE
  5
2DA
100
AcDbEntity
  8
0
100
AcDbSpline
 62
7
  6
CONTINUOUS
 70
0
 71
3
 72
9
 73
5
 74
0
 42
0.0000001
 43
0.0000001
 44
0.0000000001
 40
0.0
 40
0.0
 40
0.0
 40
0.0
 40
0.4999994563
 40
1.0
 40
1.0
 40
1.0
 40
1.0
 10
130.2985765861
 20
146.2939773251
 30
0.0
 10
130.4035161406
 20
146.3545638429
 30
0.0
 10
130.6521296396
 20
146.4024790129
 30
0.0
 10
130.9007431656
 20
146.3545649176
 30
0.0
 10
131.0056833852
 20
146.2939790248
 30
0.0
  0
SPLINE
  5
2DB
100
AcDbEntity
  8
0
100
AcDbSpline
 62
7
  6
CONTINUOUS
 70
0
 71
3
 72
14
 73
10
 74
0
 42
0.0000001
 43
0.0000001
 44
0.0000000001
 40
0.0
 40
0.0
 40
0.0
 40
0.0
 40
0.2992973941
 40
0.4451479697
 40
0.5819041311
 40
0.7059203641
 40
0.8155084286
 40
0.9118518918
 40
1.0
 40
1.0
 40
1.0
 40
1.0
 10
187.0087412242
 20
118.4519782681
 30
0.0
 10
186.8507054644
 20
118.0446617295
 30
0.0
 10
186.5311155607
 20
117.4671561763
 30
0.0
 10
185.9802860479
 20
116.8181350574
 30
0.0
 10
185.5323268416
 20
116.4247404053
 30
0.0
 10
185.0682868819
 20
116.1411114227
 30
0.0
 10
184.6085681044
 20
115.9820465724
 30
0.0
 10
184.1727209673
 20
115.9591063409
 30
0.0
 10
183.9090403744
 20
116.0454917221
 30
0.0
 10
183.7976584362
 20
116.1099215358
 30
0.0
  0
SPLINE
  5
2DC
100
AcDbEntity
  8
0
100
AcDbSpline
 62
7
  6
CONTINUOUS
 70
0
 71
3
 72
9
 73
5
 74
0
 42
0.0000001
 43
0.0000001
 44
0.0000000001
 40
0.0
 40
0.0
 40
0.0
 40
0.0
 40
0.4999994563
 40
1.0
 40
1.0
 40
1.0
 40
1.0
 10
112.6208334574
 20
156.4999961881
 30
0.0
 10
112.7257730119
 20
156.5605827059
 30
0.0
 10
112.9743865109
 20
156.6084978759
 30
0.0
 10
113.2230000369
 20
156.5605837806
 30
0.0
 10
113.3279402565
 20
156.4999978878
 30
0.0
  0
SPLINE
  5
2DD
100
AcDbEntity
  8
0
100
AcDbSpline
 62
7
  6
CONTINUOUS
 70
0
 71
3
 72
9
 73
5
 74
0
 42
0.0000001
 43
0.0000001
 44
0.0000000001
 40
0.0
 40
0.0
 40
0.0
 40
0.0
 40
0.4999994563
 40
1.0
 40
1.0
 40
1.0
 40
1.0
 10
94.9430903288
 20
166.7060150511
 30
0.0
 10
95.0480298832
 20
166.7666015689
 30
0.0
 10
95.2966433822
 20
166.8145167389
 30
0.0
 10
95.5452569083
 20
166.7666026436
 30
0.0
 10
95.6501971278
 20
166.7060167508
 30
0.0
  0
SPLINE
  5
2DE
100
AcDbEntity
  8
0
100
AcDbSpline
 62
7
  6
CONTINUOUS
 70
0
 71
3
 72
11
 73
7
 74
0
 42
0.0000001
 43
0.0000001
 44
0.0000000001
 40
0.0
 40
0.0
 40
0.0
 40
0.0
 40
0.2895411595
 40
0.5491183966
 40
0.7822559144
 40
1.0
 40
1.0
 40
1.0
 40
1.0
 10
189.8371565731
 20
114.9409896557
 30
0.0
 10
189.8371565731
 20
114.8802230334
 30
0.0
 10
189.8464350229
 20
114.7645948106
 30
0.0
 10
189.8931787526
 20
114.6057014147
 30
0.0
 10
189.9720266301
 20
114.4767240504
 30
0.0
 10
190.0461487121
 20
114.4145532424
 30
0.0
 10
190.0857249288
 20
114.3917044269
 30
0.0
  0
SPLINE
  5
2DF
100
AcDbEntity
  8
0
100
AcDbSpline
 62
7
  6
CONTINUOUS
 70
0
 71
3
 72
9
 73
5
 74
0
 42
0.0000001
 43
0.0000001
 44
0.0000000001
 40
0.0
 40
0.0
 40
0.0
 40
0.0
 40
0.293909939
 40
1.0
 40
1.0
 40
1.0
 40
1.0
 10
190.6856811778
 20
115.2675821569
 30
0.0
 10
190.6769555387
 20
115.2625444369
 30
0.0
 10
190.6464935448
 20
115.2476939625
 30
0.0
 10
190.6066362349
 20
115.2455581258
 30
0.0
 10
190.5856736416
 20
115.2576605966
 30
0.0
  0
SPLINE
  5
2E0
100
AcDbEntity
  8
0
100
AcDbSpline
 62
7
  6
CONTINUOUS
 70
0
 71
3
 72
9
 73
5
 74
0
 42
0.0000001
 43
0.0000001
 44
0.0000000001
 40
0.0
 40
0.0
 40
0.0
 40
0.0
 40
0.4999994563
 40
1.0
 40
1.0
 40
1.0
 40
1.0
 10
77.2653472001
 20
176.9120339142
 30
0.0
 10
77.3702867545
 20
176.9726204319
 30
0.0
 10
77.6189002536
 20
177.020535602
 30
0.0
 10
77.8675137796
 20
176.9726215066
 30
0.0
 10
77.9724539992
 20
176.9120356138
 30
0.0
  0
SPLINE
  5
2E1
100
AcDbEntity
  8
0
100
AcDbSpline
 62
7
  6
CONTINUOUS
 70
0
 71
3
 72
9
 73
5
 74
0
 42
0.0000001
 43
0.0000001
 44
0.0000000001
 40
0.0
 40
0.0
 40
0.0
 40
0.0
 40
0.4999994563
 40
1.0
 40
1.0
 40
1.0
 40
1.0
 10
59.5876040714
 20
187.1180527772
 30
0.0
 10
59.6925436259
 20
187.1786392949
 30
0.0
 10
59.9411571249
 20
187.226554465
 30
0.0
 10
60.1897706509
 20
187.1786403696
 30
0.0
 10
60.2947108705
 20
187.1180544768
 30
0.0
  0
SPLINE
  5
2E2
100
AcDbEntity
  8
0
100
AcDbSpline
 62
7
  6
CONTINUOUS
 70
0
 71
3
 72
9
 73
5
 74
0
 42
0.0000001
 43
0.0000001
 44
0.0000000001
 40
0.0
 40
0.0
 40
0.0
 40
0.0
 40
0.4999994563
 40
1.0
 40
1.0
 40
1.0
 40
1.0
 10
41.9098609427
 20
197.3240716402
 30
0.0
 10
42.0148004972
 20
197.3846581579
 30
0.0
 10
42.2634139962
 20
197.432573328
 30
0.0
 10
42.5120275222
 20
197.3846592326
 30
0.0
 10
42.6169677418
 20
197.3240733398
 30
0.0
  0
ENDSEC
  0
SECTION
  2
OBJECTS
  0
DICTIONARY
  5
C
100
AcDbDictionary
280
0
281
1
  3
ACAD_GROUP
350
D
  3
ACAD_MLINESTYLE
350
17
  3
ACAD_LAYOUT
350
1A
  3
ACAD_PLOTSETTINGS
350
19
  3
ACAD_PLOTSTYLENAME
350
E
  0
DICTIONARY
  5
D
102
{ACAD_REACTORS
330
C
102
}
100
AcDbDictionary
280
0
281
1
  0
ACDBDICTIONARYWDFLT
  5
E
102
{ACAD_REACTORS
330
C
102
}
100
AcDbDictionary
281
1
  3
Normal
350
F
100
AcDbDictionaryWithDefault
340
F
  0
DICTIONARY
  5
17
102
{ACAD_REACTORS
330
C
102
}
100
AcDbDictionary
280
0
281
1
  3
Standard
350
18
  0
DICTIONARY
  5
19
102
{ACAD_REACTORS
330
C
102
}
100
AcDbDictionary
281
1
  0
DICTIONARY
  5
1A
102
{ACAD_REACTORS
330
C
102
}
100
AcDbDictionary
281
1
  3
Model
350
2E3
  3
Layout1
350
2E4
  0
ACDBPLACEHOLDER
  5
F
102
{ACAD_REACTORS
330
E
102
}
  0
MLINESTYLE
  5
18
102
{ACAD_REACTORS
330
17
102
}
100
AcDbMlineStyle
  2
STANDARD
 70
0
  3

 62
256
 51
90.0
 52
90.0
 71
2
 49
0.5
 62
256
  6
BYLAYER
 49
-0.5
 62
256
  6
BYLAYER
  0
LAYOUT
  5
2E3
102
{ACAD_REACTORS
330
1A
102
}
100
AcDbPlotSettings
  1

  2
none_device
  4

  6

 40
0.0
 41
0.0
 42
0.0
 43
0.0
 44
210.0
 45
297.0
 46
0.0
 47
0.0
 48
0.0
 49
0.0
140
0.0
141
0.0
142
1.0
143
1.0
 70
1024
 72
1
 73
0
 74
0
  7

 75
0
147
1.0
148
0.0
149
0.0
100
AcDbLayout
  1
Model
 70
0
 71
0
 10
0.0
 20
0.0
 11
210.0
 21
297.0
 12
0.0
 22
0.0
 32
0.0
 14
0.0
 24
0.0
 34
0.0
 15
0.0
 25
0.0
 35
0.0
146
0.0
 13
0.0
 23
0.0
 33
0.0
 16
1.0
 26
0.0
 36
0.0
 17
0.0
 27
1.0
 37
0.0
 76
0
330
211
345
0
346
0
  0
LAYOUT
  5
2E4
102
{ACAD_REACTORS
330
1A
102
}
100
AcDbPlotSettings
  1

  2
none_device
  4

  6

 40
0.0
 41
0.0
 42
0.0
 43
0.0
 44
210.0
 45
297.0
 46
0.0
 47
0.0
 48
0.0
 49
0.0
140
0.0
141
0.0
142
1.0
143
1.0
 70
0
 72
1
 73
0
 74
0
  7

 75
0
147
1.0
148
0.0
149
0.0
100
AcDbLayout
  1
Layout1
 70
0
 71
1
 10
0.0
 20
0.0
 11
210.0
 21
297.0
 12
0.0
 22
0.0
 32
0.0
 14
0.0
 24
0.0
 34
0.0
 15
0.0
 25
0.0
 35
0.0
146
0.0
 13
0.0
 23
0.0
 33
0.0
 16
1.0
 26
0.0
 36
0.0
 17
0.0
 27
1.0
 37
0.0
 76
0
330
212
345
0
346
0
  0
ENDSEC
  0
EOF
