999
DXF file: C:\Users\sesa63760\Dev\_Creo\CAD\MCADPD0004524_3D-CAD\drw0001_3.dxf
999
Pro/ENGINEER 2019471 by Parametric Technology Corporation
  0
SECTION
  2
HEADER
  9
$ACADVER
  1
AC1024
  9
$DWGCODEPAGE
  3
ANSI_1252
  9
$EXTMAX
 10
180.3825539933
 20
255.1124692191
 30
0.0
  9
$EXTMIN
 10
0.0
 20
0.0
 30
0.0
  9
$LIMMIN
 10
0.0
 20
0.0
  9
$LIMMAX
 10
180.3825539933
 20
255.1124692191
  9
$VIEWCTR
 10
90.1912769967
 20
127.5562346096
  9
$VIEWSIZE
 40
255.1124692191
  9
$CLAYER
  8
0
  9
$LTSCALE
 40
16.6295535491
  9
$CELTYPE
  6
BYLAYER
  9
$DIMSCALE
 40
1.0
  9
$DIMASZ
 40
2.1474113571
  9
$DIMEXO
 40
1.0
  9
$DIMDLI
 40
11.4895097248
  9
$DIMEXE
 40
1.0
  9
$DIMCEN
 40
2.7211996717
  9
$DIMLFAC
 40
1.0
  9
$DIMBLK
  1
_FILLED
  9
$DIMALT
 70
0
  9
$DIMALTF
 40
0.0393700787
  9
$DIMTXT
 40
3.0063758999
  9
$DIMTOL
 70
1
  9
$DIMLIM
 70
0
  9
$DIMTFAC
 40
1.0
  9
$DIMTP
 40
0.01
  9
$DIMTM
 40
0.01
  9
$DIMGAP
 40
0.625
  9
$DIMDSEP
 70
46
  9
$AUNITS
 70
0
  9
$PDMODE
 70
3
  9
$PDSIZE
 40
0.3125
  9
$HANDSEED
  5
415
  9
$TILEMODE
 70
1
  9
$MEASUREMENT
 70
1
  9
$INSUNITS
 70
4
  0
ENDSEC
  0
SECTION
  2
CLASSES
  0
CLASS
  1
ACDBDICTIONARYWDFLT
  2
AcDbDictionaryWithDefault
  3
AutoCAD 2000
 90
0
 91
1
280
0
281
0
  0
CLASS
  1
ACDBPLACEHOLDER
  2
AcDbPlaceHolder
  3
AutoCAD 2000
 90
0
 91
1
280
0
281
0
  0
CLASS
  1
LAYOUT
  2
AcDbLayout
  3
AutoCAD 2000
 90
0
 91
0
280
0
281
0
  0
ENDSEC
  0
SECTION
  2
TABLES
  0
TABLE
  2
VPORT
  5
8
100
AcDbSymbolTable
 70
2
  0
VPORT
  5
1F4
100
AcDbSymbolTableRecord
100
AcDbViewportTableRecord
  2
*ACTIVE
 70
0
 10
0.0
 20
0.0
 11
1.0
 21
1.0
 12
90.1912769967
 22
127.5562346096
 13
0.0
 23
0.0
 14
1.0
 24
1.0
 15
0.0
 25
0.0
 16
0.0
 26
0.0
 36
1.0
 17
0.0
 27
0.0
 37
0.0
 40
255.1124692191
 41
0.7070707071
 42
50.0
 43
0.0
 44
0.0
 50
0.0
 51
0.0
 71
0
 72
100
 73
1
 74
1
 75
0
 76
0
 77
0
 78
0
  0
ENDTAB
  0
TABLE
  2
LTYPE
  5
5
100
AcDbSymbolTable
 70
6
  0
LTYPE
  5
14
100
AcDbSymbolTableRecord
100
AcDbLinetypeTableRecord
  2
BYBLOCK
 70
0
  3

 72
65
 73
0
 40
0.0
  0
LTYPE
  5
15
100
AcDbSymbolTableRecord
100
AcDbLinetypeTableRecord
  2
BYLAYER
 70
0
  3

 72
65
 73
0
 40
0.0
  0
LTYPE
  5
16
100
AcDbSymbolTableRecord
100
AcDbLinetypeTableRecord
  2
CONTINUOUS
 70
64
  3
Solid line
 72
65
 73
0
 40
0.0
  0
LTYPE
  5
1F5
100
AcDbSymbolTableRecord
100
AcDbLinetypeTableRecord
  2
CENTER
 70
64
  3
____ _ ____ _ ____ _ ____ _ ____ _ ____ _ ____
 72
65
 73
4
 40
0.6
 49
0.375
 74
0
 49
-0.075
 74
0
 49
0.075
 74
0
 49
-0.075
 74
0
  0
LTYPE
  5
1F6
100
AcDbSymbolTableRecord
100
AcDbLinetypeTableRecord
  2
HIDDEN
 70
64
  3
- - - - - - - - - - - - - - - - - - - -
 72
65
 73
2
 40
0.2
 49
0.1
 74
0
 49
-0.1
 74
0
  0
LTYPE
  5
1F7
100
AcDbSymbolTableRecord
100
AcDbLinetypeTableRecord
  2
PHANTOM
 70
64
  3
_____ _ _ _____ _ _ _____ _ _ _____
 72
65
 73
6
 40
0.8
 49
0.45
 74
0
 49
-0.05
 74
0
 49
0.1
 74
0
 49
-0.05
 74
0
 49
0.1
 74
0
 49
-0.05
 74
0
  0
LTYPE
  5
1F8
100
AcDbSymbolTableRecord
100
AcDbLinetypeTableRecord
  2
DOT
 70
64
  3
. . . . . . . . . . . . . . . . . . . .
 72
65
 73
2
 40
0.2
 49
0.1
 74
0
 49
-0.1
 74
0
  0
LTYPE
  5
1F9
100
AcDbSymbolTableRecord
100
AcDbLinetypeTableRecord
  2
DASHED
 70
64
  3
- - - - - - - - - - - - - - - - - - - -
 72
65
 73
2
 40
0.2
 49
0.1
 74
0
 49
-0.1
 74
0
  0
ENDTAB
  0
TABLE
  2
LAYER
  5
2
100
AcDbSymbolTable
 70
36
  0
LAYER
  5
10
100
AcDbSymbolTableRecord
100
AcDbLayerTableRecord
  2
0
 70
0
 62
7
  6
CONTINUOUS
370
-3
390
F
  0
LAYER
  5
1FA
100
AcDbSymbolTableRecord
100
AcDbLayerTableRecord
  2
DEFAULT_1
 70
0
 62
7
  6
CENTER
370
-3
390
F
  0
LAYER
  5
1FB
100
AcDbSymbolTableRecord
100
AcDbLayerTableRecord
  2
DEFAULT_2
 70
0
 62
7
  6
HIDDEN
370
-3
390
F
  0
LAYER
  5
1FC
100
AcDbSymbolTableRecord
100
AcDbLayerTableRecord
  2
DEFAULT_3
 70
0
 62
7
  6
PHANTOM
370
-3
390
F
  0
LAYER
  5
1FD
100
AcDbSymbolTableRecord
100
AcDbLayerTableRecord
  2
00_COMPONENTS
 70
0
 62
7
  6
CONTINUOUS
370
-3
390
F
  0
LAYER
  5
1FE
100
AcDbSymbolTableRecord
100
AcDbLayerTableRecord
  2
01_1_DEFAULT_DATUMS
 70
0
 62
7
  6
CONTINUOUS
370
-3
390
F
  0
LAYER
  5
1FF
100
AcDbSymbolTableRecord
100
AcDbLayerTableRecord
  2
01_PLANES
 70
0
 62
7
  6
CONTINUOUS
370
-3
390
F
  0
LAYER
  5
200
100
AcDbSymbolTableRecord
100
AcDbLayerTableRecord
  2
02_COORD_SYS
 70
0
 62
7
  6
CONTINUOUS
370
-3
390
F
  0
LAYER
  5
201
100
AcDbSymbolTableRecord
100
AcDbLayerTableRecord
  2
03_AXES
 70
0
 62
7
  6
CONTINUOUS
370
-3
390
F
  0
LAYER
  5
202
100
AcDbSymbolTableRecord
100
AcDbLayerTableRecord
  2
04_POINTS
 70
0
 62
7
  6
CONTINUOUS
370
-3
390
F
  0
LAYER
  5
203
100
AcDbSymbolTableRecord
100
AcDbLayerTableRecord
  2
05_CURVES
 70
0
 62
7
  6
CONTINUOUS
370
-3
390
F
  0
LAYER
  5
204
100
AcDbSymbolTableRecord
100
AcDbLayerTableRecord
  2
06_SURFS
 70
0
 62
7
  6
CONTINUOUS
370
-3
390
F
  0
LAYER
  5
205
100
AcDbSymbolTableRecord
100
AcDbLayerTableRecord
  2
07_COSMETICS
 70
0
 62
7
  6
CONTINUOUS
370
-3
390
F
  0
LAYER
  5
206
100
AcDbSymbolTableRecord
100
AcDbLayerTableRecord
  2
10_NOTES
 70
0
 62
7
  6
CONTINUOUS
370
-3
390
F
  0
LAYER
  5
207
100
AcDbSymbolTableRecord
100
AcDbLayerTableRecord
  2
11_NOTES_PUB
 70
0
 62
7
  6
CONTINUOUS
370
-3
390
F
  0
LAYER
  5
208
100
AcDbSymbolTableRecord
100
AcDbLayerTableRecord
  2
13_REF_GTOL
 70
0
 62
7
  6
CONTINUOUS
370
-3
390
F
  0
LAYER
  5
209
100
AcDbSymbolTableRecord
100
AcDbLayerTableRecord
  2
16_MISC
 70
0
 62
7
  6
CONTINUOUS
370
-3
390
F
  0
LAYER
  5
20A
100
AcDbSymbolTableRecord
100
AcDbLayerTableRecord
  2
17_NO_PRINT
 70
0
 62
7
  6
CONTINUOUS
370
-3
390
F
  0
LAYER
  5
20B
100
AcDbSymbolTableRecord
100
AcDbLayerTableRecord
  2
18_DATUM_CAMS_JOINTS
 70
0
 62
7
  6
CONTINUOUS
370
-3
390
F
  0
LAYER
  5
20C
100
AcDbSymbolTableRecord
100
AcDbLayerTableRecord
  2
19_DATUM_FUNCTIONAL
 70
0
 62
7
  6
CONTINUOUS
370
-3
390
F
  0
LAYER
  5
20D
100
AcDbSymbolTableRecord
100
AcDbLayerTableRecord
  2
20_DATUM_KINEMATIC_SCHEME
 70
0
 62
7
  6
CONTINUOUS
370
-3
390
F
  0
ENDTAB
  0
TABLE
  2
STYLE
  5
3
100
AcDbSymbolTable
 70
1
  0
STYLE
  5
11
100
AcDbSymbolTableRecord
100
AcDbTextStyleTableRecord
  2
STANDARD
 70
0
 40
0.0
 41
1.0
 50
0.0
 71
0
 42
0.2
  3
ARIAL.TTF
  4

  0
STYLE
  5
20E
100
AcDbSymbolTableRecord
100
AcDbTextStyleTableRecord
  2
TEXTSTYLE_1
 70
0
 40
0.0
 41
0.8
 50
0.0
 71
0
 42
0.2
  3
gdt
  4

  0
ENDTAB
  0
TABLE
  2
VIEW
  5
6
100
AcDbSymbolTable
 70
0
  0
ENDTAB
  0
TABLE
  2
UCS
  5
7
100
AcDbSymbolTable
 70
0
  0
ENDTAB
  0
TABLE
  2
APPID
  5
9
100
AcDbSymbolTable
 70
1
  0
APPID
  5
20F
100
AcDbSymbolTableRecord
100
AcDbRegAppTableRecord
  2
ACAD
 70
0
  0
ENDTAB
  0
TABLE
  2
BLOCK_RECORD
  5
1
100
AcDbSymbolTable
 70
0
  0
BLOCK_RECORD
  5
210
100
AcDbSymbolTableRecord
100
AcDbBlockTableRecord
  2
*Model_Space
  0
BLOCK_RECORD
  5
211
100
AcDbSymbolTableRecord
100
AcDbBlockTableRecord
  2
*Paper_Space
  0
BLOCK_RECORD
  5
212
100
AcDbSymbolTableRecord
100
AcDbBlockTableRecord
  2
_FILLED
  0
ENDTAB
  0
TABLE
  2
DIMSTYLE
  5
A
100
AcDbSymbolTable
 70
1
100
AcDbDimStyleTable
 71
0
  0
DIMSTYLE
105
213
100
AcDbSymbolTableRecord
100
AcDbDimStyleTableRecord
  2
STANDARD
 70
0
  3

  4

 40
1.0
 41
2.1474113571
 42
1.0
 43
0.38
 44
1.0
 45
0.0
 46
0.0
 47
0.01
 48
0.01
140
3.0063758999
141
0.09
142
0.0
143
25.4
144
1.0
145
0.0
146
1.0
147
0.625
 71
1
 72
0
 73
0
 74
0
 75
0
 76
0
 77
1
 78
8
 79
2
170
0
171
1
172
0
173
0
174
0
175
0
176
0
177
0
178
0
270
2
179
2
271
2
272
2
273
2
274
2
275
0
280
0
281
0
282
0
283
1
284
8
285
0
286
0
287
3
288
0
340
11
278
46
341
212
342
212
343
212
344
212
  0
ENDTAB
  0
ENDSEC
  0
SECTION
  2
BLOCKS
  0
BLOCK
  5
20
100
AcDbEntity
  8
0
100
AcDbBlockBegin
  2
*Model_Space
 70
0
 10
0.0
 20
0.0
 30
0.0
  3
*Model_Space
  1

  0
ENDBLK
  5
21
100
AcDbEntity
  8
0
100
AcDbBlockEnd
  0
BLOCK
  5
1C
100
AcDbEntity
  8
0
100
AcDbBlockBegin
  2
*Paper_Space
 70
0
 10
0.0
 20
0.0
 30
0.0
  3
*Paper_Space
  1

  0
ENDBLK
  5
1D
100
AcDbEntity
  8
0
100
AcDbBlockEnd
  0
BLOCK
  5
214
100
AcDbEntity
  8
0
100
AcDbBlockBegin
  2
_FILLED
 70
64
 10
0.0
 20
0.0
  3
_FILLED
  1

  0
SOLID
  5
215
100
AcDbEntity
  8
0
  6
BYBLOCK
 62
0
100
AcDbTrace
 10
0.0
 20
0.0
 11
-1.0
 21
0.25
 12
-1.0
 22
-0.25
 13
-1.0
 23
-0.25
  0
ENDBLK
  5
216
100
AcDbEntity
  8
0
  6
BYBLOCK
 62
0
100
AcDbBlockEnd
  0
ENDSEC
  0
SECTION
  2
ENTITIES
  0
LINE
  5
217
100
AcDbEntity
  8
0
100
AcDbLine
 62
7
  6
BYLAYER
 10
33.6865865144
 20
209.7218534385
 11
34.1865491992
 21
210.2157449381
  0
LINE
  5
218
100
AcDbEntity
  8
0
100
AcDbLine
 62
7
  6
BYLAYER
 10
55.689318311
 20
29.8157449381
 11
59.689318311
 21
29.8157449381
  0
LINE
  5
219
100
AcDbEntity
  8
0
100
AcDbLine
 62
7
  6
BYLAYER
 10
125.689318311
 20
29.8157449381
 11
129.689318311
 21
29.8157449381
  0
LINE
  5
21A
100
AcDbEntity
  8
0
100
AcDbLine
 62
7
  6
BYLAYER
 10
55.189318311
 20
30.3157449381
 11
60.189318311
 21
30.3157449381
  0
LINE
  5
21B
100
AcDbEntity
  8
0
100
AcDbLine
 62
7
  6
BYLAYER
 10
125.189318311
 20
30.3157449381
 11
130.189318311
 21
30.3157449381
  0
LINE
  5
21C
100
AcDbEntity
  8
0
100
AcDbLine
 62
7
  6
BYLAYER
 10
125.689318311
 20
30.7157449381
 11
129.689318311
 21
30.7157449381
  0
LINE
  5
21D
100
AcDbEntity
  8
0
100
AcDbLine
 62
7
  6
BYLAYER
 10
125.189318311
 20
31.2157449381
 11
130.189318311
 21
31.2157449381
  0
LINE
  5
21E
100
AcDbEntity
  8
0
100
AcDbLine
 62
7
  6
BYLAYER
 10
32.6572497174
 20
203.2344811668
 11
32.1511785286
 21
202.7406269789
  0
LINE
  5
21F
100
AcDbEntity
  8
0
100
AcDbLine
 62
7
  6
BYLAYER
 10
37.689318311
 20
34.7157449381
 11
42.689318311
 21
34.7157449381
  0
LINE
  5
220
100
AcDbEntity
  8
0
100
AcDbLine
 62
7
  6
BYLAYER
 10
72.689318311
 20
34.7157449381
 11
77.689318311
 21
34.7157449381
  0
LINE
  5
221
100
AcDbEntity
  8
0
100
AcDbLine
 62
7
  6
BYLAYER
 10
107.689318311
 20
34.7157449381
 11
112.689318311
 21
34.7157449381
  0
LINE
  5
222
100
AcDbEntity
  8
0
100
AcDbLine
 62
7
  6
BYLAYER
 10
142.689318311
 20
34.7157449381
 11
147.689318311
 21
34.7157449381
  0
LINE
  5
223
100
AcDbEntity
  8
0
100
AcDbLine
 62
7
  6
BYLAYER
 10
21.339318311
 20
34.8157449381
 11
37.689318311
 21
34.8157449381
  0
LINE
  5
224
100
AcDbEntity
  8
0
100
AcDbLine
 62
7
  6
BYLAYER
 10
42.689318311
 20
34.8157449381
 11
72.689318311
 21
34.8157449381
  0
LINE
  5
225
100
AcDbEntity
  8
0
100
AcDbLine
 62
7
  6
BYLAYER
 10
77.689318311
 20
34.8157449381
 11
107.689318311
 21
34.8157449381
  0
LINE
  5
226
100
AcDbEntity
  8
0
100
AcDbLine
 62
7
  6
BYLAYER
 10
112.689318311
 20
34.8157449381
 11
142.689318311
 21
34.8157449381
  0
LINE
  5
227
100
AcDbEntity
  8
0
100
AcDbLine
 62
7
  6
BYLAYER
 10
147.689318311
 20
34.8157449381
 11
164.039318311
 21
34.8157449381
  0
LINE
  5
228
100
AcDbEntity
  8
0
100
AcDbLine
 62
7
  6
BYLAYER
 10
21.839318311
 20
35.2157449381
 11
37.689318311
 21
35.2157449381
  0
LINE
  5
229
100
AcDbEntity
  8
0
100
AcDbLine
 62
7
  6
BYLAYER
 10
42.689318311
 20
35.2157449381
 11
72.689318311
 21
35.2157449381
  0
LINE
  5
22A
100
AcDbEntity
  8
0
100
AcDbLine
 62
7
  6
BYLAYER
 10
77.689318311
 20
35.2157449381
 11
107.689318311
 21
35.2157449381
  0
LINE
  5
22B
100
AcDbEntity
  8
0
100
AcDbLine
 62
7
  6
BYLAYER
 10
112.689318311
 20
35.2157449381
 11
142.689318311
 21
35.2157449381
  0
LINE
  5
22C
100
AcDbEntity
  8
0
100
AcDbLine
 62
7
  6
BYLAYER
 10
147.689318311
 20
35.2157449381
 11
164.039318311
 21
35.2157449381
  0
LINE
  5
22D
100
AcDbEntity
  8
0
100
AcDbLine
 62
7
  6
BYLAYER
 10
23.989318311
 20
37.3157449381
 11
26.989318311
 21
37.3157449381
  0
LINE
  5
22E
100
AcDbEntity
  8
0
100
AcDbLine
 62
7
  6
BYLAYER
 10
27.489318311
 20
37.3157449381
 11
157.889318311
 21
37.3157449381
  0
LINE
  5
22F
100
AcDbEntity
  8
0
100
AcDbLine
 62
7
  6
BYLAYER
 10
158.389318311
 20
37.3157449381
 11
160.889318311
 21
37.3157449381
  0
LINE
  5
230
100
AcDbEntity
  8
0
100
AcDbLine
 62
7
  6
BYLAYER
 10
24.489318311
 20
39.8157449381
 11
55.189318311
 21
39.8157449381
  0
LINE
  5
231
100
AcDbEntity
  8
0
100
AcDbLine
 62
7
  6
BYLAYER
 10
60.189318311
 20
39.8157449381
 11
90.189318311
 21
39.8157449381
  0
LINE
  5
232
100
AcDbEntity
  8
0
100
AcDbLine
 62
7
  6
BYLAYER
 10
95.189318311
 20
39.8157449381
 11
125.189318311
 21
39.8157449381
  0
LINE
  5
233
100
AcDbEntity
  8
0
100
AcDbLine
 62
7
  6
BYLAYER
 10
130.189318311
 20
39.8157449381
 11
160.889318311
 21
39.8157449381
  0
LINE
  5
234
100
AcDbEntity
  8
0
100
AcDbLine
 62
7
  6
BYLAYER
 10
28.5518743949
 20
52.0729928158
 11
29.6220433031
 21
50.2893779688
  0
LINE
  5
235
100
AcDbEntity
  8
0
100
AcDbLine
 62
7
  6
BYLAYER
 10
28.9806208578
 20
52.3302406936
 11
30.0468112367
 21
50.5532567286
  0
LINE
  5
236
100
AcDbEntity
  8
0
100
AcDbLine
 62
7
  6
BYLAYER
 10
155.289318311
 20
50.0387609732
 11
155.189318311
 21
50.0387609732
  0
LINE
  5
237
100
AcDbEntity
  8
0
100
AcDbLine
 62
7
  6
BYLAYER
 10
30.189318311
 20
50.0387609732
 11
29.689318311
 21
50.0387609732
  0
LINE
  5
238
100
AcDbEntity
  8
0
100
AcDbLine
 62
7
  6
BYLAYER
 10
28.1142732157
 20
52.3157449381
 11
25.889318311
 21
52.3157449381
  0
LINE
  5
239
100
AcDbEntity
  8
0
100
AcDbLine
 62
7
  6
BYLAYER
 10
159.089318311
 20
52.7157449381
 11
157.2555086899
 21
52.7157449381
  0
LINE
  5
23A
100
AcDbEntity
  8
0
100
AcDbLine
 62
7
  6
BYLAYER
 10
26.389318311
 20
52.8157449381
 11
28.123127932
 21
52.8157449381
  0
LINE
  5
23B
100
AcDbEntity
  8
0
100
AcDbLine
 62
7
  6
BYLAYER
 10
157.25550869
 20
52.8157449381
 11
158.989318311
 21
52.8157449381
  0
LINE
  5
23C
100
AcDbEntity
  8
0
100
AcDbLine
 62
7
  6
BYLAYER
 10
21.339318311
 20
34.8157449381
 11
21.339318311
 21
151.0157476243
  0
LINE
  5
23D
100
AcDbEntity
  8
0
100
AcDbLine
 62
7
  6
BYLAYER
 10
21.839318311
 20
125.2157449381
 11
21.839318311
 21
35.2157449381
  0
LINE
  5
23E
100
AcDbEntity
  8
0
100
AcDbLine
 62
7
  6
BYLAYER
 10
22.339318311
 20
129.2157449381
 11
22.339318311
 21
173.9157449381
  0
LINE
  5
23F
100
AcDbEntity
  8
0
100
AcDbLine
 62
7
  6
BYLAYER
 10
22.839318311
 20
174.4157449381
 11
22.839318311
 21
129.2157449381
  0
LINE
  5
240
100
AcDbEntity
  8
0
100
AcDbLine
 62
7
  6
BYLAYER
 10
23.989318311
 20
37.3157449381
 11
23.989318311
 21
116.9157449381
  0
LINE
  5
241
100
AcDbEntity
  8
0
100
AcDbLine
 62
7
  6
BYLAYER
 10
24.189318311
 20
34.8157449381
 11
24.189318311
 21
35.2157449381
  0
LINE
  5
242
100
AcDbEntity
  8
0
100
AcDbLine
 62
7
  6
BYLAYER
 10
24.489318311
 20
37.3157449381
 11
24.489318311
 21
116.9157449381
  0
LINE
  5
243
100
AcDbEntity
  8
0
100
AcDbLine
 62
7
  6
BYLAYER
 10
24.789318311
 20
117.7157449381
 11
24.789318311
 21
117.2157449381
  0
LINE
  5
244
100
AcDbEntity
  8
0
100
AcDbLine
 62
7
  6
BYLAYER
 10
24.989318311
 20
116.7157449381
 11
24.989318311
 21
39.8157449381
  0
LINE
  5
245
100
AcDbEntity
  8
0
100
AcDbLine
 62
7
  6
BYLAYER
 10
25.889318311
 20
52.3157449381
 11
25.889318311
 21
77.5157449381
  0
LINE
  5
246
100
AcDbEntity
  8
0
100
AcDbLine
 62
7
  6
BYLAYER
 10
25.889318311
 20
79.0157449381
 11
25.8893183115
 21
114.7157449404
  0
LINE
  5
247
100
AcDbEntity
  8
0
100
AcDbLine
 62
7
  6
BYLAYER
 10
25.989318311
 20
39.8157449381
 11
25.989318311
 21
37.3157449381
  0
LINE
  5
248
100
AcDbEntity
  8
0
100
AcDbLine
 62
7
  6
BYLAYER
 10
26.389318311
 20
114.7157449375
 11
26.389318311
 21
79.0157449381
  0
LINE
  5
249
100
AcDbEntity
  8
0
100
AcDbLine
 62
7
  6
BYLAYER
 10
26.389318311
 20
77.5157449381
 11
26.389318311
 21
52.8157449381
  0
LINE
  5
24A
100
AcDbEntity
  8
0
100
AcDbLine
 62
7
  6
BYLAYER
 10
26.8393182867
 20
79.0157449381
 11
26.8393182867
 21
90.9157449381
  0
LINE
  5
24B
100
AcDbEntity
  8
0
100
AcDbLine
 62
7
  6
BYLAYER
 10
26.989318311
 20
39.8157449381
 11
26.989318311
 21
37.3157449381
  0
LINE
  5
24C
100
AcDbEntity
  8
0
100
AcDbLine
 62
7
  6
BYLAYER
 10
27.189318311
 20
116.0157449381
 11
27.189318311
 21
115.5157449381
  0
LINE
  5
24D
100
AcDbEntity
  8
0
100
AcDbLine
 62
7
  6
BYLAYER
 10
27.189318311
 20
116.7157449381
 11
27.189318311
 21
125.2157449381
  0
LINE
  5
24E
100
AcDbEntity
  8
0
100
AcDbLine
 62
7
  6
BYLAYER
 10
27.489318311
 20
37.3157449381
 11
27.489318311
 21
39.8157449381
  0
LINE
  5
24F
100
AcDbEntity
  8
0
100
AcDbLine
 62
7
  6
BYLAYER
 10
27.689318311
 20
117.7157449383
 11
27.689318311
 21
124.7157449381
  0
LINE
  5
250
100
AcDbEntity
  8
0
100
AcDbLine
 62
7
  6
BYLAYER
 10
27.739318311
 20
77.5157449381
 11
27.739318311
 21
79.0157449381
  0
LINE
  5
251
100
AcDbEntity
  8
0
100
AcDbLine
 62
7
  6
BYLAYER
 10
27.8390084957
 20
79.0157449381
 11
27.8391192867
 21
91.0157449381
  0
LINE
  5
252
100
AcDbEntity
  8
0
100
AcDbLine
 62
7
  6
BYLAYER
 10
28.1231279321
 20
52.3157449381
 11
28.1231279321
 21
52.8157449381
  0
LINE
  5
253
100
AcDbEntity
  8
0
100
AcDbLine
 62
7
  6
BYLAYER
 10
28.189318311
 20
125.2157449381
 11
28.189318311
 21
117.7157449381
  0
LINE
  5
254
100
AcDbEntity
  8
0
100
AcDbLine
 62
7
  6
BYLAYER
 10
28.489318311
 20
39.8157449381
 11
28.489318311
 21
37.3157449381
  0
LINE
  5
255
100
AcDbEntity
  8
0
100
AcDbLine
 62
7
  6
BYLAYER
 10
28.889318311
 20
116.0157449381
 11
28.889318311
 21
125.2157449381
  0
LINE
  5
256
100
AcDbEntity
  8
0
100
AcDbLine
 62
7
  6
BYLAYER
 10
24.8144994082
 20
117.1527798047
 11
24.789318311
 21
117.2157449381
  0
LINE
  5
257
100
AcDbEntity
  8
0
100
AcDbLine
 62
7
  6
BYLAYER
 10
24.989311783
 20
116.7157423249
 11
24.7893122156
 21
117.2157388214
  0
LINE
  5
258
100
AcDbEntity
  8
0
100
AcDbLine
 62
7
  6
BYLAYER
 10
29.7590155767
 20
75.0157449381
 11
29.7577033698
 21
77.5157545881
  0
LINE
  5
259
100
AcDbEntity
  8
0
100
AcDbLine
 62
7
  6
BYLAYER
 10
29.389318311
 20
124.7157449381
 11
29.389318311
 21
115.5157449381
  0
LINE
  5
25A
100
AcDbEntity
  8
0
100
AcDbLine
 62
7
  6
BYLAYER
 10
29.689318311
 20
39.8157449381
 11
29.689318311
 21
50.0387609732
  0
LINE
  5
25B
100
AcDbEntity
  8
0
100
AcDbLine
 62
7
  6
BYLAYER
 10
29.710407872
 20
75.0157449381
 11
29.710407872
 21
77.5157449381
  0
LINE
  5
25C
100
AcDbEntity
  8
0
100
AcDbLine
 62
7
  6
BYLAYER
 10
29.739318311
 20
79.0157449381
 11
29.739318311
 21
77.5157449381
  0
LINE
  5
25D
100
AcDbEntity
  8
0
100
AcDbLine
 62
7
  6
BYLAYER
 10
29.9724123648
 20
79.0157449381
 11
29.9724123648
 21
75.0157449381
  0
LINE
  5
25E
100
AcDbEntity
  8
0
100
AcDbLine
 62
7
  6
BYLAYER
 10
30.189318311
 20
50.0387609732
 11
30.189318311
 21
39.8157449381
  0
LINE
  5
25F
100
AcDbEntity
  8
0
100
AcDbLine
 62
7
  6
BYLAYER
 10
31.139318311
 20
34.8157449381
 11
31.139318311
 21
37.3157449381
  0
LINE
  5
260
100
AcDbEntity
  8
0
100
AcDbLine
 62
7
  6
BYLAYER
 10
31.189318311
 20
98.1657449381
 11
31.189318311
 21
101.1657449381
  0
LINE
  5
261
100
AcDbEntity
  8
0
100
AcDbLine
 62
7
  6
BYLAYER
 10
32.139318311
 20
37.3157449381
 11
32.139318311
 21
35.2157449381
  0
LINE
  5
262
100
AcDbEntity
  8
0
100
AcDbLine
 62
7
  6
BYLAYER
 10
32.189318311
 20
98.1657449381
 11
32.189318311
 21
101.1657449381
  0
LINE
  5
263
100
AcDbEntity
  8
0
100
AcDbLine
 62
7
  6
BYLAYER
 10
32.639318311
 20
35.2157449381
 11
32.639318311
 21
34.8157449381
  0
LINE
  5
264
100
AcDbEntity
  8
0
100
AcDbLine
 62
7
  6
BYLAYER
 10
33.639318311
 20
37.3157449381
 11
33.639318311
 21
34.8157449381
  0
LINE
  5
265
100
AcDbEntity
  8
0
100
AcDbLine
 62
7
  6
BYLAYER
 10
34.248160655
 20
75.0157449381
 11
34.248160655
 21
79.0157449381
  0
LINE
  5
266
100
AcDbEntity
  8
0
100
AcDbLine
 62
7
  6
BYLAYER
 10
34.6670526312
 20
75.0157449381
 11
34.6670526312
 21
79.0157449381
  0
LINE
  5
267
100
AcDbEntity
  8
0
100
AcDbLine
 62
7
  6
BYLAYER
 10
35.9749965151
 20
79.0157449381
 11
35.9749965151
 21
75.0157449381
  0
LINE
  5
268
100
AcDbEntity
  8
0
100
AcDbLine
 62
7
  6
BYLAYER
 10
32.1511785453
 20
202.7406269787
 11
31.8051076104
 21
174.4157449381
  0
LINE
  5
269
100
AcDbEntity
  8
0
100
AcDbLine
 62
7
  6
BYLAYER
 10
32.6572497308
 20
203.2344811799
 11
32.3051449228
 21
174.4157449381
  0
LINE
  5
26A
100
AcDbEntity
  8
0
100
AcDbLine
 62
7
  6
BYLAYER
 10
33.2552195643
 20
174.4157449381
 11
33.6865865144
 21
209.7218534385
  0
LINE
  5
26B
100
AcDbEntity
  8
0
100
AcDbLine
 62
7
  6
BYLAYER
 10
37.489318311
 20
35.2157449381
 11
37.489318311
 21
34.8157449381
  0
LINE
  5
26C
100
AcDbEntity
  8
0
100
AcDbLine
 62
7
  6
BYLAYER
 10
37.689318311
 20
34.7157449381
 11
37.689318311
 21
37.3157449381
  0
LINE
  5
26D
100
AcDbEntity
  8
0
100
AcDbLine
 62
7
  6
BYLAYER
 10
40.1869970371
 20
209.7157449381
 11
40.1869970423
 21
210.2157449381
  0
LINE
  5
26E
100
AcDbEntity
  8
0
100
AcDbLine
 62
7
  6
BYLAYER
 10
42.689318311
 20
34.7157449381
 11
42.689318311
 21
37.3157449381
  0
LINE
  5
26F
100
AcDbEntity
  8
0
100
AcDbLine
 62
7
  6
BYLAYER
 10
42.889318311
 20
35.2157449381
 11
42.889318311
 21
34.8157449381
  0
LINE
  5
270
100
AcDbEntity
  8
0
100
AcDbLine
 62
7
  6
BYLAYER
 10
44.4036398625
 20
75.0157449381
 11
44.4036398625
 21
79.0157449381
  0
LINE
  5
271
100
AcDbEntity
  8
0
100
AcDbLine
 62
7
  6
BYLAYER
 10
39.7495957414
 20
173.9157449381
 11
40.1869970371
 21
209.7157449381
  0
LINE
  5
272
100
AcDbEntity
  8
0
100
AcDbLine
 62
7
  6
BYLAYER
 10
29.7104311004
 20
75.0157449381
 11
50.6682053682
 21
75.0157449381
  0
LINE
  5
273
100
AcDbEntity
  8
0
100
AcDbLine
 62
7
  6
BYLAYER
 10
64.7104311004
 20
75.0157449381
 11
85.6682053682
 21
75.0157449381
  0
LINE
  5
274
100
AcDbEntity
  8
0
100
AcDbLine
 62
7
  6
BYLAYER
 10
99.7104311004
 20
75.0157449381
 11
120.6682053682
 21
75.0157449381
  0
LINE
  5
275
100
AcDbEntity
  8
0
100
AcDbLine
 62
7
  6
BYLAYER
 10
134.7104311004
 20
75.0157449381
 11
155.6682053681
 21
75.0157449381
  0
LINE
  5
276
100
AcDbEntity
  8
0
100
AcDbLine
 62
7
  6
BYLAYER
 10
25.889318311
 20
77.5157449381
 11
29.739318311
 21
77.5157449381
  0
LINE
  5
277
100
AcDbEntity
  8
0
100
AcDbLine
 62
7
  6
BYLAYER
 10
50.639318311
 20
77.5157449381
 11
54.489318311
 21
77.5157449381
  0
LINE
  5
278
100
AcDbEntity
  8
0
100
AcDbLine
 62
7
  6
BYLAYER
 10
60.889318311
 20
77.5157449381
 11
64.7406412771
 21
77.5157449381
  0
LINE
  5
279
100
AcDbEntity
  8
0
100
AcDbLine
 62
7
  6
BYLAYER
 10
85.639318311
 20
77.5157449381
 11
89.489318311
 21
77.5157449381
  0
LINE
  5
27A
100
AcDbEntity
  8
0
100
AcDbLine
 62
7
  6
BYLAYER
 10
95.889318311
 20
77.5157449381
 11
99.739318311
 21
77.5157449381
  0
LINE
  5
27B
100
AcDbEntity
  8
0
100
AcDbLine
 62
7
  6
BYLAYER
 10
120.639318311
 20
77.5157449381
 11
124.489318311
 21
77.5157449381
  0
LINE
  5
27C
100
AcDbEntity
  8
0
100
AcDbLine
 62
7
  6
BYLAYER
 10
131.289318311
 20
77.5157449381
 11
134.739318311
 21
77.5157449381
  0
LINE
  5
27D
100
AcDbEntity
  8
0
100
AcDbLine
 62
7
  6
BYLAYER
 10
155.739318311
 20
77.5157449381
 11
158.989318311
 21
77.5157449381
  0
LINE
  5
27E
100
AcDbEntity
  8
0
100
AcDbLine
 62
7
  6
BYLAYER
 10
155.639318311
 20
77.6157449381
 11
159.089318311
 21
77.6157449381
  0
LINE
  5
27F
100
AcDbEntity
  8
0
100
AcDbLine
 62
7
  6
BYLAYER
 10
159.4893183111
 20
78.9157449381
 11
155.639318311
 21
78.9157449381
  0
LINE
  5
280
100
AcDbEntity
  8
0
100
AcDbLine
 62
7
  6
BYLAYER
 10
25.889318311
 20
79.0157449381
 11
54.489318311
 21
79.0157449381
  0
LINE
  5
281
100
AcDbEntity
  8
0
100
AcDbLine
 62
7
  6
BYLAYER
 10
60.889318311
 20
79.0157449381
 11
89.489318311
 21
79.0157449381
  0
LINE
  5
282
100
AcDbEntity
  8
0
100
AcDbLine
 62
7
  6
BYLAYER
 10
95.889318311
 20
79.0157449381
 11
124.489318311
 21
79.0157449381
  0
LINE
  5
283
100
AcDbEntity
  8
0
100
AcDbLine
 62
7
  6
BYLAYER
 10
130.889318311
 20
79.0157449381
 11
155.639318311
 21
79.0157449381
  0
LINE
  5
284
100
AcDbEntity
  8
0
100
AcDbLine
 62
7
  6
BYLAYER
 10
155.739318311
 20
79.0157449381
 11
159.189318311
 21
79.0157449381
  0
LINE
  5
285
100
AcDbEntity
  8
0
100
AcDbLine
 62
7
  6
BYLAYER
 10
28.889318311
 20
116.0157449381
 11
29.389318311
 21
115.5157449381
  0
LINE
  5
286
100
AcDbEntity
  8
0
100
AcDbLine
 62
7
  6
BYLAYER
 10
45.7115704307
 20
75.0157449381
 11
45.7115704307
 21
79.0157449381
  0
LINE
  5
287
100
AcDbEntity
  8
0
100
AcDbLine
 62
7
  6
BYLAYER
 10
46.130475967
 20
79.0157449381
 11
46.130475967
 21
75.0157449381
  0
LINE
  5
288
100
AcDbEntity
  8
0
100
AcDbLine
 62
7
  6
BYLAYER
 10
48.189318311
 20
98.1657449381
 11
48.189318311
 21
101.1657449381
  0
LINE
  5
289
100
AcDbEntity
  8
0
100
AcDbLine
 62
7
  6
BYLAYER
 10
49.189318311
 20
98.1657449381
 11
49.189318311
 21
101.1657449381
  0
LINE
  5
28A
100
AcDbEntity
  8
0
100
AcDbLine
 62
7
  6
BYLAYER
 10
49.689318311
 20
34.8157449381
 11
49.689318311
 21
37.3157449381
  0
LINE
  5
28B
100
AcDbEntity
  8
0
100
AcDbLine
 62
7
  6
BYLAYER
 10
50.4017914985
 20
75.0157449381
 11
50.4017914985
 21
79.0157449381
  0
LINE
  5
28C
100
AcDbEntity
  8
0
100
AcDbLine
 62
7
  6
BYLAYER
 10
50.639318311
 20
77.5157449381
 11
50.639318311
 21
79.0157449381
  0
LINE
  5
28D
100
AcDbEntity
  8
0
100
AcDbLine
 62
7
  6
BYLAYER
 10
50.6682287675
 20
75.0157449381
 11
50.6682287675
 21
77.5157449381
  0
LINE
  5
28E
100
AcDbEntity
  8
0
100
AcDbLine
 62
7
  6
BYLAYER
 10
50.689318311
 20
34.8157449381
 11
50.689318311
 21
35.2157449381
  0
LINE
  5
28F
100
AcDbEntity
  8
0
100
AcDbLine
 62
7
  6
BYLAYER
 10
51.189318311
 20
35.2157449381
 11
51.189318311
 21
37.3157449381
  0
LINE
  5
290
100
AcDbEntity
  8
0
100
AcDbLine
 62
7
  6
BYLAYER
 10
52.189318311
 20
37.3157449381
 11
52.189318311
 21
34.8157449381
  0
LINE
  5
291
100
AcDbEntity
  8
0
100
AcDbLine
 62
7
  6
BYLAYER
 10
52.5395907422
 20
79.0157449381
 11
52.5395907246
 21
91.0157449381
  0
LINE
  5
292
100
AcDbEntity
  8
0
100
AcDbLine
 62
7
  6
BYLAYER
 10
52.639318311
 20
79.0157449381
 11
52.639318311
 21
77.5157449381
  0
LINE
  5
293
100
AcDbEntity
  8
0
100
AcDbLine
 62
7
  6
BYLAYER
 10
50.6197408176
 20
75.0157449381
 11
50.6210396335
 21
77.5157544343
  0
LINE
  5
294
100
AcDbEntity
  8
0
100
AcDbLine
 62
7
  6
BYLAYER
 10
130.689318311
 20
87.1157449381
 11
128.939318311
 21
87.1157449381
  0
LINE
  5
295
100
AcDbEntity
  8
0
100
AcDbLine
 62
7
  6
BYLAYER
 10
126.439318311
 20
87.1157449381
 11
125.189318311
 21
87.1157449381
  0
LINE
  5
296
100
AcDbEntity
  8
0
100
AcDbLine
 62
7
  6
BYLAYER
 10
95.189318311
 20
87.1157449381
 11
93.939318311
 21
87.1157449381
  0
LINE
  5
297
100
AcDbEntity
  8
0
100
AcDbLine
 62
7
  6
BYLAYER
 10
91.439318311
 20
87.1157449381
 11
90.189318311
 21
87.1157449381
  0
LINE
  5
298
100
AcDbEntity
  8
0
100
AcDbLine
 62
7
  6
BYLAYER
 10
60.189318311
 20
87.1157449381
 11
58.939318311
 21
87.1157449381
  0
LINE
  5
299
100
AcDbEntity
  8
0
100
AcDbLine
 62
7
  6
BYLAYER
 10
56.439318311
 20
87.1157449381
 11
55.189318311
 21
87.1157449381
  0
LINE
  5
29A
100
AcDbEntity
  8
0
100
AcDbLine
 62
7
  6
BYLAYER
 10
53.5393182805
 20
90.9157449381
 11
53.5393182805
 21
79.0157449381
  0
LINE
  5
29B
100
AcDbEntity
  8
0
100
AcDbLine
 62
7
  6
BYLAYER
 10
53.989318311
 20
39.8157449381
 11
53.989318311
 21
77.5157449381
  0
LINE
  5
29C
100
AcDbEntity
  8
0
100
AcDbLine
 62
7
  6
BYLAYER
 10
53.989318311
 20
79.0157449381
 11
53.989318311
 21
125.2157449381
  0
LINE
  5
29D
100
AcDbEntity
  8
0
100
AcDbLine
 62
7
  6
BYLAYER
 10
54.489318311
 20
125.2157449381
 11
54.489318311
 21
79.0157449381
  0
LINE
  5
29E
100
AcDbEntity
  8
0
100
AcDbLine
 62
7
  6
BYLAYER
 10
54.489318311
 20
77.5157449381
 11
54.489318311
 21
39.8157449381
  0
LINE
  5
29F
100
AcDbEntity
  8
0
100
AcDbLine
 62
7
  6
BYLAYER
 10
55.189318311
 20
120.2157449381
 11
55.189318311
 21
92.1157449381
  0
LINE
  5
2A0
100
AcDbEntity
  8
0
100
AcDbLine
 62
7
  6
BYLAYER
 10
55.189318311
 20
87.1157449381
 11
55.189318311
 21
37.3157449381
  0
LINE
  5
2A1
100
AcDbEntity
  8
0
100
AcDbLine
 62
7
  6
BYLAYER
 10
55.189318311
 20
30.3157449381
 11
55.189318311
 21
34.8157449381
  0
LINE
  5
2A2
100
AcDbEntity
  8
0
100
AcDbLine
 62
7
  6
BYLAYER
 10
55.519318311
 20
210.2157449381
 11
55.519318311
 21
217.6157449381
  0
LINE
  5
2A3
100
AcDbEntity
  8
0
100
AcDbLine
 62
7
  6
BYLAYER
 10
56.439318311
 20
124.7157449381
 11
56.439318311
 21
120.2157449381
  0
LINE
  5
2A4
100
AcDbEntity
  8
0
100
AcDbLine
 62
7
  6
BYLAYER
 10
56.439318311
 20
92.1157449381
 11
56.439318311
 21
87.1157449381
  0
LINE
  5
2A5
100
AcDbEntity
  8
0
100
AcDbLine
 62
7
  6
BYLAYER
 10
56.519318311
 20
217.6157449381
 11
56.519318311
 21
210.2157449381
  0
LINE
  5
2A6
100
AcDbEntity
  8
0
100
AcDbLine
 62
7
  6
BYLAYER
 10
58.939318311
 20
124.7157449381
 11
58.939318311
 21
120.2157449381
  0
LINE
  5
2A7
100
AcDbEntity
  8
0
100
AcDbLine
 62
7
  6
BYLAYER
 10
58.939318311
 20
92.1157449381
 11
58.939318311
 21
87.1157449381
  0
LINE
  5
2A8
100
AcDbEntity
  8
0
100
AcDbLine
 62
7
  6
BYLAYER
 10
60.189318311
 20
87.1157449381
 11
60.189318311
 21
37.3157449381
  0
LINE
  5
2A9
100
AcDbEntity
  8
0
100
AcDbLine
 62
7
  6
BYLAYER
 10
60.189318311
 20
34.8157449381
 11
60.189318311
 21
30.3157449381
  0
LINE
  5
2AA
100
AcDbEntity
  8
0
100
AcDbLine
 62
7
  6
BYLAYER
 10
60.189318311
 20
92.1157449381
 11
60.189318311
 21
120.2157449381
  0
LINE
  5
2AB
100
AcDbEntity
  8
0
100
AcDbLine
 62
7
  6
BYLAYER
 10
60.259318311
 20
210.2157449381
 11
60.259318311
 21
226.5457449381
  0
LINE
  5
2AC
100
AcDbEntity
  8
0
100
AcDbLine
 62
7
  6
BYLAYER
 10
60.889318311
 20
39.8157449381
 11
60.889318311
 21
77.5157449381
  0
LINE
  5
2AD
100
AcDbEntity
  8
0
100
AcDbLine
 62
7
  6
BYLAYER
 10
60.889318311
 20
79.0157449381
 11
60.889318311
 21
125.2157449381
  0
LINE
  5
2AE
100
AcDbEntity
  8
0
100
AcDbLine
 62
7
  6
BYLAYER
 10
158.5393148428
 20
90.9157449381
 11
131.8393217406
 21
90.9157449381
  0
LINE
  5
2AF
100
AcDbEntity
  8
0
100
AcDbLine
 62
7
  6
BYLAYER
 10
123.5393148428
 20
90.9157449381
 11
96.8393217406
 21
90.9157449381
  0
LINE
  5
2B0
100
AcDbEntity
  8
0
100
AcDbLine
 62
7
  6
BYLAYER
 10
88.5393148428
 20
90.9157449381
 11
61.8393217406
 21
90.9157449381
  0
LINE
  5
2B1
100
AcDbEntity
  8
0
100
AcDbLine
 62
7
  6
BYLAYER
 10
53.5393148428
 20
90.9157449381
 11
26.8393217406
 21
90.9157449381
  0
LINE
  5
2B2
100
AcDbEntity
  8
0
100
AcDbLine
 62
7
  6
BYLAYER
 10
158.4393182804
 20
91.0157449381
 11
131.9393182866
 21
91.0157449381
  0
LINE
  5
2B3
100
AcDbEntity
  8
0
100
AcDbLine
 62
7
  6
BYLAYER
 10
123.4393182804
 20
91.0157449381
 11
96.9393182867
 21
91.0157449381
  0
LINE
  5
2B4
100
AcDbEntity
  8
0
100
AcDbLine
 62
7
  6
BYLAYER
 10
88.4393182805
 20
91.0157449381
 11
61.9393182867
 21
91.0157449381
  0
LINE
  5
2B5
100
AcDbEntity
  8
0
100
AcDbLine
 62
7
  6
BYLAYER
 10
53.4393182805
 20
91.0157449381
 11
26.9393182867
 21
91.0157449381
  0
LINE
  5
2B6
100
AcDbEntity
  8
0
100
AcDbLine
 62
7
  6
BYLAYER
 10
55.189318311
 20
92.1157449381
 11
56.439318311
 21
92.1157449381
  0
LINE
  5
2B7
100
AcDbEntity
  8
0
100
AcDbLine
 62
7
  6
BYLAYER
 10
58.939318311
 20
92.1157449381
 11
60.189318311
 21
92.1157449381
  0
LINE
  5
2B8
100
AcDbEntity
  8
0
100
AcDbLine
 62
7
  6
BYLAYER
 10
90.189318311
 20
92.1157449381
 11
91.439318311
 21
92.1157449381
  0
LINE
  5
2B9
100
AcDbEntity
  8
0
100
AcDbLine
 62
7
  6
BYLAYER
 10
93.939318311
 20
92.1157449381
 11
95.189318311
 21
92.1157449381
  0
LINE
  5
2BA
100
AcDbEntity
  8
0
100
AcDbLine
 62
7
  6
BYLAYER
 10
125.189318311
 20
92.1157449381
 11
126.439318311
 21
92.1157449381
  0
LINE
  5
2BB
100
AcDbEntity
  8
0
100
AcDbLine
 62
7
  6
BYLAYER
 10
128.939318311
 20
92.1157449381
 11
130.189318311
 21
92.1157449381
  0
LINE
  5
2BC
100
AcDbEntity
  8
0
100
AcDbLine
 62
7
  6
BYLAYER
 10
155.3318253853
 20
50.5532567286
 11
155.4175746779
 21
50.5018071531
  0
LINE
  5
2BD
100
AcDbEntity
  8
0
100
AcDbLine
 62
7
  6
BYLAYER
 10
156.4837650568
 20
52.278791118
 11
156.3980157643
 21
52.3302406935
  0
LINE
  5
2BE
100
AcDbEntity
  8
0
100
AcDbLine
 62
7
  6
BYLAYER
 10
62.71000202
 20
79.0157449381
 11
62.7402350793
 21
77.5157449381
  0
LINE
  5
2BF
100
AcDbEntity
  8
0
100
AcDbLine
 62
7
  6
BYLAYER
 10
64.7104082178
 20
79.0157449381
 11
64.7406412771
 21
77.5157449381
  0
LINE
  5
2C0
100
AcDbEntity
  8
0
100
AcDbLine
 62
7
  6
BYLAYER
 10
64.7590158845
 20
75.0157449381
 11
64.7511491667
 21
77.5157449381
  0
LINE
  5
2C1
100
AcDbEntity
  8
0
100
AcDbLine
 62
7
  6
BYLAYER
 10
61.389318311
 20
125.2157449381
 11
61.389318311
 21
79.0157449381
  0
LINE
  5
2C2
100
AcDbEntity
  8
0
100
AcDbLine
 62
7
  6
BYLAYER
 10
61.389318311
 20
77.5157449381
 11
61.389318311
 21
39.8157449381
  0
LINE
  5
2C3
100
AcDbEntity
  8
0
100
AcDbLine
 62
7
  6
BYLAYER
 10
61.8393182867
 20
79.0157449381
 11
61.8393182867
 21
90.9157449381
  0
LINE
  5
2C4
100
AcDbEntity
  8
0
100
AcDbLine
 62
7
  6
BYLAYER
 10
62.8390084957
 20
79.0157449381
 11
62.8391192867
 21
91.0157449381
  0
LINE
  5
2C5
100
AcDbEntity
  8
0
100
AcDbLine
 62
7
  6
BYLAYER
 10
63.189318311
 20
34.8157449381
 11
63.189318311
 21
37.3157449381
  0
LINE
  5
2C6
100
AcDbEntity
  8
0
100
AcDbLine
 62
7
  6
BYLAYER
 10
64.189318311
 20
37.3157449381
 11
64.189318311
 21
35.2157449381
  0
LINE
  5
2C7
100
AcDbEntity
  8
0
100
AcDbLine
 62
7
  6
BYLAYER
 10
64.689318311
 20
35.2157449381
 11
64.689318311
 21
34.8157449381
  0
LINE
  5
2C8
100
AcDbEntity
  8
0
100
AcDbLine
 62
7
  6
BYLAYER
 10
64.7104078334
 20
75.0157449381
 11
64.7104078334
 21
77.5157449381
  0
LINE
  5
2C9
100
AcDbEntity
  8
0
100
AcDbLine
 62
7
  6
BYLAYER
 10
64.9724123648
 20
79.0157449381
 11
64.9724123648
 21
75.0157449381
  0
LINE
  5
2CA
100
AcDbEntity
  8
0
100
AcDbLine
 62
7
  6
BYLAYER
 10
65.689318311
 20
37.3157449381
 11
65.689318311
 21
34.8157449381
  0
LINE
  5
2CB
100
AcDbEntity
  8
0
100
AcDbLine
 62
7
  6
BYLAYER
 10
66.189318311
 20
98.1657449381
 11
66.189318311
 21
101.1657449381
  0
LINE
  5
2CC
100
AcDbEntity
  8
0
100
AcDbLine
 62
7
  6
BYLAYER
 10
67.189318311
 20
98.1657449381
 11
67.189318311
 21
101.1657449381
  0
LINE
  5
2CD
100
AcDbEntity
  8
0
100
AcDbLine
 62
7
  6
BYLAYER
 10
69.248160655
 20
75.0157449381
 11
69.248160655
 21
79.0157449381
  0
LINE
  5
2CE
100
AcDbEntity
  8
0
100
AcDbLine
 62
7
  6
BYLAYER
 10
64.7550012599
 20
78.5158678323
 11
64.7590226803
 21
79.0157449381
  0
LINE
  5
2CF
100
AcDbEntity
  8
0
100
AcDbLine
 62
7
  6
BYLAYER
 10
31.189318311
 20
98.1657449381
 11
49.189318311
 21
98.1657449381
  0
LINE
  5
2D0
100
AcDbEntity
  8
0
100
AcDbLine
 62
7
  6
BYLAYER
 10
66.189318311
 20
98.1657449381
 11
84.189318311
 21
98.1657449381
  0
LINE
  5
2D1
100
AcDbEntity
  8
0
100
AcDbLine
 62
7
  6
BYLAYER
 10
101.189318311
 20
98.1657449381
 11
119.189318311
 21
98.1657449381
  0
LINE
  5
2D2
100
AcDbEntity
  8
0
100
AcDbLine
 62
7
  6
BYLAYER
 10
136.189318311
 20
98.1657449381
 11
154.189318311
 21
98.1657449381
  0
LINE
  5
2D3
100
AcDbEntity
  8
0
100
AcDbLine
 62
7
  6
BYLAYER
 10
31.189318311
 20
101.1657449381
 11
49.189318311
 21
101.1657449381
  0
LINE
  5
2D4
100
AcDbEntity
  8
0
100
AcDbLine
 62
7
  6
BYLAYER
 10
66.189318311
 20
101.1657449381
 11
84.189318311
 21
101.1657449381
  0
LINE
  5
2D5
100
AcDbEntity
  8
0
100
AcDbLine
 62
7
  6
BYLAYER
 10
101.189318311
 20
101.1657449381
 11
119.189318311
 21
101.1657449381
  0
LINE
  5
2D6
100
AcDbEntity
  8
0
100
AcDbLine
 62
7
  6
BYLAYER
 10
136.189318311
 20
101.1657449381
 11
154.189318311
 21
101.1657449381
  0
LINE
  5
2D7
100
AcDbEntity
  8
0
100
AcDbLine
 62
7
  6
BYLAYER
 10
69.6670526312
 20
75.0157449381
 11
69.6670526312
 21
79.0157449381
  0
LINE
  5
2D8
100
AcDbEntity
  8
0
100
AcDbLine
 62
7
  6
BYLAYER
 10
70.9749965151
 20
79.0157449381
 11
70.9749965151
 21
75.0157449381
  0
LINE
  5
2D9
100
AcDbEntity
  8
0
100
AcDbLine
 62
7
  6
BYLAYER
 10
72.489318311
 20
35.2157449381
 11
72.489318311
 21
34.8157449381
  0
LINE
  5
2DA
100
AcDbEntity
  8
0
100
AcDbLine
 62
7
  6
BYLAYER
 10
72.689318311
 20
34.7157449381
 11
72.689318311
 21
37.3157449381
  0
LINE
  5
2DB
100
AcDbEntity
  8
0
100
AcDbLine
 62
7
  6
BYLAYER
 10
76.119318311
 20
210.2157449381
 11
76.119318311
 21
226.5457449381
  0
LINE
  5
2DC
100
AcDbEntity
  8
0
100
AcDbLine
 62
7
  6
BYLAYER
 10
77.689318311
 20
34.7157449381
 11
77.689318311
 21
37.3157449381
  0
LINE
  5
2DD
100
AcDbEntity
  8
0
100
AcDbLine
 62
7
  6
BYLAYER
 10
77.889318311
 20
35.2157449381
 11
77.889318311
 21
34.8157449381
  0
LINE
  5
2DE
100
AcDbEntity
  8
0
100
AcDbLine
 62
7
  6
BYLAYER
 10
79.4036398625
 20
75.0157449381
 11
79.4036398625
 21
79.0157449381
  0
LINE
  5
2DF
100
AcDbEntity
  8
0
100
AcDbLine
 62
7
  6
BYLAYER
 10
79.859318311
 20
210.2157449381
 11
79.859318311
 21
217.6157449381
  0
LINE
  5
2E0
100
AcDbEntity
  8
0
100
AcDbLine
 62
7
  6
BYLAYER
 10
80.7115704307
 20
75.0157449381
 11
80.7115704307
 21
79.0157449381
  0
LINE
  5
2E1
100
AcDbEntity
  8
0
100
AcDbLine
 62
7
  6
BYLAYER
 10
80.859318311
 20
217.6157449381
 11
80.859318311
 21
210.2157449381
  0
LINE
  5
2E2
100
AcDbEntity
  8
0
100
AcDbLine
 62
7
  6
BYLAYER
 10
81.130475967
 20
79.0157449381
 11
81.130475967
 21
75.0157449381
  0
LINE
  5
2E3
100
AcDbEntity
  8
0
100
AcDbLine
 62
7
  6
BYLAYER
 10
83.189318311
 20
98.1657449381
 11
83.189318311
 21
101.1657449381
  0
LINE
  5
2E4
100
AcDbEntity
  8
0
100
AcDbLine
 62
7
  6
BYLAYER
 10
84.189318311
 20
98.1657449381
 11
84.189318311
 21
101.1657449381
  0
LINE
  5
2E5
100
AcDbEntity
  8
0
100
AcDbLine
 62
7
  6
BYLAYER
 10
84.689318311
 20
34.8157449381
 11
84.689318311
 21
37.3157449381
  0
LINE
  5
2E6
100
AcDbEntity
  8
0
100
AcDbLine
 62
7
  6
BYLAYER
 10
85.4017914985
 20
75.0157449381
 11
85.4017914985
 21
79.0157449381
  0
LINE
  5
2E7
100
AcDbEntity
  8
0
100
AcDbLine
 62
7
  6
BYLAYER
 10
85.639318311
 20
77.5157449381
 11
85.639318311
 21
79.0157449381
  0
LINE
  5
2E8
100
AcDbEntity
  8
0
100
AcDbLine
 62
7
  6
BYLAYER
 10
85.6682287675
 20
75.0157449381
 11
85.6682287675
 21
77.5157449381
  0
LINE
  5
2E9
100
AcDbEntity
  8
0
100
AcDbLine
 62
7
  6
BYLAYER
 10
85.6197408176
 20
75.0157449381
 11
85.6210396335
 21
77.5157544343
  0
LINE
  5
2EA
100
AcDbEntity
  8
0
100
AcDbLine
 62
7
  6
BYLAYER
 10
159.489318311
 20
114.7157449381
 11
158.989318311
 21
114.7157449381
  0
LINE
  5
2EB
100
AcDbEntity
  8
0
100
AcDbLine
 62
7
  6
BYLAYER
 10
26.389318311
 20
114.7157449381
 11
25.889318311
 21
114.7157449381
  0
LINE
  5
2EC
100
AcDbEntity
  8
0
100
AcDbLine
 62
7
  6
BYLAYER
 10
158.1893183104
 20
115.5157449381
 11
155.989318311
 21
115.5157449381
  0
LINE
  5
2ED
100
AcDbEntity
  8
0
100
AcDbLine
 62
7
  6
BYLAYER
 10
29.389318311
 20
115.5157449381
 11
27.1893183086
 21
115.5157449381
  0
LINE
  5
2EE
100
AcDbEntity
  8
0
100
AcDbLine
 62
7
  6
BYLAYER
 10
28.889318311
 20
116.0157449381
 11
27.1893182905
 21
116.015744934
  0
LINE
  5
2EF
100
AcDbEntity
  8
0
100
AcDbLine
 62
7
  6
BYLAYER
 10
156.489318311
 20
116.0157449381
 11
158.1893183133
 21
116.0157449377
  0
LINE
  5
2F0
100
AcDbEntity
  8
0
100
AcDbLine
 62
7
  6
BYLAYER
 10
160.389318311
 20
116.7157449381
 11
158.189318311
 21
116.7157449381
  0
LINE
  5
2F1
100
AcDbEntity
  8
0
100
AcDbLine
 62
7
  6
BYLAYER
 10
24.989318311
 20
116.7157449381
 11
27.1893183163
 21
116.7157449403
  0
LINE
  5
2F2
100
AcDbEntity
  8
0
100
AcDbLine
 62
7
  6
BYLAYER
 10
24.489318311
 20
116.9157449381
 11
23.989318311
 21
116.9157449381
  0
LINE
  5
2F3
100
AcDbEntity
  8
0
100
AcDbLine
 62
7
  6
BYLAYER
 10
24.789318311
 20
117.2157449381
 11
27.1893183091
 21
117.2157449381
  0
LINE
  5
2F4
100
AcDbEntity
  8
0
100
AcDbLine
 62
7
  6
BYLAYER
 10
158.1893183112
 20
117.2157449381
 11
160.589318311
 21
117.2157449381
  0
LINE
  5
2F5
100
AcDbEntity
  8
0
100
AcDbLine
 62
7
  6
BYLAYER
 10
24.789318311
 20
117.7157449381
 11
28.189318311
 21
117.7157449381
  0
LINE
  5
2F6
100
AcDbEntity
  8
0
100
AcDbLine
 62
7
  6
BYLAYER
 10
157.189318311
 20
117.7157449381
 11
157.689318311
 21
117.7157449381
  0
LINE
  5
2F7
100
AcDbEntity
  8
0
100
AcDbLine
 62
7
  6
BYLAYER
 10
130.189318311
 20
120.2157449381
 11
128.939318311
 21
120.2157449381
  0
LINE
  5
2F8
100
AcDbEntity
  8
0
100
AcDbLine
 62
7
  6
BYLAYER
 10
126.439318311
 20
120.2157449381
 11
125.189318311
 21
120.2157449381
  0
LINE
  5
2F9
100
AcDbEntity
  8
0
100
AcDbLine
 62
7
  6
BYLAYER
 10
95.189318311
 20
120.2157449381
 11
93.939318311
 21
120.2157449381
  0
LINE
  5
2FA
100
AcDbEntity
  8
0
100
AcDbLine
 62
7
  6
BYLAYER
 10
91.439318311
 20
120.2157449381
 11
90.189318311
 21
120.2157449381
  0
LINE
  5
2FB
100
AcDbEntity
  8
0
100
AcDbLine
 62
7
  6
BYLAYER
 10
60.189318311
 20
120.2157449381
 11
58.939318311
 21
120.2157449381
  0
LINE
  5
2FC
100
AcDbEntity
  8
0
100
AcDbLine
 62
7
  6
BYLAYER
 10
56.439318311
 20
120.2157449381
 11
55.189318311
 21
120.2157449381
  0
LINE
  5
2FD
100
AcDbEntity
  8
0
100
AcDbLine
 62
7
  6
BYLAYER
 10
85.689318311
 20
34.8157449381
 11
85.689318311
 21
35.2157449381
  0
LINE
  5
2FE
100
AcDbEntity
  8
0
100
AcDbLine
 62
7
  6
BYLAYER
 10
86.189318311
 20
35.2157449381
 11
86.189318311
 21
37.3157449381
  0
LINE
  5
2FF
100
AcDbEntity
  8
0
100
AcDbLine
 62
7
  6
BYLAYER
 10
87.189318311
 20
37.3157449381
 11
87.189318311
 21
34.8157449381
  0
LINE
  5
300
100
AcDbEntity
  8
0
100
AcDbLine
 62
7
  6
BYLAYER
 10
87.5395907422
 20
79.0157449381
 11
87.5395907246
 21
91.0157449381
  0
LINE
  5
301
100
AcDbEntity
  8
0
100
AcDbLine
 62
7
  6
BYLAYER
 10
87.639318311
 20
79.0157449381
 11
87.639318311
 21
77.5157449381
  0
LINE
  5
302
100
AcDbEntity
  8
0
100
AcDbLine
 62
7
  6
BYLAYER
 10
88.5393182805
 20
90.9157449381
 11
88.5393182805
 21
79.0157449381
  0
LINE
  5
303
100
AcDbEntity
  8
0
100
AcDbLine
 62
7
  6
BYLAYER
 10
88.989318311
 20
39.8157449381
 11
88.989318311
 21
77.5157449381
  0
LINE
  5
304
100
AcDbEntity
  8
0
100
AcDbLine
 62
7
  6
BYLAYER
 10
88.989318311
 20
79.0157449381
 11
88.989318311
 21
125.2157449381
  0
LINE
  5
305
100
AcDbEntity
  8
0
100
AcDbLine
 62
7
  6
BYLAYER
 10
89.489318311
 20
125.2157449381
 11
89.489318311
 21
79.0157449381
  0
LINE
  5
306
100
AcDbEntity
  8
0
100
AcDbLine
 62
7
  6
BYLAYER
 10
89.489318311
 20
77.5157449381
 11
89.489318311
 21
39.8157449381
  0
LINE
  5
307
100
AcDbEntity
  8
0
100
AcDbLine
 62
7
  6
BYLAYER
 10
90.189318311
 20
120.2157449381
 11
90.189318311
 21
92.1157449381
  0
LINE
  5
308
100
AcDbEntity
  8
0
100
AcDbLine
 62
7
  6
BYLAYER
 10
90.189318311
 20
87.1157449381
 11
90.189318311
 21
37.3157449381
  0
LINE
  5
309
100
AcDbEntity
  8
0
100
AcDbLine
 62
7
  6
BYLAYER
 10
91.439318311
 20
124.7157449381
 11
91.439318311
 21
120.2157449381
  0
LINE
  5
30A
100
AcDbEntity
  8
0
100
AcDbLine
 62
7
  6
BYLAYER
 10
91.439318311
 20
92.1157449381
 11
91.439318311
 21
87.1157449381
  0
LINE
  5
30B
100
AcDbEntity
  8
0
100
AcDbLine
 62
7
  6
BYLAYER
 10
164.039318311
 20
124.7157449381
 11
155.989318311
 21
124.7157449381
  0
LINE
  5
30C
100
AcDbEntity
  8
0
100
AcDbLine
 62
7
  6
BYLAYER
 10
131.389318311
 20
124.7157449381
 11
123.989318311
 21
124.7157449381
  0
LINE
  5
30D
100
AcDbEntity
  8
0
100
AcDbLine
 62
7
  6
BYLAYER
 10
96.389318311
 20
124.7157449381
 11
88.989318311
 21
124.7157449381
  0
LINE
  5
30E
100
AcDbEntity
  8
0
100
AcDbLine
 62
7
  6
BYLAYER
 10
61.389318311
 20
124.7157449381
 11
53.989318311
 21
124.7157449381
  0
LINE
  5
30F
100
AcDbEntity
  8
0
100
AcDbLine
 62
7
  6
BYLAYER
 10
29.389318311
 20
124.7157449381
 11
21.339318311
 21
124.7157449381
  0
LINE
  5
310
100
AcDbEntity
  8
0
100
AcDbLine
 62
7
  6
BYLAYER
 10
123.989318311
 20
125.2157449381
 11
96.389318311
 21
125.2157449381
  0
LINE
  5
311
100
AcDbEntity
  8
0
100
AcDbLine
 62
7
  6
BYLAYER
 10
88.989318311
 20
125.2157449381
 11
61.389318311
 21
125.2157449381
  0
LINE
  5
312
100
AcDbEntity
  8
0
100
AcDbLine
 62
7
  6
BYLAYER
 10
21.839318311
 20
125.2157449381
 11
53.989318311
 21
125.2157449381
  0
LINE
  5
313
100
AcDbEntity
  8
0
100
AcDbLine
 62
7
  6
BYLAYER
 10
54.489318311
 20
125.2157449381
 11
60.889318311
 21
125.2157449381
  0
LINE
  5
314
100
AcDbEntity
  8
0
100
AcDbLine
 62
7
  6
BYLAYER
 10
89.489318311
 20
125.2157449381
 11
95.889318311
 21
125.2157449381
  0
LINE
  5
315
100
AcDbEntity
  8
0
100
AcDbLine
 62
7
  6
BYLAYER
 10
124.489318311
 20
125.2157449381
 11
130.889318311
 21
125.2157449381
  0
LINE
  5
316
100
AcDbEntity
  8
0
100
AcDbLine
 62
7
  6
BYLAYER
 10
131.389318311
 20
125.2157449381
 11
164.039318311
 21
125.2157449381
  0
LINE
  5
317
100
AcDbEntity
  8
0
100
AcDbLine
 62
7
  6
BYLAYER
 10
21.339318311
 20
129.2157449381
 11
163.539318311
 21
129.2157449381
  0
LINE
  5
318
100
AcDbEntity
  8
0
100
AcDbLine
 62
7
  6
BYLAYER
 10
159.089318311
 20
52.7157449381
 11
158.989318311
 21
52.8157449381
  0
LINE
  5
319
100
AcDbEntity
  8
0
100
AcDbLine
 62
7
  6
BYLAYER
 10
99.7590155767
 20
75.0157449381
 11
99.7577033698
 21
77.5157545881
  0
LINE
  5
31A
100
AcDbEntity
  8
0
100
AcDbLine
 62
7
  6
BYLAYER
 10
93.939318311
 20
124.7157449381
 11
93.939318311
 21
120.2157449381
  0
LINE
  5
31B
100
AcDbEntity
  8
0
100
AcDbLine
 62
7
  6
BYLAYER
 10
93.939318311
 20
92.1157449381
 11
93.939318311
 21
87.1157449381
  0
LINE
  5
31C
100
AcDbEntity
  8
0
100
AcDbLine
 62
7
  6
BYLAYER
 10
95.189318311
 20
87.1157449381
 11
95.189318311
 21
37.3157449381
  0
LINE
  5
31D
100
AcDbEntity
  8
0
100
AcDbLine
 62
7
  6
BYLAYER
 10
95.189318311
 20
92.1157449381
 11
95.189318311
 21
120.2157449381
  0
LINE
  5
31E
100
AcDbEntity
  8
0
100
AcDbLine
 62
7
  6
BYLAYER
 10
95.889318311
 20
39.8157449381
 11
95.889318311
 21
77.5157449381
  0
LINE
  5
31F
100
AcDbEntity
  8
0
100
AcDbLine
 62
7
  6
BYLAYER
 10
95.889318311
 20
79.0157449381
 11
95.889318311
 21
125.2157449381
  0
LINE
  5
320
100
AcDbEntity
  8
0
100
AcDbLine
 62
7
  6
BYLAYER
 10
96.389318311
 20
125.2157449381
 11
96.389318311
 21
79.0157449381
  0
LINE
  5
321
100
AcDbEntity
  8
0
100
AcDbLine
 62
7
  6
BYLAYER
 10
96.389318311
 20
77.5157449381
 11
96.389318311
 21
39.8157449381
  0
LINE
  5
322
100
AcDbEntity
  8
0
100
AcDbLine
 62
7
  6
BYLAYER
 10
96.8393182867
 20
79.0157449381
 11
96.8393182867
 21
90.9157449381
  0
LINE
  5
323
100
AcDbEntity
  8
0
100
AcDbLine
 62
7
  6
BYLAYER
 10
97.739318311
 20
77.5157449381
 11
97.739318311
 21
79.0157449381
  0
LINE
  5
324
100
AcDbEntity
  8
0
100
AcDbLine
 62
7
  6
BYLAYER
 10
97.8390084957
 20
79.0157449381
 11
97.8391192867
 21
91.0157449381
  0
LINE
  5
325
100
AcDbEntity
  8
0
100
AcDbLine
 62
7
  6
BYLAYER
 10
98.189318311
 20
34.8157449381
 11
98.189318311
 21
37.3157449381
  0
LINE
  5
326
100
AcDbEntity
  8
0
100
AcDbLine
 62
7
  6
BYLAYER
 10
99.189318311
 20
37.3157449381
 11
99.189318311
 21
35.2157449381
  0
LINE
  5
327
100
AcDbEntity
  8
0
100
AcDbLine
 62
7
  6
BYLAYER
 10
99.689318311
 20
35.2157449381
 11
99.689318311
 21
34.8157449381
  0
LINE
  5
328
100
AcDbEntity
  8
0
100
AcDbLine
 62
7
  6
BYLAYER
 10
99.710407872
 20
75.0157449381
 11
99.710407872
 21
77.5157449381
  0
LINE
  5
329
100
AcDbEntity
  8
0
100
AcDbLine
 62
7
  6
BYLAYER
 10
99.739318311
 20
79.0157449381
 11
99.739318311
 21
77.5157449381
  0
LINE
  5
32A
100
AcDbEntity
  8
0
100
AcDbLine
 62
7
  6
BYLAYER
 10
99.9724123648
 20
79.0157449381
 11
99.9724123648
 21
75.0157449381
  0
LINE
  5
32B
100
AcDbEntity
  8
0
100
AcDbLine
 62
7
  6
BYLAYER
 10
100.689318311
 20
37.3157449381
 11
100.689318311
 21
34.8157449381
  0
LINE
  5
32C
100
AcDbEntity
  8
0
100
AcDbLine
 62
7
  6
BYLAYER
 10
101.189318311
 20
98.1657449381
 11
101.189318311
 21
101.1657449381
  0
LINE
  5
32D
100
AcDbEntity
  8
0
100
AcDbLine
 62
7
  6
BYLAYER
 10
25.889318311
 20
52.3157449381
 11
26.389318311
 21
52.8157449381
  0
LINE
  5
32E
100
AcDbEntity
  8
0
100
AcDbLine
 62
7
  6
BYLAYER
 10
102.189318311
 20
98.1657449381
 11
102.189318311
 21
101.1657449381
  0
LINE
  5
32F
100
AcDbEntity
  8
0
100
AcDbLine
 62
7
  6
BYLAYER
 10
104.248160655
 20
75.0157449381
 11
104.248160655
 21
79.0157449381
  0
LINE
  5
330
100
AcDbEntity
  8
0
100
AcDbLine
 62
7
  6
BYLAYER
 10
104.539318311
 20
210.2157449381
 11
104.539318311
 21
217.6157449381
  0
LINE
  5
331
100
AcDbEntity
  8
0
100
AcDbLine
 62
7
  6
BYLAYER
 10
104.6670526312
 20
75.0157449381
 11
104.6670526312
 21
79.0157449381
  0
LINE
  5
332
100
AcDbEntity
  8
0
100
AcDbLine
 62
7
  6
BYLAYER
 10
105.539318311
 20
217.6157449381
 11
105.539318311
 21
210.2157449381
  0
LINE
  5
333
100
AcDbEntity
  8
0
100
AcDbLine
 62
7
  6
BYLAYER
 10
105.9749965151
 20
79.0157449381
 11
105.9749965151
 21
75.0157449381
  0
LINE
  5
334
100
AcDbEntity
  8
0
100
AcDbLine
 62
7
  6
BYLAYER
 10
107.489318311
 20
35.2157449381
 11
107.489318311
 21
34.8157449381
  0
LINE
  5
335
100
AcDbEntity
  8
0
100
AcDbLine
 62
7
  6
BYLAYER
 10
107.689318311
 20
34.7157449381
 11
107.689318311
 21
37.3157449381
  0
LINE
  5
336
100
AcDbEntity
  8
0
100
AcDbLine
 62
7
  6
BYLAYER
 10
109.279318311
 20
210.2157449381
 11
109.279318311
 21
226.5457449381
  0
LINE
  5
337
100
AcDbEntity
  8
0
100
AcDbLine
 62
7
  6
BYLAYER
 10
164.039318311
 20
141.5158860044
 11
163.039318311
 21
141.5158860044
  0
LINE
  5
338
100
AcDbEntity
  8
0
100
AcDbLine
 62
7
  6
BYLAYER
 10
22.339318311
 20
141.5158860044
 11
21.339318311
 21
141.5158860044
  0
LINE
  5
339
100
AcDbEntity
  8
0
100
AcDbLine
 62
7
  6
BYLAYER
 10
21.339318311
 20
143.5157449366
 11
22.339318311
 21
143.5157449366
  0
LINE
  5
33A
100
AcDbEntity
  8
0
100
AcDbLine
 62
7
  6
BYLAYER
 10
163.039318311
 20
143.5157449366
 11
164.039318311
 21
143.5157449366
  0
LINE
  5
33B
100
AcDbEntity
  8
0
100
AcDbLine
 62
7
  6
BYLAYER
 10
112.689318311
 20
34.7157449381
 11
112.689318311
 21
37.3157449381
  0
LINE
  5
33C
100
AcDbEntity
  8
0
100
AcDbLine
 62
7
  6
BYLAYER
 10
112.889318311
 20
35.2157449381
 11
112.889318311
 21
34.8157449381
  0
LINE
  5
33D
100
AcDbEntity
  8
0
100
AcDbLine
 62
7
  6
BYLAYER
 10
114.4036398625
 20
75.0157449381
 11
114.4036398625
 21
79.0157449381
  0
LINE
  5
33E
100
AcDbEntity
  8
0
100
AcDbLine
 62
7
  6
BYLAYER
 10
115.7115704307
 20
75.0157449381
 11
115.7115704307
 21
79.0157449381
  0
LINE
  5
33F
100
AcDbEntity
  8
0
100
AcDbLine
 62
7
  6
BYLAYER
 10
116.130475967
 20
79.0157449381
 11
116.130475967
 21
75.0157449381
  0
LINE
  5
340
100
AcDbEntity
  8
0
100
AcDbLine
 62
7
  6
BYLAYER
 10
21.339318311
 20
151.0157476243
 11
22.339318311
 21
151.0157476243
  0
LINE
  5
341
100
AcDbEntity
  8
0
100
AcDbLine
 62
7
  6
BYLAYER
 10
163.039318311
 20
151.0157476243
 11
164.039318311
 21
151.0157476243
  0
LINE
  5
342
100
AcDbEntity
  8
0
100
AcDbLine
 62
7
  6
BYLAYER
 10
118.189318311
 20
98.1657449381
 11
118.189318311
 21
101.1657449381
  0
LINE
  5
343
100
AcDbEntity
  8
0
100
AcDbLine
 62
7
  6
BYLAYER
 10
119.189318311
 20
98.1657449381
 11
119.189318311
 21
101.1657449381
  0
LINE
  5
344
100
AcDbEntity
  8
0
100
AcDbLine
 62
7
  6
BYLAYER
 10
119.689318311
 20
34.8157449381
 11
119.689318311
 21
37.3157449381
  0
LINE
  5
345
100
AcDbEntity
  8
0
100
AcDbLine
 62
7
  6
BYLAYER
 10
120.4017914985
 20
75.0157449381
 11
120.4017914985
 21
79.0157449381
  0
LINE
  5
346
100
AcDbEntity
  8
0
100
AcDbLine
 62
7
  6
BYLAYER
 10
120.639318311
 20
77.5157449381
 11
120.639318311
 21
79.0157449381
  0
LINE
  5
347
100
AcDbEntity
  8
0
100
AcDbLine
 62
7
  6
BYLAYER
 10
120.6682287675
 20
75.0157449381
 11
120.6682287675
 21
77.5157449381
  0
LINE
  5
348
100
AcDbEntity
  8
0
100
AcDbLine
 62
7
  6
BYLAYER
 10
120.689318311
 20
34.8157449381
 11
120.689318311
 21
35.2157449381
  0
LINE
  5
349
100
AcDbEntity
  8
0
100
AcDbLine
 62
7
  6
BYLAYER
 10
121.189318311
 20
35.2157449381
 11
121.189318311
 21
37.3157449381
  0
LINE
  5
34A
100
AcDbEntity
  8
0
100
AcDbLine
 62
7
  6
BYLAYER
 10
122.189318311
 20
37.3157449381
 11
122.189318311
 21
34.8157449381
  0
LINE
  5
34B
100
AcDbEntity
  8
0
100
AcDbLine
 62
7
  6
BYLAYER
 10
122.5395907421
 20
79.0157449381
 11
122.5395907246
 21
91.0157449381
  0
LINE
  5
34C
100
AcDbEntity
  8
0
100
AcDbLine
 62
7
  6
BYLAYER
 10
122.639318311
 20
79.0157449381
 11
122.639318311
 21
77.5157449381
  0
LINE
  5
34D
100
AcDbEntity
  8
0
100
AcDbLine
 62
7
  6
BYLAYER
 10
123.5393182804
 20
90.9157449381
 11
123.5393182804
 21
79.0157449381
  0
LINE
  5
34E
100
AcDbEntity
  8
0
100
AcDbLine
 62
7
  6
BYLAYER
 10
123.989318311
 20
39.8157449381
 11
123.989318311
 21
77.5157449381
  0
LINE
  5
34F
100
AcDbEntity
  8
0
100
AcDbLine
 62
7
  6
BYLAYER
 10
123.989318311
 20
79.0157449381
 11
123.989318311
 21
125.2157449381
  0
LINE
  5
350
100
AcDbEntity
  8
0
100
AcDbLine
 62
7
  6
BYLAYER
 10
124.489318311
 20
125.2157449381
 11
124.489318311
 21
79.0157449381
  0
LINE
  5
351
100
AcDbEntity
  8
0
100
AcDbLine
 62
7
  6
BYLAYER
 10
124.489318311
 20
77.5157449381
 11
124.489318311
 21
39.8157449381
  0
LINE
  5
352
100
AcDbEntity
  8
0
100
AcDbLine
 62
7
  6
BYLAYER
 10
125.139318311
 20
210.2157449381
 11
125.139318311
 21
226.5457449381
  0
LINE
  5
353
100
AcDbEntity
  8
0
100
AcDbLine
 62
7
  6
BYLAYER
 10
125.189318311
 20
120.2157449381
 11
125.189318311
 21
92.1157449381
  0
LINE
  5
354
100
AcDbEntity
  8
0
100
AcDbLine
 62
7
  6
BYLAYER
 10
125.189318311
 20
87.1157449381
 11
125.189318311
 21
37.3157449381
  0
LINE
  5
355
100
AcDbEntity
  8
0
100
AcDbLine
 62
7
  6
BYLAYER
 10
125.189318311
 20
30.3157449381
 11
125.189318311
 21
34.8157449381
  0
LINE
  5
356
100
AcDbEntity
  8
0
100
AcDbLine
 62
7
  6
BYLAYER
 10
120.6197408176
 20
75.0157449381
 11
120.6210396335
 21
77.5157544343
  0
LINE
  5
357
100
AcDbEntity
  8
0
100
AcDbLine
 62
7
  6
BYLAYER
 10
28.9806208578
 20
52.3302406936
 11
28.5518743949
 21
52.0729928158
  0
LINE
  5
358
100
AcDbEntity
  8
0
100
AcDbLine
 62
7
  6
BYLAYER
 10
126.439318311
 20
124.7157449381
 11
126.439318311
 21
120.2157449381
  0
LINE
  5
359
100
AcDbEntity
  8
0
100
AcDbLine
 62
7
  6
BYLAYER
 10
126.439318311
 20
92.1157449381
 11
126.439318311
 21
87.1157449381
  0
LINE
  5
35A
100
AcDbEntity
  8
0
100
AcDbLine
 62
7
  6
BYLAYER
 10
128.879318311
 20
210.2157449381
 11
128.879318311
 21
217.6157449381
  0
LINE
  5
35B
100
AcDbEntity
  8
0
100
AcDbLine
 62
7
  6
BYLAYER
 10
128.939318311
 20
124.7157449381
 11
128.939318311
 21
120.2157449381
  0
LINE
  5
35C
100
AcDbEntity
  8
0
100
AcDbLine
 62
7
  6
BYLAYER
 10
128.939318311
 20
92.1157449381
 11
128.939318311
 21
87.1157449381
  0
LINE
  5
35D
100
AcDbEntity
  8
0
100
AcDbLine
 62
7
  6
BYLAYER
 10
129.879318311
 20
217.6157449381
 11
129.879318311
 21
210.2157449381
  0
LINE
  5
35E
100
AcDbEntity
  8
0
100
AcDbLine
 62
7
  6
BYLAYER
 10
130.189318311
 20
30.3157449381
 11
130.189318311
 21
34.8157449381
  0
LINE
  5
35F
100
AcDbEntity
  8
0
100
AcDbLine
 62
7
  6
BYLAYER
 10
130.189318311
 20
37.3157449381
 11
130.189318311
 21
87.1157449381
  0
LINE
  5
360
100
AcDbEntity
  8
0
100
AcDbLine
 62
7
  6
BYLAYER
 10
130.189318311
 20
92.1157449381
 11
130.189318311
 21
120.2157449381
  0
LINE
  5
361
100
AcDbEntity
  8
0
100
AcDbLine
 62
7
  6
BYLAYER
 10
130.689318311
 20
87.1157449381
 11
130.689318311
 21
39.8157449381
  0
LINE
  5
362
100
AcDbEntity
  8
0
100
AcDbLine
 62
7
  6
BYLAYER
 10
130.889318311
 20
79.0157449381
 11
130.889318311
 21
125.2157449381
  0
LINE
  5
363
100
AcDbEntity
  8
0
100
AcDbLine
 62
7
  6
BYLAYER
 10
131.289318311
 20
39.8157449381
 11
131.289318311
 21
77.5157449381
  0
LINE
  5
364
100
AcDbEntity
  8
0
100
AcDbLine
 62
7
  6
BYLAYER
 10
131.389318311
 20
125.2157449381
 11
131.389318311
 21
79.0157449381
  0
LINE
  5
365
100
AcDbEntity
  8
0
100
AcDbLine
 62
7
  6
BYLAYER
 10
131.389318311
 20
77.5157449381
 11
131.389318311
 21
39.8157449381
  0
LINE
  5
366
100
AcDbEntity
  8
0
100
AcDbLine
 62
7
  6
BYLAYER
 10
131.8393182866
 20
79.0157449381
 11
131.8393182866
 21
90.9157449381
  0
LINE
  5
367
100
AcDbEntity
  8
0
100
AcDbLine
 62
7
  6
BYLAYER
 10
132.739318311
 20
77.5157449381
 11
132.739318311
 21
79.0157449381
  0
LINE
  5
368
100
AcDbEntity
  8
0
100
AcDbLine
 62
7
  6
BYLAYER
 10
132.8390084956
 20
79.0157449381
 11
132.8391192866
 21
91.0157449381
  0
LINE
  5
369
100
AcDbEntity
  8
0
100
AcDbLine
 62
7
  6
BYLAYER
 10
133.189318311
 20
34.8157449381
 11
133.189318311
 21
37.3157449381
  0
LINE
  5
36A
100
AcDbEntity
  8
0
100
AcDbLine
 62
7
  6
BYLAYER
 10
134.189318311
 20
37.3157449381
 11
134.189318311
 21
35.2157449381
  0
LINE
  5
36B
100
AcDbEntity
  8
0
100
AcDbLine
 62
7
  6
BYLAYER
 10
29.6180647739
 20
50.2960088509
 11
30.0468112367
 21
50.5532567286
  0
LINE
  5
36C
100
AcDbEntity
  8
0
100
AcDbLine
 62
7
  6
BYLAYER
 10
160.8263531776
 20
116.8905638409
 11
160.889318311
 21
116.9157449381
  0
LINE
  5
36D
100
AcDbEntity
  8
0
100
AcDbLine
 62
7
  6
BYLAYER
 10
160.3893156978
 20
116.7157514662
 11
160.8893121943
 21
116.9157510336
  0
LINE
  5
36E
100
AcDbEntity
  8
0
100
AcDbLine
 62
7
  6
BYLAYER
 10
134.7590155767
 20
75.0157449381
 11
134.7577033698
 21
77.5157545881
  0
LINE
  5
36F
100
AcDbEntity
  8
0
100
AcDbLine
 62
7
  6
BYLAYER
 10
134.689318311
 20
35.2157449381
 11
134.689318311
 21
34.8157449381
  0
LINE
  5
370
100
AcDbEntity
  8
0
100
AcDbLine
 62
7
  6
BYLAYER
 10
134.710407872
 20
75.0157449381
 11
134.710407872
 21
77.5157449381
  0
LINE
  5
371
100
AcDbEntity
  8
0
100
AcDbLine
 62
7
  6
BYLAYER
 10
134.739318311
 20
79.0157449381
 11
134.739318311
 21
77.5157449381
  0
LINE
  5
372
100
AcDbEntity
  8
0
100
AcDbLine
 62
7
  6
BYLAYER
 10
134.9724123647
 20
79.0157449381
 11
134.9724123647
 21
75.0157449381
  0
LINE
  5
373
100
AcDbEntity
  8
0
100
AcDbLine
 62
7
  6
BYLAYER
 10
135.689318311
 20
37.3157449381
 11
135.689318311
 21
34.8157449381
  0
LINE
  5
374
100
AcDbEntity
  8
0
100
AcDbLine
 62
7
  6
BYLAYER
 10
136.189318311
 20
98.1657449381
 11
136.189318311
 21
101.1657449381
  0
LINE
  5
375
100
AcDbEntity
  8
0
100
AcDbLine
 62
7
  6
BYLAYER
 10
137.189318311
 20
98.1657449381
 11
137.189318311
 21
101.1657449381
  0
LINE
  5
376
100
AcDbEntity
  8
0
100
AcDbLine
 62
7
  6
BYLAYER
 10
139.2481606549
 20
75.0157449381
 11
139.2481606549
 21
79.0157449381
  0
LINE
  5
377
100
AcDbEntity
  8
0
100
AcDbLine
 62
7
  6
BYLAYER
 10
139.6670526312
 20
75.0157449381
 11
139.6670526312
 21
79.0157449381
  0
LINE
  5
378
100
AcDbEntity
  8
0
100
AcDbLine
 62
7
  6
BYLAYER
 10
140.9749965151
 20
79.0157449381
 11
140.9749965151
 21
75.0157449381
  0
LINE
  5
379
100
AcDbEntity
  8
0
100
AcDbLine
 62
7
  6
BYLAYER
 10
163.039318311
 20
173.9142625968
 11
145.5939000535
 21
173.9142625968
  0
LINE
  5
37A
100
AcDbEntity
  8
0
100
AcDbLine
 62
7
  6
BYLAYER
 10
39.7495957414
 20
173.9157449381
 11
22.339318311
 21
173.9157449381
  0
LINE
  5
37B
100
AcDbEntity
  8
0
100
AcDbLine
 62
7
  6
BYLAYER
 10
148.0940866433
 20
174.4142625968
 11
162.539318311
 21
174.4142625968
  0
LINE
  5
37C
100
AcDbEntity
  8
0
100
AcDbLine
 62
7
  6
BYLAYER
 10
22.839318311
 20
174.4157449381
 11
37.2555181079
 21
174.4157449381
  0
LINE
  5
37D
100
AcDbEntity
  8
0
100
AcDbLine
 62
7
  6
BYLAYER
 10
148.6506802016
 20
176.7919176679
 11
145.5939000536
 21
176.7919176679
  0
LINE
  5
37E
100
AcDbEntity
  8
0
100
AcDbLine
 62
7
  6
BYLAYER
 10
145.191639585
 20
209.7157449381
 11
145.5939000535
 21
176.7919176679
  0
LINE
  5
37F
100
AcDbEntity
  8
0
100
AcDbLine
 62
7
  6
BYLAYER
 10
148.6506802016
 20
176.7919176679
 11
148.6570183919
 21
174.4148213617
  0
LINE
  5
380
100
AcDbEntity
  8
0
100
AcDbLine
 62
7
  6
BYLAYER
 10
142.489318311
 20
35.2157449381
 11
142.489318311
 21
34.8157449381
  0
LINE
  5
381
100
AcDbEntity
  8
0
100
AcDbLine
 62
7
  6
BYLAYER
 10
142.689318311
 20
34.7157449381
 11
142.689318311
 21
37.3157449381
  0
LINE
  5
382
100
AcDbEntity
  8
0
100
AcDbLine
 62
7
  6
BYLAYER
 10
145.191639585
 20
209.7157449381
 11
145.1916395798
 21
210.2157449381
  0
LINE
  5
383
100
AcDbEntity
  8
0
100
AcDbLine
 62
7
  6
BYLAYER
 10
145.5939000535
 20
173.9142625968
 11
145.5939000535
 21
176.7919176679
  0
LINE
  5
384
100
AcDbEntity
  8
0
100
AcDbLine
 62
7
  6
BYLAYER
 10
147.689318311
 20
34.7157449381
 11
147.689318311
 21
37.3157449381
  0
LINE
  5
385
100
AcDbEntity
  8
0
100
AcDbLine
 62
7
  6
BYLAYER
 10
147.889318311
 20
35.2157449381
 11
147.889318311
 21
34.8157449381
  0
LINE
  5
386
100
AcDbEntity
  8
0
100
AcDbLine
 62
7
  6
BYLAYER
 10
149.4036398625
 20
75.0157449381
 11
149.4036398625
 21
79.0157449381
  0
LINE
  5
387
100
AcDbEntity
  8
0
100
AcDbLine
 62
7
  6
BYLAYER
 10
156.489318311
 20
116.0157449381
 11
155.989318311
 21
115.5157449381
  0
LINE
  5
388
100
AcDbEntity
  8
0
100
AcDbLine
 62
7
  6
BYLAYER
 10
151.6920501077
 20
209.7218534385
 11
152.1234351689
 21
174.4142625968
  0
LINE
  5
389
100
AcDbEntity
  8
0
100
AcDbLine
 62
7
  6
BYLAYER
 10
150.7115704308
 20
75.0157449381
 11
150.7115704308
 21
79.0157449381
  0
LINE
  5
38A
100
AcDbEntity
  8
0
100
AcDbLine
 62
7
  6
BYLAYER
 10
151.130475967
 20
79.0157449381
 11
151.130475967
 21
75.0157449381
  0
LINE
  5
38B
100
AcDbEntity
  8
0
100
AcDbLine
 62
7
  6
BYLAYER
 10
151.739318311
 20
34.8157449381
 11
151.739318311
 21
37.3157449381
  0
LINE
  5
38C
100
AcDbEntity
  8
0
100
AcDbLine
 62
7
  6
BYLAYER
 10
152.739318311
 20
34.8157449381
 11
152.739318311
 21
35.2157449381
  0
LINE
  5
38D
100
AcDbEntity
  8
0
100
AcDbLine
 62
7
  6
BYLAYER
 10
153.189318311
 20
98.1657449381
 11
153.189318311
 21
101.1657449381
  0
LINE
  5
38E
100
AcDbEntity
  8
0
100
AcDbLine
 62
7
  6
BYLAYER
 10
153.239318311
 20
35.2157449381
 11
153.239318311
 21
37.3157449381
  0
LINE
  5
38F
100
AcDbEntity
  8
0
100
AcDbLine
 62
7
  6
BYLAYER
 10
154.189318311
 20
98.1657449381
 11
154.189318311
 21
101.1657449381
  0
LINE
  5
390
100
AcDbEntity
  8
0
100
AcDbLine
 62
7
  6
BYLAYER
 10
154.239318311
 20
37.3157449381
 11
154.239318311
 21
34.8157449381
  0
LINE
  5
391
100
AcDbEntity
  8
0
100
AcDbLine
 62
7
  6
BYLAYER
 10
155.189318311
 20
39.8157449381
 11
155.189318311
 21
50.0387609732
  0
LINE
  5
392
100
AcDbEntity
  8
0
100
AcDbLine
 62
7
  6
BYLAYER
 10
155.289318311
 20
50.0387609732
 11
155.289318311
 21
39.8157449381
  0
LINE
  5
393
100
AcDbEntity
  8
0
100
AcDbLine
 62
7
  6
BYLAYER
 10
155.4017914985
 20
75.0157449381
 11
155.4017914985
 21
79.0157449381
  0
LINE
  5
394
100
AcDbEntity
  8
0
100
AcDbLine
 62
7
  6
BYLAYER
 10
155.639318311
 20
77.6157449381
 11
155.639318311
 21
79.0157449381
  0
LINE
  5
395
100
AcDbEntity
  8
0
100
AcDbLine
 62
7
  6
BYLAYER
 10
155.6682287675
 20
75.0157449381
 11
155.6682287675
 21
77.5157449381
  0
LINE
  5
396
100
AcDbEntity
  8
0
100
AcDbLine
 62
7
  6
BYLAYER
 10
155.989318311
 20
115.5157449381
 11
155.989318311
 21
124.7157449381
  0
LINE
  5
397
100
AcDbEntity
  8
0
100
AcDbLine
 62
7
  6
BYLAYER
 10
156.489318311
 20
125.2157449381
 11
156.489318311
 21
116.0157449381
  0
LINE
  5
398
100
AcDbEntity
  8
0
100
AcDbLine
 62
7
  6
BYLAYER
 10
156.889318311
 20
39.8157449381
 11
156.889318311
 21
37.3157449381
  0
LINE
  5
399
100
AcDbEntity
  8
0
100
AcDbLine
 62
7
  6
BYLAYER
 10
157.1893183132
 20
117.7157449272
 11
157.189318311
 21
125.2157449381
  0
LINE
  5
39A
100
AcDbEntity
  8
0
100
AcDbLine
 62
7
  6
BYLAYER
 10
157.2555086899
 20
52.8157449381
 11
157.2555086899
 21
52.7157449381
  0
LINE
  5
39B
100
AcDbEntity
  8
0
100
AcDbLine
 62
7
  6
BYLAYER
 10
157.5395907421
 20
79.0157449381
 11
157.5395907246
 21
91.0157449381
  0
LINE
  5
39C
100
AcDbEntity
  8
0
100
AcDbLine
 62
7
  6
BYLAYER
 10
157.639318311
 20
77.5157449381
 11
157.639318311
 21
79.0157449381
  0
LINE
  5
39D
100
AcDbEntity
  8
0
100
AcDbLine
 62
7
  6
BYLAYER
 10
157.689318311
 20
124.7157449381
 11
157.689318311
 21
117.7157449401
  0
LINE
  5
39E
100
AcDbEntity
  8
0
100
AcDbLine
 62
7
  6
BYLAYER
 10
157.889318311
 20
39.8157449381
 11
157.889318311
 21
37.3157449381
  0
LINE
  5
39F
100
AcDbEntity
  8
0
100
AcDbLine
 62
7
  6
BYLAYER
 10
158.189318311
 20
117.2157449381
 11
158.189318311
 21
116.7157449381
  0
LINE
  5
3A0
100
AcDbEntity
  8
0
100
AcDbLine
 62
7
  6
BYLAYER
 10
158.189318311
 20
115.5157449381
 11
158.189318311
 21
116.0157449381
  0
LINE
  5
3A1
100
AcDbEntity
  8
0
100
AcDbLine
 62
7
  6
BYLAYER
 10
158.389318311
 20
37.3157449381
 11
158.389318311
 21
39.8157449381
  0
LINE
  5
3A2
100
AcDbEntity
  8
0
100
AcDbLine
 62
7
  6
BYLAYER
 10
158.5393182804
 20
90.9157449381
 11
158.5393182804
 21
79.0157449381
  0
LINE
  5
3A3
100
AcDbEntity
  8
0
100
AcDbLine
 62
7
  6
BYLAYER
 10
155.6197408176
 20
75.0157449381
 11
155.6210915859
 21
77.6157544074
  0
LINE
  5
3A4
100
AcDbEntity
  8
0
100
AcDbLine
 62
7
  6
BYLAYER
 10
32.5372118702
 20
193.4097383496
 11
32.0371425738
 21
193.4071212518
  0
LINE
  5
3A5
100
AcDbEntity
  8
0
100
AcDbLine
 62
7
  6
BYLAYER
 10
151.9710609613
 20
186.885640627
 11
162.539318311
 21
186.885640627
  0
LINE
  5
3A6
100
AcDbEntity
  8
0
100
AcDbLine
 62
7
  6
BYLAYER
 10
151.9535880718
 20
188.3157449381
 11
162.539318311
 21
188.3157449381
  0
LINE
  5
3A7
100
AcDbEntity
  8
0
100
AcDbLine
 62
7
  6
BYLAYER
 10
32.5372118702
 20
193.4097383498
 11
33.4871447155
 21
193.3981323265
  0
LINE
  5
3A8
100
AcDbEntity
  8
0
100
AcDbLine
 62
7
  6
BYLAYER
 10
158.989318311
 20
52.8157449381
 11
158.989318311
 21
77.5157449381
  0
LINE
  5
3A9
100
AcDbEntity
  8
0
100
AcDbLine
 62
7
  6
BYLAYER
 10
158.989318311
 20
79.0157449381
 11
158.989318311
 21
114.7157449406
  0
LINE
  5
3AA
100
AcDbEntity
  8
0
100
AcDbLine
 62
7
  6
BYLAYER
 10
159.089318311
 20
77.6157449381
 11
159.089318311
 21
52.7157449381
  0
LINE
  5
3AB
100
AcDbEntity
  8
0
100
AcDbLine
 62
7
  6
BYLAYER
 10
159.389318311
 20
39.8157449381
 11
159.389318311
 21
37.3157449381
  0
LINE
  5
3AC
100
AcDbEntity
  8
0
100
AcDbLine
 62
7
  6
BYLAYER
 10
159.4893183111
 20
78.9157449381
 11
159.4893183069
 21
114.7157449586
  0
LINE
  5
3AD
100
AcDbEntity
  8
0
100
AcDbLine
 62
7
  6
BYLAYER
 10
160.389318311
 20
39.8157449381
 11
160.389318311
 21
116.7157449381
  0
LINE
  5
3AE
100
AcDbEntity
  8
0
100
AcDbLine
 62
7
  6
BYLAYER
 10
160.889318311
 20
116.9157449381
 11
160.889318311
 21
37.3157449381
  0
LINE
  5
3AF
100
AcDbEntity
  8
0
100
AcDbLine
 62
7
  6
BYLAYER
 10
161.189318311
 20
34.8157449381
 11
161.189318311
 21
35.2157449381
  0
LINE
  5
3B0
100
AcDbEntity
  8
0
100
AcDbLine
 62
7
  6
BYLAYER
 10
162.539318311
 20
129.2157449381
 11
162.539318311
 21
209.8157449381
  0
LINE
  5
3B1
100
AcDbEntity
  8
0
100
AcDbLine
 62
7
  6
BYLAYER
 10
163.039318311
 20
129.2157449381
 11
163.039318311
 21
209.3157449381
  0
LINE
  5
3B2
100
AcDbEntity
  8
0
100
AcDbLine
 62
7
  6
BYLAYER
 10
163.539318311
 20
35.2157449381
 11
163.539318311
 21
129.2157449381
  0
LINE
  5
3B3
100
AcDbEntity
  8
0
100
AcDbLine
 62
7
  6
BYLAYER
 10
164.039318311
 20
34.8157449381
 11
164.039318311
 21
151.0157476243
  0
LINE
  5
3B4
100
AcDbEntity
  8
0
100
AcDbLine
 62
7
  6
BYLAYER
 10
145.1916396075
 20
209.7157449384
 11
151.6920501078
 21
209.7218534384
  0
LINE
  5
3B5
100
AcDbEntity
  8
0
100
AcDbLine
 62
7
  6
BYLAYER
 10
151.7083758392
 20
208.385640627
 11
162.539318311
 21
208.385640627
  0
LINE
  5
3B6
100
AcDbEntity
  8
0
100
AcDbLine
 62
7
  6
BYLAYER
 10
145.191639585
 20
209.7157449381
 11
40.1869970371
 21
209.7157449381
  0
LINE
  5
3B7
100
AcDbEntity
  8
0
100
AcDbLine
 62
7
  6
BYLAYER
 10
151.5970044423
 20
209.8157449381
 11
162.539318311
 21
209.8157449381
  0
LINE
  5
3B8
100
AcDbEntity
  8
0
100
AcDbLine
 62
7
  6
BYLAYER
 10
151.1920874228
 20
210.2157449381
 11
34.1865491992
 21
210.2157449381
  0
LINE
  5
3B9
100
AcDbEntity
  8
0
100
AcDbLine
 62
7
  6
BYLAYER
 10
33.6865865112
 20
209.7218531756
 11
40.1869970147
 21
209.7157449384
  0
LINE
  5
3BA
100
AcDbEntity
  8
0
100
AcDbLine
 62
7
  6
BYLAYER
 10
32.6572497176
 20
203.2344811801
 11
33.6071825632
 21
203.2228749835
  0
LINE
  5
3BB
100
AcDbEntity
  8
0
100
AcDbLine
 62
7
  6
BYLAYER
 10
163.039318311
 20
186.7036555099
 11
162.539318311
 21
186.885640627
  0
LINE
  5
3BC
100
AcDbEntity
  8
0
100
AcDbLine
 62
7
  6
BYLAYER
 10
159.089318311
 20
77.6157449381
 11
158.989318311
 21
77.5157449381
  0
LINE
  5
3BD
100
AcDbEntity
  8
0
100
AcDbLine
 62
7
  6
BYLAYER
 10
129.879318311
 20
217.6157449381
 11
125.139318311
 21
217.6157449381
  0
LINE
  5
3BE
100
AcDbEntity
  8
0
100
AcDbLine
 62
7
  6
BYLAYER
 10
109.279318311
 20
217.6157449381
 11
104.539318311
 21
217.6157449381
  0
LINE
  5
3BF
100
AcDbEntity
  8
0
100
AcDbLine
 62
7
  6
BYLAYER
 10
80.859318311
 20
217.6157449381
 11
76.119318311
 21
217.6157449381
  0
LINE
  5
3C0
100
AcDbEntity
  8
0
100
AcDbLine
 62
7
  6
BYLAYER
 10
60.259318311
 20
217.6157449381
 11
55.519318311
 21
217.6157449381
  0
LINE
  5
3C1
100
AcDbEntity
  8
0
100
AcDbLine
 62
7
  6
BYLAYER
 10
155.3318253853
 20
50.5532567286
 11
156.3980157642
 21
52.3302406935
  0
LINE
  5
3C2
100
AcDbEntity
  8
0
100
AcDbLine
 62
7
  6
BYLAYER
 10
155.4175746779
 20
50.5018071531
 11
156.483765057
 21
52.2787911182
  0
LINE
  5
3C3
100
AcDbEntity
  8
0
100
AcDbLine
 62
7
  6
BYLAYER
 10
60.259318311
 20
224.2457449381
 11
76.119318311
 21
224.2457449381
  0
LINE
  5
3C4
100
AcDbEntity
  8
0
100
AcDbLine
 62
7
  6
BYLAYER
 10
109.279318311
 20
224.2457449381
 11
125.139318311
 21
224.2457449381
  0
LINE
  5
3C5
100
AcDbEntity
  8
0
100
AcDbLine
 62
7
  6
BYLAYER
 10
125.139318311
 20
224.7457449381
 11
109.279318311
 21
224.7457449381
  0
LINE
  5
3C6
100
AcDbEntity
  8
0
100
AcDbLine
 62
7
  6
BYLAYER
 10
76.119318311
 20
224.7457449381
 11
60.259318311
 21
224.7457449381
  0
LINE
  5
3C7
100
AcDbEntity
  8
0
100
AcDbLine
 62
7
  6
BYLAYER
 10
60.259318311
 20
225.0457449381
 11
76.119318311
 21
225.0457449381
  0
LINE
  5
3C8
100
AcDbEntity
  8
0
100
AcDbLine
 62
7
  6
BYLAYER
 10
109.279318311
 20
225.0457449381
 11
125.139318311
 21
225.0457449381
  0
LINE
  5
3C9
100
AcDbEntity
  8
0
100
AcDbLine
 62
7
  6
BYLAYER
 10
60.259318311
 20
225.2457449381
 11
76.119318311
 21
225.2457449381
  0
LINE
  5
3CA
100
AcDbEntity
  8
0
100
AcDbLine
 62
7
  6
BYLAYER
 10
109.279318311
 20
225.2457449381
 11
125.139318311
 21
225.2457449381
  0
LINE
  5
3CB
100
AcDbEntity
  8
0
100
AcDbLine
 62
7
  6
BYLAYER
 10
125.139318311
 20
226.2457449381
 11
109.279318311
 21
226.2457449381
  0
LINE
  5
3CC
100
AcDbEntity
  8
0
100
AcDbLine
 62
7
  6
BYLAYER
 10
76.119318311
 20
226.2457449381
 11
60.259318311
 21
226.2457449381
  0
LINE
  5
3CD
100
AcDbEntity
  8
0
100
AcDbLine
 62
7
  6
BYLAYER
 10
163.039318311
 20
187.8157449381
 11
162.539318311
 21
188.3157449381
  0
LINE
  5
3CE
100
AcDbEntity
  8
0
100
AcDbLine
 62
7
  6
BYLAYER
 10
60.259318311
 20
226.5457449381
 11
76.119318311
 21
226.5457449381
  0
LINE
  5
3CF
100
AcDbEntity
  8
0
100
AcDbLine
 62
7
  6
BYLAYER
 10
109.279318311
 20
226.5457449381
 11
125.139318311
 21
226.5457449381
  0
LINE
  5
3D0
100
AcDbEntity
  8
0
100
AcDbLine
 62
7
  6
BYLAYER
 10
163.039318311
 20
208.2036555099
 11
162.539318311
 21
208.385640627
  0
LINE
  5
3D1
100
AcDbEntity
  8
0
100
AcDbLine
 62
7
  6
BYLAYER
 10
151.6920501078
 20
209.7218534385
 11
151.1920874229
 21
210.2157449382
  0
LINE
  5
3D2
100
AcDbEntity
  8
0
100
AcDbLine
 62
7
  6
BYLAYER
 10
163.039318311
 20
209.3157449381
 11
162.539318311
 21
209.8157449381
  0
ARC
  5
3D3
100
AcDbEntity
  8
0
100
AcDbCircle
 62
7
  6
BYLAYER
 10
29.189318311
 20
50.0387609732
 40
1.0
100
AcDbArc
 50
0.0000000001
 51
30.9637565332
  0
ARC
  5
3D4
100
AcDbEntity
  8
0
100
AcDbCircle
 62
7
  6
BYLAYER
 10
28.1231279321
 20
51.8157449381
 40
1.0
100
AcDbArc
 50
30.9637565322
 51
90.0000000015
  0
ARC
  5
3D5
100
AcDbEntity
  8
0
100
AcDbCircle
 62
7
  6
BYLAYER
 10
59.689318311
 20
30.3157449381
 40
0.5
100
AcDbArc
 50
270.0
 51
360.0
  0
ARC
  5
3D6
100
AcDbEntity
  8
0
100
AcDbCircle
 62
7
  6
BYLAYER
 10
21.839318311
 20
35.7157449381
 40
0.5
100
AcDbArc
 50
180.0
 51
270.0
  0
ARC
  5
3D7
100
AcDbEntity
  8
0
100
AcDbCircle
 62
7
  6
BYLAYER
 10
55.689318311
 20
30.3157449381
 40
0.5
100
AcDbArc
 50
180.0
 51
270.0
  0
ARC
  5
3D8
100
AcDbEntity
  8
0
100
AcDbCircle
 62
7
  6
BYLAYER
 10
61.9393218428
 20
90.915744959
 40
0.0999999623
100
AcDbArc
 50
90.0020375286
 51
180.0000119705
  0
ARC
  5
3D9
100
AcDbEntity
  8
0
100
AcDbCircle
 62
7
  6
BYLAYER
 10
26.9393218428
 20
90.915744959
 40
0.0999999623
100
AcDbArc
 50
90.0020375127
 51
180.0000119466
  0
ARC
  5
3DA
100
AcDbEntity
  8
0
100
AcDbCircle
 62
7
  6
BYLAYER
 10
88.4393143869
 20
90.9157455435
 40
0.0999999257
100
AcDbArc
 50
359.9996531511
 51
89.9977691144
  0
ARC
  5
3DB
100
AcDbEntity
  8
0
100
AcDbCircle
 62
7
  6
BYLAYER
 10
53.4393143869
 20
90.9157455436
 40
0.0999999256
100
AcDbArc
 50
359.9996531311
 51
89.9977691242
  0
ARC
  5
3DC
100
AcDbEntity
  8
0
100
AcDbCircle
 62
7
  6
BYLAYER
 10
27.189318311
 20
114.7157449381
 40
1.3
100
AcDbArc
 50
90.0000009051
 51
179.9999999005
  0
ARC
  5
3DD
100
AcDbEntity
  8
0
100
AcDbCircle
 62
7
  6
BYLAYER
 10
27.189318311
 20
117.7157449381
 40
1.0
100
AcDbArc
 50
270.0000003026
 51
359.9999999991
  0
ARC
  5
3DE
100
AcDbEntity
  8
0
100
AcDbCircle
 62
7
  6
BYLAYER
 10
27.189318311
 20
114.7157449381
 40
0.8
100
AcDbArc
 50
90.0000000871
 51
180.0000000212
  0
ARC
  5
3DF
100
AcDbEntity
  8
0
100
AcDbCircle
 62
7
  6
BYLAYER
 10
24.789318311
 20
116.9157449381
 40
0.8
100
AcDbArc
 50
90.0000000001
 51
180.0000000007
  0
ARC
  5
3E0
100
AcDbEntity
  8
0
100
AcDbCircle
 62
7
  6
BYLAYER
 10
54.489318311
 20
124.7157449381
 40
0.5
100
AcDbArc
 50
90.0
 51
180.0
  0
ARC
  5
3E1
100
AcDbEntity
  8
0
100
AcDbCircle
 62
7
  6
BYLAYER
 10
89.489318311
 20
124.7157449381
 40
0.5
100
AcDbArc
 50
90.0
 51
180.0
  0
ARC
  5
3E2
100
AcDbEntity
  8
0
100
AcDbCircle
 62
7
  6
BYLAYER
 10
22.839318311
 20
173.9157449381
 40
0.5
100
AcDbArc
 50
90.0
 51
180.0
  0
ARC
  5
3E3
100
AcDbEntity
  8
0
100
AcDbCircle
 62
7
  6
BYLAYER
 10
90.939318311
 20
124.7157449381
 40
0.5
100
AcDbArc
 50
0.0
 51
90.0
  0
ARC
  5
3E4
100
AcDbEntity
  8
0
100
AcDbCircle
 62
7
  6
BYLAYER
 10
60.889318311
 20
124.7157449381
 40
0.5
100
AcDbArc
 50
0.0
 51
90.0
  0
ARC
  5
3E5
100
AcDbEntity
  8
0
100
AcDbCircle
 62
7
  6
BYLAYER
 10
59.439318311
 20
124.7157449381
 40
0.5
100
AcDbArc
 50
90.0
 51
180.0
  0
ARC
  5
3E6
100
AcDbEntity
  8
0
100
AcDbCircle
 62
7
  6
BYLAYER
 10
55.939318311
 20
124.7157449381
 40
0.5
100
AcDbArc
 50
0.0
 51
90.0
  0
ARC
  5
3E7
100
AcDbEntity
  8
0
100
AcDbCircle
 62
7
  6
BYLAYER
 10
21.839318311
 20
124.7157449381
 40
0.5
100
AcDbArc
 50
90.0
 51
180.0
  0
ARC
  5
3E8
100
AcDbEntity
  8
0
100
AcDbCircle
 62
7
  6
BYLAYER
 10
28.889318311
 20
124.7157449381
 40
0.5
100
AcDbArc
 50
0.0
 51
90.0
  0
ARC
  5
3E9
100
AcDbEntity
  8
0
100
AcDbCircle
 62
7
  6
BYLAYER
 10
28.189318311
 20
124.7157449381
 40
0.5
100
AcDbArc
 50
90.0
 51
180.0
  0
ARC
  5
3EA
100
AcDbEntity
  8
0
100
AcDbCircle
 62
7
  6
BYLAYER
 10
27.189318311
 20
117.7157449381
 40
0.5
100
AcDbArc
 50
270.0
 51
360.0
  0
ARC
  5
3EB
100
AcDbEntity
  8
0
100
AcDbCircle
 62
7
  6
BYLAYER
 10
24.789318311
 20
116.9157449381
 40
0.3
100
AcDbArc
 50
89.9999999996
 51
180.000000005
  0
ARC
  5
3EC
100
AcDbEntity
  8
0
100
AcDbCircle
 62
7
  6
BYLAYER
 10
157.2555086899
 20
51.8157449381
 40
1.0
100
AcDbArc
 50
89.9999999944
 51
149.0362434679
  0
ARC
  5
3ED
100
AcDbEntity
  8
0
100
AcDbCircle
 62
7
  6
BYLAYER
 10
156.189318311
 20
50.0387609732
 40
1.0
100
AcDbArc
 50
149.0362434682
 51
180.0
  0
ARC
  5
3EE
100
AcDbEntity
  8
0
100
AcDbCircle
 62
7
  6
BYLAYER
 10
157.2555086899
 20
51.8157449381
 40
0.9
100
AcDbArc
 50
90.0
 51
149.0362434529
  0
ARC
  5
3EF
100
AcDbEntity
  8
0
100
AcDbCircle
 62
7
  6
BYLAYER
 10
156.189318311
 20
50.0387609732
 40
0.9
100
AcDbArc
 50
149.0362434667
 51
180.0
  0
ARC
  5
3F0
100
AcDbEntity
  8
0
100
AcDbCircle
 62
7
  6
BYLAYER
 10
125.689318311
 20
30.3157449381
 40
0.5
100
AcDbArc
 50
180.0
 51
270.0
  0
ARC
  5
3F1
100
AcDbEntity
  8
0
100
AcDbCircle
 62
7
  6
BYLAYER
 10
129.689318311
 20
30.3157449381
 40
0.5
100
AcDbArc
 50
270.0
 51
360.0
  0
ARC
  5
3F2
100
AcDbEntity
  8
0
100
AcDbCircle
 62
7
  6
BYLAYER
 10
129.689318311
 20
31.2157449381
 40
0.5
100
AcDbArc
 50
270.0
 51
360.0
  0
ARC
  5
3F3
100
AcDbEntity
  8
0
100
AcDbCircle
 62
7
  6
BYLAYER
 10
125.689318311
 20
31.2157449381
 40
0.5
100
AcDbArc
 50
180.0
 51
270.0
  0
ARC
  5
3F4
100
AcDbEntity
  8
0
100
AcDbCircle
 62
7
  6
BYLAYER
 10
155.739318311
 20
77.6157449381
 40
0.1
100
AcDbArc
 50
180.0
 51
270.0
  0
ARC
  5
3F5
100
AcDbEntity
  8
0
100
AcDbCircle
 62
7
  6
BYLAYER
 10
155.739318311
 20
78.9157449381
 40
0.1
100
AcDbArc
 50
90.0
 51
180.0
  0
ARC
  5
3F6
100
AcDbEntity
  8
0
100
AcDbCircle
 62
7
  6
BYLAYER
 10
96.9393218428
 20
90.9157449596
 40
0.0999999623
100
AcDbArc
 50
90.0020375179
 51
180.0000122928
  0
ARC
  5
3F7
100
AcDbEntity
  8
0
100
AcDbCircle
 62
7
  6
BYLAYER
 10
131.9393218428
 20
90.9157449591
 40
0.0999999623
100
AcDbArc
 50
90.0020375478
 51
180.0000120274
  0
ARC
  5
3F8
100
AcDbEntity
  8
0
100
AcDbCircle
 62
7
  6
BYLAYER
 10
123.4393143869
 20
90.9157455435
 40
0.0999999256
100
AcDbArc
 50
359.999653181
 51
89.9977691351
  0
ARC
  5
3F9
100
AcDbEntity
  8
0
100
AcDbCircle
 62
7
  6
BYLAYER
 10
158.4393143869
 20
90.9157455434
 40
0.0999999257
100
AcDbArc
 50
359.9996532276
 51
89.997769126
  0
ARC
  5
3FA
100
AcDbEntity
  8
0
100
AcDbCircle
 62
7
  6
BYLAYER
 10
158.189318311
 20
114.7157449381
 40
1.3
100
AcDbArc
 50
0.0000009007
 51
89.9999999005
  0
ARC
  5
3FB
100
AcDbEntity
  8
0
100
AcDbCircle
 62
7
  6
BYLAYER
 10
158.189318311
 20
117.7157449381
 40
1.0
100
AcDbArc
 50
180.0000006283
 51
269.9999999991
  0
ARC
  5
3FC
100
AcDbEntity
  8
0
100
AcDbCircle
 62
7
  6
BYLAYER
 10
158.189318311
 20
114.7157449381
 40
0.8
100
AcDbArc
 50
0.0000000869
 51
90.0000000219
  0
ARC
  5
3FD
100
AcDbEntity
  8
0
100
AcDbCircle
 62
7
  6
BYLAYER
 10
124.489318311
 20
124.7157449381
 40
0.5
100
AcDbArc
 50
90.0
 51
180.0
  0
ARC
  5
3FE
100
AcDbEntity
  8
0
100
AcDbCircle
 62
7
  6
BYLAYER
 10
163.539318311
 20
128.7157449381
 40
0.5
100
AcDbArc
 50
0.0
 51
90.0
  0
ARC
  5
3FF
100
AcDbEntity
  8
0
100
AcDbCircle
 62
7
  6
BYLAYER
 10
162.539318311
 20
173.9142625968
 40
0.5
100
AcDbArc
 50
0.0
 51
90.0000000002
  0
ARC
  5
400
100
AcDbEntity
  8
0
100
AcDbCircle
 62
7
  6
BYLAYER
 10
157.189318311
 20
124.7157449381
 40
0.5
100
AcDbArc
 50
0.0
 51
90.0
  0
ARC
  5
401
100
AcDbEntity
  8
0
100
AcDbCircle
 62
7
  6
BYLAYER
 10
156.489318311
 20
124.7157449381
 40
0.5
100
AcDbArc
 50
90.0
 51
180.0
  0
ARC
  5
402
100
AcDbEntity
  8
0
100
AcDbCircle
 62
7
  6
BYLAYER
 10
158.189318311
 20
117.7157449381
 40
0.5
100
AcDbArc
 50
180.0
 51
270.0000000124
  0
ARC
  5
403
100
AcDbEntity
  8
0
100
AcDbCircle
 62
7
  6
BYLAYER
 10
130.889318311
 20
124.7157449381
 40
0.5
100
AcDbArc
 50
0.0
 51
90.0
  0
ARC
  5
404
100
AcDbEntity
  8
0
100
AcDbCircle
 62
7
  6
BYLAYER
 10
129.439318311
 20
124.7157449381
 40
0.5
100
AcDbArc
 50
90.0
 51
180.0
  0
ARC
  5
405
100
AcDbEntity
  8
0
100
AcDbCircle
 62
7
  6
BYLAYER
 10
125.939318311
 20
124.7157449381
 40
0.5
100
AcDbArc
 50
0.0
 51
90.0
  0
ARC
  5
406
100
AcDbEntity
  8
0
100
AcDbCircle
 62
7
  6
BYLAYER
 10
95.889318311
 20
124.7157449381
 40
0.5
100
AcDbArc
 50
0.0
 51
90.0
  0
ARC
  5
407
100
AcDbEntity
  8
0
100
AcDbCircle
 62
7
  6
BYLAYER
 10
94.439318311
 20
124.7157449381
 40
0.5
100
AcDbArc
 50
90.0
 51
180.0
  0
ARC
  5
408
100
AcDbEntity
  8
0
100
AcDbCircle
 62
7
  6
BYLAYER
 10
163.539318311
 20
124.7157449381
 40
0.5
100
AcDbArc
 50
0.0
 51
90.0
  0
ARC
  5
409
100
AcDbEntity
  8
0
100
AcDbCircle
 62
7
  6
BYLAYER
 10
160.589318311
 20
116.9157449381
 40
0.3
100
AcDbArc
 50
0.0
 51
89.9999999953
  0
SPLINE
  5
40A
100
AcDbEntity
  8
0
100
AcDbSpline
 62
7
  6
BYLAYER
 70
0
 71
3
 72
10
 73
6
 74
0
 42
0.0000001
 43
0.0000001
 44
0.0000000001
 40
0.0
 40
0.0
 40
0.0
 40
0.0
 40
0.2412940887
 40
0.4902871145
 40
1.0
 40
1.0
 40
1.0
 40
1.0
 10
148.0940866433
 20
174.4142625968
 30
0.0
 10
147.8885105918
 20
174.4142625968
 30
0.0
 10
147.4710460029
 20
174.3721073412
 30
0.0
 10
146.6354378008
 20
174.2046348084
 30
0.0
 10
146.0123672542
 20
174.0303158542
 30
0.0
 10
145.5939000535
 20
173.9142625968
 30
0.0
  0
SPLINE
  5
40B
100
AcDbEntity
  8
0
100
AcDbSpline
 62
7
  6
BYLAYER
 70
0
 71
3
 72
10
 73
6
 74
0
 42
0.0000001
 43
0.0000001
 44
0.0000000001
 40
0.0
 40
0.0
 40
0.0
 40
0.0
 40
0.5097398684
 40
0.7587163388
 40
1.0
 40
1.0
 40
1.0
 40
1.0
 10
39.7495957413
 20
173.9157449381
 30
0.0
 10
39.3321818934
 20
174.0318996469
 30
0.0
 10
38.7107047563
 20
174.2063810731
 30
0.0
 10
37.8770836246
 20
174.3737323658
 30
0.0
 10
37.4606068394
 20
174.4157449381
 30
0.0
 10
37.2555181079
 20
174.4157449381
 30
0.0
  0
SPLINE
  5
40C
100
AcDbEntity
  8
0
100
AcDbSpline
 62
7
  6
BYLAYER
 70
0
 71
3
 72
13
 73
9
 74
0
 42
0.0000001
 43
0.0000001
 44
0.0000000001
 40
0.0
 40
0.0
 40
0.0
 40
0.0
 40
0.0176460991
 40
0.0683895125
 40
0.1513734612
 40
0.2657004445
 40
0.5824188277
 40
1.0
 40
1.0
 40
1.0
 40
1.0
 10
24.489318311
 20
116.9157449384
 30
0.0
 10
24.4893183122
 20
116.9147960882
 30
0.0
 10
24.4946496996
 20
116.9144483725
 30
0.0
 10
24.5003993652
 20
116.9104471756
 30
0.0
 10
24.5138291626
 20
116.9061511328
 30
0.0
 10
24.5389617162
 20
116.8957142858
 30
0.0
 10
24.5817679428
 20
116.8790208882
 30
0.0
 10
24.6182558118
 20
116.864215963
 30
0.0
 10
24.639086444
 20
116.8558339675
 30
0.0
  0
SPLINE
  5
40D
100
AcDbEntity
  8
0
100
AcDbSpline
 62
7
  6
BYLAYER
 70
0
 71
3
 72
9
 73
5
 74
0
 42
0.0000001
 43
0.0000001
 44
0.0000000001
 40
0.0
 40
0.0
 40
0.0
 40
0.0
 40
0.2187096336
 40
1.0
 40
1.0
 40
1.0
 40
1.0
 10
24.639086444
 20
116.8558339675
 30
0.0
 10
24.6645983272
 20
116.8455682929
 30
0.0
 10
24.7811692151
 20
116.7984439288
 30
0.0
 10
24.8986780244
 20
116.753623933
 30
0.0
 10
24.989318311
 20
116.7157449381
 30
0.0
  0
SPLINE
  5
40E
100
AcDbEntity
  8
0
100
AcDbSpline
 62
7
  6
BYLAYER
 70
0
 71
3
 72
9
 73
5
 74
0
 42
0.0000001
 43
0.0000001
 44
0.0000000001
 40
0.0
 40
0.0
 40
0.0
 40
0.0
 40
0.499900401
 40
1.0
 40
1.0
 40
1.0
 40
1.0
 10
28.1142732157
 20
52.3157449381
 30
0.0
 10
28.2006135806
 20
52.3157449381
 30
0.0
 10
28.3772657855
 20
52.2748426322
 30
0.0
 10
28.5074349427
 20
52.1470585695
 30
0.0
 10
28.5518743949
 20
52.0729928158
 30
0.0
  0
SPLINE
  5
40F
100
AcDbEntity
  8
0
100
AcDbSpline
 62
7
  6
BYLAYER
 70
0
 71
3
 72
9
 73
5
 74
0
 42
0.0000001
 43
0.0000001
 44
0.0000000001
 40
0.0
 40
0.0
 40
0.0
 40
0.0
 40
0.526439066
 40
1.0
 40
1.0
 40
1.0
 40
1.0
 10
159.489318311
 20
78.9157449381
 30
0.0
 10
159.4384824383
 20
78.9384794315
 30
0.0
 10
159.3426580876
 20
78.9808520998
 30
0.0
 10
159.2394126517
 20
79.0157449381
 30
0.0
 10
159.189318311
 20
79.0157449381
 30
0.0
  0
SPLINE
  5
410
100
AcDbEntity
  8
0
100
AcDbSpline
 62
7
  6
BYLAYER
 70
0
 71
3
 72
8
 73
4
 74
0
 42
0.0000001
 43
0.0000001
 44
0.0000000001
 40
0.0
 40
0.0
 40
0.0
 40
0.0
 40
1.0
 40
1.0
 40
1.0
 40
1.0
 10
29.6220433031
 20
50.2893779688
 30
0.0
 10
29.6665453868
 20
50.2152078295
 30
0.0
 10
29.689318311
 20
50.1252574761
 30
0.0
 10
29.689318311
 20
50.0387609732
 30
0.0
  0
SPLINE
  5
411
100
AcDbEntity
  8
0
100
AcDbSpline
 62
7
  6
BYLAYER
 70
0
 71
3
 72
13
 73
9
 74
0
 42
0.0000001
 43
0.0000001
 44
0.0000000001
 40
0.0
 40
0.0
 40
0.0
 40
0.0
 40
0.0176460992
 40
0.0683895126
 40
0.1513734613
 40
0.2657004446
 40
0.5824188278
 40
1.0
 40
1.0
 40
1.0
 40
1.0
 10
160.5893183113
 20
117.2157449381
 30
0.0
 10
160.5883694612
 20
117.215744937
 30
0.0
 10
160.5880217454
 20
117.2104135495
 30
0.0
 10
160.5840205485
 20
117.204663884
 30
0.0
 10
160.5797245057
 20
117.1912340865
 30
0.0
 10
160.5692876587
 20
117.1661015329
 30
0.0
 10
160.552594261
 20
117.1232953062
 30
0.0
 10
160.5377893358
 20
117.0868074371
 30
0.0
 10
160.5294073403
 20
117.0659768048
 30
0.0
  0
SPLINE
  5
412
100
AcDbEntity
  8
0
100
AcDbSpline
 62
7
  6
BYLAYER
 70
0
 71
3
 72
9
 73
5
 74
0
 42
0.0000001
 43
0.0000001
 44
0.0000000001
 40
0.0
 40
0.0
 40
0.0
 40
0.0
 40
0.2187096337
 40
1.0
 40
1.0
 40
1.0
 40
1.0
 10
160.5294073403
 20
117.0659768048
 30
0.0
 10
160.5191416657
 20
117.0404649216
 30
0.0
 10
160.4720173016
 20
116.9238940339
 30
0.0
 10
160.4271973059
 20
116.8063852247
 30
0.0
 10
160.389318311
 20
116.7157449381
 30
0.0
  0
ENDSEC
  0
SECTION
  2
OBJECTS
  0
DICTIONARY
  5
C
100
AcDbDictionary
280
0
281
1
  3
ACAD_GROUP
350
D
  3
ACAD_MLINESTYLE
350
17
  3
ACAD_LAYOUT
350
1A
  3
ACAD_PLOTSETTINGS
350
19
  3
ACAD_PLOTSTYLENAME
350
E
  0
DICTIONARY
  5
D
102
{ACAD_REACTORS
330
C
102
}
100
AcDbDictionary
280
0
281
1
  0
ACDBDICTIONARYWDFLT
  5
E
102
{ACAD_REACTORS
330
C
102
}
100
AcDbDictionary
281
1
  3
Normal
350
F
100
AcDbDictionaryWithDefault
340
F
  0
DICTIONARY
  5
17
102
{ACAD_REACTORS
330
C
102
}
100
AcDbDictionary
280
0
281
1
  3
Standard
350
18
  0
DICTIONARY
  5
19
102
{ACAD_REACTORS
330
C
102
}
100
AcDbDictionary
281
1
  0
DICTIONARY
  5
1A
102
{ACAD_REACTORS
330
C
102
}
100
AcDbDictionary
281
1
  3
Model
350
413
  3
Layout1
350
414
  0
ACDBPLACEHOLDER
  5
F
102
{ACAD_REACTORS
330
E
102
}
  0
MLINESTYLE
  5
18
102
{ACAD_REACTORS
330
17
102
}
100
AcDbMlineStyle
  2
STANDARD
 70
0
  3

 62
256
 51
90.0
 52
90.0
 71
2
 49
0.5
 62
256
  6
BYLAYER
 49
-0.5
 62
256
  6
BYLAYER
  0
LAYOUT
  5
413
102
{ACAD_REACTORS
330
1A
102
}
100
AcDbPlotSettings
  1

  2
none_device
  4

  6

 40
0.0
 41
0.0
 42
0.0
 43
0.0
 44
210.0
 45
297.0
 46
0.0
 47
0.0
 48
0.0
 49
0.0
140
0.0
141
0.0
142
1.0
143
1.0
 70
1024
 72
1
 73
0
 74
0
  7

 75
0
147
1.0
148
0.0
149
0.0
100
AcDbLayout
  1
Model
 70
0
 71
0
 10
0.0
 20
0.0
 11
210.0
 21
297.0
 12
0.0
 22
0.0
 32
0.0
 14
0.0
 24
0.0
 34
0.0
 15
0.0
 25
0.0
 35
0.0
146
0.0
 13
0.0
 23
0.0
 33
0.0
 16
1.0
 26
0.0
 36
0.0
 17
0.0
 27
1.0
 37
0.0
 76
0
330
210
345
0
346
0
  0
LAYOUT
  5
414
102
{ACAD_REACTORS
330
1A
102
}
100
AcDbPlotSettings
  1

  2
none_device
  4

  6

 40
0.0
 41
0.0
 42
0.0
 43
0.0
 44
210.0
 45
297.0
 46
0.0
 47
0.0
 48
0.0
 49
0.0
140
0.0
141
0.0
142
1.0
143
1.0
 70
0
 72
1
 73
0
 74
0
  7

 75
0
147
1.0
148
0.0
149
0.0
100
AcDbLayout
  1
Layout1
 70
0
 71
1
 10
0.0
 20
0.0
 11
210.0
 21
297.0
 12
0.0
 22
0.0
 32
0.0
 14
0.0
 24
0.0
 34
0.0
 15
0.0
 25
0.0
 35
0.0
146
0.0
 13
0.0
 23
0.0
 33
0.0
 16
1.0
 26
0.0
 36
0.0
 17
0.0
 27
1.0
 37
0.0
 76
0
330
211
345
0
346
0
  0
ENDSEC
  0
EOF
