999
DXF file: C:\Users\sesa63760\Dev\_Creo\CAD\MCADPP0003086_3D-CAD\drw0001_4.dxf
999
Pro/ENGINEER 2019471 by Parametric Technology Corporation
  0
SECTION
  2
HEADER
  9
$ACADVER
  1
AC1024
  9
$DWGCODEPAGE
  3
ANSI_1252
  9
$EXTMAX
 10
184.9935148903
 20
261.6336853448
 30
0.0
  9
$EXTMIN
 10
0.0
 20
0.0
 30
0.0
  9
$LIMMIN
 10
0.0
 20
0.0
  9
$LIMMAX
 10
184.9935148903
 20
261.6336853448
  9
$VIEWCTR
 10
92.4967574451
 20
130.8168426724
  9
$VIEWSIZE
 40
261.6336853448
  9
$CLAYER
  8
0
  9
$LTSCALE
 40
17.0546402299
  9
$CELTYPE
  6
BYLAYER
  9
$DIMSCALE
 40
1.0
  9
$DIMASZ
 40
2.2023037487
  9
$DIMEXO
 40
1.0
  9
$DIMDLI
 40
11.783205977
  9
$DIMEXE
 40
1.0
  9
$DIMCEN
 40
2.7907593103
  9
$DIMLFAC
 40
1.0
  9
$DIMBLK
  1
_FILLED
  9
$DIMALT
 70
0
  9
$DIMALTF
 40
0.0393700787
  9
$DIMTXT
 40
3.0832252482
  9
$DIMTOL
 70
1
  9
$DIMLIM
 70
0
  9
$DIMTFAC
 40
1.0
  9
$DIMTP
 40
0.01
  9
$DIMTM
 40
0.01
  9
$DIMGAP
 40
0.625
  9
$DIMDSEP
 70
46
  9
$AUNITS
 70
0
  9
$PDMODE
 70
3
  9
$PDSIZE
 40
0.3125
  9
$HANDSEED
  5
335
  9
$TILEMODE
 70
1
  9
$MEASUREMENT
 70
1
  9
$INSUNITS
 70
4
  0
ENDSEC
  0
SECTION
  2
CLASSES
  0
CLASS
  1
ACDBDICTIONARYWDFLT
  2
AcDbDictionaryWithDefault
  3
AutoCAD 2000
 90
0
 91
1
280
0
281
0
  0
CLASS
  1
ACDBPLACEHOLDER
  2
AcDbPlaceHolder
  3
AutoCAD 2000
 90
0
 91
1
280
0
281
0
  0
CLASS
  1
LAYOUT
  2
AcDbLayout
  3
AutoCAD 2000
 90
0
 91
0
280
0
281
0
  0
ENDSEC
  0
SECTION
  2
TABLES
  0
TABLE
  2
VPORT
  5
8
100
AcDbSymbolTable
 70
2
  0
VPORT
  5
1F4
100
AcDbSymbolTableRecord
100
AcDbViewportTableRecord
  2
*ACTIVE
 70
0
 10
0.0
 20
0.0
 11
1.0
 21
1.0
 12
92.4967574451
 22
130.8168426724
 13
0.0
 23
0.0
 14
1.0
 24
1.0
 15
0.0
 25
0.0
 16
0.0
 26
0.0
 36
1.0
 17
0.0
 27
0.0
 37
0.0
 40
261.6336853448
 41
0.7070707071
 42
50.0
 43
0.0
 44
0.0
 50
0.0
 51
0.0
 71
0
 72
100
 73
1
 74
1
 75
0
 76
0
 77
0
 78
0
  0
ENDTAB
  0
TABLE
  2
LTYPE
  5
5
100
AcDbSymbolTable
 70
6
  0
LTYPE
  5
14
100
AcDbSymbolTableRecord
100
AcDbLinetypeTableRecord
  2
BYBLOCK
 70
0
  3

 72
65
 73
0
 40
0.0
  0
LTYPE
  5
15
100
AcDbSymbolTableRecord
100
AcDbLinetypeTableRecord
  2
BYLAYER
 70
0
  3

 72
65
 73
0
 40
0.0
  0
LTYPE
  5
16
100
AcDbSymbolTableRecord
100
AcDbLinetypeTableRecord
  2
CONTINUOUS
 70
64
  3
Solid line
 72
65
 73
0
 40
0.0
  0
LTYPE
  5
1F5
100
AcDbSymbolTableRecord
100
AcDbLinetypeTableRecord
  2
CENTER
 70
64
  3
____ _ ____ _ ____ _ ____ _ ____ _ ____ _ ____
 72
65
 73
4
 40
0.6
 49
0.375
 74
0
 49
-0.075
 74
0
 49
0.075
 74
0
 49
-0.075
 74
0
  0
LTYPE
  5
1F6
100
AcDbSymbolTableRecord
100
AcDbLinetypeTableRecord
  2
HIDDEN
 70
64
  3
- - - - - - - - - - - - - - - - - - - -
 72
65
 73
2
 40
0.2
 49
0.1
 74
0
 49
-0.1
 74
0
  0
LTYPE
  5
1F7
100
AcDbSymbolTableRecord
100
AcDbLinetypeTableRecord
  2
PHANTOM
 70
64
  3
_____ _ _ _____ _ _ _____ _ _ _____
 72
65
 73
6
 40
0.8
 49
0.45
 74
0
 49
-0.05
 74
0
 49
0.1
 74
0
 49
-0.05
 74
0
 49
0.1
 74
0
 49
-0.05
 74
0
  0
LTYPE
  5
1F8
100
AcDbSymbolTableRecord
100
AcDbLinetypeTableRecord
  2
DOT
 70
64
  3
. . . . . . . . . . . . . . . . . . . .
 72
65
 73
2
 40
0.2
 49
0.1
 74
0
 49
-0.1
 74
0
  0
LTYPE
  5
1F9
100
AcDbSymbolTableRecord
100
AcDbLinetypeTableRecord
  2
DASHED
 70
64
  3
- - - - - - - - - - - - - - - - - - - -
 72
65
 73
2
 40
0.2
 49
0.1
 74
0
 49
-0.1
 74
0
  0
ENDTAB
  0
TABLE
  2
LAYER
  5
2
100
AcDbSymbolTable
 70
36
  0
LAYER
  5
10
100
AcDbSymbolTableRecord
100
AcDbLayerTableRecord
  2
0
 70
0
 62
7
  6
CONTINUOUS
370
-3
390
F
  0
LAYER
  5
1FA
100
AcDbSymbolTableRecord
100
AcDbLayerTableRecord
  2
DEFAULT_1
 70
0
 62
7
  6
CENTER
370
-3
390
F
  0
LAYER
  5
1FB
100
AcDbSymbolTableRecord
100
AcDbLayerTableRecord
  2
DEFAULT_2
 70
0
 62
8
  6
HIDDEN
370
-3
390
F
  0
LAYER
  5
1FC
100
AcDbSymbolTableRecord
100
AcDbLayerTableRecord
  2
DEFAULT_3
 70
0
 62
7
  6
PHANTOM
370
-3
390
F
  0
LAYER
  5
1FD
100
AcDbSymbolTableRecord
100
AcDbLayerTableRecord
  2
00_COMPONENTS
 70
0
 62
7
  6
CONTINUOUS
370
-3
390
F
  0
LAYER
  5
1FE
100
AcDbSymbolTableRecord
100
AcDbLayerTableRecord
  2
01_1_DEFAULT_DATUMS
 70
0
 62
7
  6
CONTINUOUS
370
-3
390
F
  0
LAYER
  5
1FF
100
AcDbSymbolTableRecord
100
AcDbLayerTableRecord
  2
01_PLANES
 70
0
 62
7
  6
CONTINUOUS
370
-3
390
F
  0
LAYER
  5
200
100
AcDbSymbolTableRecord
100
AcDbLayerTableRecord
  2
02_COORD_SYS
 70
0
 62
7
  6
CONTINUOUS
370
-3
390
F
  0
LAYER
  5
201
100
AcDbSymbolTableRecord
100
AcDbLayerTableRecord
  2
03_AXES
 70
0
 62
7
  6
CONTINUOUS
370
-3
390
F
  0
LAYER
  5
202
100
AcDbSymbolTableRecord
100
AcDbLayerTableRecord
  2
04_POINTS
 70
0
 62
7
  6
CONTINUOUS
370
-3
390
F
  0
LAYER
  5
203
100
AcDbSymbolTableRecord
100
AcDbLayerTableRecord
  2
05_CURVES
 70
0
 62
7
  6
CONTINUOUS
370
-3
390
F
  0
LAYER
  5
204
100
AcDbSymbolTableRecord
100
AcDbLayerTableRecord
  2
06_SURFS
 70
0
 62
7
  6
CONTINUOUS
370
-3
390
F
  0
LAYER
  5
205
100
AcDbSymbolTableRecord
100
AcDbLayerTableRecord
  2
07_COSMETICS
 70
0
 62
7
  6
CONTINUOUS
370
-3
390
F
  0
LAYER
  5
206
100
AcDbSymbolTableRecord
100
AcDbLayerTableRecord
  2
10_NOTES
 70
0
 62
7
  6
CONTINUOUS
370
-3
390
F
  0
LAYER
  5
207
100
AcDbSymbolTableRecord
100
AcDbLayerTableRecord
  2
11_NOTES_PUB
 70
0
 62
7
  6
CONTINUOUS
370
-3
390
F
  0
LAYER
  5
208
100
AcDbSymbolTableRecord
100
AcDbLayerTableRecord
  2
13_REF_GTOL
 70
0
 62
7
  6
CONTINUOUS
370
-3
390
F
  0
LAYER
  5
209
100
AcDbSymbolTableRecord
100
AcDbLayerTableRecord
  2
16_MISC
 70
0
 62
7
  6
CONTINUOUS
370
-3
390
F
  0
LAYER
  5
20A
100
AcDbSymbolTableRecord
100
AcDbLayerTableRecord
  2
17_NO_PRINT
 70
0
 62
7
  6
CONTINUOUS
370
-3
390
F
  0
LAYER
  5
20B
100
AcDbSymbolTableRecord
100
AcDbLayerTableRecord
  2
18_DATUM_CAMS_JOINTS
 70
0
 62
7
  6
CONTINUOUS
370
-3
390
F
  0
LAYER
  5
20C
100
AcDbSymbolTableRecord
100
AcDbLayerTableRecord
  2
19_DATUM_FUNCTIONAL
 70
0
 62
7
  6
CONTINUOUS
370
-3
390
F
  0
LAYER
  5
20D
100
AcDbSymbolTableRecord
100
AcDbLayerTableRecord
  2
20_DATUM_KINEMATIC_SCHEME
 70
0
 62
7
  6
CONTINUOUS
370
-3
390
F
  0
LAYER
  5
20E
100
AcDbSymbolTableRecord
100
AcDbLayerTableRecord
  2
SHELL3
 70
0
 62
7
  6
CONTINUOUS
370
-3
390
F
  0
ENDTAB
  0
TABLE
  2
STYLE
  5
3
100
AcDbSymbolTable
 70
1
  0
STYLE
  5
11
100
AcDbSymbolTableRecord
100
AcDbTextStyleTableRecord
  2
STANDARD
 70
0
 40
0.0
 41
0.8
 50
0.0
 71
0
 42
0.2
  3
txt
  4

  0
STYLE
  5
20F
100
AcDbSymbolTableRecord
100
AcDbTextStyleTableRecord
  2
TEXTSTYLE_1
 70
0
 40
0.0
 41
0.8
 50
0.0
 71
0
 42
0.2
  3
gdt
  4

  0
ENDTAB
  0
TABLE
  2
VIEW
  5
6
100
AcDbSymbolTable
 70
0
  0
ENDTAB
  0
TABLE
  2
UCS
  5
7
100
AcDbSymbolTable
 70
0
  0
ENDTAB
  0
TABLE
  2
APPID
  5
9
100
AcDbSymbolTable
 70
1
  0
APPID
  5
210
100
AcDbSymbolTableRecord
100
AcDbRegAppTableRecord
  2
ACAD
 70
0
  0
ENDTAB
  0
TABLE
  2
BLOCK_RECORD
  5
1
100
AcDbSymbolTable
 70
0
  0
BLOCK_RECORD
  5
211
100
AcDbSymbolTableRecord
100
AcDbBlockTableRecord
  2
*Model_Space
  0
BLOCK_RECORD
  5
212
100
AcDbSymbolTableRecord
100
AcDbBlockTableRecord
  2
*Paper_Space
  0
BLOCK_RECORD
  5
213
100
AcDbSymbolTableRecord
100
AcDbBlockTableRecord
  2
_FILLED
  0
ENDTAB
  0
TABLE
  2
DIMSTYLE
  5
A
100
AcDbSymbolTable
 70
1
100
AcDbDimStyleTable
 71
0
  0
DIMSTYLE
105
214
100
AcDbSymbolTableRecord
100
AcDbDimStyleTableRecord
  2
STANDARD
 70
0
  3

  4

 40
1.0
 41
2.2023037487
 42
1.0
 43
0.38
 44
1.0
 45
0.0
 46
0.0
 47
0.01
 48
0.01
140
3.0832252482
141
0.09
142
0.0
143
25.4
144
1.0
145
0.0
146
1.0
147
0.625
 71
1
 72
0
 73
0
 74
0
 75
0
 76
0
 77
1
 78
8
 79
2
170
0
171
1
172
0
173
0
174
0
175
0
176
0
177
0
178
0
270
2
179
2
271
2
272
2
273
2
274
2
275
0
280
0
281
0
282
0
283
1
284
8
285
0
286
0
287
3
288
0
340
11
278
46
341
213
342
213
343
213
344
213
  0
ENDTAB
  0
ENDSEC
  0
SECTION
  2
BLOCKS
  0
BLOCK
  5
20
100
AcDbEntity
  8
0
100
AcDbBlockBegin
  2
*Model_Space
 70
0
 10
0.0
 20
0.0
 30
0.0
  3
*Model_Space
  1

  0
ENDBLK
  5
21
100
AcDbEntity
  8
0
100
AcDbBlockEnd
  0
BLOCK
  5
1C
100
AcDbEntity
  8
0
100
AcDbBlockBegin
  2
*Paper_Space
 70
0
 10
0.0
 20
0.0
 30
0.0
  3
*Paper_Space
  1

  0
ENDBLK
  5
1D
100
AcDbEntity
  8
0
100
AcDbBlockEnd
  0
BLOCK
  5
215
100
AcDbEntity
  8
0
100
AcDbBlockBegin
  2
_FILLED
 70
64
 10
0.0
 20
0.0
  3
_FILLED
  1

  0
SOLID
  5
216
100
AcDbEntity
  8
0
  6
BYBLOCK
 62
0
100
AcDbTrace
 10
0.0
 20
0.0
 11
-1.0
 21
0.25
 12
-1.0
 22
-0.25
 13
-1.0
 23
-0.25
  0
ENDBLK
  5
217
100
AcDbEntity
  8
0
  6
BYBLOCK
 62
0
100
AcDbBlockEnd
  0
ENDSEC
  0
SECTION
  2
ENTITIES
  0
LINE
  5
218
100
AcDbEntity
  8
SHELL3
100
AcDbLine
 62
7
  6
CONTINUOUS
 10
20.6035354624
 20
169.64025
 11
20.6035354624
 21
90.3922500025
  0
LINE
  5
219
100
AcDbEntity
  8
SHELL3
100
AcDbLine
 62
7
  6
CONTINUOUS
 10
20.6289354624
 20
159.7342499975
 11
20.6289354624
 21
100.2982500025
  0
LINE
  5
21A
100
AcDbEntity
  8
SHELL3
100
AcDbLine
 62
7
  6
CONTINUOUS
 10
29.2395354624
 20
156.94025
 11
29.2395354624
 21
90.39225
  0
LINE
  5
21B
100
AcDbEntity
  8
SHELL3
100
AcDbLine
 62
7
  6
CONTINUOUS
 10
31.7795354624
 20
156.94025
 11
31.7795354624
 21
90.39225
  0
LINE
  5
21C
100
AcDbEntity
  8
SHELL3
100
AcDbLine
 62
7
  6
CONTINUOUS
 10
32.4780354624
 20
122.39625
 11
32.4780354624
 21
121.12625
  0
LINE
  5
21D
100
AcDbEntity
  8
SHELL3
100
AcDbLine
 62
7
  6
CONTINUOUS
 10
32.4780354624
 20
103.09225
 11
32.4780354624
 21
101.82225
  0
LINE
  5
21E
100
AcDbEntity
  8
SHELL3
100
AcDbLine
 62
7
  6
CONTINUOUS
 10
34.1554265815
 20
123.110625
 11
34.1554265815
 21
121.12625
  0
LINE
  5
21F
100
AcDbEntity
  8
SHELL3
100
AcDbLine
 62
7
  6
CONTINUOUS
 10
34.1554265815
 20
103.806625
 11
34.1554265815
 21
101.82225
  0
LINE
  5
220
100
AcDbEntity
  8
SHELL3
100
AcDbLine
 62
7
  6
CONTINUOUS
 10
35.301106022
 20
123.110625
 11
35.301106022
 21
121.12625
  0
LINE
  5
221
100
AcDbEntity
  8
SHELL3
100
AcDbLine
 62
7
  6
CONTINUOUS
 10
35.301106022
 20
103.806625
 11
35.301106022
 21
101.82225
  0
LINE
  5
222
100
AcDbEntity
  8
SHELL3
100
AcDbLine
 62
7
  6
CONTINUOUS
 10
37.5924649028
 20
123.110625
 11
37.5924649028
 21
121.12625
  0
LINE
  5
223
100
AcDbEntity
  8
SHELL3
100
AcDbLine
 62
7
  6
CONTINUOUS
 10
37.5924649028
 20
103.806625
 11
37.5924649028
 21
101.82225
  0
LINE
  5
224
100
AcDbEntity
  8
SHELL3
100
AcDbLine
 62
7
  6
CONTINUOUS
 10
38.7381443432
 20
123.110625
 11
38.7381443432
 21
121.12625
  0
LINE
  5
225
100
AcDbEntity
  8
SHELL3
100
AcDbLine
 62
7
  6
CONTINUOUS
 10
38.7381443432
 20
103.806625
 11
38.7381443432
 21
101.82225
  0
LINE
  5
226
100
AcDbEntity
  8
SHELL3
100
AcDbLine
 62
7
  6
CONTINUOUS
 10
40.4155354624
 20
122.39625
 11
40.4155354624
 21
121.12625
  0
LINE
  5
227
100
AcDbEntity
  8
SHELL3
100
AcDbLine
 62
7
  6
CONTINUOUS
 10
40.4155354624
 20
103.09225
 11
40.4155354624
 21
101.82225
  0
LINE
  5
228
100
AcDbEntity
  8
SHELL3
100
AcDbLine
 62
7
  6
CONTINUOUS
 10
42.1935354624
 20
122.39625
 11
42.1935354624
 21
121.12625
  0
LINE
  5
229
100
AcDbEntity
  8
SHELL3
100
AcDbLine
 62
7
  6
CONTINUOUS
 10
42.1935354624
 20
103.09225
 11
42.1935354624
 21
101.82225
  0
LINE
  5
22A
100
AcDbEntity
  8
SHELL3
100
AcDbLine
 62
7
  6
CONTINUOUS
 10
43.8709265815
 20
123.110625
 11
43.8709265815
 21
121.12625
  0
LINE
  5
22B
100
AcDbEntity
  8
SHELL3
100
AcDbLine
 62
7
  6
CONTINUOUS
 10
43.8709265815
 20
103.806625
 11
43.8709265815
 21
101.82225
  0
LINE
  5
22C
100
AcDbEntity
  8
SHELL3
100
AcDbLine
 62
7
  6
CONTINUOUS
 10
45.016606022
 20
123.110625
 11
45.016606022
 21
121.12625
  0
LINE
  5
22D
100
AcDbEntity
  8
SHELL3
100
AcDbLine
 62
7
  6
CONTINUOUS
 10
45.016606022
 20
103.806625
 11
45.016606022
 21
101.82225
  0
LINE
  5
22E
100
AcDbEntity
  8
SHELL3
100
AcDbLine
 62
7
  6
CONTINUOUS
 10
47.3079649028
 20
123.110625
 11
47.3079649028
 21
121.12625
  0
LINE
  5
22F
100
AcDbEntity
  8
SHELL3
100
AcDbLine
 62
7
  6
CONTINUOUS
 10
47.3079649028
 20
103.806625
 11
47.3079649028
 21
101.82225
  0
LINE
  5
230
100
AcDbEntity
  8
SHELL3
100
AcDbLine
 62
7
  6
CONTINUOUS
 10
48.4536443432
 20
123.110625
 11
48.4536443432
 21
121.12625
  0
LINE
  5
231
100
AcDbEntity
  8
SHELL3
100
AcDbLine
 62
7
  6
CONTINUOUS
 10
48.4536443432
 20
103.806625
 11
48.4536443432
 21
101.82225
  0
LINE
  5
232
100
AcDbEntity
  8
SHELL3
100
AcDbLine
 62
7
  6
CONTINUOUS
 10
50.1310354624
 20
122.39625
 11
50.1310354624
 21
121.12625
  0
LINE
  5
233
100
AcDbEntity
  8
SHELL3
100
AcDbLine
 62
7
  6
CONTINUOUS
 10
50.1310354624
 20
103.09225
 11
50.1310354624
 21
101.82225
  0
LINE
  5
234
100
AcDbEntity
  8
SHELL3
100
AcDbLine
 62
7
  6
CONTINUOUS
 10
50.4167854624
 20
103.09225
 11
50.4167854624
 21
101.82225
  0
LINE
  5
235
100
AcDbEntity
  8
SHELL3
100
AcDbLine
 62
7
  6
CONTINUOUS
 10
51.9090354624
 20
122.39625
 11
51.9090354624
 21
121.12625
  0
LINE
  5
236
100
AcDbEntity
  8
SHELL3
100
AcDbLine
 62
7
  6
CONTINUOUS
 10
51.9090354624
 20
103.09225
 11
51.9090354624
 21
101.82225
  0
LINE
  5
237
100
AcDbEntity
  8
SHELL3
100
AcDbLine
 62
7
  6
CONTINUOUS
 10
53.5864265815
 20
123.110625
 11
53.5864265815
 21
121.12625
  0
LINE
  5
238
100
AcDbEntity
  8
SHELL3
100
AcDbLine
 62
7
  6
CONTINUOUS
 10
53.5864265815
 20
103.806625
 11
53.5864265815
 21
101.82225
  0
LINE
  5
239
100
AcDbEntity
  8
SHELL3
100
AcDbLine
 62
7
  6
CONTINUOUS
 10
54.3855354624
 20
162.27425
 11
54.3855354624
 21
156.94025
  0
LINE
  5
23A
100
AcDbEntity
  8
SHELL3
100
AcDbLine
 62
7
  6
CONTINUOUS
 10
54.3855354624
 20
103.11765
 11
54.3855354624
 21
100.57765
  0
LINE
  5
23B
100
AcDbEntity
  8
SHELL3
100
AcDbLine
 62
7
  6
CONTINUOUS
 10
54.732106022
 20
123.110625
 11
54.732106022
 21
121.12625
  0
LINE
  5
23C
100
AcDbEntity
  8
SHELL3
100
AcDbLine
 62
7
  6
CONTINUOUS
 10
54.732106022
 20
103.806625
 11
54.732106022
 21
101.82225
  0
LINE
  5
23D
100
AcDbEntity
  8
SHELL3
100
AcDbLine
 62
7
  6
CONTINUOUS
 10
55.2362741484
 20
106.58475
 11
55.2362741484
 21
101.82225
  0
LINE
  5
23E
100
AcDbEntity
  8
SHELL3
100
AcDbLine
 62
7
  6
CONTINUOUS
 10
160.5575354624
 20
90.39225
 11
158.0175354624
 21
90.39225
  0
LINE
  5
23F
100
AcDbEntity
  8
SHELL3
100
AcDbLine
 62
7
  6
CONTINUOUS
 10
100.1055354624
 20
90.39225
 11
89.6915354624
 21
90.39225
  0
LINE
  5
240
100
AcDbEntity
  8
SHELL3
100
AcDbLine
 62
7
  6
CONTINUOUS
 10
31.7795354624
 20
90.39225
 11
20.6035354624
 21
90.3922500025
  0
LINE
  5
241
100
AcDbEntity
  8
SHELL3
100
AcDbLine
 62
7
  6
CONTINUOUS
 10
160.5575354624
 20
90.39225
 11
169.1935354624
 21
90.3922500025
  0
LINE
  5
242
100
AcDbEntity
  8
SHELL3
100
AcDbLine
 62
7
  6
CONTINUOUS
 10
57.0234649028
 20
123.110625
 11
57.0234649028
 21
121.12625
  0
LINE
  5
243
100
AcDbEntity
  8
SHELL3
100
AcDbLine
 62
7
  6
CONTINUOUS
 10
57.0234649028
 20
103.806625
 11
57.0234649028
 21
101.82225
  0
LINE
  5
244
100
AcDbEntity
  8
SHELL3
100
AcDbLine
 62
7
  6
CONTINUOUS
 10
57.4335354624
 20
162.27425
 11
57.4335354624
 21
169.64025
  0
LINE
  5
245
100
AcDbEntity
  8
SHELL3
100
AcDbLine
 62
7
  6
CONTINUOUS
 10
57.9859048054
 20
106.58475
 11
57.9859048054
 21
101.82225
  0
LINE
  5
246
100
AcDbEntity
  8
SHELL3
100
AcDbLine
 62
7
  6
CONTINUOUS
 10
58.1691443432
 20
123.110625
 11
58.1691443432
 21
121.12625
  0
LINE
  5
247
100
AcDbEntity
  8
SHELL3
100
AcDbLine
 62
7
  6
CONTINUOUS
 10
58.1691443432
 20
103.806625
 11
58.1691443432
 21
101.82225
  0
LINE
  5
248
100
AcDbEntity
  8
SHELL3
100
AcDbLine
 62
7
  6
CONTINUOUS
 10
59.8465354624
 20
122.39625
 11
59.8465354624
 21
121.12625
  0
LINE
  5
249
100
AcDbEntity
  8
SHELL3
100
AcDbLine
 62
7
  6
CONTINUOUS
 10
59.8465354624
 20
103.09225
 11
59.8465354624
 21
101.82225
  0
LINE
  5
24A
100
AcDbEntity
  8
SHELL3
100
AcDbLine
 62
7
  6
CONTINUOUS
 10
61.6245354624
 20
122.39625
 11
61.6245354624
 21
121.12625
  0
LINE
  5
24B
100
AcDbEntity
  8
SHELL3
100
AcDbLine
 62
7
  6
CONTINUOUS
 10
61.6245354624
 20
103.09225
 11
61.6245354624
 21
101.82225
  0
LINE
  5
24C
100
AcDbEntity
  8
SHELL3
100
AcDbLine
 62
7
  6
CONTINUOUS
 10
63.3019265815
 20
123.110625
 11
63.3019265815
 21
121.12625
  0
LINE
  5
24D
100
AcDbEntity
  8
SHELL3
100
AcDbLine
 62
7
  6
CONTINUOUS
 10
63.3019265815
 20
103.806625
 11
63.3019265815
 21
101.82225
  0
LINE
  5
24E
100
AcDbEntity
  8
SHELL3
100
AcDbLine
 62
7
  6
CONTINUOUS
 10
63.4851661194
 20
106.58475
 11
63.4851661194
 21
101.82225
  0
LINE
  5
24F
100
AcDbEntity
  8
SHELL3
100
AcDbLine
 62
7
  6
CONTINUOUS
 10
64.0375354624
 20
162.27425
 11
64.0375354624
 21
169.64025
  0
LINE
  5
250
100
AcDbEntity
  8
SHELL3
100
AcDbLine
 62
7
  6
CONTINUOUS
 10
64.447606022
 20
123.110625
 11
64.447606022
 21
121.12625
  0
LINE
  5
251
100
AcDbEntity
  8
SHELL3
100
AcDbLine
 62
7
  6
CONTINUOUS
 10
64.447606022
 20
103.806625
 11
64.447606022
 21
101.82225
  0
LINE
  5
252
100
AcDbEntity
  8
SHELL3
100
AcDbLine
 62
7
  6
CONTINUOUS
 10
66.2347967764
 20
106.58475
 11
66.2347967764
 21
101.82225
  0
LINE
  5
253
100
AcDbEntity
  8
SHELL3
100
AcDbLine
 62
7
  6
CONTINUOUS
 10
66.7389649028
 20
123.110625
 11
66.7389649028
 21
121.12625
  0
LINE
  5
254
100
AcDbEntity
  8
SHELL3
100
AcDbLine
 62
7
  6
CONTINUOUS
 10
66.7389649028
 20
103.806625
 11
66.7389649028
 21
101.82225
  0
LINE
  5
255
100
AcDbEntity
  8
SHELL3
100
AcDbLine
 62
7
  6
CONTINUOUS
 10
67.0855354624
 20
162.27425
 11
67.0855354624
 21
156.94025
  0
LINE
  5
256
100
AcDbEntity
  8
SHELL3
100
AcDbLine
 62
7
  6
CONTINUOUS
 10
67.0855354624
 20
103.11765
 11
67.0855354624
 21
100.57765
  0
LINE
  5
257
100
AcDbEntity
  8
SHELL3
100
AcDbLine
 62
7
  6
CONTINUOUS
 10
20.6289354624
 20
100.2982500025
 11
20.6035354624
 21
100.2982500025
  0
LINE
  5
258
100
AcDbEntity
  8
SHELL3
100
AcDbLine
 62
7
  6
CONTINUOUS
 10
135.4115354624
 20
100.57765
 11
122.7115354624
 21
100.57765
  0
LINE
  5
259
100
AcDbEntity
  8
SHELL3
100
AcDbLine
 62
7
  6
CONTINUOUS
 10
67.0855354624
 20
100.57765
 11
54.3855354624
 21
100.57765
  0
LINE
  5
25A
100
AcDbEntity
  8
SHELL3
100
AcDbLine
 62
7
  6
CONTINUOUS
 10
157.3190354624
 20
101.82225
 11
149.3815354624
 21
101.82225
  0
LINE
  5
25B
100
AcDbEntity
  8
SHELL3
100
AcDbLine
 62
7
  6
CONTINUOUS
 10
147.6035354624
 20
101.82225
 11
139.6660354624
 21
101.82225
  0
LINE
  5
25C
100
AcDbEntity
  8
SHELL3
100
AcDbLine
 62
7
  6
CONTINUOUS
 10
139.3802854624
 20
101.82225
 11
118.7427854624
 21
101.82225
  0
LINE
  5
25D
100
AcDbEntity
  8
SHELL3
100
AcDbLine
 62
7
  6
CONTINUOUS
 10
118.4570354624
 20
101.82225
 11
110.5195354624
 21
101.82225
  0
LINE
  5
25E
100
AcDbEntity
  8
SHELL3
100
AcDbLine
 62
7
  6
CONTINUOUS
 10
108.7415354624
 20
101.82225
 11
100.8040354624
 21
101.82225
  0
LINE
  5
25F
100
AcDbEntity
  8
SHELL3
100
AcDbLine
 62
7
  6
CONTINUOUS
 10
88.9930354624
 20
101.82225
 11
81.0555354624
 21
101.82225
  0
LINE
  5
260
100
AcDbEntity
  8
SHELL3
100
AcDbLine
 62
7
  6
CONTINUOUS
 10
79.2775354624
 20
101.82225
 11
71.3400354624
 21
101.82225
  0
LINE
  5
261
100
AcDbEntity
  8
SHELL3
100
AcDbLine
 62
7
  6
CONTINUOUS
 10
71.0542854624
 20
101.82225
 11
50.4167854624
 21
101.82225
  0
LINE
  5
262
100
AcDbEntity
  8
SHELL3
100
AcDbLine
 62
7
  6
CONTINUOUS
 10
50.1310354624
 20
101.82225
 11
42.1935354624
 21
101.82225
  0
LINE
  5
263
100
AcDbEntity
  8
SHELL3
100
AcDbLine
 62
7
  6
CONTINUOUS
 10
40.4155354624
 20
101.82225
 11
32.4780354624
 21
101.82225
  0
LINE
  5
264
100
AcDbEntity
  8
SHELL3
100
AcDbLine
 62
7
  6
CONTINUOUS
 10
67.8846443432
 20
123.110625
 11
67.8846443432
 21
121.12625
  0
LINE
  5
265
100
AcDbEntity
  8
SHELL3
100
AcDbLine
 62
7
  6
CONTINUOUS
 10
67.8846443432
 20
103.806625
 11
67.8846443432
 21
101.82225
  0
LINE
  5
266
100
AcDbEntity
  8
SHELL3
100
AcDbLine
 62
7
  6
CONTINUOUS
 10
69.5620354624
 20
122.39625
 11
69.5620354624
 21
121.12625
  0
LINE
  5
267
100
AcDbEntity
  8
SHELL3
100
AcDbLine
 62
7
  6
CONTINUOUS
 10
69.5620354624
 20
103.09225
 11
69.5620354624
 21
101.82225
  0
LINE
  5
268
100
AcDbEntity
  8
SHELL3
100
AcDbLine
 62
7
  6
CONTINUOUS
 10
71.0542854624
 20
103.09225
 11
71.0542854624
 21
101.82225
  0
LINE
  5
269
100
AcDbEntity
  8
SHELL3
100
AcDbLine
 62
7
  6
CONTINUOUS
 10
71.3400354624
 20
122.39625
 11
71.3400354624
 21
121.12625
  0
LINE
  5
26A
100
AcDbEntity
  8
SHELL3
100
AcDbLine
 62
7
  6
CONTINUOUS
 10
71.3400354624
 20
103.09225
 11
71.3400354624
 21
101.82225
  0
LINE
  5
26B
100
AcDbEntity
  8
SHELL3
100
AcDbLine
 62
7
  6
CONTINUOUS
 10
73.0174265815
 20
123.110625
 11
73.0174265815
 21
121.12625
  0
LINE
  5
26C
100
AcDbEntity
  8
SHELL3
100
AcDbLine
 62
7
  6
CONTINUOUS
 10
73.0174265815
 20
103.806625
 11
73.0174265815
 21
101.82225
  0
LINE
  5
26D
100
AcDbEntity
  8
SHELL3
100
AcDbLine
 62
7
  6
CONTINUOUS
 10
169.1935354624
 20
103.09225
 11
160.5575354624
 21
103.09225
  0
LINE
  5
26E
100
AcDbEntity
  8
SHELL3
100
AcDbLine
 62
7
  6
CONTINUOUS
 10
158.0175354624
 20
103.09225
 11
100.1055354624
 21
103.09225
  0
LINE
  5
26F
100
AcDbEntity
  8
SHELL3
100
AcDbLine
 62
7
  6
CONTINUOUS
 10
97.5655354624
 20
103.09225
 11
92.2315354624
 21
103.09225
  0
LINE
  5
270
100
AcDbEntity
  8
SHELL3
100
AcDbLine
 62
7
  6
CONTINUOUS
 10
89.6915354624
 20
103.09225
 11
31.7795354624
 21
103.09225
  0
LINE
  5
271
100
AcDbEntity
  8
SHELL3
100
AcDbLine
 62
7
  6
CONTINUOUS
 10
29.2395354624
 20
103.09225
 11
20.6035354624
 21
103.09225
  0
LINE
  5
272
100
AcDbEntity
  8
SHELL3
100
AcDbLine
 62
7
  6
CONTINUOUS
 10
158.0175354624
 20
103.11765
 11
100.1055354624
 21
103.11765
  0
LINE
  5
273
100
AcDbEntity
  8
SHELL3
100
AcDbLine
 62
7
  6
CONTINUOUS
 10
89.6915354624
 20
103.11765
 11
31.7795354624
 21
103.11765
  0
LINE
  5
274
100
AcDbEntity
  8
SHELL3
100
AcDbLine
 62
7
  6
CONTINUOUS
 10
155.6416443432
 20
103.806625
 11
151.0589265815
 21
103.806625
  0
LINE
  5
275
100
AcDbEntity
  8
SHELL3
100
AcDbLine
 62
7
  6
CONTINUOUS
 10
145.9261443432
 20
103.806625
 11
141.3434265815
 21
103.806625
  0
LINE
  5
276
100
AcDbEntity
  8
SHELL3
100
AcDbLine
 62
7
  6
CONTINUOUS
 10
136.2106443432
 20
103.806625
 11
131.6279265815
 21
103.806625
  0
LINE
  5
277
100
AcDbEntity
  8
SHELL3
100
AcDbLine
 62
7
  6
CONTINUOUS
 10
126.4951443432
 20
103.806625
 11
121.9124265815
 21
103.806625
  0
LINE
  5
278
100
AcDbEntity
  8
SHELL3
100
AcDbLine
 62
7
  6
CONTINUOUS
 10
116.7796443432
 20
103.806625
 11
112.1969265815
 21
103.806625
  0
LINE
  5
279
100
AcDbEntity
  8
SHELL3
100
AcDbLine
 62
7
  6
CONTINUOUS
 10
107.0641443432
 20
103.806625
 11
102.4814265815
 21
103.806625
  0
LINE
  5
27A
100
AcDbEntity
  8
SHELL3
100
AcDbLine
 62
7
  6
CONTINUOUS
 10
87.3156443432
 20
103.806625
 11
82.7329265815
 21
103.806625
  0
LINE
  5
27B
100
AcDbEntity
  8
SHELL3
100
AcDbLine
 62
7
  6
CONTINUOUS
 10
77.6001443432
 20
103.806625
 11
73.0174265815
 21
103.806625
  0
LINE
  5
27C
100
AcDbEntity
  8
SHELL3
100
AcDbLine
 62
7
  6
CONTINUOUS
 10
67.8846443432
 20
103.806625
 11
63.3019265815
 21
103.806625
  0
LINE
  5
27D
100
AcDbEntity
  8
SHELL3
100
AcDbLine
 62
7
  6
CONTINUOUS
 10
58.1691443432
 20
103.806625
 11
53.5864265815
 21
103.806625
  0
LINE
  5
27E
100
AcDbEntity
  8
SHELL3
100
AcDbLine
 62
7
  6
CONTINUOUS
 10
48.4536443432
 20
103.806625
 11
43.8709265815
 21
103.806625
  0
LINE
  5
27F
100
AcDbEntity
  8
SHELL3
100
AcDbLine
 62
7
  6
CONTINUOUS
 10
38.7381443432
 20
103.806625
 11
34.1554265815
 21
103.806625
  0
LINE
  5
280
100
AcDbEntity
  8
SHELL3
100
AcDbLine
 62
7
  6
CONTINUOUS
 10
134.5607967764
 20
106.58475
 11
123.5622741484
 21
106.58475
  0
LINE
  5
281
100
AcDbEntity
  8
SHELL3
100
AcDbLine
 62
7
  6
CONTINUOUS
 10
66.2347967764
 20
106.58475
 11
55.2362741484
 21
106.58475
  0
LINE
  5
282
100
AcDbEntity
  8
SHELL3
100
AcDbLine
 62
7
  6
CONTINUOUS
 10
74.163106022
 20
123.110625
 11
74.163106022
 21
121.12625
  0
LINE
  5
283
100
AcDbEntity
  8
SHELL3
100
AcDbLine
 62
7
  6
CONTINUOUS
 10
74.163106022
 20
103.806625
 11
74.163106022
 21
101.82225
  0
LINE
  5
284
100
AcDbEntity
  8
SHELL3
100
AcDbLine
 62
7
  6
CONTINUOUS
 10
76.4544649028
 20
123.110625
 11
76.4544649028
 21
121.12625
  0
LINE
  5
285
100
AcDbEntity
  8
SHELL3
100
AcDbLine
 62
7
  6
CONTINUOUS
 10
76.4544649028
 20
103.806625
 11
76.4544649028
 21
101.82225
  0
LINE
  5
286
100
AcDbEntity
  8
SHELL3
100
AcDbLine
 62
7
  6
CONTINUOUS
 10
77.6001443432
 20
123.110625
 11
77.6001443432
 21
121.12625
  0
LINE
  5
287
100
AcDbEntity
  8
SHELL3
100
AcDbLine
 62
7
  6
CONTINUOUS
 10
77.6001443432
 20
103.806625
 11
77.6001443432
 21
101.82225
  0
LINE
  5
288
100
AcDbEntity
  8
SHELL3
100
AcDbLine
 62
7
  6
CONTINUOUS
 10
20.6289354624
 20
109.18825
 11
20.6035354624
 21
109.18825
  0
LINE
  5
289
100
AcDbEntity
  8
SHELL3
100
AcDbLine
 62
7
  6
CONTINUOUS
 10
79.2775354624
 20
122.39625
 11
79.2775354624
 21
121.12625
  0
LINE
  5
28A
100
AcDbEntity
  8
SHELL3
100
AcDbLine
 62
7
  6
CONTINUOUS
 10
79.2775354624
 20
103.09225
 11
79.2775354624
 21
101.82225
  0
LINE
  5
28B
100
AcDbEntity
  8
SHELL3
100
AcDbLine
 62
7
  6
CONTINUOUS
 10
81.0555354624
 20
122.39625
 11
81.0555354624
 21
121.12625
  0
LINE
  5
28C
100
AcDbEntity
  8
SHELL3
100
AcDbLine
 62
7
  6
CONTINUOUS
 10
81.0555354624
 20
103.09225
 11
81.0555354624
 21
101.82225
  0
LINE
  5
28D
100
AcDbEntity
  8
SHELL3
100
AcDbLine
 62
7
  6
CONTINUOUS
 10
82.7329265815
 20
123.110625
 11
82.7329265815
 21
121.12625
  0
LINE
  5
28E
100
AcDbEntity
  8
SHELL3
100
AcDbLine
 62
7
  6
CONTINUOUS
 10
82.7329265815
 20
103.806625
 11
82.7329265815
 21
101.82225
  0
LINE
  5
28F
100
AcDbEntity
  8
SHELL3
100
AcDbLine
 62
7
  6
CONTINUOUS
 10
83.878606022
 20
123.110625
 11
83.878606022
 21
121.12625
  0
LINE
  5
290
100
AcDbEntity
  8
SHELL3
100
AcDbLine
 62
7
  6
CONTINUOUS
 10
83.878606022
 20
103.806625
 11
83.878606022
 21
101.82225
  0
LINE
  5
291
100
AcDbEntity
  8
SHELL3
100
AcDbLine
 62
7
  6
CONTINUOUS
 10
86.1699649028
 20
123.110625
 11
86.1699649028
 21
121.12625
  0
LINE
  5
292
100
AcDbEntity
  8
SHELL3
100
AcDbLine
 62
7
  6
CONTINUOUS
 10
86.1699649028
 20
103.806625
 11
86.1699649028
 21
101.82225
  0
LINE
  5
293
100
AcDbEntity
  8
SHELL3
100
AcDbLine
 62
7
  6
CONTINUOUS
 10
87.3156443432
 20
123.110625
 11
87.3156443432
 21
121.12625
  0
LINE
  5
294
100
AcDbEntity
  8
SHELL3
100
AcDbLine
 62
7
  6
CONTINUOUS
 10
87.3156443432
 20
103.806625
 11
87.3156443432
 21
101.82225
  0
LINE
  5
295
100
AcDbEntity
  8
SHELL3
100
AcDbLine
 62
7
  6
CONTINUOUS
 10
88.9930354624
 20
122.39625
 11
88.9930354624
 21
121.12625
  0
LINE
  5
296
100
AcDbEntity
  8
SHELL3
100
AcDbLine
 62
7
  6
CONTINUOUS
 10
88.9930354624
 20
103.09225
 11
88.9930354624
 21
101.82225
  0
LINE
  5
297
100
AcDbEntity
  8
SHELL3
100
AcDbLine
 62
7
  6
CONTINUOUS
 10
89.6915354624
 20
156.94025
 11
89.6915354624
 21
90.39225
  0
LINE
  5
298
100
AcDbEntity
  8
SHELL3
100
AcDbLine
 62
7
  6
CONTINUOUS
 10
157.3190354624
 20
121.12625
 11
149.3815354624
 21
121.12625
  0
LINE
  5
299
100
AcDbEntity
  8
SHELL3
100
AcDbLine
 62
7
  6
CONTINUOUS
 10
147.6035354624
 20
121.12625
 11
139.6660354624
 21
121.12625
  0
LINE
  5
29A
100
AcDbEntity
  8
SHELL3
100
AcDbLine
 62
7
  6
CONTINUOUS
 10
137.8880354624
 20
121.12625
 11
129.9505354624
 21
121.12625
  0
LINE
  5
29B
100
AcDbEntity
  8
SHELL3
100
AcDbLine
 62
7
  6
CONTINUOUS
 10
128.1725354624
 20
121.12625
 11
120.2350354624
 21
121.12625
  0
LINE
  5
29C
100
AcDbEntity
  8
SHELL3
100
AcDbLine
 62
7
  6
CONTINUOUS
 10
118.4570354624
 20
121.12625
 11
110.5195354624
 21
121.12625
  0
LINE
  5
29D
100
AcDbEntity
  8
SHELL3
100
AcDbLine
 62
7
  6
CONTINUOUS
 10
108.7415354624
 20
121.12625
 11
100.8040354624
 21
121.12625
  0
LINE
  5
29E
100
AcDbEntity
  8
SHELL3
100
AcDbLine
 62
7
  6
CONTINUOUS
 10
88.9930354624
 20
121.12625
 11
81.0555354624
 21
121.12625
  0
LINE
  5
29F
100
AcDbEntity
  8
SHELL3
100
AcDbLine
 62
7
  6
CONTINUOUS
 10
79.2775354624
 20
121.12625
 11
71.3400354624
 21
121.12625
  0
LINE
  5
2A0
100
AcDbEntity
  8
SHELL3
100
AcDbLine
 62
7
  6
CONTINUOUS
 10
69.5620354624
 20
121.12625
 11
61.6245354624
 21
121.12625
  0
LINE
  5
2A1
100
AcDbEntity
  8
SHELL3
100
AcDbLine
 62
7
  6
CONTINUOUS
 10
59.8465354624
 20
121.12625
 11
51.9090354624
 21
121.12625
  0
LINE
  5
2A2
100
AcDbEntity
  8
SHELL3
100
AcDbLine
 62
7
  6
CONTINUOUS
 10
50.1310354624
 20
121.12625
 11
42.1935354624
 21
121.12625
  0
LINE
  5
2A3
100
AcDbEntity
  8
SHELL3
100
AcDbLine
 62
7
  6
CONTINUOUS
 10
40.4155354624
 20
121.12625
 11
32.4780354624
 21
121.12625
  0
LINE
  5
2A4
100
AcDbEntity
  8
SHELL3
100
AcDbLine
 62
7
  6
CONTINUOUS
 10
158.0175354624
 20
122.39625
 11
100.1055354624
 21
122.39625
  0
LINE
  5
2A5
100
AcDbEntity
  8
SHELL3
100
AcDbLine
 62
7
  6
CONTINUOUS
 10
89.6915354624
 20
122.39625
 11
31.7795354624
 21
122.39625
  0
LINE
  5
2A6
100
AcDbEntity
  8
SHELL3
100
AcDbLine
 62
7
  6
CONTINUOUS
 10
155.6416443432
 20
123.110625
 11
151.0589265815
 21
123.110625
  0
LINE
  5
2A7
100
AcDbEntity
  8
SHELL3
100
AcDbLine
 62
7
  6
CONTINUOUS
 10
145.9261443432
 20
123.110625
 11
141.3434265815
 21
123.110625
  0
LINE
  5
2A8
100
AcDbEntity
  8
SHELL3
100
AcDbLine
 62
7
  6
CONTINUOUS
 10
136.2106443432
 20
123.110625
 11
131.6279265815
 21
123.110625
  0
LINE
  5
2A9
100
AcDbEntity
  8
SHELL3
100
AcDbLine
 62
7
  6
CONTINUOUS
 10
126.4951443432
 20
123.110625
 11
121.9124265815
 21
123.110625
  0
LINE
  5
2AA
100
AcDbEntity
  8
SHELL3
100
AcDbLine
 62
7
  6
CONTINUOUS
 10
116.7796443432
 20
123.110625
 11
112.1969265815
 21
123.110625
  0
LINE
  5
2AB
100
AcDbEntity
  8
SHELL3
100
AcDbLine
 62
7
  6
CONTINUOUS
 10
107.0641443432
 20
123.110625
 11
102.4814265815
 21
123.110625
  0
LINE
  5
2AC
100
AcDbEntity
  8
SHELL3
100
AcDbLine
 62
7
  6
CONTINUOUS
 10
87.3156443432
 20
123.110625
 11
82.7329265815
 21
123.110625
  0
LINE
  5
2AD
100
AcDbEntity
  8
SHELL3
100
AcDbLine
 62
7
  6
CONTINUOUS
 10
77.6001443432
 20
123.110625
 11
73.0174265815
 21
123.110625
  0
LINE
  5
2AE
100
AcDbEntity
  8
SHELL3
100
AcDbLine
 62
7
  6
CONTINUOUS
 10
67.8846443432
 20
123.110625
 11
63.3019265815
 21
123.110625
  0
LINE
  5
2AF
100
AcDbEntity
  8
SHELL3
100
AcDbLine
 62
7
  6
CONTINUOUS
 10
58.1691443432
 20
123.110625
 11
53.5864265815
 21
123.110625
  0
LINE
  5
2B0
100
AcDbEntity
  8
SHELL3
100
AcDbLine
 62
7
  6
CONTINUOUS
 10
48.4536443432
 20
123.110625
 11
43.8709265815
 21
123.110625
  0
LINE
  5
2B1
100
AcDbEntity
  8
SHELL3
100
AcDbLine
 62
7
  6
CONTINUOUS
 10
38.7381443432
 20
123.110625
 11
34.1554265815
 21
123.110625
  0
LINE
  5
2B2
100
AcDbEntity
  8
SHELL3
100
AcDbLine
 62
7
  6
CONTINUOUS
 10
92.2315354624
 20
156.94025
 11
92.2315354624
 21
90.39225
  0
LINE
  5
2B3
100
AcDbEntity
  8
SHELL3
100
AcDbLine
 62
7
  6
CONTINUOUS
 10
97.5655354624
 20
156.94025
 11
97.5655354624
 21
90.39225
  0
LINE
  5
2B4
100
AcDbEntity
  8
SHELL3
100
AcDbLine
 62
7
  6
CONTINUOUS
 10
100.1055354624
 20
156.94025
 11
100.1055354624
 21
103.11765
  0
LINE
  5
2B5
100
AcDbEntity
  8
SHELL3
100
AcDbLine
 62
7
  6
CONTINUOUS
 10
100.1055354624
 20
103.11765
 11
100.1055354624
 21
90.39225
  0
LINE
  5
2B6
100
AcDbEntity
  8
SHELL3
100
AcDbLine
 62
7
  6
CONTINUOUS
 10
100.8040354624
 20
122.39625
 11
100.8040354624
 21
121.12625
  0
LINE
  5
2B7
100
AcDbEntity
  8
SHELL3
100
AcDbLine
 62
7
  6
CONTINUOUS
 10
100.8040354624
 20
103.09225
 11
100.8040354624
 21
101.82225
  0
LINE
  5
2B8
100
AcDbEntity
  8
SHELL3
100
AcDbLine
 62
7
  6
CONTINUOUS
 10
102.4814265815
 20
123.110625
 11
102.4814265815
 21
121.12625
  0
LINE
  5
2B9
100
AcDbEntity
  8
SHELL3
100
AcDbLine
 62
7
  6
CONTINUOUS
 10
102.4814265815
 20
103.806625
 11
102.4814265815
 21
101.82225
  0
LINE
  5
2BA
100
AcDbEntity
  8
SHELL3
100
AcDbLine
 62
7
  6
CONTINUOUS
 10
103.627106022
 20
123.110625
 11
103.627106022
 21
121.12625
  0
LINE
  5
2BB
100
AcDbEntity
  8
SHELL3
100
AcDbLine
 62
7
  6
CONTINUOUS
 10
103.627106022
 20
103.806625
 11
103.627106022
 21
101.82225
  0
LINE
  5
2BC
100
AcDbEntity
  8
SHELL3
100
AcDbLine
 62
7
  6
CONTINUOUS
 10
105.9184649028
 20
123.110625
 11
105.9184649028
 21
121.12625
  0
LINE
  5
2BD
100
AcDbEntity
  8
SHELL3
100
AcDbLine
 62
7
  6
CONTINUOUS
 10
105.9184649028
 20
103.806625
 11
105.9184649028
 21
101.82225
  0
LINE
  5
2BE
100
AcDbEntity
  8
SHELL3
100
AcDbLine
 62
7
  6
CONTINUOUS
 10
158.0175354624
 20
141.70025
 11
100.1055354624
 21
141.70025
  0
LINE
  5
2BF
100
AcDbEntity
  8
SHELL3
100
AcDbLine
 62
7
  6
CONTINUOUS
 10
89.6915354624
 20
141.70025
 11
31.7795354624
 21
141.70025
  0
LINE
  5
2C0
100
AcDbEntity
  8
SHELL3
100
AcDbLine
 62
7
  6
CONTINUOUS
 10
107.0641443432
 20
123.110625
 11
107.0641443432
 21
121.12625
  0
LINE
  5
2C1
100
AcDbEntity
  8
SHELL3
100
AcDbLine
 62
7
  6
CONTINUOUS
 10
107.0641443432
 20
103.806625
 11
107.0641443432
 21
101.82225
  0
LINE
  5
2C2
100
AcDbEntity
  8
SHELL3
100
AcDbLine
 62
7
  6
CONTINUOUS
 10
108.7415354624
 20
122.39625
 11
108.7415354624
 21
121.12625
  0
LINE
  5
2C3
100
AcDbEntity
  8
SHELL3
100
AcDbLine
 62
7
  6
CONTINUOUS
 10
108.7415354624
 20
103.09225
 11
108.7415354624
 21
101.82225
  0
LINE
  5
2C4
100
AcDbEntity
  8
SHELL3
100
AcDbLine
 62
7
  6
CONTINUOUS
 10
110.5195354624
 20
122.39625
 11
110.5195354624
 21
121.12625
  0
LINE
  5
2C5
100
AcDbEntity
  8
SHELL3
100
AcDbLine
 62
7
  6
CONTINUOUS
 10
110.5195354624
 20
103.09225
 11
110.5195354624
 21
101.82225
  0
LINE
  5
2C6
100
AcDbEntity
  8
SHELL3
100
AcDbLine
 62
7
  6
CONTINUOUS
 10
112.1969265815
 20
123.110625
 11
112.1969265815
 21
121.12625
  0
LINE
  5
2C7
100
AcDbEntity
  8
SHELL3
100
AcDbLine
 62
7
  6
CONTINUOUS
 10
112.1969265815
 20
103.806625
 11
112.1969265815
 21
101.82225
  0
LINE
  5
2C8
100
AcDbEntity
  8
SHELL3
100
AcDbLine
 62
7
  6
CONTINUOUS
 10
113.342606022
 20
123.110625
 11
113.342606022
 21
121.12625
  0
LINE
  5
2C9
100
AcDbEntity
  8
SHELL3
100
AcDbLine
 62
7
  6
CONTINUOUS
 10
113.342606022
 20
103.806625
 11
113.342606022
 21
101.82225
  0
LINE
  5
2CA
100
AcDbEntity
  8
SHELL3
100
AcDbLine
 62
7
  6
CONTINUOUS
 10
115.6339649028
 20
123.110625
 11
115.6339649028
 21
121.12625
  0
LINE
  5
2CB
100
AcDbEntity
  8
SHELL3
100
AcDbLine
 62
7
  6
CONTINUOUS
 10
115.6339649028
 20
103.806625
 11
115.6339649028
 21
101.82225
  0
LINE
  5
2CC
100
AcDbEntity
  8
SHELL3
100
AcDbLine
 62
7
  6
CONTINUOUS
 10
116.7796443432
 20
123.110625
 11
116.7796443432
 21
121.12625
  0
LINE
  5
2CD
100
AcDbEntity
  8
SHELL3
100
AcDbLine
 62
7
  6
CONTINUOUS
 10
116.7796443432
 20
103.806625
 11
116.7796443432
 21
101.82225
  0
LINE
  5
2CE
100
AcDbEntity
  8
SHELL3
100
AcDbLine
 62
7
  6
CONTINUOUS
 10
20.6289354624
 20
150.84425
 11
20.6035354624
 21
150.84425
  0
LINE
  5
2CF
100
AcDbEntity
  8
SHELL3
100
AcDbLine
 62
7
  6
CONTINUOUS
 10
118.4570354624
 20
122.39625
 11
118.4570354624
 21
121.12625
  0
LINE
  5
2D0
100
AcDbEntity
  8
SHELL3
100
AcDbLine
 62
7
  6
CONTINUOUS
 10
118.4570354624
 20
103.09225
 11
118.4570354624
 21
101.82225
  0
LINE
  5
2D1
100
AcDbEntity
  8
SHELL3
100
AcDbLine
 62
7
  6
CONTINUOUS
 10
118.7427854624
 20
103.09225
 11
118.7427854624
 21
101.82225
  0
LINE
  5
2D2
100
AcDbEntity
  8
SHELL3
100
AcDbLine
 62
7
  6
CONTINUOUS
 10
120.2350354624
 20
122.39625
 11
120.2350354624
 21
121.12625
  0
LINE
  5
2D3
100
AcDbEntity
  8
SHELL3
100
AcDbLine
 62
7
  6
CONTINUOUS
 10
120.2350354624
 20
103.09225
 11
120.2350354624
 21
101.82225
  0
LINE
  5
2D4
100
AcDbEntity
  8
SHELL3
100
AcDbLine
 62
7
  6
CONTINUOUS
 10
121.9124265815
 20
123.110625
 11
121.9124265815
 21
121.12625
  0
LINE
  5
2D5
100
AcDbEntity
  8
SHELL3
100
AcDbLine
 62
7
  6
CONTINUOUS
 10
121.9124265815
 20
103.806625
 11
121.9124265815
 21
101.82225
  0
LINE
  5
2D6
100
AcDbEntity
  8
SHELL3
100
AcDbLine
 62
7
  6
CONTINUOUS
 10
122.7115354624
 20
162.27425
 11
122.7115354624
 21
156.94025
  0
LINE
  5
2D7
100
AcDbEntity
  8
SHELL3
100
AcDbLine
 62
7
  6
CONTINUOUS
 10
122.7115354624
 20
103.11765
 11
122.7115354624
 21
100.57765
  0
LINE
  5
2D8
100
AcDbEntity
  8
SHELL3
100
AcDbLine
 62
7
  6
CONTINUOUS
 10
123.058106022
 20
123.110625
 11
123.058106022
 21
121.12625
  0
LINE
  5
2D9
100
AcDbEntity
  8
SHELL3
100
AcDbLine
 62
7
  6
CONTINUOUS
 10
123.058106022
 20
103.806625
 11
123.058106022
 21
101.82225
  0
LINE
  5
2DA
100
AcDbEntity
  8
SHELL3
100
AcDbLine
 62
7
  6
CONTINUOUS
 10
123.5622741484
 20
106.58475
 11
123.5622741484
 21
101.82225
  0
LINE
  5
2DB
100
AcDbEntity
  8
SHELL3
100
AcDbLine
 62
7
  6
CONTINUOUS
 10
160.5575354624
 20
156.94025
 11
158.0175354624
 21
156.94025
  0
LINE
  5
2DC
100
AcDbEntity
  8
SHELL3
100
AcDbLine
 62
7
  6
CONTINUOUS
 10
158.0175354624
 20
156.94025
 11
97.5655354624
 21
156.94025
  0
LINE
  5
2DD
100
AcDbEntity
  8
SHELL3
100
AcDbLine
 62
7
  6
CONTINUOUS
 10
92.2315354624
 20
156.94025
 11
29.2395354624
 21
156.94025
  0
LINE
  5
2DE
100
AcDbEntity
  8
SHELL3
100
AcDbLine
 62
7
  6
CONTINUOUS
 10
125.3494649028
 20
123.110625
 11
125.3494649028
 21
121.12625
  0
LINE
  5
2DF
100
AcDbEntity
  8
SHELL3
100
AcDbLine
 62
7
  6
CONTINUOUS
 10
125.3494649028
 20
103.806625
 11
125.3494649028
 21
101.82225
  0
LINE
  5
2E0
100
AcDbEntity
  8
SHELL3
100
AcDbLine
 62
7
  6
CONTINUOUS
 10
125.7595354624
 20
162.27425
 11
125.7595354624
 21
169.64025
  0
LINE
  5
2E1
100
AcDbEntity
  8
SHELL3
100
AcDbLine
 62
7
  6
CONTINUOUS
 10
126.3119048054
 20
106.58475
 11
126.3119048054
 21
101.82225
  0
LINE
  5
2E2
100
AcDbEntity
  8
SHELL3
100
AcDbLine
 62
7
  6
CONTINUOUS
 10
126.4951443432
 20
123.110625
 11
126.4951443432
 21
121.12625
  0
LINE
  5
2E3
100
AcDbEntity
  8
SHELL3
100
AcDbLine
 62
7
  6
CONTINUOUS
 10
126.4951443432
 20
103.806625
 11
126.4951443432
 21
101.82225
  0
LINE
  5
2E4
100
AcDbEntity
  8
SHELL3
100
AcDbLine
 62
7
  6
CONTINUOUS
 10
128.1725354624
 20
122.39625
 11
128.1725354624
 21
121.12625
  0
LINE
  5
2E5
100
AcDbEntity
  8
SHELL3
100
AcDbLine
 62
7
  6
CONTINUOUS
 10
128.1725354624
 20
103.09225
 11
128.1725354624
 21
101.82225
  0
LINE
  5
2E6
100
AcDbEntity
  8
SHELL3
100
AcDbLine
 62
7
  6
CONTINUOUS
 10
20.6289354624
 20
159.7342499975
 11
20.6035354624
 21
159.7342499975
  0
LINE
  5
2E7
100
AcDbEntity
  8
SHELL3
100
AcDbLine
 62
7
  6
CONTINUOUS
 10
135.4115354624
 20
162.27425
 11
122.7115354624
 21
162.27425
  0
LINE
  5
2E8
100
AcDbEntity
  8
SHELL3
100
AcDbLine
 62
7
  6
CONTINUOUS
 10
67.0855354624
 20
162.27425
 11
54.3855354624
 21
162.27425
  0
LINE
  5
2E9
100
AcDbEntity
  8
SHELL3
100
AcDbLine
 62
7
  6
CONTINUOUS
 10
129.9505354624
 20
122.39625
 11
129.9505354624
 21
121.12625
  0
LINE
  5
2EA
100
AcDbEntity
  8
SHELL3
100
AcDbLine
 62
7
  6
CONTINUOUS
 10
129.9505354624
 20
103.09225
 11
129.9505354624
 21
101.82225
  0
LINE
  5
2EB
100
AcDbEntity
  8
SHELL3
100
AcDbLine
 62
7
  6
CONTINUOUS
 10
131.6279265815
 20
123.110625
 11
131.6279265815
 21
121.12625
  0
LINE
  5
2EC
100
AcDbEntity
  8
SHELL3
100
AcDbLine
 62
7
  6
CONTINUOUS
 10
131.6279265815
 20
103.806625
 11
131.6279265815
 21
101.82225
  0
LINE
  5
2ED
100
AcDbEntity
  8
SHELL3
100
AcDbLine
 62
7
  6
CONTINUOUS
 10
131.8111661194
 20
106.58475
 11
131.8111661194
 21
101.82225
  0
LINE
  5
2EE
100
AcDbEntity
  8
SHELL3
100
AcDbLine
 62
7
  6
CONTINUOUS
 10
132.3635354624
 20
162.27425
 11
132.3635354624
 21
169.64025
  0
LINE
  5
2EF
100
AcDbEntity
  8
SHELL3
100
AcDbLine
 62
7
  6
CONTINUOUS
 10
132.773606022
 20
123.110625
 11
132.773606022
 21
121.12625
  0
LINE
  5
2F0
100
AcDbEntity
  8
SHELL3
100
AcDbLine
 62
7
  6
CONTINUOUS
 10
132.773606022
 20
103.806625
 11
132.773606022
 21
101.82225
  0
LINE
  5
2F1
100
AcDbEntity
  8
SHELL3
100
AcDbLine
 62
7
  6
CONTINUOUS
 10
134.5607967764
 20
106.58475
 11
134.5607967764
 21
101.82225
  0
LINE
  5
2F2
100
AcDbEntity
  8
SHELL3
100
AcDbLine
 62
7
  6
CONTINUOUS
 10
169.1935354624
 20
169.64025
 11
20.6035354624
 21
169.64025
  0
LINE
  5
2F3
100
AcDbEntity
  8
SHELL3
100
AcDbLine
 62
7
  6
CONTINUOUS
 10
135.0649649028
 20
123.110625
 11
135.0649649028
 21
121.12625
  0
LINE
  5
2F4
100
AcDbEntity
  8
SHELL3
100
AcDbLine
 62
7
  6
CONTINUOUS
 10
135.0649649028
 20
103.806625
 11
135.0649649028
 21
101.82225
  0
LINE
  5
2F5
100
AcDbEntity
  8
SHELL3
100
AcDbLine
 62
7
  6
CONTINUOUS
 10
135.4115354624
 20
162.27425
 11
135.4115354624
 21
156.94025
  0
LINE
  5
2F6
100
AcDbEntity
  8
SHELL3
100
AcDbLine
 62
7
  6
CONTINUOUS
 10
135.4115354624
 20
103.11765
 11
135.4115354624
 21
100.57765
  0
LINE
  5
2F7
100
AcDbEntity
  8
SHELL3
100
AcDbLine
 62
7
  6
CONTINUOUS
 10
136.2106443432
 20
123.110625
 11
136.2106443432
 21
121.12625
  0
LINE
  5
2F8
100
AcDbEntity
  8
SHELL3
100
AcDbLine
 62
7
  6
CONTINUOUS
 10
136.2106443432
 20
103.806625
 11
136.2106443432
 21
101.82225
  0
LINE
  5
2F9
100
AcDbEntity
  8
SHELL3
100
AcDbLine
 62
7
  6
CONTINUOUS
 10
137.8880354624
 20
122.39625
 11
137.8880354624
 21
121.12625
  0
LINE
  5
2FA
100
AcDbEntity
  8
SHELL3
100
AcDbLine
 62
7
  6
CONTINUOUS
 10
137.8880354624
 20
103.09225
 11
137.8880354624
 21
101.82225
  0
LINE
  5
2FB
100
AcDbEntity
  8
SHELL3
100
AcDbLine
 62
7
  6
CONTINUOUS
 10
139.3802854624
 20
103.09225
 11
139.3802854624
 21
101.82225
  0
LINE
  5
2FC
100
AcDbEntity
  8
SHELL3
100
AcDbLine
 62
7
  6
CONTINUOUS
 10
139.6660354624
 20
122.39625
 11
139.6660354624
 21
121.12625
  0
LINE
  5
2FD
100
AcDbEntity
  8
SHELL3
100
AcDbLine
 62
7
  6
CONTINUOUS
 10
139.6660354624
 20
103.09225
 11
139.6660354624
 21
101.82225
  0
LINE
  5
2FE
100
AcDbEntity
  8
SHELL3
100
AcDbLine
 62
7
  6
CONTINUOUS
 10
141.3434265815
 20
123.110625
 11
141.3434265815
 21
121.12625
  0
LINE
  5
2FF
100
AcDbEntity
  8
SHELL3
100
AcDbLine
 62
7
  6
CONTINUOUS
 10
141.3434265815
 20
103.806625
 11
141.3434265815
 21
101.82225
  0
LINE
  5
300
100
AcDbEntity
  8
SHELL3
100
AcDbLine
 62
7
  6
CONTINUOUS
 10
142.489106022
 20
123.110625
 11
142.489106022
 21
121.12625
  0
LINE
  5
301
100
AcDbEntity
  8
SHELL3
100
AcDbLine
 62
7
  6
CONTINUOUS
 10
142.489106022
 20
103.806625
 11
142.489106022
 21
101.82225
  0
LINE
  5
302
100
AcDbEntity
  8
SHELL3
100
AcDbLine
 62
7
  6
CONTINUOUS
 10
144.7804649028
 20
123.110625
 11
144.7804649028
 21
121.12625
  0
LINE
  5
303
100
AcDbEntity
  8
SHELL3
100
AcDbLine
 62
7
  6
CONTINUOUS
 10
144.7804649028
 20
103.806625
 11
144.7804649028
 21
101.82225
  0
LINE
  5
304
100
AcDbEntity
  8
SHELL3
100
AcDbLine
 62
7
  6
CONTINUOUS
 10
145.9261443432
 20
123.110625
 11
145.9261443432
 21
121.12625
  0
LINE
  5
305
100
AcDbEntity
  8
SHELL3
100
AcDbLine
 62
7
  6
CONTINUOUS
 10
145.9261443432
 20
103.806625
 11
145.9261443432
 21
101.82225
  0
LINE
  5
306
100
AcDbEntity
  8
SHELL3
100
AcDbLine
 62
7
  6
CONTINUOUS
 10
147.6035354624
 20
122.39625
 11
147.6035354624
 21
121.12625
  0
LINE
  5
307
100
AcDbEntity
  8
SHELL3
100
AcDbLine
 62
7
  6
CONTINUOUS
 10
147.6035354624
 20
103.09225
 11
147.6035354624
 21
101.82225
  0
LINE
  5
308
100
AcDbEntity
  8
SHELL3
100
AcDbLine
 62
7
  6
CONTINUOUS
 10
149.3815354624
 20
122.39625
 11
149.3815354624
 21
121.12625
  0
LINE
  5
309
100
AcDbEntity
  8
SHELL3
100
AcDbLine
 62
7
  6
CONTINUOUS
 10
149.3815354624
 20
103.09225
 11
149.3815354624
 21
101.82225
  0
LINE
  5
30A
100
AcDbEntity
  8
SHELL3
100
AcDbLine
 62
7
  6
CONTINUOUS
 10
151.0589265815
 20
123.110625
 11
151.0589265815
 21
121.12625
  0
LINE
  5
30B
100
AcDbEntity
  8
SHELL3
100
AcDbLine
 62
7
  6
CONTINUOUS
 10
151.0589265815
 20
103.806625
 11
151.0589265815
 21
101.82225
  0
LINE
  5
30C
100
AcDbEntity
  8
SHELL3
100
AcDbLine
 62
7
  6
CONTINUOUS
 10
152.204606022
 20
123.110625
 11
152.204606022
 21
121.12625
  0
LINE
  5
30D
100
AcDbEntity
  8
SHELL3
100
AcDbLine
 62
7
  6
CONTINUOUS
 10
152.204606022
 20
103.806625
 11
152.204606022
 21
101.82225
  0
LINE
  5
30E
100
AcDbEntity
  8
SHELL3
100
AcDbLine
 62
7
  6
CONTINUOUS
 10
154.4959649028
 20
123.110625
 11
154.4959649028
 21
121.12625
  0
LINE
  5
30F
100
AcDbEntity
  8
SHELL3
100
AcDbLine
 62
7
  6
CONTINUOUS
 10
154.4959649028
 20
103.806625
 11
154.4959649028
 21
101.82225
  0
LINE
  5
310
100
AcDbEntity
  8
SHELL3
100
AcDbLine
 62
7
  6
CONTINUOUS
 10
155.6416443432
 20
123.110625
 11
155.6416443432
 21
121.12625
  0
LINE
  5
311
100
AcDbEntity
  8
SHELL3
100
AcDbLine
 62
7
  6
CONTINUOUS
 10
155.6416443432
 20
103.806625
 11
155.6416443432
 21
101.82225
  0
LINE
  5
312
100
AcDbEntity
  8
SHELL3
100
AcDbLine
 62
7
  6
CONTINUOUS
 10
157.3190354624
 20
122.39625
 11
157.3190354624
 21
121.12625
  0
LINE
  5
313
100
AcDbEntity
  8
SHELL3
100
AcDbLine
 62
7
  6
CONTINUOUS
 10
157.3190354624
 20
103.09225
 11
157.3190354624
 21
101.82225
  0
LINE
  5
314
100
AcDbEntity
  8
SHELL3
100
AcDbLine
 62
7
  6
CONTINUOUS
 10
158.0175354624
 20
141.70025
 11
158.0175354624
 21
103.09225
  0
LINE
  5
315
100
AcDbEntity
  8
SHELL3
100
AcDbLine
 62
7
  6
CONTINUOUS
 10
158.0175354624
 20
156.94025
 11
158.0175354624
 21
141.70025
  0
LINE
  5
316
100
AcDbEntity
  8
SHELL3
100
AcDbLine
 62
7
  6
CONTINUOUS
 10
158.0175354624
 20
103.09225
 11
158.0175354624
 21
90.39225
  0
LINE
  5
317
100
AcDbEntity
  8
SHELL3
100
AcDbLine
 62
7
  6
CONTINUOUS
 10
160.5575354624
 20
156.94025
 11
160.5575354624
 21
90.39225
  0
LINE
  5
318
100
AcDbEntity
  8
SHELL3
100
AcDbLine
 62
7
  6
CONTINUOUS
 10
169.1935354624
 20
169.64025
 11
169.1935354624
 21
90.3922500025
  0
CIRCLE
  5
319
100
AcDbEntity
  8
SHELL3
100
AcDbCircle
 62
7
  6
CONTINUOUS
 10
85.0242854624
 20
112.74425
 40
4.09575
  0
CIRCLE
  5
31A
100
AcDbEntity
  8
SHELL3
100
AcDbCircle
 62
7
  6
CONTINUOUS
 10
75.3087854624
 20
112.74425
 40
4.09575
  0
CIRCLE
  5
31B
100
AcDbEntity
  8
SHELL3
100
AcDbCircle
 62
7
  6
CONTINUOUS
 10
65.5932854624
 20
112.74425
 40
4.09575
  0
CIRCLE
  5
31C
100
AcDbEntity
  8
SHELL3
100
AcDbCircle
 62
7
  6
CONTINUOUS
 10
55.8777854624
 20
112.74425
 40
4.09575
  0
CIRCLE
  5
31D
100
AcDbEntity
  8
SHELL3
100
AcDbCircle
 62
7
  6
CONTINUOUS
 10
46.1622854624
 20
112.74425
 40
4.09575
  0
CIRCLE
  5
31E
100
AcDbEntity
  8
SHELL3
100
AcDbCircle
 62
7
  6
CONTINUOUS
 10
36.4467854624
 20
112.74425
 40
4.09575
  0
CIRCLE
  5
31F
100
AcDbEntity
  8
SHELL3
100
AcDbCircle
 62
7
  6
CONTINUOUS
 10
60.7355354624
 20
122.39625
 40
10.33145
  0
CIRCLE
  5
320
100
AcDbEntity
  8
SHELL3
100
AcDbCircle
 62
7
  6
CONTINUOUS
 10
85.0242854624
 20
132.04825
 40
4.09575
  0
CIRCLE
  5
321
100
AcDbEntity
  8
SHELL3
100
AcDbCircle
 62
7
  6
CONTINUOUS
 10
75.3087854624
 20
132.04825
 40
4.09575
  0
CIRCLE
  5
322
100
AcDbEntity
  8
SHELL3
100
AcDbCircle
 62
7
  6
CONTINUOUS
 10
65.5932854624
 20
132.04825
 40
4.09575
  0
CIRCLE
  5
323
100
AcDbEntity
  8
SHELL3
100
AcDbCircle
 62
7
  6
CONTINUOUS
 10
55.8777854624
 20
132.04825
 40
4.09575
  0
CIRCLE
  5
324
100
AcDbEntity
  8
SHELL3
100
AcDbCircle
 62
7
  6
CONTINUOUS
 10
46.1622854624
 20
132.04825
 40
4.09575
  0
CIRCLE
  5
325
100
AcDbEntity
  8
SHELL3
100
AcDbCircle
 62
7
  6
CONTINUOUS
 10
36.4467854624
 20
132.04825
 40
4.09575
  0
CIRCLE
  5
326
100
AcDbEntity
  8
SHELL3
100
AcDbCircle
 62
7
  6
CONTINUOUS
 10
153.3502854624
 20
112.74425
 40
4.09575
  0
CIRCLE
  5
327
100
AcDbEntity
  8
SHELL3
100
AcDbCircle
 62
7
  6
CONTINUOUS
 10
143.6347854624
 20
112.74425
 40
4.09575
  0
CIRCLE
  5
328
100
AcDbEntity
  8
SHELL3
100
AcDbCircle
 62
7
  6
CONTINUOUS
 10
133.9192854624
 20
112.74425
 40
4.09575
  0
CIRCLE
  5
329
100
AcDbEntity
  8
SHELL3
100
AcDbCircle
 62
7
  6
CONTINUOUS
 10
124.2037854624
 20
112.74425
 40
4.09575
  0
CIRCLE
  5
32A
100
AcDbEntity
  8
SHELL3
100
AcDbCircle
 62
7
  6
CONTINUOUS
 10
114.4882854624
 20
112.74425
 40
4.09575
  0
CIRCLE
  5
32B
100
AcDbEntity
  8
SHELL3
100
AcDbCircle
 62
7
  6
CONTINUOUS
 10
104.7727854624
 20
112.74425
 40
4.09575
  0
CIRCLE
  5
32C
100
AcDbEntity
  8
SHELL3
100
AcDbCircle
 62
7
  6
CONTINUOUS
 10
129.0615354624
 20
122.39625
 40
10.33145
  0
CIRCLE
  5
32D
100
AcDbEntity
  8
SHELL3
100
AcDbCircle
 62
7
  6
CONTINUOUS
 10
153.3502854624
 20
132.04825
 40
4.09575
  0
CIRCLE
  5
32E
100
AcDbEntity
  8
SHELL3
100
AcDbCircle
 62
7
  6
CONTINUOUS
 10
143.6347854624
 20
132.04825
 40
4.09575
  0
CIRCLE
  5
32F
100
AcDbEntity
  8
SHELL3
100
AcDbCircle
 62
7
  6
CONTINUOUS
 10
133.9192854624
 20
132.04825
 40
4.09575
  0
CIRCLE
  5
330
100
AcDbEntity
  8
SHELL3
100
AcDbCircle
 62
7
  6
CONTINUOUS
 10
124.2037854624
 20
132.04825
 40
4.09575
  0
CIRCLE
  5
331
100
AcDbEntity
  8
SHELL3
100
AcDbCircle
 62
7
  6
CONTINUOUS
 10
114.4882854624
 20
132.04825
 40
4.09575
  0
CIRCLE
  5
332
100
AcDbEntity
  8
SHELL3
100
AcDbCircle
 62
7
  6
CONTINUOUS
 10
104.7727854624
 20
132.04825
 40
4.09575
  0
ENDSEC
  0
SECTION
  2
OBJECTS
  0
DICTIONARY
  5
C
100
AcDbDictionary
280
0
281
1
  3
ACAD_GROUP
350
D
  3
ACAD_MLINESTYLE
350
17
  3
ACAD_LAYOUT
350
1A
  3
ACAD_PLOTSETTINGS
350
19
  3
ACAD_PLOTSTYLENAME
350
E
  0
DICTIONARY
  5
D
102
{ACAD_REACTORS
330
C
102
}
100
AcDbDictionary
280
0
281
1
  0
ACDBDICTIONARYWDFLT
  5
E
102
{ACAD_REACTORS
330
C
102
}
100
AcDbDictionary
281
1
  3
Normal
350
F
100
AcDbDictionaryWithDefault
340
F
  0
DICTIONARY
  5
17
102
{ACAD_REACTORS
330
C
102
}
100
AcDbDictionary
280
0
281
1
  3
Standard
350
18
  0
DICTIONARY
  5
19
102
{ACAD_REACTORS
330
C
102
}
100
AcDbDictionary
281
1
  0
DICTIONARY
  5
1A
102
{ACAD_REACTORS
330
C
102
}
100
AcDbDictionary
281
1
  3
Model
350
333
  3
Layout1
350
334
  0
ACDBPLACEHOLDER
  5
F
102
{ACAD_REACTORS
330
E
102
}
  0
MLINESTYLE
  5
18
102
{ACAD_REACTORS
330
17
102
}
100
AcDbMlineStyle
  2
STANDARD
 70
0
  3

 62
256
 51
90.0
 52
90.0
 71
2
 49
0.5
 62
256
  6
BYLAYER
 49
-0.5
 62
256
  6
BYLAYER
  0
LAYOUT
  5
333
102
{ACAD_REACTORS
330
1A
102
}
100
AcDbPlotSettings
  1

  2
none_device
  4

  6

 40
0.0
 41
0.0
 42
0.0
 43
0.0
 44
210.0
 45
297.0
 46
0.0
 47
0.0
 48
0.0
 49
0.0
140
0.0
141
0.0
142
1.0
143
1.0
 70
1024
 72
1
 73
0
 74
0
  7

 75
0
147
1.0
148
0.0
149
0.0
100
AcDbLayout
  1
Model
 70
0
 71
0
 10
0.0
 20
0.0
 11
210.0
 21
297.0
 12
0.0
 22
0.0
 32
0.0
 14
0.0
 24
0.0
 34
0.0
 15
0.0
 25
0.0
 35
0.0
146
0.0
 13
0.0
 23
0.0
 33
0.0
 16
1.0
 26
0.0
 36
0.0
 17
0.0
 27
1.0
 37
0.0
 76
0
330
211
345
0
346
0
  0
LAYOUT
  5
334
102
{ACAD_REACTORS
330
1A
102
}
100
AcDbPlotSettings
  1

  2
none_device
  4

  6

 40
0.0
 41
0.0
 42
0.0
 43
0.0
 44
210.0
 45
297.0
 46
0.0
 47
0.0
 48
0.0
 49
0.0
140
0.0
141
0.0
142
1.0
143
1.0
 70
0
 72
1
 73
0
 74
0
  7

 75
0
147
1.0
148
0.0
149
0.0
100
AcDbLayout
  1
Layout1
 70
0
 71
1
 10
0.0
 20
0.0
 11
210.0
 21
297.0
 12
0.0
 22
0.0
 32
0.0
 14
0.0
 24
0.0
 34
0.0
 15
0.0
 25
0.0
 35
0.0
146
0.0
 13
0.0
 23
0.0
 33
0.0
 16
1.0
 26
0.0
 36
0.0
 17
0.0
 27
1.0
 37
0.0
 76
0
330
212
345
0
346
0
  0
ENDSEC
  0
EOF
