999
DXF file: C:\Users\sesa63760\Dev\_Creo\CAD\MCADPP0002520_3D-CAD\drw0001_7.dxf
999
Pro/ENGINEER 2019471 by Parametric Technology Corporation
  0
SECTION
  2
HEADER
  9
$ACADVER
  1
AC1024
  9
$DWGCODEPAGE
  3
ANSI_1252
  9
$EXTMAX
 10
158.2242761974
 20
223.7743334792
 30
0.0
  9
$EXTMIN
 10
0.0
 20
0.0
 30
0.0
  9
$LIMMIN
 10
0.0
 20
0.0
  9
$LIMMAX
 10
158.2242761974
 20
223.7743334792
  9
$VIEWCTR
 10
79.1121380987
 20
111.8871667396
  9
$VIEWSIZE
 40
223.7743334792
  9
$CLAYER
  8
0
  9
$LTSCALE
 40
14.5867713675
  9
$CELTYPE
  6
BYLAYER
  9
$DIMSCALE
 40
1.0
  9
$DIMASZ
 40
1.8836223357
  9
$DIMEXO
 40
1.0
  9
$DIMDLI
 40
10.0781329448
  9
$DIMEXE
 40
1.0
  9
$DIMCEN
 40
2.3869262238
  9
$DIMLFAC
 40
1.0
  9
$DIMBLK
  1
_FILLED
  9
$DIMALT
 70
0
  9
$DIMALTF
 40
0.0393700787
  9
$DIMTXT
 40
2.63707127
  9
$DIMTOL
 70
1
  9
$DIMLIM
 70
0
  9
$DIMTFAC
 40
1.0
  9
$DIMTP
 40
0.01
  9
$DIMTM
 40
0.01
  9
$DIMGAP
 40
0.625
  9
$DIMDSEP
 70
46
  9
$AUNITS
 70
0
  9
$PDMODE
 70
3
  9
$PDSIZE
 40
0.3125
  9
$HANDSEED
  5
291
  9
$TILEMODE
 70
1
  9
$MEASUREMENT
 70
1
  9
$INSUNITS
 70
4
  0
ENDSEC
  0
SECTION
  2
CLASSES
  0
CLASS
  1
ACDBDICTIONARYWDFLT
  2
AcDbDictionaryWithDefault
  3
AutoCAD 2000
 90
0
 91
1
280
0
281
0
  0
CLASS
  1
ACDBPLACEHOLDER
  2
AcDbPlaceHolder
  3
AutoCAD 2000
 90
0
 91
1
280
0
281
0
  0
CLASS
  1
LAYOUT
  2
AcDbLayout
  3
AutoCAD 2000
 90
0
 91
0
280
0
281
0
  0
ENDSEC
  0
SECTION
  2
TABLES
  0
TABLE
  2
VPORT
  5
8
100
AcDbSymbolTable
 70
2
  0
VPORT
  5
1F4
100
AcDbSymbolTableRecord
100
AcDbViewportTableRecord
  2
*ACTIVE
 70
0
 10
0.0
 20
0.0
 11
1.0
 21
1.0
 12
79.1121380987
 22
111.8871667396
 13
0.0
 23
0.0
 14
1.0
 24
1.0
 15
0.0
 25
0.0
 16
0.0
 26
0.0
 36
1.0
 17
0.0
 27
0.0
 37
0.0
 40
223.7743334792
 41
0.7070707071
 42
50.0
 43
0.0
 44
0.0
 50
0.0
 51
0.0
 71
0
 72
100
 73
1
 74
1
 75
0
 76
0
 77
0
 78
0
  0
ENDTAB
  0
TABLE
  2
LTYPE
  5
5
100
AcDbSymbolTable
 70
6
  0
LTYPE
  5
14
100
AcDbSymbolTableRecord
100
AcDbLinetypeTableRecord
  2
BYBLOCK
 70
0
  3

 72
65
 73
0
 40
0.0
  0
LTYPE
  5
15
100
AcDbSymbolTableRecord
100
AcDbLinetypeTableRecord
  2
BYLAYER
 70
0
  3

 72
65
 73
0
 40
0.0
  0
LTYPE
  5
16
100
AcDbSymbolTableRecord
100
AcDbLinetypeTableRecord
  2
CONTINUOUS
 70
64
  3
Solid line
 72
65
 73
0
 40
0.0
  0
LTYPE
  5
1F5
100
AcDbSymbolTableRecord
100
AcDbLinetypeTableRecord
  2
CENTER
 70
64
  3
____ _ ____ _ ____ _ ____ _ ____ _ ____ _ ____
 72
65
 73
4
 40
0.6
 49
0.375
 74
0
 49
-0.075
 74
0
 49
0.075
 74
0
 49
-0.075
 74
0
  0
LTYPE
  5
1F6
100
AcDbSymbolTableRecord
100
AcDbLinetypeTableRecord
  2
HIDDEN
 70
64
  3
- - - - - - - - - - - - - - - - - - - -
 72
65
 73
2
 40
0.2
 49
0.1
 74
0
 49
-0.1
 74
0
  0
LTYPE
  5
1F7
100
AcDbSymbolTableRecord
100
AcDbLinetypeTableRecord
  2
PHANTOM
 70
64
  3
_____ _ _ _____ _ _ _____ _ _ _____
 72
65
 73
6
 40
0.8
 49
0.45
 74
0
 49
-0.05
 74
0
 49
0.1
 74
0
 49
-0.05
 74
0
 49
0.1
 74
0
 49
-0.05
 74
0
  0
LTYPE
  5
1F8
100
AcDbSymbolTableRecord
100
AcDbLinetypeTableRecord
  2
DOT
 70
64
  3
. . . . . . . . . . . . . . . . . . . .
 72
65
 73
2
 40
0.2
 49
0.1
 74
0
 49
-0.1
 74
0
  0
LTYPE
  5
1F9
100
AcDbSymbolTableRecord
100
AcDbLinetypeTableRecord
  2
DASHED
 70
64
  3
- - - - - - - - - - - - - - - - - - - -
 72
65
 73
2
 40
0.2
 49
0.1
 74
0
 49
-0.1
 74
0
  0
ENDTAB
  0
TABLE
  2
LAYER
  5
2
100
AcDbSymbolTable
 70
36
  0
LAYER
  5
10
100
AcDbSymbolTableRecord
100
AcDbLayerTableRecord
  2
0
 70
0
 62
7
  6
CONTINUOUS
370
-3
390
F
  0
LAYER
  5
1FA
100
AcDbSymbolTableRecord
100
AcDbLayerTableRecord
  2
DEFAULT_1
 70
0
 62
7
  6
CENTER
370
-3
390
F
  0
LAYER
  5
1FB
100
AcDbSymbolTableRecord
100
AcDbLayerTableRecord
  2
DEFAULT_2
 70
0
 62
8
  6
HIDDEN
370
-3
390
F
  0
LAYER
  5
1FC
100
AcDbSymbolTableRecord
100
AcDbLayerTableRecord
  2
DEFAULT_3
 70
0
 62
7
  6
PHANTOM
370
-3
390
F
  0
LAYER
  5
1FD
100
AcDbSymbolTableRecord
100
AcDbLayerTableRecord
  2
00_COMPONENTS
 70
0
 62
7
  6
CONTINUOUS
370
-3
390
F
  0
LAYER
  5
1FE
100
AcDbSymbolTableRecord
100
AcDbLayerTableRecord
  2
01_1_DEFAULT_DATUMS
 70
0
 62
7
  6
CONTINUOUS
370
-3
390
F
  0
LAYER
  5
1FF
100
AcDbSymbolTableRecord
100
AcDbLayerTableRecord
  2
01_PLANES
 70
0
 62
7
  6
CONTINUOUS
370
-3
390
F
  0
LAYER
  5
200
100
AcDbSymbolTableRecord
100
AcDbLayerTableRecord
  2
02_COORD_SYS
 70
0
 62
7
  6
CONTINUOUS
370
-3
390
F
  0
LAYER
  5
201
100
AcDbSymbolTableRecord
100
AcDbLayerTableRecord
  2
03_AXES
 70
0
 62
7
  6
CONTINUOUS
370
-3
390
F
  0
LAYER
  5
202
100
AcDbSymbolTableRecord
100
AcDbLayerTableRecord
  2
04_POINTS
 70
0
 62
7
  6
CONTINUOUS
370
-3
390
F
  0
LAYER
  5
203
100
AcDbSymbolTableRecord
100
AcDbLayerTableRecord
  2
05_CURVES
 70
0
 62
7
  6
CONTINUOUS
370
-3
390
F
  0
LAYER
  5
204
100
AcDbSymbolTableRecord
100
AcDbLayerTableRecord
  2
06_SURFS
 70
0
 62
7
  6
CONTINUOUS
370
-3
390
F
  0
LAYER
  5
205
100
AcDbSymbolTableRecord
100
AcDbLayerTableRecord
  2
07_COSMETICS
 70
0
 62
7
  6
CONTINUOUS
370
-3
390
F
  0
LAYER
  5
206
100
AcDbSymbolTableRecord
100
AcDbLayerTableRecord
  2
10_NOTES
 70
0
 62
7
  6
CONTINUOUS
370
-3
390
F
  0
LAYER
  5
207
100
AcDbSymbolTableRecord
100
AcDbLayerTableRecord
  2
11_NOTES_PUB
 70
0
 62
7
  6
CONTINUOUS
370
-3
390
F
  0
LAYER
  5
208
100
AcDbSymbolTableRecord
100
AcDbLayerTableRecord
  2
13_REF_GTOL
 70
0
 62
7
  6
CONTINUOUS
370
-3
390
F
  0
LAYER
  5
209
100
AcDbSymbolTableRecord
100
AcDbLayerTableRecord
  2
16_MISC
 70
0
 62
7
  6
CONTINUOUS
370
-3
390
F
  0
LAYER
  5
20A
100
AcDbSymbolTableRecord
100
AcDbLayerTableRecord
  2
17_NO_PRINT
 70
0
 62
7
  6
CONTINUOUS
370
-3
390
F
  0
LAYER
  5
20B
100
AcDbSymbolTableRecord
100
AcDbLayerTableRecord
  2
18_DATUM_CAMS_JOINTS
 70
0
 62
7
  6
CONTINUOUS
370
-3
390
F
  0
LAYER
  5
20C
100
AcDbSymbolTableRecord
100
AcDbLayerTableRecord
  2
19_DATUM_FUNCTIONAL
 70
0
 62
7
  6
CONTINUOUS
370
-3
390
F
  0
LAYER
  5
20D
100
AcDbSymbolTableRecord
100
AcDbLayerTableRecord
  2
20_DATUM_KINEMATIC_SCHEME
 70
0
 62
7
  6
CONTINUOUS
370
-3
390
F
  0
ENDTAB
  0
TABLE
  2
STYLE
  5
3
100
AcDbSymbolTable
 70
1
  0
STYLE
  5
11
100
AcDbSymbolTableRecord
100
AcDbTextStyleTableRecord
  2
STANDARD
 70
0
 40
0.0
 41
0.8
 50
0.0
 71
0
 42
0.2
  3
txt
  4

  0
STYLE
  5
20E
100
AcDbSymbolTableRecord
100
AcDbTextStyleTableRecord
  2
TEXTSTYLE_1
 70
0
 40
0.0
 41
0.8
 50
0.0
 71
0
 42
0.2
  3
gdt
  4

  0
ENDTAB
  0
TABLE
  2
VIEW
  5
6
100
AcDbSymbolTable
 70
0
  0
ENDTAB
  0
TABLE
  2
UCS
  5
7
100
AcDbSymbolTable
 70
0
  0
ENDTAB
  0
TABLE
  2
APPID
  5
9
100
AcDbSymbolTable
 70
1
  0
APPID
  5
20F
100
AcDbSymbolTableRecord
100
AcDbRegAppTableRecord
  2
ACAD
 70
0
  0
ENDTAB
  0
TABLE
  2
BLOCK_RECORD
  5
1
100
AcDbSymbolTable
 70
0
  0
BLOCK_RECORD
  5
210
100
AcDbSymbolTableRecord
100
AcDbBlockTableRecord
  2
*Model_Space
  0
BLOCK_RECORD
  5
211
100
AcDbSymbolTableRecord
100
AcDbBlockTableRecord
  2
*Paper_Space
  0
BLOCK_RECORD
  5
212
100
AcDbSymbolTableRecord
100
AcDbBlockTableRecord
  2
_FILLED
  0
ENDTAB
  0
TABLE
  2
DIMSTYLE
  5
A
100
AcDbSymbolTable
 70
1
100
AcDbDimStyleTable
 71
0
  0
DIMSTYLE
105
213
100
AcDbSymbolTableRecord
100
AcDbDimStyleTableRecord
  2
STANDARD
 70
0
  3

  4

 40
1.0
 41
1.8836223357
 42
1.0
 43
0.38
 44
1.0
 45
0.0
 46
0.0
 47
0.01
 48
0.01
140
2.63707127
141
0.09
142
0.0
143
25.4
144
1.0
145
0.0
146
1.0
147
0.625
 71
1
 72
0
 73
0
 74
0
 75
0
 76
0
 77
1
 78
8
 79
2
170
0
171
1
172
0
173
0
174
0
175
0
176
0
177
0
178
0
270
2
179
2
271
2
272
2
273
2
274
2
275
0
280
0
281
0
282
0
283
1
284
8
285
0
286
0
287
3
288
0
340
11
278
46
341
212
342
212
343
212
344
212
  0
ENDTAB
  0
ENDSEC
  0
SECTION
  2
BLOCKS
  0
BLOCK
  5
20
100
AcDbEntity
  8
0
100
AcDbBlockBegin
  2
*Model_Space
 70
0
 10
0.0
 20
0.0
 30
0.0
  3
*Model_Space
  1

  0
ENDBLK
  5
21
100
AcDbEntity
  8
0
100
AcDbBlockEnd
  0
BLOCK
  5
1C
100
AcDbEntity
  8
0
100
AcDbBlockBegin
  2
*Paper_Space
 70
0
 10
0.0
 20
0.0
 30
0.0
  3
*Paper_Space
  1

  0
ENDBLK
  5
1D
100
AcDbEntity
  8
0
100
AcDbBlockEnd
  0
BLOCK
  5
214
100
AcDbEntity
  8
0
100
AcDbBlockBegin
  2
_FILLED
 70
64
 10
0.0
 20
0.0
  3
_FILLED
  1

  0
SOLID
  5
215
100
AcDbEntity
  8
0
  6
BYBLOCK
 62
0
100
AcDbTrace
 10
0.0
 20
0.0
 11
-1.0
 21
0.25
 12
-1.0
 22
-0.25
 13
-1.0
 23
-0.25
  0
ENDBLK
  5
216
100
AcDbEntity
  8
0
  6
BYBLOCK
 62
0
100
AcDbBlockEnd
  0
ENDSEC
  0
SECTION
  2
ENTITIES
  0
LINE
  5
217
100
AcDbEntity
  8
0
100
AcDbLine
 62
7
  6
CONTINUOUS
 10
29.932748553
 20
164.8199219256
 11
35.520748553
 21
169.8999219256
  0
LINE
  5
218
100
AcDbEntity
  8
0
100
AcDbLine
 62
7
  6
CONTINUOUS
 10
16.8004356917
 20
112.0387219256
 11
16.8004356917
 21
120.1667219256
  0
LINE
  5
219
100
AcDbEntity
  8
0
100
AcDbLine
 62
7
  6
CONTINUOUS
 10
18.375453019
 20
109.9315912064
 11
21.6550625303
 21
72.4454829592
  0
LINE
  5
21A
100
AcDbEntity
  8
0
100
AcDbLine
 62
7
  6
CONTINUOUS
 10
18.0450356917
 20
120.1667219256
 11
18.0450356917
 21
162.3916819256
  0
LINE
  5
21B
100
AcDbEntity
  8
0
100
AcDbLine
 62
7
  6
CONTINUOUS
 10
20.4732756917
 20
164.8199219256
 11
20.4732756917
 21
163.6058019256
  0
LINE
  5
21C
100
AcDbEntity
  8
0
100
AcDbLine
 62
7
  6
CONTINUOUS
 10
88.8475356917
 20
54.9700019256
 11
70.3055356917
 21
54.9700019256
  0
LINE
  5
21D
100
AcDbEntity
  8
0
100
AcDbLine
 62
7
  6
CONTINUOUS
 10
70.3055356917
 20
55.1970043047
 11
88.8475356917
 21
55.1970043047
  0
LINE
  5
21E
100
AcDbEntity
  8
0
100
AcDbLine
 62
7
  6
CONTINUOUS
 10
27.9808988632
 20
72.4454829592
 11
24.7012884026
 21
109.9316018089
  0
LINE
  5
21F
100
AcDbEntity
  8
0
100
AcDbLine
 62
7
  6
CONTINUOUS
 10
24.6744356917
 20
120.1667219256
 11
24.6744356917
 21
110.589667794
  0
LINE
  5
220
100
AcDbEntity
  8
0
100
AcDbLine
 62
7
  6
CONTINUOUS
 10
25.1011556917
 20
164.8199219256
 11
25.1011556917
 21
163.6058019256
  0
LINE
  5
221
100
AcDbEntity
  8
0
100
AcDbLine
 62
7
  6
CONTINUOUS
 10
25.1111760899
 20
120.1667219256
 11
25.1111760899
 21
162.3916819256
  0
LINE
  5
222
100
AcDbEntity
  8
0
100
AcDbLine
 62
7
  6
CONTINUOUS
 10
26.1612771445
 20
162.3916819256
 11
26.1612771445
 21
120.1667219256
  0
LINE
  5
223
100
AcDbEntity
  8
0
100
AcDbLine
 62
7
  6
CONTINUOUS
 10
27.9546100356
 20
120.1667219256
 11
27.9546100356
 21
162.3916819256
  0
LINE
  5
224
100
AcDbEntity
  8
0
100
AcDbLine
 62
7
  6
CONTINUOUS
 10
27.9808988632
 20
72.4454829592
 11
27.9808988632
 21
66.6489219256
  0
LINE
  5
225
100
AcDbEntity
  8
0
100
AcDbLine
 62
7
  6
CONTINUOUS
 10
28.3472756917
 20
120.1667219256
 11
28.3472756917
 21
164.8199219256
  0
LINE
  5
226
100
AcDbEntity
  8
0
100
AcDbLine
 62
7
  6
CONTINUOUS
 10
55.4963584071
 20
64.0632019256
 11
103.6567129763
 21
64.0632019256
  0
LINE
  5
227
100
AcDbEntity
  8
0
100
AcDbLine
 62
7
  6
CONTINUOUS
 10
54.9385356917
 20
66.3492019256
 11
104.2145356917
 21
66.3492019256
  0
LINE
  5
228
100
AcDbEntity
  8
0
100
AcDbLine
 62
7
  6
CONTINUOUS
 10
130.7911725202
 20
66.6489219256
 11
27.9808988632
 21
66.6489219256
  0
LINE
  5
229
100
AcDbEntity
  8
0
100
AcDbLine
 62
7
  6
CONTINUOUS
 10
55.4963584071
 20
64.0632019256
 11
54.1765356917
 21
66.3492019256
  0
LINE
  5
22A
100
AcDbEntity
  8
0
100
AcDbLine
 62
7
  6
CONTINUOUS
 10
27.9808988632
 20
72.4454829592
 11
130.7911725202
 21
72.4454829592
  0
LINE
  5
22B
100
AcDbEntity
  8
0
100
AcDbLine
 62
7
  6
CONTINUOUS
 10
42.2578396917
 20
99.4561220424
 11
42.2578396917
 21
118.3734934609
  0
LINE
  5
22C
100
AcDbEntity
  8
0
100
AcDbLine
 62
7
  6
CONTINUOUS
 10
46.2578316917
 20
99.4561220424
 11
46.2578316917
 21
118.3734934609
  0
LINE
  5
22D
100
AcDbEntity
  8
0
100
AcDbLine
 62
7
  6
CONTINUOUS
 10
52.1193642917
 20
156.1839219256
 11
52.1193642917
 21
155.7303795256
  0
LINE
  5
22E
100
AcDbEntity
  8
0
100
AcDbLine
 62
7
  6
CONTINUOUS
 10
52.1193642917
 20
152.5528141256
 11
52.1193642917
 21
152.0690203256
  0
LINE
  5
22F
100
AcDbEntity
  8
0
100
AcDbLine
 62
7
  6
CONTINUOUS
 10
52.1193642917
 20
127.1734643256
 11
52.1193642917
 21
126.7199219256
  0
LINE
  5
230
100
AcDbEntity
  8
0
100
AcDbLine
 62
7
  6
CONTINUOUS
 10
53.1353642917
 20
126.7199219256
 11
53.1353642917
 21
127.1734643256
  0
LINE
  5
231
100
AcDbEntity
  8
0
100
AcDbLine
 62
7
  6
CONTINUOUS
 10
53.1353642917
 20
152.0690203256
 11
53.1353642917
 21
152.5528141256
  0
LINE
  5
232
100
AcDbEntity
  8
0
100
AcDbLine
 62
7
  6
CONTINUOUS
 10
53.1353642917
 20
155.7303795256
 11
53.1353642917
 21
156.1839219256
  0
LINE
  5
233
100
AcDbEntity
  8
0
100
AcDbLine
 62
7
  6
CONTINUOUS
 10
54.1765356917
 20
66.3492019256
 11
54.1765356917
 21
66.6489219256
  0
LINE
  5
234
100
AcDbEntity
  8
0
100
AcDbLine
 62
7
  6
CONTINUOUS
 10
54.9385356917
 20
66.6489219256
 11
54.9385356917
 21
66.3492019256
  0
LINE
  5
235
100
AcDbEntity
  8
0
100
AcDbLine
 62
7
  6
CONTINUOUS
 10
106.132748553
 20
164.8199219256
 11
111.720748553
 21
169.8999219256
  0
LINE
  5
236
100
AcDbEntity
  8
0
100
AcDbLine
 62
7
  6
CONTINUOUS
 10
41.895827351
 20
99.4561220424
 11
46.6198440325
 21
99.4561220424
  0
LINE
  5
237
100
AcDbEntity
  8
0
100
AcDbLine
 62
7
  6
CONTINUOUS
 10
112.533227351
 20
99.4561220424
 11
117.2572440325
 21
99.4561220424
  0
LINE
  5
238
100
AcDbEntity
  8
0
100
AcDbLine
 62
7
  6
CONTINUOUS
 10
70.0515356917
 20
64.0632019256
 11
70.0515356917
 21
55.2240019256
  0
LINE
  5
239
100
AcDbEntity
  8
0
100
AcDbLine
 62
7
  6
CONTINUOUS
 10
70.3055356917
 20
64.0632019256
 11
70.3055356917
 21
54.9700019256
  0
LINE
  5
23A
100
AcDbEntity
  8
0
100
AcDbLine
 62
7
  6
CONTINUOUS
 10
24.7012884026
 20
109.9316018089
 11
134.0707821184
 21
109.9315920579
  0
LINE
  5
23B
100
AcDbEntity
  8
0
100
AcDbLine
 62
7
  6
CONTINUOUS
 10
17.8527086768
 20
110.5895671294
 11
140.919366407
 21
110.5895683339
  0
LINE
  5
23C
100
AcDbEntity
  8
0
100
AcDbLine
 62
7
  6
CONTINUOUS
 10
16.8004356917
 20
112.0387219256
 11
141.9716356917
 21
112.0387219256
  0
LWPOLYLINE
  5
23D
100
AcDbEntity
  8
0
100
AcDbPolyline
 62
7
  6
CONTINUOUS
 90
4
 70
0
 10
134.0976356917
 20
110.5895407492
 10
137.5099204434
 20
110.5882583891
 10
140.0024087986
 20
110.5882734644
 10
140.919366407
 20
110.5895683339
  0
LWPOLYLINE
  5
23E
100
AcDbEntity
  8
0
100
AcDbPolyline
 62
7
  6
CONTINUOUS
 90
4
 70
0
 10
17.8527086768
 20
110.5895671294
 10
18.7706580712
 20
110.5882446531
 10
21.2671576262
 20
110.5882521073
 10
24.6744356917
 20
110.5896021737
  0
LINE
  5
23F
100
AcDbEntity
  8
0
100
AcDbLine
 62
7
  6
CONTINUOUS
 10
42.2578396917
 20
118.3734934609
 11
46.2578316917
 21
118.3734934609
  0
LINE
  5
240
100
AcDbEntity
  8
0
100
AcDbLine
 62
7
  6
CONTINUOUS
 10
112.8952396917
 20
118.3734934609
 11
116.8952316917
 21
118.3734934609
  0
LINE
  5
241
100
AcDbEntity
  8
0
100
AcDbLine
 62
7
  6
CONTINUOUS
 10
88.8475356917
 20
54.9700019256
 11
88.8475356917
 21
64.0632019256
  0
LINE
  5
242
100
AcDbEntity
  8
0
100
AcDbLine
 62
7
  6
CONTINUOUS
 10
89.1015356917
 20
55.2240019256
 11
89.1015356917
 21
64.0632019256
  0
LINE
  5
243
100
AcDbEntity
  8
0
100
AcDbLine
 62
7
  6
CONTINUOUS
 10
16.8004356917
 20
120.1667219256
 11
141.9716356917
 21
120.1667219256
  0
LINE
  5
244
100
AcDbEntity
  8
0
100
AcDbLine
 62
7
  6
CONTINUOUS
 10
52.1193642917
 20
126.7199219256
 11
53.1353642917
 21
126.7199219256
  0
LINE
  5
245
100
AcDbEntity
  8
0
100
AcDbLine
 62
7
  6
CONTINUOUS
 10
105.9673642917
 20
126.7199219256
 11
106.9833642917
 21
126.7199219256
  0
LINE
  5
246
100
AcDbEntity
  8
0
100
AcDbLine
 62
7
  6
CONTINUOUS
 10
52.9695228305
 20
164.8199219256
 11
47.3815228305
 21
169.8999219256
  0
LINE
  5
247
100
AcDbEntity
  8
0
100
AcDbLine
 62
7
  6
CONTINUOUS
 10
104.2145356917
 20
66.3492019256
 11
104.2145356917
 21
66.6489219256
  0
LINE
  5
248
100
AcDbEntity
  8
0
100
AcDbLine
 62
7
  6
CONTINUOUS
 10
104.9765356917
 20
66.6489219256
 11
104.9765356917
 21
66.3492019256
  0
LINE
  5
249
100
AcDbEntity
  8
0
100
AcDbLine
 62
7
  6
CONTINUOUS
 10
105.9673642917
 20
156.1839219256
 11
105.9673642917
 21
155.7303795256
  0
LINE
  5
24A
100
AcDbEntity
  8
0
100
AcDbLine
 62
7
  6
CONTINUOUS
 10
105.9673642917
 20
152.5528141256
 11
105.9673642917
 21
152.0690203256
  0
LINE
  5
24B
100
AcDbEntity
  8
0
100
AcDbLine
 62
7
  6
CONTINUOUS
 10
105.9673642917
 20
127.1734643256
 11
105.9673642917
 21
126.7199219256
  0
LINE
  5
24C
100
AcDbEntity
  8
0
100
AcDbLine
 62
7
  6
CONTINUOUS
 10
106.9833642917
 20
126.7199219256
 11
106.9833642917
 21
127.1734643256
  0
LINE
  5
24D
100
AcDbEntity
  8
0
100
AcDbLine
 62
7
  6
CONTINUOUS
 10
106.9833642917
 20
152.0690203256
 11
106.9833642917
 21
152.5528141256
  0
LINE
  5
24E
100
AcDbEntity
  8
0
100
AcDbLine
 62
7
  6
CONTINUOUS
 10
106.9833642917
 20
155.7303795256
 11
106.9833642917
 21
156.1839219256
  0
LINE
  5
24F
100
AcDbEntity
  8
0
100
AcDbLine
 62
7
  6
CONTINUOUS
 10
112.8952396917
 20
99.4561220424
 11
112.8952396917
 21
118.3734934609
  0
LINE
  5
250
100
AcDbEntity
  8
0
100
AcDbLine
 62
7
  6
CONTINUOUS
 10
116.8952316917
 20
99.4561220424
 11
116.8952316917
 21
118.3734934609
  0
LINE
  5
251
100
AcDbEntity
  8
0
100
AcDbLine
 62
7
  6
CONTINUOUS
 10
52.1193642917
 20
152.0690203256
 11
53.1353642917
 21
152.0690203256
  0
LINE
  5
252
100
AcDbEntity
  8
0
100
AcDbLine
 62
7
  6
CONTINUOUS
 10
105.9673642917
 20
152.0690203256
 11
106.9833642917
 21
152.0690203256
  0
LINE
  5
253
100
AcDbEntity
  8
0
100
AcDbLine
 62
7
  6
CONTINUOUS
 10
103.6567129763
 20
64.0632019256
 11
104.9765356917
 21
66.3492019256
  0
LINE
  5
254
100
AcDbEntity
  8
0
100
AcDbLine
 62
7
  6
CONTINUOUS
 10
106.9833642917
 20
156.1839219256
 11
105.9673642917
 21
156.1839219256
  0
LINE
  5
255
100
AcDbEntity
  8
0
100
AcDbLine
 62
7
  6
CONTINUOUS
 10
53.1353642917
 20
156.1839219256
 11
52.1193642917
 21
156.1839219256
  0
LINE
  5
256
100
AcDbEntity
  8
0
100
AcDbLine
 62
7
  6
CONTINUOUS
 10
130.7549956917
 20
120.1667219256
 11
130.7549956917
 21
164.8199219256
  0
LINE
  5
257
100
AcDbEntity
  8
0
100
AcDbLine
 62
7
  6
CONTINUOUS
 10
130.7911725202
 20
66.6489219256
 11
130.7911725202
 21
72.4454829592
  0
LINE
  5
258
100
AcDbEntity
  8
0
100
AcDbLine
 62
7
  6
CONTINUOUS
 10
18.0450356917
 20
162.3916819256
 11
141.0572356917
 21
162.3916819256
  0
LINE
  5
259
100
AcDbEntity
  8
0
100
AcDbLine
 62
7
  6
CONTINUOUS
 10
20.4732756917
 20
163.6058019256
 11
28.3472756917
 21
163.6058019256
  0
LINE
  5
25A
100
AcDbEntity
  8
0
100
AcDbLine
 62
7
  6
CONTINUOUS
 10
130.7549956917
 20
163.6058019256
 11
138.6289956917
 21
163.6058019256
  0
LINE
  5
25B
100
AcDbEntity
  8
0
100
AcDbLine
 62
7
  6
CONTINUOUS
 10
131.1476613478
 20
162.3916819256
 11
131.1476613478
 21
120.1667219256
  0
LINE
  5
25C
100
AcDbEntity
  8
0
100
AcDbLine
 62
7
  6
CONTINUOUS
 10
132.9409942389
 20
120.1667219256
 11
132.9409942389
 21
162.3916819256
  0
LINE
  5
25D
100
AcDbEntity
  8
0
100
AcDbLine
 62
7
  6
CONTINUOUS
 10
133.9910952935
 20
162.3916819256
 11
133.9910952935
 21
120.1667219256
  0
LINE
  5
25E
100
AcDbEntity
  8
0
100
AcDbLine
 62
7
  6
CONTINUOUS
 10
134.0011156917
 20
163.6058019256
 11
134.0011156917
 21
164.8199219256
  0
LINE
  5
25F
100
AcDbEntity
  8
0
100
AcDbLine
 62
7
  6
CONTINUOUS
 10
134.0976356917
 20
110.589667794
 11
134.0976356917
 21
120.1667219256
  0
LINE
  5
260
100
AcDbEntity
  8
0
100
AcDbLine
 62
7
  6
CONTINUOUS
 10
134.0707821184
 20
109.9315920579
 11
130.7911725202
 21
72.4454829592
  0
LINE
  5
261
100
AcDbEntity
  8
0
100
AcDbLine
 62
7
  6
CONTINUOUS
 10
20.4732756917
 20
164.8199219256
 11
138.6289956917
 21
164.8199219256
  0
LINE
  5
262
100
AcDbEntity
  8
0
100
AcDbLine
 62
7
  6
CONTINUOUS
 10
138.6289956917
 20
163.6058019256
 11
138.6289956917
 21
164.8199219256
  0
LINE
  5
263
100
AcDbEntity
  8
0
100
AcDbLine
 62
7
  6
CONTINUOUS
 10
141.0572356917
 20
162.3916819256
 11
141.0572356917
 21
120.1667219256
  0
LINE
  5
264
100
AcDbEntity
  8
0
100
AcDbLine
 62
7
  6
CONTINUOUS
 10
141.9716356917
 20
120.1667219256
 11
141.9716356917
 21
112.0387219256
  0
LINE
  5
265
100
AcDbEntity
  8
0
100
AcDbLine
 62
7
  6
CONTINUOUS
 10
137.1170088531
 20
72.4454829592
 11
140.3966185985
 21
109.9315938815
  0
LINE
  5
266
100
AcDbEntity
  8
0
100
AcDbLine
 62
7
  6
CONTINUOUS
 10
123.5815228305
 20
169.8999219256
 11
111.720748553
 21
169.8999219256
  0
LINE
  5
267
100
AcDbEntity
  8
0
100
AcDbLine
 62
7
  6
CONTINUOUS
 10
47.3815228305
 20
169.8999219256
 11
35.520748553
 21
169.8999219256
  0
LINE
  5
268
100
AcDbEntity
  8
0
100
AcDbLine
 62
7
  6
CONTINUOUS
 10
129.1695228305
 20
164.8199219256
 11
123.5815228305
 21
169.8999219256
  0
ARC
  5
269
100
AcDbEntity
  8
0
100
AcDbCircle
 62
7
  6
CONTINUOUS
 10
19.9478549977
 20
9.806533835
 40
100.1495472153
100
AcDbArc
 50
90.1623649752
 51
90.4435152762
  0
ARC
  5
26A
100
AcDbEntity
  8
0
100
AcDbCircle
 62
7
  6
CONTINUOUS
 10
23.1037059192
 20
81.542286896
 40
9.3151770997
100
AcDbArc
 50
266.2132413159
 51
266.6013508643
  0
ARC
  5
26B
100
AcDbEntity
  8
0
100
AcDbCircle
 62
7
  6
CONTINUOUS
 10
27.9808988632
 20
72.9989219256
 40
6.35
100
AcDbArc
 50
185.0
 51
270.0
  0
ARC
  5
26C
100
AcDbEntity
  8
0
100
AcDbCircle
 62
7
  6
CONTINUOUS
 10
70.3055356917
 20
55.2240019256
 40
0.254
100
AcDbArc
 50
180.0
 51
270.0
  0
ARC
  5
26D
100
AcDbEntity
  8
0
100
AcDbCircle
 62
7
  6
CONTINUOUS
 10
52.6271273243
 20
141.4519219256
 40
14.2875
100
AcDbArc
 50
272.0385636385
 51
87.9614363615
  0
ARC
  5
26E
100
AcDbEntity
  8
0
100
AcDbCircle
 62
7
  6
CONTINUOUS
 10
52.6276012591
 20
141.4519219256
 40
14.2875
100
AcDbArc
 50
92.0385636385
 51
267.9614363615
  0
ARC
  5
26F
100
AcDbEntity
  8
0
100
AcDbCircle
 62
7
  6
CONTINUOUS
 10
52.6273642917
 20
141.4519316269
 40
11.1125
100
AcDbArc
 50
92.6201487719
 51
87.3798512281
  0
ARC
  5
270
100
AcDbEntity
  8
0
100
AcDbCircle
 62
7
  6
CONTINUOUS
 10
20.4732756917
 20
162.3916819256
 40
2.42824
100
AcDbArc
 50
90.0
 51
180.0
  0
CIRCLE
  5
271
100
AcDbEntity
  8
0
100
AcDbCircle
 62
7
  6
CONTINUOUS
 10
46.8740356917
 20
115.3407219256
 40
1.7272
  0
ARC
  5
272
100
AcDbEntity
  8
0
100
AcDbCircle
 62
7
  6
CONTINUOUS
 10
18.3244356917
 20
112.0387219256
 40
1.524
100
AcDbArc
 50
180.0
 51
251.9564088186
  0
ARC
  5
273
100
AcDbEntity
  8
0
100
AcDbCircle
 62
7
  6
CONTINUOUS
 10
20.4732756917
 20
162.3916819256
 40
1.21412
100
AcDbArc
 50
90.0
 51
180.0
  0
ARC
  5
274
100
AcDbEntity
  8
0
100
AcDbCircle
 62
7
  6
CONTINUOUS
 10
17.6163552181
 20
109.8651492807
 40
0.762
100
AcDbArc
 50
5.0011038629
 51
71.9560465956
  0
ARC
  5
275
100
AcDbEntity
  8
0
100
AcDbCircle
 62
7
  6
CONTINUOUS
 10
135.6683686244
 20
81.5422328194
 40
9.3151229321
100
AcDbArc
 50
273.3986086683
 51
273.7868457756
  0
ARC
  5
276
100
AcDbEntity
  8
0
100
AcDbCircle
 62
7
  6
CONTINUOUS
 10
130.7911725202
 20
72.9989219256
 40
6.35
100
AcDbArc
 50
270.0
 51
355.0
  0
ARC
  5
277
100
AcDbEntity
  8
0
100
AcDbCircle
 62
7
  6
CONTINUOUS
 10
88.8475356917
 20
55.2240019256
 40
0.254
100
AcDbArc
 50
270.0
 51
360.0
  0
ARC
  5
278
100
AcDbEntity
  8
0
100
AcDbCircle
 62
7
  6
CONTINUOUS
 10
106.4751273243
 20
141.4519219256
 40
14.2875
100
AcDbArc
 50
272.0385636385
 51
87.9614363615
  0
ARC
  5
279
100
AcDbEntity
  8
0
100
AcDbCircle
 62
7
  6
CONTINUOUS
 10
106.4756012591
 20
141.4519219256
 40
14.2875
100
AcDbArc
 50
92.0385636385
 51
267.9614363615
  0
ARC
  5
27A
100
AcDbEntity
  8
0
100
AcDbCircle
 62
7
  6
CONTINUOUS
 10
106.4753642917
 20
141.4519316269
 40
11.1125
100
AcDbArc
 50
92.6201487719
 51
87.3798512281
  0
ARC
  5
27B
100
AcDbEntity
  8
0
100
AcDbCircle
 62
7
  6
CONTINUOUS
 10
138.6289956917
 20
162.3916819256
 40
2.42824
100
AcDbArc
 50
0.0
 51
90.0
  0
CIRCLE
  5
27C
100
AcDbEntity
  8
0
100
AcDbCircle
 62
7
  6
CONTINUOUS
 10
111.8980356917
 20
115.3407219256
 40
1.7272
  0
ARC
  5
27D
100
AcDbEntity
  8
0
100
AcDbCircle
 62
7
  6
CONTINUOUS
 10
140.4476356917
 20
112.0387219256
 40
1.524
100
AcDbArc
 50
288.0435985847
 51
360.0
  0
ARC
  5
27E
100
AcDbEntity
  8
0
100
AcDbCircle
 62
7
  6
CONTINUOUS
 10
138.6289956917
 20
162.3916819256
 40
1.21412
100
AcDbArc
 50
0.0
 51
90.0
  0
ARC
  5
27F
100
AcDbEntity
  8
0
100
AcDbCircle
 62
7
  6
CONTINUOUS
 10
141.1557161654
 20
109.8651492807
 40
0.762
100
AcDbArc
 50
108.0439534044
 51
174.9987951786
  0
SPLINE
  5
280
100
AcDbEntity
  8
0
100
AcDbSpline
 62
7
  6
CONTINUOUS
 70
0
 71
3
 72
14
 73
10
 74
0
 42
0.0000001
 43
0.0000001
 44
0.0000000001
 40
0.0
 40
0.0
 40
0.0
 40
0.0
 40
0.0278269149
 40
0.0871239015
 40
0.1799205948
 40
0.3032427828
 40
0.4528613834
 40
0.6233341116
 40
1.0
 40
1.0
 40
1.0
 40
1.0
 10
70.0515356917
 20
55.2240019256
 30
0.0
 10
70.0515356917
 20
55.2216077405
 30
0.0
 10
70.0593813472
 20
55.2166193765
 30
0.0
 10
70.0732240175
 20
55.2128892036
 30
0.0
 10
70.0970783812
 20
55.2082115332
 30
0.0
 10
70.1280993152
 20
55.2044874869
 30
0.0
 10
70.1661992919
 20
55.2012177461
 30
0.0
 10
70.2260278095
 20
55.1979218199
 30
0.0
 10
70.273127936
 20
55.1970043047
 30
0.0
 10
70.3055356917
 20
55.1970043047
 30
0.0
  0
SPLINE
  5
281
100
AcDbEntity
  8
0
100
AcDbSpline
 62
7
  6
CONTINUOUS
 70
0
 71
3
 72
14
 73
10
 74
0
 42
0.0000001
 43
0.0000001
 44
0.0000000001
 40
0.0
 40
0.0
 40
0.0
 40
0.0
 40
0.3766660711
 40
0.5471387962
 40
0.6967572971
 40
0.820079422
 40
0.9128760811
 40
0.9721730725
 40
1.0
 40
1.0
 40
1.0
 40
1.0
 10
88.8475356917
 20
55.1970043047
 30
0.0
 10
88.879943463
 20
55.1970043047
 30
0.0
 10
88.9270436048
 20
55.1979218221
 30
0.0
 10
88.9868721291
 20
55.2012177473
 30
0.0
 10
89.0249720913
 20
55.2044874899
 30
0.0
 10
89.0559930081
 20
55.208211534
 30
0.0
 10
89.0798473649
 20
55.2128892021
 30
0.0
 10
89.0936900308
 20
55.2166193779
 30
0.0
 10
89.1015356917
 20
55.2216077394
 30
0.0
 10
89.1015356917
 20
55.2240019256
 30
0.0
  0
SPLINE
  5
282
100
AcDbEntity
  8
0
100
AcDbSpline
 62
7
  6
CONTINUOUS
 70
0
 71
3
 72
11
 73
7
 74
0
 42
0.0000001
 43
0.0000001
 44
0.0000000001
 40
0.0
 40
0.0
 40
0.0
 40
0.0
 40
0.2977007641
 40
0.5752793187
 40
0.8145501271
 40
1.0
 40
1.0
 40
1.0
 40
1.0
 10
130.7911725202
 20
72.4454829592
 30
0.0
 10
131.3286396767
 20
72.398817863
 30
0.0
 10
132.3682569679
 20
72.3199810694
 30
0.0
 10
133.8425404009
 20
72.242455429
 30
0.0
 10
135.1149507589
 20
72.2120752001
 30
0.0
 10
135.8851114932
 20
72.223550685
 30
0.0
 10
136.2205889808
 20
72.2434926941
 30
0.0
  0
SPLINE
  5
283
100
AcDbEntity
  8
0
100
AcDbSpline
 62
7
  6
CONTINUOUS
 70
0
 71
3
 72
13
 73
9
 74
0
 42
0.0000001
 43
0.0000001
 44
0.0000000001
 40
0.0
 40
0.0
 40
0.0
 40
0.0
 40
0.4065100262
 40
0.5702604244
 40
0.7070762926
 40
0.816891805
 40
0.9004848084
 40
1.0
 40
1.0
 40
1.0
 40
1.0
 10
136.2835842313
 20
72.2474479915
 30
0.0
 10
136.4022934473
 20
72.2553120594
 30
0.0
 10
136.5686522046
 20
72.2692581499
 30
0.0
 10
136.7737621585
 20
72.2985349198
 30
0.0
 10
136.8913375173
 20
72.3211904912
 30
0.0
 10
136.9857506764
 20
72.347444317
 30
0.0
 10
137.0624710855
 20
72.3774123425
 30
0.0
 10
137.1144705148
 20
72.4164696223
 30
0.0
 10
137.117008853
 20
72.4454829585
 30
0.0
  0
SPLINE
  5
284
100
AcDbEntity
  8
0
100
AcDbSpline
 62
7
  6
CONTINUOUS
 70
0
 71
3
 72
9
 73
5
 74
0
 42
0.0000001
 43
0.0000001
 44
0.0000000001
 40
0.0
 40
0.0
 40
0.0
 40
0.0
 40
0.6193490476
 40
1.0
 40
1.0
 40
1.0
 40
1.0
 10
134.0707822622
 20
109.9315969333
 30
0.0
 10
134.0746299704
 20
110.0675220996
 30
0.0
 10
134.0823935191
 20
110.2868693369
 30
0.0
 10
134.0900550416
 20
110.5064452043
 30
0.0
 10
134.0976362092
 20
110.5896734956
 30
0.0
  0
SPLINE
  5
285
100
AcDbEntity
  8
0
100
AcDbSpline
 62
7
  6
CONTINUOUS
 70
0
 71
3
 72
10
 73
6
 74
0
 42
0.0000001
 43
0.0000001
 44
0.0000000001
 40
0.0
 40
0.0
 40
0.0
 40
0.0
 40
0.619312495
 40
0.8498433354
 40
1.0
 40
1.0
 40
1.0
 40
1.0
 10
24.7012885378
 20
109.9315969333
 30
0.0
 10
24.6977988993
 20
110.0675296621
 30
0.0
 10
24.6926792437
 20
110.2540802696
 30
0.0
 10
24.6824679919
 20
110.4733813174
 30
0.0
 10
24.6777012707
 20
110.5568669749
 30
0.0
 10
24.6744351412
 20
110.5896734956
 30
0.0
  0
SPLINE
  5
286
100
AcDbEntity
  8
0
100
AcDbSpline
 62
7
  6
CONTINUOUS
 70
0
 71
3
 72
18
 73
14
 74
0
 42
0.0000001
 43
0.0000001
 44
0.0000000001
 40
0.0
 40
0.0
 40
0.0
 40
0.0
 40
0.0044265345
 40
0.0164683615
 40
0.0363990539
 40
0.0642246632
 40
0.099919229
 40
0.1434480243
 40
0.2538538492
 40
0.3951233254
 40
0.5669276075
 40
0.7688591013
 40
1.0
 40
1.0
 40
1.0
 40
1.0
 10
18.3754544752
 20
109.9315718904
 30
0.0
 10
18.3753541556
 20
109.9327452879
 30
0.0
 10
18.3815959337
 20
109.9339200276
 30
0.0
 10
18.3893235568
 20
109.9354960653
 30
0.0
 10
18.4061964561
 20
109.9370078431
 30
0.0
 10
18.4278879562
 20
109.9386001319
 30
0.0
 10
18.4565036604
 20
109.9401331192
 30
0.0
 10
18.5068244692
 20
109.9423126687
 30
0.0
 10
18.5853825003
 20
109.9447463217
 30
0.0
 10
18.6979972283
 20
109.9472889708
 30
0.0
 10
18.8350045342
 20
109.9495657031
 30
0.0
 10
18.9959168903
 20
109.9515496968
 30
0.0
 10
19.1111318848
 20
109.952595896
 30
0.0
 10
19.1726249391
 20
109.9530805841
 30
0.0
  0
SPLINE
  5
287
100
AcDbEntity
  8
0
100
AcDbSpline
 62
7
  6
CONTINUOUS
 70
0
 71
3
 72
9
 73
5
 74
0
 42
0.0000001
 43
0.0000001
 44
0.0000000001
 40
0.0
 40
0.0
 40
0.0
 40
0.0
 40
0.4418481135
 40
1.0
 40
1.0
 40
1.0
 40
1.0
 10
19.6640512495
 20
109.955678928
 30
0.0
 10
20.4059565824
 20
109.9580400377
 30
0.0
 10
22.0850756467
 20
109.9525623793
 30
0.0
 10
23.7641300449
 20
109.9399164739
 30
0.0
 10
24.7012881565
 20
109.9315719059
 30
0.0
  0
SPLINE
  5
288
100
AcDbEntity
  8
0
100
AcDbSpline
 62
7
  6
CONTINUOUS
 70
0
 71
3
 72
9
 73
5
 74
0
 42
0.0000001
 43
0.0000001
 44
0.0000000001
 40
0.0
 40
0.0
 40
0.0
 40
0.0
 40
0.5745683338
 40
1.0
 40
1.0
 40
1.0
 40
1.0
 10
134.0707822241
 20
109.9315788904
 30
0.0
 10
135.1098917722
 20
109.9408316899
 30
0.0
 10
136.9184102817
 20
109.9539704129
 30
0.0
 10
138.7270274368
 20
109.9589295752
 30
0.0
 10
139.4964362387
 20
109.9538329328
 30
0.0
  0
LINE
  5
289
100
AcDbEntity
  8
0
100
AcDbLine
 62
7
  6
CONTINUOUS
 10
139.4964362387
 20
109.9538329328
 11
139.5506670569
 21
109.9534566864
  0
SPLINE
  5
28A
100
AcDbEntity
  8
0
100
AcDbSpline
 62
7
  6
CONTINUOUS
 70
0
 71
3
 72
18
 73
14
 74
0
 42
0.0000001
 43
0.0000001
 44
0.0000000001
 40
0.0
 40
0.0
 40
0.0
 40
0.0
 40
0.2308606036
 40
0.4327430214
 40
0.6046012531
 40
0.7459466418
 40
0.8564361106
 40
0.9000050338
 40
0.935736031
 40
0.9635922241
 40
0.9835449931
 40
0.9955958923
 40
1.0
 40
1.0
 40
1.0
 40
1.0
 10
139.5506670569
 20
109.9534566864
 30
0.0
 10
139.6158391278
 20
109.9529835022
 30
0.0
 10
139.7380026233
 20
109.9519532786
 30
0.0
 10
139.908671989
 20
109.9499744732
 30
0.0
 10
140.054076768
 20
109.9476807338
 30
0.0
 10
140.1736355909
 20
109.9450980298
 30
0.0
 10
140.2570549907
 20
109.9426157249
 30
0.0
 10
140.3104973453
 20
109.9403811599
 30
0.0
 10
140.3408995626
 20
109.9388139922
 30
0.0
 10
140.3639333389
 20
109.9371647397
 30
0.0
 10
140.3818871524
 20
109.9356415815
 30
0.0
 10
140.3900492056
 20
109.9339652822
 30
0.0
 10
140.3967234631
 20
109.9328176858
 30
0.0
 10
140.3966175322
 20
109.931578892
 30
0.0
  0
SPLINE
  5
28B
100
AcDbEntity
  8
0
100
AcDbSpline
 62
7
  6
CONTINUOUS
 70
0
 71
3
 72
13
 73
9
 74
0
 42
0.0000001
 43
0.0000001
 44
0.0000000001
 40
0.0
 40
0.0
 40
0.0
 40
0.0
 40
0.0995147655
 40
0.1831077044
 40
0.2929232414
 40
0.4297391929
 40
0.5934896935
 40
1.0
 40
1.0
 40
1.0
 40
1.0
 10
21.6550625304
 20
72.4454829585
 30
0.0
 10
21.6576008973
 20
72.4164692942
 30
0.0
 10
21.7096013004
 20
72.3774117352
 30
0.0
 10
21.7863228314
 20
72.3474435744
 30
0.0
 10
21.8807375722
 20
72.3211896146
 30
0.0
 10
21.9983148711
 20
72.2985339692
 30
0.0
 10
22.2034282202
 20
72.2692571384
 30
0.0
 10
22.3697897024
 20
72.2553110948
 30
0.0
 10
22.4885008633
 20
72.2474470836
 30
0.0
  0
SPLINE
  5
28C
100
AcDbEntity
  8
0
100
AcDbSpline
 62
7
  6
CONTINUOUS
 70
0
 71
3
 72
11
 73
7
 74
0
 42
0.0000001
 43
0.0000001
 44
0.0000000001
 40
0.0
 40
0.0
 40
0.0
 40
0.0
 40
0.1854496149
 40
0.4247204041
 40
0.7022990759
 40
1.0
 40
1.0
 40
1.0
 40
1.0
 10
22.551475784
 20
72.2434930884
 30
0.0
 10
22.8869532004
 20
72.2235508578
 30
0.0
 10
23.6571143755
 20
72.2120751369
 30
0.0
 10
24.9295259978
 20
72.2424552075
 30
0.0
 10
26.4038117017
 20
72.3199808711
 30
0.0
 10
27.4434307626
 20
72.398817781
 30
0.0
 10
27.9808988632
 20
72.4454829592
 30
0.0
  0
ELLIPSE
  5
28D
100
AcDbEntity
  8
0
100
AcDbEllipse
 62
7
  6
CONTINUOUS
 10
104.2145356917
 20
65.0293792103
 30
0.0
 11
0.0
 21
1.3198227154
 31
0.0
 40
0.5773502692
 41
-0.7853981634
 42
0.0
  0
ELLIPSE
  5
28E
100
AcDbEntity
  8
0
100
AcDbEllipse
 62
7
  6
CONTINUOUS
 10
54.9385356917
 20
65.0293792103
 30
0.0
 11
0.0
 21
1.3198227154
 31
0.0
 40
0.5773502692
 41
0.0
 42
0.7853981634
  0
ENDSEC
  0
SECTION
  2
OBJECTS
  0
DICTIONARY
  5
C
100
AcDbDictionary
280
0
281
1
  3
ACAD_GROUP
350
D
  3
ACAD_MLINESTYLE
350
17
  3
ACAD_LAYOUT
350
1A
  3
ACAD_PLOTSETTINGS
350
19
  3
ACAD_PLOTSTYLENAME
350
E
  0
DICTIONARY
  5
D
102
{ACAD_REACTORS
330
C
102
}
100
AcDbDictionary
280
0
281
1
  0
ACDBDICTIONARYWDFLT
  5
E
102
{ACAD_REACTORS
330
C
102
}
100
AcDbDictionary
281
1
  3
Normal
350
F
100
AcDbDictionaryWithDefault
340
F
  0
DICTIONARY
  5
17
102
{ACAD_REACTORS
330
C
102
}
100
AcDbDictionary
280
0
281
1
  3
Standard
350
18
  0
DICTIONARY
  5
19
102
{ACAD_REACTORS
330
C
102
}
100
AcDbDictionary
281
1
  0
DICTIONARY
  5
1A
102
{ACAD_REACTORS
330
C
102
}
100
AcDbDictionary
281
1
  3
Model
350
28F
  3
Layout1
350
290
  0
ACDBPLACEHOLDER
  5
F
102
{ACAD_REACTORS
330
E
102
}
  0
MLINESTYLE
  5
18
102
{ACAD_REACTORS
330
17
102
}
100
AcDbMlineStyle
  2
STANDARD
 70
0
  3

 62
256
 51
90.0
 52
90.0
 71
2
 49
0.5
 62
256
  6
BYLAYER
 49
-0.5
 62
256
  6
BYLAYER
  0
LAYOUT
  5
28F
102
{ACAD_REACTORS
330
1A
102
}
100
AcDbPlotSettings
  1

  2
none_device
  4

  6

 40
0.0
 41
0.0
 42
0.0
 43
0.0
 44
210.0
 45
297.0
 46
0.0
 47
0.0
 48
0.0
 49
0.0
140
0.0
141
0.0
142
1.0
143
1.0
 70
1024
 72
1
 73
0
 74
0
  7

 75
0
147
1.0
148
0.0
149
0.0
100
AcDbLayout
  1
Model
 70
0
 71
0
 10
0.0
 20
0.0
 11
210.0
 21
297.0
 12
0.0
 22
0.0
 32
0.0
 14
0.0
 24
0.0
 34
0.0
 15
0.0
 25
0.0
 35
0.0
146
0.0
 13
0.0
 23
0.0
 33
0.0
 16
1.0
 26
0.0
 36
0.0
 17
0.0
 27
1.0
 37
0.0
 76
0
330
210
345
0
346
0
  0
LAYOUT
  5
290
102
{ACAD_REACTORS
330
1A
102
}
100
AcDbPlotSettings
  1

  2
none_device
  4

  6

 40
0.0
 41
0.0
 42
0.0
 43
0.0
 44
210.0
 45
297.0
 46
0.0
 47
0.0
 48
0.0
 49
0.0
140
0.0
141
0.0
142
1.0
143
1.0
 70
0
 72
1
 73
0
 74
0
  7

 75
0
147
1.0
148
0.0
149
0.0
100
AcDbLayout
  1
Layout1
 70
0
 71
1
 10
0.0
 20
0.0
 11
210.0
 21
297.0
 12
0.0
 22
0.0
 32
0.0
 14
0.0
 24
0.0
 34
0.0
 15
0.0
 25
0.0
 35
0.0
146
0.0
 13
0.0
 23
0.0
 33
0.0
 16
1.0
 26
0.0
 36
0.0
 17
0.0
 27
1.0
 37
0.0
 76
0
330
211
345
0
346
0
  0
ENDSEC
  0
EOF
