999
DXF file: C:\Users\sesa63760\Dev\_Creo\CAD\MCADID0002282_3D-CAD\drw0001_1.dxf
999
Pro/ENGINEER 2019471 by Parametric Technology Corporation
  0
SECTION
  2
HEADER
  9
$ACADVER
  1
AC1024
  9
$DWGCODEPAGE
  3
ANSI_1252
  9
$EXTMAX
 10
261.8496062513
 20
370.3301574125
 30
0.0
  9
$EXTMIN
 10
0.0
 20
0.0
 30
0.0
  9
$LIMMIN
 10
0.0
 20
0.0
  9
$LIMMAX
 10
261.8496062513
 20
370.3301574125
  9
$VIEWCTR
 10
130.9248031256
 20
185.1650787062
  9
$VIEWSIZE
 40
370.3301574125
  9
$CLAYER
  8
0
  9
$LTSCALE
 40
24.1400398906
  9
$CELTYPE
  6
BYLAYER
  9
$DIMSCALE
 40
1.0
  9
$DIMASZ
 40
3.1172572173
  9
$DIMEXO
 40
1.0
  9
$DIMDLI
 40
16.6785730153
  9
$DIMEXE
 40
1.0
  9
$DIMCEN
 40
3.9501883457
  9
$DIMLFAC
 40
1.0
  9
$DIMBLK
  1
_FILLED
  9
$DIMALT
 70
0
  9
$DIMALTF
 40
0.0393700787
  9
$DIMTXT
 40
4.3641601042
  9
$DIMTOL
 70
1
  9
$DIMLIM
 70
0
  9
$DIMTFAC
 40
1.0
  9
$DIMTP
 40
0.01
  9
$DIMTM
 40
0.01
  9
$DIMGAP
 40
0.625
  9
$DIMDSEP
 70
46
  9
$AUNITS
 70
0
  9
$PDMODE
 70
3
  9
$PDSIZE
 40
0.3125
  9
$HANDSEED
  5
2AE
  9
$TILEMODE
 70
1
  9
$MEASUREMENT
 70
1
  9
$INSUNITS
 70
4
  0
ENDSEC
  0
SECTION
  2
CLASSES
  0
CLASS
  1
ACDBDICTIONARYWDFLT
  2
AcDbDictionaryWithDefault
  3
AutoCAD 2000
 90
0
 91
1
280
0
281
0
  0
CLASS
  1
ACDBPLACEHOLDER
  2
AcDbPlaceHolder
  3
AutoCAD 2000
 90
0
 91
1
280
0
281
0
  0
CLASS
  1
LAYOUT
  2
AcDbLayout
  3
AutoCAD 2000
 90
0
 91
0
280
0
281
0
  0
ENDSEC
  0
SECTION
  2
TABLES
  0
TABLE
  2
VPORT
  5
8
100
AcDbSymbolTable
 70
2
  0
VPORT
  5
1F4
100
AcDbSymbolTableRecord
100
AcDbViewportTableRecord
  2
*ACTIVE
 70
0
 10
0.0
 20
0.0
 11
1.0
 21
1.0
 12
130.9248031256
 22
185.1650787062
 13
0.0
 23
0.0
 14
1.0
 24
1.0
 15
0.0
 25
0.0
 16
0.0
 26
0.0
 36
1.0
 17
0.0
 27
0.0
 37
0.0
 40
370.3301574125
 41
0.7070707071
 42
50.0
 43
0.0
 44
0.0
 50
0.0
 51
0.0
 71
0
 72
100
 73
1
 74
1
 75
0
 76
0
 77
0
 78
0
  0
ENDTAB
  0
TABLE
  2
LTYPE
  5
5
100
AcDbSymbolTable
 70
6
  0
LTYPE
  5
14
100
AcDbSymbolTableRecord
100
AcDbLinetypeTableRecord
  2
BYBLOCK
 70
0
  3

 72
65
 73
0
 40
0.0
  0
LTYPE
  5
15
100
AcDbSymbolTableRecord
100
AcDbLinetypeTableRecord
  2
BYLAYER
 70
0
  3

 72
65
 73
0
 40
0.0
  0
LTYPE
  5
16
100
AcDbSymbolTableRecord
100
AcDbLinetypeTableRecord
  2
CONTINUOUS
 70
64
  3
Solid line
 72
65
 73
0
 40
0.0
  0
LTYPE
  5
1F5
100
AcDbSymbolTableRecord
100
AcDbLinetypeTableRecord
  2
CENTER
 70
64
  3
____ _ ____ _ ____ _ ____ _ ____ _ ____ _ ____
 72
65
 73
4
 40
0.6
 49
0.375
 74
0
 49
-0.075
 74
0
 49
0.075
 74
0
 49
-0.075
 74
0
  0
LTYPE
  5
1F6
100
AcDbSymbolTableRecord
100
AcDbLinetypeTableRecord
  2
HIDDEN
 70
64
  3
- - - - - - - - - - - - - - - - - - - -
 72
65
 73
2
 40
0.2
 49
0.1
 74
0
 49
-0.1
 74
0
  0
LTYPE
  5
1F7
100
AcDbSymbolTableRecord
100
AcDbLinetypeTableRecord
  2
PHANTOM
 70
64
  3
_____ _ _ _____ _ _ _____ _ _ _____
 72
65
 73
6
 40
0.8
 49
0.45
 74
0
 49
-0.05
 74
0
 49
0.1
 74
0
 49
-0.05
 74
0
 49
0.1
 74
0
 49
-0.05
 74
0
  0
LTYPE
  5
1F8
100
AcDbSymbolTableRecord
100
AcDbLinetypeTableRecord
  2
DOT
 70
64
  3
. . . . . . . . . . . . . . . . . . . .
 72
65
 73
2
 40
0.2
 49
0.1
 74
0
 49
-0.1
 74
0
  0
LTYPE
  5
1F9
100
AcDbSymbolTableRecord
100
AcDbLinetypeTableRecord
  2
DASHED
 70
64
  3
- - - - - - - - - - - - - - - - - - - -
 72
65
 73
2
 40
0.2
 49
0.1
 74
0
 49
-0.1
 74
0
  0
ENDTAB
  0
TABLE
  2
LAYER
  5
2
100
AcDbSymbolTable
 70
36
  0
LAYER
  5
10
100
AcDbSymbolTableRecord
100
AcDbLayerTableRecord
  2
0
 70
0
 62
7
  6
CONTINUOUS
370
-3
390
F
  0
LAYER
  5
1FA
100
AcDbSymbolTableRecord
100
AcDbLayerTableRecord
  2
DEFAULT_1
 70
0
 62
7
  6
CENTER
370
-3
390
F
  0
LAYER
  5
1FB
100
AcDbSymbolTableRecord
100
AcDbLayerTableRecord
  2
DEFAULT_2
 70
0
 62
8
  6
HIDDEN
370
-3
390
F
  0
LAYER
  5
1FC
100
AcDbSymbolTableRecord
100
AcDbLayerTableRecord
  2
DEFAULT_3
 70
0
 62
7
  6
PHANTOM
370
-3
390
F
  0
LAYER
  5
1FD
100
AcDbSymbolTableRecord
100
AcDbLayerTableRecord
  2
00_COMPONENTS
 70
0
 62
7
  6
CONTINUOUS
370
-3
390
F
  0
LAYER
  5
1FE
100
AcDbSymbolTableRecord
100
AcDbLayerTableRecord
  2
01_1_DEFAULT_DATUMS
 70
0
 62
7
  6
CONTINUOUS
370
-3
390
F
  0
LAYER
  5
1FF
100
AcDbSymbolTableRecord
100
AcDbLayerTableRecord
  2
01_PLANES
 70
0
 62
7
  6
CONTINUOUS
370
-3
390
F
  0
LAYER
  5
200
100
AcDbSymbolTableRecord
100
AcDbLayerTableRecord
  2
02_COORD_SYS
 70
0
 62
7
  6
CONTINUOUS
370
-3
390
F
  0
LAYER
  5
201
100
AcDbSymbolTableRecord
100
AcDbLayerTableRecord
  2
03_AXES
 70
0
 62
7
  6
CONTINUOUS
370
-3
390
F
  0
LAYER
  5
202
100
AcDbSymbolTableRecord
100
AcDbLayerTableRecord
  2
04_POINTS
 70
0
 62
7
  6
CONTINUOUS
370
-3
390
F
  0
LAYER
  5
203
100
AcDbSymbolTableRecord
100
AcDbLayerTableRecord
  2
05_CURVES
 70
0
 62
7
  6
CONTINUOUS
370
-3
390
F
  0
LAYER
  5
204
100
AcDbSymbolTableRecord
100
AcDbLayerTableRecord
  2
06_SURFS
 70
0
 62
7
  6
CONTINUOUS
370
-3
390
F
  0
LAYER
  5
205
100
AcDbSymbolTableRecord
100
AcDbLayerTableRecord
  2
07_COSMETICS
 70
0
 62
7
  6
CONTINUOUS
370
-3
390
F
  0
LAYER
  5
206
100
AcDbSymbolTableRecord
100
AcDbLayerTableRecord
  2
10_NOTES
 70
0
 62
7
  6
CONTINUOUS
370
-3
390
F
  0
LAYER
  5
207
100
AcDbSymbolTableRecord
100
AcDbLayerTableRecord
  2
11_NOTES_PUB
 70
0
 62
7
  6
CONTINUOUS
370
-3
390
F
  0
LAYER
  5
208
100
AcDbSymbolTableRecord
100
AcDbLayerTableRecord
  2
13_REF_GTOL
 70
0
 62
7
  6
CONTINUOUS
370
-3
390
F
  0
LAYER
  5
209
100
AcDbSymbolTableRecord
100
AcDbLayerTableRecord
  2
16_MISC
 70
0
 62
7
  6
CONTINUOUS
370
-3
390
F
  0
LAYER
  5
20A
100
AcDbSymbolTableRecord
100
AcDbLayerTableRecord
  2
17_NO_PRINT
 70
0
 62
7
  6
CONTINUOUS
370
-3
390
F
  0
LAYER
  5
20B
100
AcDbSymbolTableRecord
100
AcDbLayerTableRecord
  2
18_DATUM_CAMS_JOINTS
 70
0
 62
7
  6
CONTINUOUS
370
-3
390
F
  0
LAYER
  5
20C
100
AcDbSymbolTableRecord
100
AcDbLayerTableRecord
  2
19_DATUM_FUNCTIONAL
 70
0
 62
7
  6
CONTINUOUS
370
-3
390
F
  0
LAYER
  5
20D
100
AcDbSymbolTableRecord
100
AcDbLayerTableRecord
  2
20_DATUM_KINEMATIC_SCHEME
 70
0
 62
7
  6
CONTINUOUS
370
-3
390
F
  0
ENDTAB
  0
TABLE
  2
STYLE
  5
3
100
AcDbSymbolTable
 70
1
  0
STYLE
  5
11
100
AcDbSymbolTableRecord
100
AcDbTextStyleTableRecord
  2
STANDARD
 70
0
 40
0.0
 41
0.8
 50
0.0
 71
0
 42
0.2
  3
txt
  4

  0
STYLE
  5
20E
100
AcDbSymbolTableRecord
100
AcDbTextStyleTableRecord
  2
TEXTSTYLE_1
 70
0
 40
0.0
 41
0.8
 50
0.0
 71
0
 42
0.2
  3
gdt
  4

  0
ENDTAB
  0
TABLE
  2
VIEW
  5
6
100
AcDbSymbolTable
 70
0
  0
ENDTAB
  0
TABLE
  2
UCS
  5
7
100
AcDbSymbolTable
 70
0
  0
ENDTAB
  0
TABLE
  2
APPID
  5
9
100
AcDbSymbolTable
 70
1
  0
APPID
  5
20F
100
AcDbSymbolTableRecord
100
AcDbRegAppTableRecord
  2
ACAD
 70
0
  0
ENDTAB
  0
TABLE
  2
BLOCK_RECORD
  5
1
100
AcDbSymbolTable
 70
0
  0
BLOCK_RECORD
  5
210
100
AcDbSymbolTableRecord
100
AcDbBlockTableRecord
  2
*Model_Space
  0
BLOCK_RECORD
  5
211
100
AcDbSymbolTableRecord
100
AcDbBlockTableRecord
  2
*Paper_Space
  0
BLOCK_RECORD
  5
212
100
AcDbSymbolTableRecord
100
AcDbBlockTableRecord
  2
_FILLED
  0
ENDTAB
  0
TABLE
  2
DIMSTYLE
  5
A
100
AcDbSymbolTable
 70
1
100
AcDbDimStyleTable
 71
0
  0
DIMSTYLE
105
213
100
AcDbSymbolTableRecord
100
AcDbDimStyleTableRecord
  2
STANDARD
 70
0
  3

  4

 40
1.0
 41
3.1172572173
 42
1.0
 43
0.38
 44
1.0
 45
0.0
 46
0.0
 47
0.01
 48
0.01
140
4.3641601042
141
0.09
142
0.0
143
25.4
144
1.0
145
0.0
146
1.0
147
0.625
 71
1
 72
0
 73
0
 74
0
 75
0
 76
0
 77
1
 78
8
 79
2
170
0
171
1
172
0
173
0
174
0
175
0
176
0
177
0
178
0
270
2
179
2
271
2
272
2
273
2
274
2
275
0
280
0
281
0
282
0
283
1
284
8
285
0
286
0
287
3
288
0
340
11
278
46
341
212
342
212
343
212
344
212
  0
ENDTAB
  0
ENDSEC
  0
SECTION
  2
BLOCKS
  0
BLOCK
  5
20
100
AcDbEntity
  8
0
100
AcDbBlockBegin
  2
*Model_Space
 70
0
 10
0.0
 20
0.0
 30
0.0
  3
*Model_Space
  1

  0
ENDBLK
  5
21
100
AcDbEntity
  8
0
100
AcDbBlockEnd
  0
BLOCK
  5
1C
100
AcDbEntity
  8
0
100
AcDbBlockBegin
  2
*Paper_Space
 70
0
 10
0.0
 20
0.0
 30
0.0
  3
*Paper_Space
  1

  0
ENDBLK
  5
1D
100
AcDbEntity
  8
0
100
AcDbBlockEnd
  0
BLOCK
  5
214
100
AcDbEntity
  8
0
100
AcDbBlockBegin
  2
_FILLED
 70
64
 10
0.0
 20
0.0
  3
_FILLED
  1

  0
SOLID
  5
215
100
AcDbEntity
  8
0
  6
BYBLOCK
 62
0
100
AcDbTrace
 10
0.0
 20
0.0
 11
-1.0
 21
0.25
 12
-1.0
 22
-0.25
 13
-1.0
 23
-0.25
  0
ENDBLK
  5
216
100
AcDbEntity
  8
0
  6
BYBLOCK
 62
0
100
AcDbBlockEnd
  0
ENDSEC
  0
SECTION
  2
ENTITIES
  0
LINE
  5
217
100
AcDbEntity
  8
0
100
AcDbLine
 62
7
  6
CONTINUOUS
 10
198.8263145172
 20
28.5825289278
 11
178.8970768386
 21
40.9976649834
  0
LINE
  5
218
100
AcDbEntity
  8
0
100
AcDbLine
 62
7
  6
CONTINUOUS
 10
171.1057350823
 20
45.9424414237
 11
191.0349727608
 21
33.5273053682
  0
LINE
  5
219
100
AcDbEntity
  8
0
100
AcDbLine
 62
7
  6
CONTINUOUS
 10
195.7813710122
 20
36.0366334169
 11
199.6244746968
 21
33.6425300453
  0
LINE
  5
21A
100
AcDbEntity
  8
0
100
AcDbLine
 62
7
  6
CONTINUOUS
 10
195.777829888
 20
36.6034731557
 11
199.6209335726
 21
34.2093697841
  0
LINE
  5
21B
100
AcDbEntity
  8
0
100
AcDbLine
 62
7
  6
CONTINUOUS
 10
200.1662272595
 20
35.0752663498
 11
196.3231235749
 21
37.4693697214
  0
LINE
  5
21C
100
AcDbEntity
  8
0
100
AcDbLine
 62
7
  6
CONTINUOUS
 10
178.8970768386
 20
40.9976649834
 11
171.1057350822
 21
45.9424414237
  0
LINE
  5
21D
100
AcDbEntity
  8
0
100
AcDbLine
 62
7
  6
CONTINUOUS
 10
198.8263145172
 20
28.5825289278
 11
191.0349727608
 21
33.5273053682
  0
LINE
  5
21E
100
AcDbEntity
  8
0
100
AcDbLine
 62
7
  6
CONTINUOUS
 10
198.8251571174
 20
32.3732574247
 11
194.4465518328
 21
35.1521400524
  0
LINE
  5
21F
100
AcDbEntity
  8
0
100
AcDbLine
 62
7
  6
CONTINUOUS
 10
196.2824277829
 20
37.4951973131
 11
196.3231235749
 21
37.4693697214
  0
LINE
  5
220
100
AcDbEntity
  8
0
100
AcDbLine
 62
7
  6
CONTINUOUS
 10
196.3027520084
 20
37.5272216095
 11
200.1662272595
 21
35.0752663498
  0
LINE
  5
221
100
AcDbEntity
  8
0
100
AcDbLine
 62
7
  6
CONTINUOUS
 10
196.0440295918
 20
41.4814137904
 11
176.1147919133
 21
53.8965498459
  0
LINE
  5
222
100
AcDbEntity
  8
0
100
AcDbLine
 62
7
  6
CONTINUOUS
 10
196.0440295918
 20
41.4814137904
 11
203.8353713482
 21
36.53663735
  0
LWPOLYLINE
  5
223
100
AcDbEntity
  8
0
100
AcDbPolyline
 62
7
  6
CONTINUOUS
 90
10
 70
0
 10
175.4656854582
 20
52.8658042794
 10
170.282745066
 20
58.0817877294
 10
166.1143280891
 20
69.8037147837
 10
165.6143556612
 20
86.9654330238
 10
168.490066419
 20
109.3298136833
 10
170.4852118809
 20
122.6777702546
 10
173.6419970906
 20
155.3833509689
 10
173.093362767
 20
190.1596289674
 10
168.7726110966
 20
213.7710686301
 10
161.0200290413
 20
228.913121744
  0
LINE
  5
224
100
AcDbEntity
  8
0
100
AcDbLine
 62
7
  6
CONTINUOUS
 10
163.39965715
 20
197.9792626312
 11
167.799311368
 21
199.7779549279
  0
LINE
  5
225
100
AcDbEntity
  8
0
100
AcDbLine
 62
7
  6
CONTINUOUS
 10
140.1938089384
 20
204.0332257604
 11
137.7073839515
 21
207.1967115215
  0
LINE
  5
226
100
AcDbEntity
  8
0
100
AcDbLine
 62
7
  6
CONTINUOUS
 10
135.5007729431
 20
210.0041891419
 11
117.715653504
 21
232.632248465
  0
LINE
  5
227
100
AcDbEntity
  8
0
100
AcDbLine
 62
7
  6
CONTINUOUS
 10
102.8396242333
 20
251.559063884
 11
101.1867320922
 21
253.662043375
  0
LINE
  5
228
100
AcDbEntity
  8
0
100
AcDbLine
 62
7
  6
CONTINUOUS
 10
86.3107028215
 20
272.5888587939
 11
84.6578106804
 21
274.6918382849
  0
LINE
  5
229
100
AcDbEntity
  8
0
100
AcDbLine
 62
7
  6
CONTINUOUS
 10
68.5421123038
 20
295.1958883221
 11
65.8136625853
 21
298.6673028552
  0
LINE
  5
22A
100
AcDbEntity
  8
0
100
AcDbLine
 62
7
  6
CONTINUOUS
 10
115.3793445327
 20
237.2229978703
 11
103.6258424674
 21
252.1770128207
  0
LINE
  5
22B
100
AcDbEntity
  8
0
100
AcDbLine
 62
7
  6
CONTINUOUS
 10
98.8504231209
 20
258.2527927802
 11
87.0969210556
 21
273.2068077306
  0
LINE
  5
22C
100
AcDbEntity
  8
0
100
AcDbLine
 62
7
  6
CONTINUOUS
 10
82.3215017091
 20
279.2825876902
 11
69.3283305379
 21
295.8138372588
  0
LWPOLYLINE
  5
22D
100
AcDbEntity
  8
0
100
AcDbPolyline
 62
7
  6
CONTINUOUS
 90
7
 70
0
 10
134.7959103595
 20
214.58516546
 10
133.3422210882
 20
217.7649264848
 10
133.3521800229
 20
225.884142332
 10
136.4467101002
 20
234.3170987958
 10
142.2728021672
 20
242.0772315731
 10
150.1085733
 20
248.1976617133
 10
159.0873199658
 20
251.9762766149
  0
LINE
  5
22E
100
AcDbEntity
  8
0
100
AcDbLine
 62
7
  6
CONTINUOUS
 10
146.1767876366
 20
209.0989397375
 11
145.9065131425
 21
209.9218677615
  0
LINE
  5
22F
100
AcDbEntity
  8
0
100
AcDbLine
 62
7
  6
CONTINUOUS
 10
152.7882843453
 20
200.6869658119
 11
146.176716031
 21
209.0988834573
  0
LINE
  5
230
100
AcDbEntity
  8
0
100
AcDbLine
 62
7
  6
CONTINUOUS
 10
156.199685263
 20
203.3682462483
 11
149.5881164479
 21
211.7801645309
  0
LWPOLYLINE
  5
231
100
AcDbEntity
  8
0
100
AcDbPolyline
 62
7
  6
CONTINUOUS
 90
10
 70
0
 10
160.8895947612
 20
228.9208210697
 10
167.7531625967
 20
216.1120111144
 10
172.45798033
 20
193.0814688145
 10
173.5080494046
 20
163.4482357343
 10
171.212907084
 20
132.2336593805
 10
167.2498282052
 20
104.571920941
 10
164.9947299267
 20
83.7670095795
 10
166.0989263398
 20
68.3564250682
 10
170.5789303217
 20
57.4515818377
 10
175.4145512878
 20
52.784606012
  0
LWPOLYLINE
  5
232
100
AcDbEntity
  8
0
100
AcDbPolyline
 62
7
  6
CONTINUOUS
 90
10
 70
0
 10
158.276217211
 20
226.7451697544
 10
165.5245390341
 20
212.4494224586
 10
169.6350691074
 20
189.5519889076
 10
170.1358848024
 20
155.34265496
 10
166.8396952395
 20
121.8697115863
 10
164.7808391745
 20
108.2634843244
 10
162.0126795534
 20
85.4996501955
 10
162.8988596297
 20
67.9557623383
 10
167.7286610254
 20
55.5789032844
 10
173.5677141249
 20
49.8519295566
  0
LINE
  5
233
100
AcDbEntity
  8
0
100
AcDbLine
 62
7
  6
CONTINUOUS
 10
162.3285265657
 20
237.6260637588
 11
162.0582520717
 21
238.4489917827
  0
LINE
  5
234
100
AcDbEntity
  8
0
100
AcDbLine
 62
7
  6
CONTINUOUS
 10
184.3303645812
 20
208.5563513935
 11
177.7187962669
 21
216.9682690388
  0
LINE
  5
235
100
AcDbEntity
  8
0
100
AcDbLine
 62
7
  6
CONTINUOUS
 10
168.9400232744
 20
229.2140898332
 11
162.3284549601
 21
237.6260074785
  0
LINE
  5
236
100
AcDbEntity
  8
0
100
AcDbLine
 62
7
  6
CONTINUOUS
 10
187.741765499
 20
211.2376318298
 11
181.1301966838
 21
219.6495501124
  0
LINE
  5
237
100
AcDbEntity
  8
0
100
AcDbLine
 62
7
  6
CONTINUOUS
 10
160.917198911
 20
228.9526204653
 11
160.9571357418
 21
228.9010663631
  0
LINE
  5
238
100
AcDbEntity
  8
0
100
AcDbLine
 62
7
  6
CONTINUOUS
 10
177.7188678725
 20
216.968325319
 11
177.4485933785
 21
217.791253343
  0
LINE
  5
239
100
AcDbEntity
  8
0
100
AcDbLine
 62
7
  6
CONTINUOUS
 10
195.777829888
 20
36.6034731557
 11
195.7813710122
 21
36.0366334169
  0
LINE
  5
23A
100
AcDbEntity
  8
0
100
AcDbLine
 62
7
  6
CONTINUOUS
 10
199.6209335726
 20
34.2093697841
 11
199.6244746968
 21
33.6425300453
  0
LINE
  5
23B
100
AcDbEntity
  8
0
100
AcDbLine
 62
7
  6
CONTINUOUS
 10
172.3514241921
 20
231.8953702695
 11
165.739855377
 21
240.3072885522
  0
LINE
  5
23C
100
AcDbEntity
  8
0
100
AcDbLine
 62
7
  6
CONTINUOUS
 10
160.7790687685
 20
273.3196842758
 11
149.2265000448
 21
288.0180511499
  0
LINE
  5
23D
100
AcDbEntity
  8
0
100
AcDbLine
 62
7
  6
CONTINUOUS
 10
144.2501473567
 20
294.3494791858
 11
132.697578633
 21
309.0478460598
  0
LINE
  5
23E
100
AcDbEntity
  8
0
100
AcDbLine
 62
7
  6
CONTINUOUS
 10
127.7212259449
 20
315.3792740957
 11
114.9289881153
 21
331.654875588
  0
LINE
  5
23F
100
AcDbEntity
  8
0
100
AcDbLine
 62
7
  6
CONTINUOUS
 10
187.3669029839
 20
241.110161963
 11
184.8804779971
 21
244.2736477241
  0
LINE
  5
240
100
AcDbEntity
  8
0
100
AcDbLine
 62
7
  6
CONTINUOUS
 10
182.6738669886
 20
247.0811253445
 11
164.8887475495
 21
269.7091846676
  0
LINE
  5
241
100
AcDbEntity
  8
0
100
AcDbLine
 62
7
  6
CONTINUOUS
 10
150.0127182789
 20
288.6360000866
 11
148.3598261377
 21
290.7389795776
  0
LINE
  5
242
100
AcDbEntity
  8
0
100
AcDbLine
 62
7
  6
CONTINUOUS
 10
133.4837968671
 20
309.6657949965
 11
131.8309047259
 21
311.7687744875
  0
LINE
  5
243
100
AcDbEntity
  8
0
100
AcDbLine
 62
7
  6
CONTINUOUS
 10
115.7152063494
 20
332.2728245247
 11
112.9867566308
 21
335.7442390578
  0
LINE
  5
244
100
AcDbEntity
  8
0
100
AcDbLine
 62
7
  6
CONTINUOUS
 10
176.1147919133
 20
53.8965498459
 11
171.1057350823
 21
45.9424414237
  0
LINE
  5
245
100
AcDbEntity
  8
0
100
AcDbLine
 62
7
  6
CONTINUOUS
 10
191.0349727608
 20
33.5273053682
 11
196.0440295918
 21
41.4814137904
  0
LINE
  5
246
100
AcDbEntity
  8
0
100
AcDbLine
 62
7
  6
CONTINUOUS
 10
195.2458694122
 20
36.4214126729
 11
194.4465518328
 21
35.1521400524
  0
LINE
  5
247
100
AcDbEntity
  8
0
100
AcDbLine
 62
7
  6
CONTINUOUS
 10
196.3027520084
 20
37.5272216095
 11
195.7574583215
 21
36.6613250437
  0
LINE
  5
248
100
AcDbEntity
  8
0
100
AcDbLine
 62
7
  6
CONTINUOUS
 10
196.3231235749
 20
37.4693697214
 11
195.777829888
 21
36.6034731557
  0
LINE
  5
249
100
AcDbEntity
  8
0
100
AcDbLine
 62
7
  6
CONTINUOUS
 10
195.7813710122
 20
36.0366334169
 11
195.0022654189
 21
34.7994563254
  0
LINE
  5
24A
100
AcDbEntity
  8
0
100
AcDbLine
 62
7
  6
CONTINUOUS
 10
199.6209335726
 20
34.2093697841
 11
200.1662272595
 21
35.0752663498
  0
LINE
  5
24B
100
AcDbEntity
  8
0
100
AcDbLine
 62
7
  6
CONTINUOUS
 10
198.8251571174
 20
32.3732574247
 11
199.6244746968
 21
33.6425300453
  0
LINE
  5
24C
100
AcDbEntity
  8
0
100
AcDbLine
 62
7
  6
CONTINUOUS
 10
203.8353713482
 20
36.53663735
 11
198.8263145172
 21
28.5825289278
  0
LINE
  5
24D
100
AcDbEntity
  8
0
100
AcDbLine
 62
7
  6
CONTINUOUS
 10
195.2458694122
 20
36.4214126729
 11
195.7574583215
 21
36.6613250437
  0
ARC
  5
24E
100
AcDbEntity
  8
0
100
AcDbCircle
 62
7
  6
CONTINUOUS
 10
171.5073604028
 20
233.6785711871
 40
17.0665066595
100
AcDbArc
 50
50.3285898738
 51
50.6524531795
  0
ARC
  5
24F
100
AcDbEntity
  8
0
100
AcDbCircle
 62
7
  6
CONTINUOUS
 10
171.689386142
 20
233.8896333944
 40
16.7878468106
100
AcDbArc
 50
38.2097859114
 51
50.3469167255
  0
ARC
  5
250
100
AcDbEntity
  8
0
100
AcDbCircle
 62
7
  6
CONTINUOUS
 10
120.3515869109
 20
299.3362164565
 40
16.7079106416
100
AcDbArc
 50
38.1880031551
 51
47.3136567092
  0
ARC
  5
251
100
AcDbEntity
  8
0
100
AcDbCircle
 62
7
  6
CONTINUOUS
 10
136.8805083228
 20
278.3064215466
 40
16.7079106416
100
AcDbArc
 50
38.1880031551
 51
47.3136567093
  0
ARC
  5
252
100
AcDbEntity
  8
0
100
AcDbCircle
 62
7
  6
CONTINUOUS
 10
99.4501611537
 20
282.9078778212
 40
16.7070843013
100
AcDbArc
 50
209.0351506115
 51
218.1441719573
  0
ARC
  5
253
100
AcDbEntity
  8
0
100
AcDbCircle
 62
7
  6
CONTINUOUS
 10
115.9790825655
 20
261.8780829112
 40
16.7070843013
100
AcDbArc
 50
209.0351506115
 51
218.1441719573
  0
ARC
  5
254
100
AcDbEntity
  8
0
100
AcDbCircle
 62
7
  6
CONTINUOUS
 10
148.5898582462
 20
220.295561039
 40
16.6503945717
100
AcDbArc
 50
218.1764123062
 51
224.7021669373
  0
ARC
  5
255
100
AcDbEntity
  8
0
100
AcDbCircle
 62
7
  6
CONTINUOUS
 10
169.6017444481
 20
236.8091555122
 40
16.6250685123
100
AcDbArc
 50
32.3196139549
 51
38.1599809489
  0
ARC
  5
256
100
AcDbEntity
  8
0
100
AcDbCircle
 62
7
  6
CONTINUOUS
 10
167.2697988614
 20
218.1319622768
 40
12.6801535731
100
AcDbArc
 50
120.0573833971
 51
136.3674056724
  0
ARC
  5
257
100
AcDbEntity
  8
0
100
AcDbCircle
 62
7
  6
CONTINUOUS
 10
161.2942581198
 20
230.086006797
 40
6.9679348365
100
AcDbArc
 50
359.1122141381
 51
359.9990872655
  0
ARC
  5
258
100
AcDbEntity
  8
0
100
AcDbCircle
 62
7
  6
CONTINUOUS
 10
165.4264884728
 20
224.8285580695
 40
6.9679348365
100
AcDbArc
 50
359.1122141381
 51
359.9990872655
  0
ARC
  5
259
100
AcDbEntity
  8
0
100
AcDbCircle
 62
7
  6
CONTINUOUS
 10
162.1342234476
 20
220.3148296539
 40
6.9679348346
100
AcDbArc
 50
179.1122141381
 51
179.9990872657
  0
ARC
  5
25A
100
AcDbEntity
  8
0
100
AcDbCircle
 62
7
  6
CONTINUOUS
 10
167.0807014711
 20
225.1640702081
 40
5.2626186394
100
AcDbArc
 50
38.1803460517
 51
45.0306061164
  0
ARC
  5
25B
100
AcDbEntity
  8
0
100
AcDbCircle
 62
7
  6
CONTINUOUS
 10
159.0641216606
 20
227.3631831289
 40
1.0013660395
100
AcDbArc
 50
208.0816926116
 51
218.1101224438
  0
ARC
  5
25C
100
AcDbEntity
  8
0
100
AcDbCircle
 62
7
  6
CONTINUOUS
 10
160.2489903127
 20
228.3064871929
 40
0.9811434168
100
AcDbArc
 50
42.9672226587
 51
57.582063257
  0
ARC
  5
25D
100
AcDbEntity
  8
0
100
AcDbCircle
 62
7
  6
CONTINUOUS
 10
160.2487759625
 20
228.3074006943
 40
0.9806779803
100
AcDbArc
 50
38.1454627655
 51
42.9196330997
  0
SPLINE
  5
25E
100
AcDbEntity
  8
0
100
AcDbSpline
 62
7
  6
CONTINUOUS
 70
0
 71
3
 72
11
 73
7
 74
0
 42
0.0000001
 43
0.0000001
 44
0.0000000001
 40
0.0
 40
0.0
 40
0.0
 40
0.0
 40
0.2604458316
 40
0.512346248
 40
0.7578291478
 40
1.0
 40
1.0
 40
1.0
 40
1.0
 10
188.0116764989
 20
210.4145714396
 30
0.0
 10
188.0116764989
 20
210.4911090541
 30
0.0
 10
188.000739329
 20
210.6419632485
 30
0.0
 10
187.949488121
 20
210.8596950667
 30
0.0
 10
187.8643743993
 20
211.0608060175
 30
0.0
 10
187.7857355948
 20
211.1816730346
 30
0.0
 10
187.7417627143
 20
211.2376296653
 30
0.0
  0
SPLINE
  5
25F
100
AcDbEntity
  8
0
100
AcDbSpline
 62
7
  6
CONTINUOUS
 70
0
 71
3
 72
19
 73
15
 74
0
 42
0.0000001
 43
0.0000001
 44
0.0000000001
 40
0.0
 40
0.0
 40
0.0
 40
0.0
 40
0.0519379213
 40
0.1049546215
 40
0.1599570612
 40
0.2175611068
 40
0.3410146911
 40
0.4068732128
 40
0.4747235782
 40
0.613275033
 40
0.7505822864
 40
0.8169722419
 40
0.8809432298
 40
1.0
 40
1.0
 40
1.0
 40
1.0
 10
184.3303673659
 20
208.5563535579
 30
0.0
 10
184.3847041548
 20
208.487208585
 30
0.0
 10
184.510471566
 20
208.359276542
 30
0.0
 10
184.7390488342
 20
208.2104826731
 30
0.0
 10
185.0018610671
 20
208.1074779995
 30
0.0
 10
185.3964013375
 20
208.0327238942
 30
0.0
 10
185.8213765991
 20
208.0625332779
 30
0.0
 10
186.2411350065
 20
208.1810361627
 30
0.0
 10
186.6658511829
 20
208.3634473966
 30
0.0
 10
187.1535984146
 20
208.691791142
 30
0.0
 10
187.5484378096
 20
209.1244655217
 30
0.0
 10
187.7841962147
 20
209.5131639196
 30
0.0
 10
187.9520988636
 20
209.9013761757
 30
0.0
 10
188.0116764989
 20
210.2129865532
 30
0.0
 10
188.0116764989
 20
210.4145714396
 30
0.0
  0
SPLINE
  5
260
100
AcDbEntity
  8
0
100
AcDbSpline
 62
7
  6
CONTINUOUS
 70
0
 71
3
 72
11
 73
7
 74
0
 42
0.0000001
 43
0.0000001
 44
0.0000000001
 40
0.0
 40
0.0
 40
0.0
 40
0.0
 40
0.2604458316
 40
0.512346248
 40
0.7578291478
 40
1.0
 40
1.0
 40
1.0
 40
1.0
 10
184.0604535812
 20
209.3794117837
 30
0.0
 10
184.0604535812
 20
209.3028741692
 30
0.0
 10
184.0713907511
 20
209.1520199748
 30
0.0
 10
184.1226419592
 20
208.9342881566
 30
0.0
 10
184.2077556809
 20
208.7331772058
 30
0.0
 10
184.2863944854
 20
208.6123101886
 30
0.0
 10
184.3303673659
 20
208.5563535579
 30
0.0
  0
SPLINE
  5
261
100
AcDbEntity
  8
0
100
AcDbSpline
 62
7
  6
CONTINUOUS
 70
0
 71
3
 72
19
 73
15
 74
0
 42
0.0000001
 43
0.0000001
 44
0.0000000001
 40
0.0
 40
0.0
 40
0.0
 40
0.0
 40
0.0519379213
 40
0.1049546215
 40
0.1599570612
 40
0.2175611068
 40
0.3410146911
 40
0.4068732128
 40
0.4747235782
 40
0.613275033
 40
0.7505822864
 40
0.8169722419
 40
0.8809432298
 40
1.0
 40
1.0
 40
1.0
 40
1.0
 10
187.7417627143
 20
211.2376296653
 30
0.0
 10
187.6874259254
 20
211.3067746383
 30
0.0
 10
187.5616585142
 20
211.4347066813
 30
0.0
 10
187.333081246
 20
211.5835005502
 30
0.0
 10
187.0702690131
 20
211.6865052238
 30
0.0
 10
186.6757287427
 20
211.7612593291
 30
0.0
 10
186.2507534811
 20
211.7314499454
 30
0.0
 10
185.8309950736
 20
211.6129470606
 30
0.0
 10
185.4062788973
 20
211.4305358266
 30
0.0
 10
184.9185316656
 20
211.1021920813
 30
0.0
 10
184.5236922706
 20
210.6695177016
 30
0.0
 10
184.2879338655
 20
210.2808193037
 30
0.0
 10
184.1200312166
 20
209.8926070476
 30
0.0
 10
184.0604535812
 20
209.5809966701
 30
0.0
 10
184.0604535812
 20
209.3794117837
 30
0.0
  0
SPLINE
  5
262
100
AcDbEntity
  8
0
100
AcDbSpline
 62
7
  6
CONTINUOUS
 70
0
 71
3
 72
11
 73
7
 74
0
 42
0.0000001
 43
0.0000001
 44
0.0000000001
 40
0.0
 40
0.0
 40
0.0
 40
0.0
 40
0.2604458316
 40
0.512346248
 40
0.7578291478
 40
1.0
 40
1.0
 40
1.0
 40
1.0
 10
156.469596263
 20
202.545185858
 30
0.0
 10
156.469596263
 20
202.6217234725
 30
0.0
 10
156.4586590931
 20
202.7725776669
 30
0.0
 10
156.4074078851
 20
202.9903094851
 30
0.0
 10
156.3222941634
 20
203.1914204359
 30
0.0
 10
156.2436553588
 20
203.3122874531
 30
0.0
 10
156.1996824783
 20
203.3682440838
 30
0.0
  0
SPLINE
  5
263
100
AcDbEntity
  8
0
100
AcDbSpline
 62
7
  6
CONTINUOUS
 70
0
 71
3
 72
19
 73
15
 74
0
 42
0.0000001
 43
0.0000001
 44
0.0000000001
 40
0.0
 40
0.0
 40
0.0
 40
0.0
 40
0.0519379213
 40
0.1049546215
 40
0.1599570612
 40
0.2175611068
 40
0.3410146911
 40
0.4068732128
 40
0.4747235782
 40
0.613275033
 40
0.7505822864
 40
0.8169722419
 40
0.8809432298
 40
1.0
 40
1.0
 40
1.0
 40
1.0
 10
152.78828713
 20
200.6869679764
 30
0.0
 10
152.8426239189
 20
200.6178230035
 30
0.0
 10
152.9683913301
 20
200.4898909604
 30
0.0
 10
153.1969685983
 20
200.3410970916
 30
0.0
 10
153.4597808312
 20
200.2380924179
 30
0.0
 10
153.8543211016
 20
200.1633383126
 30
0.0
 10
154.2792963632
 20
200.1931476963
 30
0.0
 10
154.6990547706
 20
200.3116505812
 30
0.0
 10
155.123770947
 20
200.4940618151
 30
0.0
 10
155.6115181787
 20
200.8224055604
 30
0.0
 10
156.0063575737
 20
201.2550799401
 30
0.0
 10
156.2421159788
 20
201.643778338
 30
0.0
 10
156.4100186277
 20
202.0319905941
 30
0.0
 10
156.469596263
 20
202.3436009716
 30
0.0
 10
156.469596263
 20
202.545185858
 30
0.0
  0
SPLINE
  5
264
100
AcDbEntity
  8
0
100
AcDbSpline
 62
7
  6
CONTINUOUS
 70
0
 71
3
 72
11
 73
7
 74
0
 42
0.0000001
 43
0.0000001
 44
0.0000000001
 40
0.0
 40
0.0
 40
0.0
 40
0.0
 40
0.2604458316
 40
0.512346248
 40
0.7578291478
 40
1.0
 40
1.0
 40
1.0
 40
1.0
 10
152.5183733453
 20
201.5100262021
 30
0.0
 10
152.5183733453
 20
201.4334885876
 30
0.0
 10
152.5293105152
 20
201.2826343932
 30
0.0
 10
152.5805617233
 20
201.064902575
 30
0.0
 10
152.665675445
 20
200.8637916242
 30
0.0
 10
152.7443142495
 20
200.7429246071
 30
0.0
 10
152.78828713
 20
200.6869679764
 30
0.0
  0
SPLINE
  5
265
100
AcDbEntity
  8
0
100
AcDbSpline
 62
7
  6
CONTINUOUS
 70
0
 71
3
 72
19
 73
15
 74
0
 42
0.0000001
 43
0.0000001
 44
0.0000000001
 40
0.0
 40
0.0
 40
0.0
 40
0.0
 40
0.0519379213
 40
0.1049546215
 40
0.1599570612
 40
0.2175611068
 40
0.3410146911
 40
0.4068732128
 40
0.4747235782
 40
0.613275033
 40
0.7505822864
 40
0.8169722419
 40
0.8809432298
 40
1.0
 40
1.0
 40
1.0
 40
1.0
 10
156.1996824783
 20
203.3682440838
 30
0.0
 10
156.1453456894
 20
203.4373890567
 30
0.0
 10
156.0195782783
 20
203.5653210997
 30
0.0
 10
155.7910010101
 20
203.7141149686
 30
0.0
 10
155.5281887772
 20
203.8171196422
 30
0.0
 10
155.1336485068
 20
203.8918737475
 30
0.0
 10
154.7086732451
 20
203.8620643638
 30
0.0
 10
154.2889148377
 20
203.743561479
 30
0.0
 10
153.8641986614
 20
203.5611502451
 30
0.0
 10
153.3764514296
 20
203.2328064997
 30
0.0
 10
152.9816120347
 20
202.80013212
 30
0.0
 10
152.7458536296
 20
202.4114337221
 30
0.0
 10
152.5779509806
 20
202.023221466
 30
0.0
 10
152.5183733453
 20
201.7116110886
 30
0.0
 10
152.5183733453
 20
201.5100262021
 30
0.0
  0
SPLINE
  5
266
100
AcDbEntity
  8
0
100
AcDbSpline
 62
7
  6
CONTINUOUS
 70
0
 71
3
 72
11
 73
7
 74
0
 42
0.0000001
 43
0.0000001
 44
0.0000000001
 40
0.0
 40
0.0
 40
0.0
 40
0.0
 40
0.2604458316
 40
0.512346248
 40
0.7578291478
 40
1.0
 40
1.0
 40
1.0
 40
1.0
 10
172.6213351921
 20
231.0723098793
 30
0.0
 10
172.6213351921
 20
231.1488474938
 30
0.0
 10
172.6103980222
 20
231.2997016882
 30
0.0
 10
172.5591468142
 20
231.5174335064
 30
0.0
 10
172.4740330925
 20
231.7185444572
 30
0.0
 10
172.395394288
 20
231.8394114744
 30
0.0
 10
172.3514214075
 20
231.8953681051
 30
0.0
  0
SPLINE
  5
267
100
AcDbEntity
  8
0
100
AcDbSpline
 62
7
  6
CONTINUOUS
 70
0
 71
3
 72
19
 73
15
 74
0
 42
0.0000001
 43
0.0000001
 44
0.0000000001
 40
0.0
 40
0.0
 40
0.0
 40
0.0
 40
0.0519379213
 40
0.1049546215
 40
0.1599570612
 40
0.2175611068
 40
0.3410146911
 40
0.4068732128
 40
0.4747235782
 40
0.613275033
 40
0.7505822864
 40
0.8169722419
 40
0.8809432298
 40
1.0
 40
1.0
 40
1.0
 40
1.0
 10
168.9400260591
 20
229.2140919977
 30
0.0
 10
168.994362848
 20
229.1449470247
 30
0.0
 10
169.1201302592
 20
229.0170149817
 30
0.0
 10
169.3487075274
 20
228.8682211128
 30
0.0
 10
169.6115197603
 20
228.7652164392
 30
0.0
 10
170.0060600307
 20
228.6904623339
 30
0.0
 10
170.4310352923
 20
228.7202717176
 30
0.0
 10
170.8507936997
 20
228.8387746024
 30
0.0
 10
171.2755098761
 20
229.0211858364
 30
0.0
 10
171.7632571078
 20
229.3495295817
 30
0.0
 10
172.1580965028
 20
229.7822039614
 30
0.0
 10
172.3938549079
 20
230.1709023593
 30
0.0
 10
172.5617575568
 20
230.5591146154
 30
0.0
 10
172.6213351921
 20
230.8707249929
 30
0.0
 10
172.6213351921
 20
231.0723098793
 30
0.0
  0
SPLINE
  5
268
100
AcDbEntity
  8
0
100
AcDbSpline
 62
7
  6
CONTINUOUS
 70
0
 71
3
 72
11
 73
7
 74
0
 42
0.0000001
 43
0.0000001
 44
0.0000000001
 40
0.0
 40
0.0
 40
0.0
 40
0.0
 40
0.2604458316
 40
0.512346248
 40
0.7578291478
 40
1.0
 40
1.0
 40
1.0
 40
1.0
 10
168.6701122744
 20
230.0371502234
 30
0.0
 10
168.6701122744
 20
229.9606126089
 30
0.0
 10
168.6810494443
 20
229.8097584145
 30
0.0
 10
168.7323006524
 20
229.5920265963
 30
0.0
 10
168.8174143741
 20
229.3909156455
 30
0.0
 10
168.8960531786
 20
229.2700486284
 30
0.0
 10
168.9400260591
 20
229.2140919977
 30
0.0
  0
SPLINE
  5
269
100
AcDbEntity
  8
0
100
AcDbSpline
 62
7
  6
CONTINUOUS
 70
0
 71
3
 72
19
 73
15
 74
0
 42
0.0000001
 43
0.0000001
 44
0.0000000001
 40
0.0
 40
0.0
 40
0.0
 40
0.0
 40
0.0519379213
 40
0.1049546215
 40
0.1599570612
 40
0.2175611068
 40
0.3410146911
 40
0.4068732128
 40
0.4747235782
 40
0.613275033
 40
0.7505822864
 40
0.8169722419
 40
0.8809432298
 40
1.0
 40
1.0
 40
1.0
 40
1.0
 10
172.3514214075
 20
231.8953681051
 30
0.0
 10
172.2970846185
 20
231.964513078
 30
0.0
 10
172.1713172074
 20
232.092445121
 30
0.0
 10
171.9427399392
 20
232.2412389899
 30
0.0
 10
171.6799277063
 20
232.3442436635
 30
0.0
 10
171.2853874359
 20
232.4189977688
 30
0.0
 10
170.8604121743
 20
232.3891883851
 30
0.0
 10
170.4406537668
 20
232.2706855003
 30
0.0
 10
170.0159375905
 20
232.0882742664
 30
0.0
 10
169.5281903588
 20
231.759930521
 30
0.0
 10
169.1333509638
 20
231.3272561413
 30
0.0
 10
168.8975925587
 20
230.9385577434
 30
0.0
 10
168.7296899098
 20
230.5503454873
 30
0.0
 10
168.6701122744
 20
230.2387351098
 30
0.0
 10
168.6701122744
 20
230.0371502234
 30
0.0
  0
SPLINE
  5
26A
100
AcDbEntity
  8
0
100
AcDbSpline
 62
7
  6
CONTINUOUS
 70
0
 71
3
 72
9
 73
5
 74
0
 42
0.0000001
 43
0.0000001
 44
0.0000000001
 40
0.0
 40
0.0
 40
0.0
 40
0.0
 40
0.4999666764
 40
1.0
 40
1.0
 40
1.0
 40
1.0
 10
171.1565467255
 20
200.9188424998
 30
0.0
 10
173.4062447722
 20
202.0738713012
 30
0.0
 10
177.6888176669
 20
204.8292098573
 30
0.0
 10
181.3829373745
 20
208.3342773554
 30
0.0
 10
183.0398717838
 20
210.2451688544
 30
0.0
  0
SPLINE
  5
26B
100
AcDbEntity
  8
0
100
AcDbSpline
 62
7
  6
CONTINUOUS
 70
0
 71
3
 72
11
 73
7
 74
0
 42
0.0000001
 43
0.0000001
 44
0.0000000001
 40
0.0
 40
0.0
 40
0.0
 40
0.0
 40
0.2654461084
 40
0.5213145253
 40
0.7663041211
 40
1.0
 40
1.0
 40
1.0
 40
1.0
 10
185.8224737393
 20
213.8757315903
 30
0.0
 10
186.6588446439
 20
215.1191044104
 30
0.0
 10
188.1518320515
 20
217.6664098436
 30
0.0
 10
189.8248663747
 20
221.670696846
 30
0.0
 10
190.8549525334
 20
225.7030918333
 30
0.0
 10
191.0992514511
 20
228.4095642271
 30
0.0
 10
191.0992514511
 20
229.7288244627
 30
0.0
  0
SPLINE
  5
26C
100
AcDbEntity
  8
0
100
AcDbSpline
 62
7
  6
CONTINUOUS
 70
0
 71
3
 72
11
 73
7
 74
0
 42
0.0000001
 43
0.0000001
 44
0.0000000001
 40
0.0
 40
0.0
 40
0.0
 40
0.0
 40
0.2604633117
 40
0.5123426181
 40
0.7578281936
 40
1.0
 40
1.0
 40
1.0
 40
1.0
 10
191.0992514511
 20
229.7288244627
 30
0.0
 10
191.0992514511
 20
230.7872631653
 30
0.0
 10
190.9480899934
 20
232.8732782941
 30
0.0
 10
190.2392753897
 20
235.8840744561
 30
0.0
 10
189.0622614922
 20
238.6649193681
 30
0.0
 10
187.9750230794
 20
240.3364317832
 30
0.0
 10
187.3668829136
 20
241.1101461828
 30
0.0
  0
SPLINE
  5
26D
100
AcDbEntity
  8
0
100
AcDbSpline
 62
7
  6
CONTINUOUS
 70
0
 71
3
 72
10
 73
6
 74
0
 42
0.0000001
 43
0.0000001
 44
0.0000000001
 40
0.0
 40
0.0
 40
0.0
 40
0.0
 40
0.4739167683
 40
0.7322331114
 40
1.0
 40
1.0
 40
1.0
 40
1.0
 10
155.1671250565
 20
220.4227919952
 30
0.0
 10
155.1847886474
 20
221.5638269353
 30
0.0
 10
155.647456684
 20
223.3316654451
 30
0.0
 10
156.8434531826
 20
225.4258714072
 30
0.0
 10
157.6476111892
 20
226.4146518704
 30
0.0
 10
158.0921644769
 20
226.8816663712
 30
0.0
  0
SPLINE
  5
26E
100
AcDbEntity
  8
0
100
AcDbSpline
 62
7
  6
CONTINUOUS
 70
0
 71
3
 72
11
 73
7
 74
0
 42
0.0000001
 43
0.0000001
 44
0.0000000001
 40
0.0
 40
0.0
 40
0.0
 40
0.0
 40
0.2685830825
 40
0.5268845188
 40
0.7711682326
 40
1.0
 40
1.0
 40
1.0
 40
1.0
 10
160.9187271285
 20
229.1069421164
 30
0.0
 10
161.5107160263
 20
229.4489753552
 30
0.0
 10
162.7300038931
 20
230.0257641906
 30
0.0
 10
164.6346674751
 20
230.5440850186
 30
0.0
 10
166.5039608131
 20
230.6795202869
 30
0.0
 10
167.7083975401
 20
230.4997600251
 30
0.0
 10
168.2685367695
 20
230.3398980864
 30
0.0
  0
SPLINE
  5
26F
100
AcDbEntity
  8
0
100
AcDbSpline
 62
7
  6
CONTINUOUS
 70
0
 71
3
 72
14
 73
10
 74
0
 42
0.0000001
 43
0.0000001
 44
0.0000000001
 40
0.0
 40
0.0
 40
0.0
 40
0.0
 40
0.2481469157
 40
0.3861376511
 40
0.5251883242
 40
0.6589845942
 40
0.7827727177
 40
0.8952527827
 40
1.0
 40
1.0
 40
1.0
 40
1.0
 10
162.0584439357
 20
238.4737308275
 30
0.0
 10
162.0648880831
 20
238.8900106981
 30
0.0
 10
162.3285874482
 20
239.5365665361
 30
0.0
 10
162.9305631532
 20
240.1829063836
 30
0.0
 10
163.5105479002
 20
240.5695856024
 30
0.0
 10
164.144174265
 20
240.7950796969
 30
0.0
 10
164.7731905889
 20
240.8369500912
 30
0.0
 10
165.3374147369
 20
240.6829218107
 30
0.0
 10
165.63150638
 20
240.4456547363
 30
0.0
 10
165.7400983212
 20
240.3074794874
 30
0.0
  0
SPLINE
  5
270
100
AcDbEntity
  8
0
100
AcDbSpline
 62
7
  6
CONTINUOUS
 70
0
 71
3
 72
8
 73
4
 74
0
 42
0.0000001
 43
0.0000001
 44
0.0000000001
 40
0.0
 40
0.0
 40
0.0
 40
0.0
 40
1.0
 40
1.0
 40
1.0
 40
1.0
 10
162.0582520717
 20
238.4489917827
 30
0.0
 10
162.0582520717
 20
238.4572461618
 30
0.0
 10
162.0582539019
 20
238.4655038221
 30
0.0
 10
162.0585398057
 20
238.4737532483
 30
0.0
  0
SPLINE
  5
271
100
AcDbEntity
  8
0
100
AcDbSpline
 62
7
  6
CONTINUOUS
 70
0
 71
3
 72
8
 73
4
 74
0
 42
0.0000001
 43
0.0000001
 44
0.0000000001
 40
0.0
 40
0.0
 40
0.0
 40
0.0
 40
1.0
 40
1.0
 40
1.0
 40
1.0
 10
177.4485933785
 20
217.791253343
 30
0.0
 10
177.4485933785
 20
217.799507722
 30
0.0
 10
177.4485952087
 20
217.8077653823
 30
0.0
 10
177.4488811125
 20
217.8160148085
 30
0.0
  0
SPLINE
  5
272
100
AcDbEntity
  8
0
100
AcDbSpline
 62
7
  6
CONTINUOUS
 70
0
 71
3
 72
14
 73
10
 74
0
 42
0.0000001
 43
0.0000001
 44
0.0000000001
 40
0.0
 40
0.0
 40
0.0
 40
0.0
 40
0.2481469157
 40
0.3861376511
 40
0.5251883242
 40
0.6589845942
 40
0.7827727177
 40
0.8952527827
 40
1.0
 40
1.0
 40
1.0
 40
1.0
 10
177.4487852425
 20
217.8159923877
 30
0.0
 10
177.4552293899
 20
218.2322722583
 30
0.0
 10
177.718928755
 20
218.8788280963
 30
0.0
 10
178.3209044601
 20
219.5251679438
 30
0.0
 10
178.900889207
 20
219.9118471627
 30
0.0
 10
179.5345155718
 20
220.1373412571
 30
0.0
 10
180.1635318957
 20
220.1792116515
 30
0.0
 10
180.7277560437
 20
220.0251833709
 30
0.0
 10
181.0218476869
 20
219.7879162965
 30
0.0
 10
181.1304396281
 20
219.6497410476
 30
0.0
  0
SPLINE
  5
273
100
AcDbEntity
  8
0
100
AcDbSpline
 62
7
  6
CONTINUOUS
 70
0
 71
3
 72
14
 73
10
 74
0
 42
0.0000001
 43
0.0000001
 44
0.0000000001
 40
0.0
 40
0.0
 40
0.0
 40
0.0
 40
0.2481469157
 40
0.3861376511
 40
0.5251883242
 40
0.6589845942
 40
0.7827727177
 40
0.8952527827
 40
1.0
 40
1.0
 40
1.0
 40
1.0
 10
145.9067050065
 20
209.9466068062
 30
0.0
 10
145.913149154
 20
210.3628866768
 30
0.0
 10
146.1768485191
 20
211.0094425148
 30
0.0
 10
146.7788242241
 20
211.6557823623
 30
0.0
 10
147.3588089711
 20
212.0424615812
 30
0.0
 10
147.9924353358
 20
212.2679556756
 30
0.0
 10
148.6214516598
 20
212.30982607
 30
0.0
 10
149.1856758078
 20
212.1557977894
 30
0.0
 10
149.4797674509
 20
211.918530715
 30
0.0
 10
149.5883593921
 20
211.7803554661
 30
0.0
  0
SPLINE
  5
274
100
AcDbEntity
  8
0
100
AcDbSpline
 62
7
  6
CONTINUOUS
 70
0
 71
3
 72
8
 73
4
 74
0
 42
0.0000001
 43
0.0000001
 44
0.0000000001
 40
0.0
 40
0.0
 40
0.0
 40
0.0
 40
1.0
 40
1.0
 40
1.0
 40
1.0
 10
145.9065131425
 20
209.9218677615
 30
0.0
 10
145.9065131425
 20
209.9301221405
 30
0.0
 10
145.9065149728
 20
209.9383798008
 30
0.0
 10
145.9068008766
 20
209.946629227
 30
0.0
  0
SPLINE
  5
275
100
AcDbEntity
  8
0
100
AcDbSpline
 62
7
  6
CONTINUOUS
 70
0
 71
3
 72
11
 73
7
 74
0
 42
0.0000001
 43
0.0000001
 44
0.0000000001
 40
0.0
 40
0.0
 40
0.0
 40
0.0
 40
0.2732354285
 40
0.530311413
 40
0.7714325242
 40
1.0
 40
1.0
 40
1.0
 40
1.0
 10
161.6746297855
 20
250.3276108533
 30
0.0
 10
163.5888173117
 20
250.8051785852
 30
0.0
 10
167.3979786523
 20
251.4058433213
 30
0.0
 10
173.0045467928
 20
251.1450053048
 30
0.0
 10
178.1008312471
 20
249.6957072306
 30
0.0
 10
181.0516820773
 20
247.9227011273
 30
0.0
 10
182.327915162
 20
246.8763454033
 30
0.0
  0
SPLINE
  5
276
100
AcDbEntity
  8
0
100
AcDbSpline
 62
7
  6
CONTINUOUS
 70
0
 71
3
 72
14
 73
10
 74
0
 42
0.0000001
 43
0.0000001
 44
0.0000000001
 40
0.0
 40
0.0
 40
0.0
 40
0.0
 40
0.110992733
 40
0.2286365171
 40
0.3523900073
 40
0.4808839681
 40
0.6122018997
 40
0.7441207585
 40
1.0
 40
1.0
 40
1.0
 40
1.0
 10
133.9750354843
 20
218.5780490217
 30
0.0
 10
133.9750354843
 20
220.2411859138
 30
0.0
 10
134.3658672047
 20
223.6746416555
 30
0.0
 10
135.9807007559
 20
228.7311380221
 30
0.0
 10
138.5692465437
 20
233.6617368056
 30
0.0
 10
142.0288523046
 20
238.2789464681
 30
0.0
 10
146.2298055074
 20
242.4125887458
 30
0.0
 10
152.5214483336
 20
247.0126160238
 30
0.0
 10
157.9545156794
 20
249.3994852481
 30
0.0
 10
161.6746297855
 20
250.3276108533
 30
0.0
  0
SPLINE
  5
277
100
AcDbEntity
  8
0
100
AcDbSpline
 62
7
  6
CONTINUOUS
 70
0
 71
3
 72
14
 73
10
 74
0
 42
0.0000001
 43
0.0000001
 44
0.0000000001
 40
0.0
 40
0.0
 40
0.0
 40
0.0
 40
0.2760570785
 40
0.4069998446
 40
0.5330083563
 40
0.6544273213
 40
0.7719802574
 40
0.8867286774
 40
1.0
 40
1.0
 40
1.0
 40
1.0
 10
141.6828993379
 20
275.7631477969
 30
0.0
 10
143.944361714
 20
276.3273566025
 30
0.0
 10
147.3877402943
 20
276.8140119092
 30
0.0
 10
151.8926046355
 20
276.5978723622
 30
0.0
 10
155.0453622729
 20
276.0193031906
 30
0.0
 10
157.9752818246
 20
275.0282747302
 30
0.0
 10
160.633682312
 20
273.6390580192
 30
0.0
 10
162.9735358719
 20
271.8741075063
 30
0.0
 10
164.297732709
 20
270.4610698634
 30
0.0
 10
164.8887274752
 20
269.7091688843
 30
0.0
  0
SPLINE
  5
278
100
AcDbEntity
  8
0
100
AcDbSpline
 62
7
  6
CONTINUOUS
 70
0
 71
3
 72
14
 73
10
 74
0
 42
0.0000001
 43
0.0000001
 44
0.0000000001
 40
0.0
 40
0.0
 40
0.0
 40
0.0
 40
0.110992733
 40
0.2286365171
 40
0.3523900073
 40
0.4808839681
 40
0.6122018997
 40
0.7441207585
 40
1.0
 40
1.0
 40
1.0
 40
1.0
 10
113.9833050368
 20
244.0135859653
 30
0.0
 10
113.9833050368
 20
245.6767228574
 30
0.0
 10
114.3741367571
 20
249.1101785991
 30
0.0
 10
115.9889703084
 20
254.1666749657
 30
0.0
 10
118.5775160961
 20
259.0972737492
 30
0.0
 10
122.037121857
 20
263.7144834117
 30
0.0
 10
126.2380750598
 20
267.8481256894
 30
0.0
 10
132.5297178861
 20
272.4481529674
 30
0.0
 10
137.9627852318
 20
274.8350221917
 30
0.0
 10
141.6828993379
 20
275.7631477969
 30
0.0
  0
SPLINE
  5
279
100
AcDbEntity
  8
0
100
AcDbSpline
 62
7
  6
CONTINUOUS
 70
0
 71
3
 72
9
 73
5
 74
0
 42
0.0000001
 43
0.0000001
 44
0.0000000001
 40
0.0
 40
0.0
 40
0.0
 40
0.0
 40
0.5025911977
 40
1.0
 40
1.0
 40
1.0
 40
1.0
 10
152.5355840187
 20
284.1455436284
 30
0.0
 10
152.2300763203
 20
284.9552423701
 30
0.0
 10
151.5019536495
 20
286.5237567511
 30
0.0
 10
150.5419777242
 20
287.9626014159
 30
0.0
 10
150.0126982086
 20
288.6359843064
 30
0.0
  0
SPLINE
  5
27A
100
AcDbEntity
  8
0
100
AcDbSpline
 62
7
  6
CONTINUOUS
 70
0
 71
3
 72
9
 73
5
 74
0
 42
0.0000001
 43
0.0000001
 44
0.0000000001
 40
0.0
 40
0.0
 40
0.0
 40
0.0
 40
0.4874665354
 40
1.0
 40
1.0
 40
1.0
 40
1.0
 10
156.3432292001
 20
216.7262887997
 30
0.0
 10
155.9585426138
 20
217.2156190322
 30
0.0
 10
155.3490608391
 20
218.3723409618
 30
0.0
 10
155.1662886139
 20
219.6604961335
 30
0.0
 10
155.1662886139
 20
220.3149406546
 30
0.0
  0
SPLINE
  5
27B
100
AcDbEntity
  8
0
100
AcDbSpline
 62
7
  6
CONTINUOUS
 70
0
 71
3
 72
14
 73
10
 74
0
 42
0.0000001
 43
0.0000001
 44
0.0000000001
 40
0.0
 40
0.0
 40
0.0
 40
0.0
 40
0.2760570785
 40
0.4069998446
 40
0.5330083563
 40
0.6544273213
 40
0.7719802574
 40
0.8867286774
 40
1.0
 40
1.0
 40
1.0
 40
1.0
 10
125.1539779261
 20
296.7929427068
 30
0.0
 10
127.4154403022
 20
297.3571515124
 30
0.0
 10
130.8588188824
 20
297.8438068192
 30
0.0
 10
135.3636832237
 20
297.6276672722
 30
0.0
 10
138.5164408611
 20
297.0490981005
 30
0.0
 10
141.4463604128
 20
296.0580696401
 30
0.0
 10
144.1047609002
 20
294.6688529291
 30
0.0
 10
146.4446144601
 20
292.9039024162
 30
0.0
 10
147.7688112972
 20
291.4908647734
 30
0.0
 10
148.3598060634
 20
290.7389637942
 30
0.0
  0
SPLINE
  5
27C
100
AcDbEntity
  8
0
100
AcDbSpline
 62
7
  6
CONTINUOUS
 70
0
 71
3
 72
14
 73
10
 74
0
 42
0.0000001
 43
0.0000001
 44
0.0000000001
 40
0.0
 40
0.0
 40
0.0
 40
0.0
 40
0.110992733
 40
0.2286365171
 40
0.3523900073
 40
0.4808839681
 40
0.6122018997
 40
0.7441207585
 40
1.0
 40
1.0
 40
1.0
 40
1.0
 10
97.454383625
 20
265.0433808753
 30
0.0
 10
97.454383625
 20
266.7065177673
 30
0.0
 10
97.8452153453
 20
270.139973509
 30
0.0
 10
99.4600488966
 20
275.1964698756
 30
0.0
 10
102.0485946843
 20
280.1270686591
 30
0.0
 10
105.5082004452
 20
284.7442783216
 30
0.0
 10
109.709153648
 20
288.8779205993
 30
0.0
 10
116.0007964743
 20
293.4779478774
 30
0.0
 10
121.43386382
 20
295.8648171016
 30
0.0
 10
125.1539779261
 20
296.7929427068
 30
0.0
  0
SPLINE
  5
27D
100
AcDbEntity
  8
0
100
AcDbSpline
 62
7
  6
CONTINUOUS
 70
0
 71
3
 72
9
 73
5
 74
0
 42
0.0000001
 43
0.0000001
 44
0.0000000001
 40
0.0
 40
0.0
 40
0.0
 40
0.0
 40
0.5025911977
 40
1.0
 40
1.0
 40
1.0
 40
1.0
 10
136.0066626069
 20
305.1753385384
 30
0.0
 10
135.7011549085
 20
305.98503728
 30
0.0
 10
134.9730322377
 20
307.553551661
 30
0.0
 10
134.0130563124
 20
308.9923963258
 30
0.0
 10
133.4837767968
 20
309.6657792163
 30
0.0
  0
SPLINE
  5
27E
100
AcDbEntity
  8
0
100
AcDbSpline
 62
7
  6
CONTINUOUS
 70
0
 71
3
 72
11
 73
7
 74
0
 42
0.0000001
 43
0.0000001
 44
0.0000000001
 40
0.0
 40
0.0
 40
0.0
 40
0.0
 40
0.242171802
 40
0.4876573741
 40
0.7395366896
 40
1.0
 40
1.0
 40
1.0
 40
1.0
 10
65.8136826595
 20
298.6673186385
 30
0.0
 10
65.2055425259
 20
299.4410330402
 30
0.0
 10
64.1183040957
 20
301.1125453995
 30
0.0
 10
62.9412901917
 20
303.89339032
 30
0.0
 10
62.2324756132
 20
306.9041865022
 30
0.0
 10
62.0813141181
 20
308.9902016585
 30
0.0
 10
62.0813141181
 20
310.0486403554
 30
0.0
  0
SPLINE
  5
27F
100
AcDbEntity
  8
0
100
AcDbSpline
 62
7
  6
CONTINUOUS
 70
0
 71
3
 72
14
 73
10
 74
0
 42
0.0000001
 43
0.0000001
 44
0.0000000001
 40
0.0
 40
0.0
 40
0.0
 40
0.0
 40
0.2760570785
 40
0.4069998446
 40
0.5330083563
 40
0.6544273213
 40
0.7719802574
 40
0.8867286774
 40
1.0
 40
1.0
 40
1.0
 40
1.0
 10
108.6250565143
 20
317.8227376168
 30
0.0
 10
110.8865188904
 20
318.3869464223
 30
0.0
 10
114.3298974706
 20
318.8736017291
 30
0.0
 10
118.8347618119
 20
318.6574621821
 30
0.0
 10
121.9875194492
 20
318.0788930105
 30
0.0
 10
124.917439001
 20
317.0878645501
 30
0.0
 10
127.5758394884
 20
315.6986478391
 30
0.0
 10
129.9156930483
 20
313.9336973262
 30
0.0
 10
131.2398898853
 20
312.5206596833
 30
0.0
 10
131.8308846516
 20
311.7687587042
 30
0.0
  0
SPLINE
  5
280
100
AcDbEntity
  8
0
100
AcDbSpline
 62
7
  6
CONTINUOUS
 70
0
 71
3
 72
14
 73
10
 74
0
 42
0.0000001
 43
0.0000001
 44
0.0000000001
 40
0.0
 40
0.0
 40
0.0
 40
0.0
 40
0.110992733
 40
0.2286365171
 40
0.3523900073
 40
0.4808839681
 40
0.6122018997
 40
0.7441207585
 40
1.0
 40
1.0
 40
1.0
 40
1.0
 10
80.9254622132
 20
286.0731757852
 30
0.0
 10
80.9254622132
 20
287.7363126773
 30
0.0
 10
81.3162939335
 20
291.169768419
 30
0.0
 10
82.9311274848
 20
296.2262647856
 30
0.0
 10
85.5196732725
 20
301.1568635691
 30
0.0
 10
88.9792790334
 20
305.7740732316
 30
0.0
 10
93.1802322362
 20
309.9077155093
 30
0.0
 10
99.4718750625
 20
314.5077427873
 30
0.0
 10
104.9049424082
 20
316.8946120116
 30
0.0
 10
108.6250565143
 20
317.8227376168
 30
0.0
  0
SPLINE
  5
281
100
AcDbEntity
  8
0
100
AcDbSpline
 62
7
  6
CONTINUOUS
 70
0
 71
3
 72
9
 73
5
 74
0
 42
0.0000001
 43
0.0000001
 44
0.0000000001
 40
0.0
 40
0.0
 40
0.0
 40
0.0
 40
0.4970620942
 40
1.0
 40
1.0
 40
1.0
 40
1.0
 10
68.5421323741
 20
295.1959041023
 30
0.0
 10
69.1041924664
 20
294.4808156879
 30
0.0
 10
70.3559855807
 20
293.1333918256
 30
0.0
 10
71.8098964263
 20
292.0079341561
 30
0.0
 10
72.5791849273
 20
291.5028281505
 30
0.0
  0
SPLINE
  5
282
100
AcDbEntity
  8
0
100
AcDbSpline
 62
7
  6
CONTINUOUS
 70
0
 71
3
 72
9
 73
5
 74
0
 42
0.0000001
 43
0.0000001
 44
0.0000000001
 40
0.0
 40
0.0
 40
0.0
 40
0.0
 40
0.5025911977
 40
1.0
 40
1.0
 40
1.0
 40
1.0
 10
118.2380720892
 20
327.7823680666
 30
0.0
 10
117.9325643908
 20
328.5920668082
 30
0.0
 10
117.20444172
 20
330.1605811892
 30
0.0
 10
116.2444657947
 20
331.599425854
 30
0.0
 10
115.7151862791
 20
332.2728087445
 30
0.0
  0
SPLINE
  5
283
100
AcDbEntity
  8
0
100
AcDbSpline
 62
7
  6
CONTINUOUS
 70
0
 71
3
 72
14
 73
10
 74
0
 42
0.0000001
 43
0.0000001
 44
0.0000000001
 40
0.0
 40
0.0
 40
0.0
 40
0.0
 40
0.2760570785
 40
0.4069998446
 40
0.5330083563
 40
0.6544273213
 40
0.7719802574
 40
0.8867286774
 40
1.0
 40
1.0
 40
1.0
 40
1.0
 10
89.7809084192
 20
341.798202187
 30
0.0
 10
92.0423707953
 20
342.3624109926
 30
0.0
 10
95.4857493755
 20
342.8490662993
 30
0.0
 10
99.9906137168
 20
342.6329267523
 30
0.0
 10
103.1433713541
 20
342.0543575807
 30
0.0
 10
106.0732909059
 20
341.0633291203
 30
0.0
 10
108.7316913933
 20
339.6741124093
 30
0.0
 10
111.0715449532
 20
337.9091618964
 30
0.0
 10
112.3957417902
 20
336.4961242536
 30
0.0
 10
112.9867365565
 20
335.7442232744
 30
0.0
  0
SPLINE
  5
284
100
AcDbEntity
  8
0
100
AcDbSpline
 62
7
  6
CONTINUOUS
 70
0
 71
3
 72
14
 73
10
 74
0
 42
0.0000001
 43
0.0000001
 44
0.0000000001
 40
0.0
 40
0.0
 40
0.0
 40
0.0
 40
0.110992733
 40
0.2286365171
 40
0.3523900073
 40
0.4808839681
 40
0.6122018997
 40
0.7441207585
 40
1.0
 40
1.0
 40
1.0
 40
1.0
 10
62.0813141181
 20
310.0486403554
 30
0.0
 10
62.0813141181
 20
311.7117772475
 30
0.0
 10
62.4721458384
 20
315.1452329892
 30
0.0
 10
64.0869793897
 20
320.2017293558
 30
0.0
 10
66.6755251774
 20
325.1323281393
 30
0.0
 10
70.1351309383
 20
329.7495378018
 30
0.0
 10
74.3360841411
 20
333.8831800795
 30
0.0
 10
80.6277269673
 20
338.4832073575
 30
0.0
 10
86.0607943131
 20
340.8700765818
 30
0.0
 10
89.7809084192
 20
341.798202187
 30
0.0
  0
SPLINE
  5
285
100
AcDbEntity
  8
0
100
AcDbSpline
 62
7
  6
CONTINUOUS
 70
0
 71
3
 72
11
 73
7
 74
0
 42
0.0000001
 43
0.0000001
 44
0.0000000001
 40
0.0
 40
0.0
 40
0.0
 40
0.0
 40
0.242171802
 40
0.4876573741
 40
0.7395366896
 40
1.0
 40
1.0
 40
1.0
 40
1.0
 10
84.6578307547
 20
274.6918540683
 30
0.0
 10
84.049690621
 20
275.46556847
 30
0.0
 10
82.9624521908
 20
277.1370808293
 30
0.0
 10
81.7854382868
 20
279.9179257498
 30
0.0
 10
81.0766237083
 20
282.9287219319
 30
0.0
 10
80.9254622132
 20
285.0147370883
 30
0.0
 10
80.9254622132
 20
286.0731757852
 30
0.0
  0
SPLINE
  5
286
100
AcDbEntity
  8
0
100
AcDbSpline
 62
7
  6
CONTINUOUS
 70
0
 71
3
 72
9
 73
5
 74
0
 42
0.0000001
 43
0.0000001
 44
0.0000000001
 40
0.0
 40
0.0
 40
0.0
 40
0.0
 40
0.4970620942
 40
1.0
 40
1.0
 40
1.0
 40
1.0
 10
86.3107228918
 20
272.5888745741
 30
0.0
 10
86.8727829841
 20
271.8737861597
 30
0.0
 10
88.1245760984
 20
270.5263622974
 30
0.0
 10
89.578486944
 20
269.4009046279
 30
0.0
 10
90.347775445
 20
268.8957986223
 30
0.0
  0
SPLINE
  5
287
100
AcDbEntity
  8
0
100
AcDbSpline
 62
7
  6
CONTINUOUS
 70
0
 71
3
 72
11
 73
7
 74
0
 42
0.0000001
 43
0.0000001
 44
0.0000000001
 40
0.0
 40
0.0
 40
0.0
 40
0.0
 40
0.242171802
 40
0.4876573741
 40
0.7395366896
 40
1.0
 40
1.0
 40
1.0
 40
1.0
 10
101.1867521665
 20
253.6620591583
 30
0.0
 10
100.5786120328
 20
254.43577356
 30
0.0
 10
99.4913736026
 20
256.1072859193
 30
0.0
 10
98.3143596986
 20
258.8881308398
 30
0.0
 10
97.6055451201
 20
261.898927022
 30
0.0
 10
97.454383625
 20
263.9849421784
 30
0.0
 10
97.454383625
 20
265.0433808753
 30
0.0
  0
SPLINE
  5
288
100
AcDbEntity
  8
0
100
AcDbSpline
 62
7
  6
CONTINUOUS
 70
0
 71
3
 72
9
 73
5
 74
0
 42
0.0000001
 43
0.0000001
 44
0.0000000001
 40
0.0
 40
0.0
 40
0.0
 40
0.0
 40
0.4970620942
 40
1.0
 40
1.0
 40
1.0
 40
1.0
 10
102.8396443036
 20
251.5590796642
 30
0.0
 10
103.4017043959
 20
250.8439912498
 30
0.0
 10
104.6534975102
 20
249.4965673874
 30
0.0
 10
106.1074083558
 20
248.371109718
 30
0.0
 10
106.8766968568
 20
247.8660037124
 30
0.0
  0
SPLINE
  5
289
100
AcDbEntity
  8
0
100
AcDbSpline
 62
7
  6
CONTINUOUS
 70
0
 71
3
 72
14
 73
10
 74
0
 42
0.0000001
 43
0.0000001
 44
0.0000000001
 40
0.0
 40
0.0
 40
0.0
 40
0.0
 40
0.1132713178
 40
0.2280197345
 40
0.3455726683
 40
0.4669916323
 40
0.593000144
 40
0.7239429112
 40
1.0
 40
1.0
 40
1.0
 40
1.0
 10
140.1938290086
 20
204.0332415406
 30
0.0
 10
140.7848237697
 20
203.2813406097
 30
0.0
 10
142.1090205089
 20
201.8683029749
 30
0.0
 10
144.4488740082
 20
200.1033525198
 30
0.0
 10
147.1072744343
 20
198.7141358179
 30
0.0
 10
150.0371939444
 20
197.7231073268
 30
0.0
 10
153.1899515712
 20
197.1445380894
 30
0.0
 10
157.6948160077
 20
196.9283985072
 30
0.0
 10
161.1381946895
 20
197.4150538046
 30
0.0
 10
163.39965715
 20
197.9792626312
 30
0.0
  0
SPLINE
  5
28A
100
AcDbEntity
  8
0
100
AcDbSpline
 62
7
  6
CONTINUOUS
 70
0
 71
3
 72
9
 73
5
 74
0
 42
0.0000001
 43
0.0000001
 44
0.0000000001
 40
0.0
 40
0.0
 40
0.0
 40
0.0
 40
0.2493906159
 40
1.0
 40
1.0
 40
1.0
 40
1.0
 10
137.7074040258
 20
207.1967273048
 30
0.0
 10
137.5251345696
 20
207.4286220532
 30
0.0
 10
136.8192014512
 20
208.3778292285
 30
0.0
 10
136.2154001226
 20
209.4026978947
 30
0.0
 10
135.8258730843
 20
210.2004164003
 30
0.0
  0
SPLINE
  5
28B
100
AcDbEntity
  8
0
100
AcDbSpline
 62
7
  6
CONTINUOUS
 70
0
 71
3
 72
9
 73
5
 74
0
 42
0.0000001
 43
0.0000001
 44
0.0000000001
 40
0.0
 40
0.0
 40
0.0
 40
0.0
 40
0.4892191577
 40
1.0
 40
1.0
 40
1.0
 40
1.0
 10
135.8258730843
 20
210.2004164003
 30
0.0
 10
135.2079648314
 20
211.4658403625
 30
0.0
 10
134.2652334338
 20
214.2186690273
 30
0.0
 10
133.9750354843
 20
217.1077543854
 30
0.0
 10
133.9750354843
 20
218.5780490217
 30
0.0
  0
SPLINE
  5
28C
100
AcDbEntity
  8
0
100
AcDbSpline
 62
7
  6
CONTINUOUS
 70
0
 71
3
 72
11
 73
7
 74
0
 42
0.0000001
 43
0.0000001
 44
0.0000000001
 40
0.0
 40
0.0
 40
0.0
 40
0.0
 40
0.242171802
 40
0.4876573741
 40
0.7395366896
 40
1.0
 40
1.0
 40
1.0
 40
1.0
 10
117.7156735783
 20
232.6322642484
 30
0.0
 10
117.1075334446
 20
233.4059786501
 30
0.0
 10
116.0202950144
 20
235.0774910094
 30
0.0
 10
114.8432811104
 20
237.8583359299
 30
0.0
 10
114.1344665319
 20
240.869132112
 30
0.0
 10
113.9833050368
 20
242.9551472684
 30
0.0
 10
113.9833050368
 20
244.0135859653
 30
0.0
  0
SPLINE
  5
28D
100
AcDbEntity
  8
0
100
AcDbSpline
 62
7
  6
CONTINUOUS
 70
0
 71
3
 72
9
 73
5
 74
0
 42
0.0000001
 43
0.0000001
 44
0.0000000001
 40
0.0
 40
0.0
 40
0.0
 40
0.0
 40
0.4874665354
 40
1.0
 40
1.0
 40
1.0
 40
1.0
 10
171.2174827221
 20
228.4170989237
 30
0.0
 10
171.6021693084
 20
227.9277686912
 30
0.0
 10
172.2116510831
 20
226.7710467616
 30
0.0
 10
172.3944233083
 20
225.4828915899
 30
0.0
 10
172.3944233083
 20
224.8284470687
 30
0.0
  0
SPLINE
  5
28E
100
AcDbEntity
  8
0
100
AcDbSpline
 62
7
  6
CONTINUOUS
 70
0
 71
3
 72
9
 73
5
 74
0
 42
0.0000001
 43
0.0000001
 44
0.0000000001
 40
0.0
 40
0.0
 40
0.0
 40
0.0
 40
0.5114360773
 40
1.0
 40
1.0
 40
1.0
 40
1.0
 10
82.5783543543
 20
283.9701962942
 30
0.0
 10
82.5783543543
 20
282.3466537522
 30
0.0
 10
82.9320642777
 20
279.1572865
 30
0.0
 10
84.0898186816
 20
276.1550496737
 30
0.0
 10
84.8427878749
 20
274.7991595658
 30
0.0
  0
SPLINE
  5
28F
100
AcDbEntity
  8
0
100
AcDbSpline
 62
7
  6
CONTINUOUS
 70
0
 71
3
 72
14
 73
10
 74
0
 42
0.0000001
 43
0.0000001
 44
0.0000000001
 40
0.0
 40
0.0
 40
0.0
 40
0.0
 40
0.2558792264
 40
0.3877980815
 40
0.519116012
 40
0.6476099746
 40
0.7713634691
 40
0.8890072597
 40
1.0
 40
1.0
 40
1.0
 40
1.0
 10
110.2779486555
 20
315.7197581258
 30
0.0
 10
106.5578347673
 20
314.7916325749
 30
0.0
 10
101.1247676753
 20
312.4047635246
 30
0.0
 10
94.833125002
 20
307.8047365417
 30
0.0
 10
90.6321717418
 20
303.6710943887
 30
0.0
 10
87.17256583
 20
299.0538847442
 30
0.0
 10
84.5840198443
 20
294.1232858489
 30
0.0
 10
82.9691861306
 20
289.0667892456
 30
0.0
 10
82.5783543543
 20
285.6333332957
 30
0.0
 10
82.5783543543
 20
283.9701962942
 30
0.0
  0
SPLINE
  5
290
100
AcDbEntity
  8
0
100
AcDbSpline
 62
7
  6
CONTINUOUS
 70
0
 71
3
 72
11
 73
7
 74
0
 42
0.0000001
 43
0.0000001
 44
0.0000000001
 40
0.0
 40
0.0
 40
0.0
 40
0.0
 40
0.2276617907
 40
0.4737989778
 40
0.7338876297
 40
1.0
 40
1.0
 40
1.0
 40
1.0
 10
172.3935868658
 20
224.7205957282
 30
0.0
 10
172.3818883305
 20
223.9648922279
 30
0.0
 10
172.1015601965
 20
222.3910287453
 30
0.0
 10
171.0593278204
 20
220.1644781968
 30
0.0
 10
169.4686253238
 20
218.1287168968
 30
0.0
 10
168.1187524029
 20
216.9966573472
 30
0.0
 10
167.3866080727
 20
216.5022529953
 30
0.0
  0
SPLINE
  5
291
100
AcDbEntity
  8
0
100
AcDbSpline
 62
7
  6
CONTINUOUS
 70
0
 71
3
 72
12
 73
8
 74
0
 42
0.0000001
 43
0.0000001
 44
0.0000000001
 40
0.0
 40
0.0
 40
0.0
 40
0.0
 40
0.2778210219
 40
0.5352938195
 40
0.773267299
 40
0.8874495897
 40
1.0
 40
1.0
 40
1.0
 40
1.0
 10
164.1704675147
 20
214.9581978076
 30
0.0
 10
163.4168519273
 20
214.7300677347
 30
0.0
 10
161.9097943545
 20
214.4454702623
 30
0.0
 10
159.6972315075
 20
214.5913995522
 30
0.0
 10
158.0527561739
 20
215.2242806331
 30
0.0
 10
156.9850600872
 20
216.0056942756
 30
0.0
 10
156.5403726579
 20
216.4755177631
 30
0.0
 10
156.3432292001
 20
216.7262887997
 30
0.0
  0
SPLINE
  5
292
100
AcDbEntity
  8
0
100
AcDbSpline
 62
7
  6
CONTINUOUS
 70
0
 71
3
 72
14
 73
10
 74
0
 42
0.0000001
 43
0.0000001
 44
0.0000000001
 40
0.0
 40
0.0
 40
0.0
 40
0.0
 40
0.2763953478
 40
0.4074622998
 40
0.5335259761
 40
0.6549163442
 40
0.7723611348
 40
0.8869378277
 40
1.0
 40
1.0
 40
1.0
 40
1.0
 10
109.8972498443
 20
314.805896992
 30
0.0
 10
112.1132085623
 20
315.3864441066
 30
0.0
 10
115.4922497095
 20
315.9019693716
 30
0.0
 10
119.9205960626
 20
315.7322148448
 30
0.0
 10
123.0215586317
 20
315.1904945696
 30
0.0
 10
125.9041149311
 20
314.2385211683
 30
0.0
 10
128.5190906842
 20
312.8902432484
 30
0.0
 10
130.8189532354
 20
311.167967891
 30
0.0
 10
132.1184925537
 20
309.7845437924
 30
0.0
 10
132.6975549895
 20
309.0478274569
 30
0.0
  0
SPLINE
  5
293
100
AcDbEntity
  8
0
100
AcDbSpline
 62
7
  6
CONTINUOUS
 70
0
 71
3
 72
9
 73
5
 74
0
 42
0.0000001
 43
0.0000001
 44
0.0000000001
 40
0.0
 40
0.0
 40
0.0
 40
0.0
 40
0.510319529
 40
1.0
 40
1.0
 40
1.0
 40
1.0
 10
136.4614604712
 20
215.4145632607
 30
0.0
 10
136.4614604712
 20
214.0367217892
 30
0.0
 10
136.7164206813
 20
211.3282917202
 30
0.0
 10
137.5408851754
 20
208.7307757165
 30
0.0
 10
138.0833766035
 20
207.5250825217
 30
0.0
  0
SPLINE
  5
294
100
AcDbEntity
  8
0
100
AcDbSpline
 62
7
  6
CONTINUOUS
 70
0
 71
3
 72
9
 73
5
 74
0
 42
0.0000001
 43
0.0000001
 44
0.0000000001
 40
0.0
 40
0.0
 40
0.0
 40
0.0
 40
0.251664467
 40
1.0
 40
1.0
 40
1.0
 40
1.0
 10
138.0833766035
 20
207.5250825217
 30
0.0
 10
138.2240115804
 20
207.2125197312
 30
0.0
 10
138.8196392045
 20
205.9874537721
 30
0.0
 10
139.5640245461
 20
204.8345186294
 30
0.0
 10
140.1938290086
 20
204.0332415406
 30
0.0
  0
SPLINE
  5
295
100
AcDbEntity
  8
0
100
AcDbSpline
 62
7
  6
CONTINUOUS
 70
0
 71
3
 72
14
 73
10
 74
0
 42
0.0000001
 43
0.0000001
 44
0.0000000001
 40
0.0
 40
0.0
 40
0.0
 40
0.0
 40
0.2558792264
 40
0.3877980815
 40
0.519116012
 40
0.6476099746
 40
0.7713634691
 40
0.8890072597
 40
1.0
 40
1.0
 40
1.0
 40
1.0
 10
164.1610547723
 20
247.1641250922
 30
0.0
 10
160.4409408842
 20
246.2359995414
 30
0.0
 10
155.0078737921
 20
243.849130491
 30
0.0
 10
148.7162311188
 20
239.2491035081
 30
0.0
 10
144.5152778586
 20
235.1154613551
 30
0.0
 10
141.0556719468
 20
230.4982517107
 30
0.0
 10
138.4671259611
 20
225.5676528153
 30
0.0
 10
136.8522922474
 20
220.511156212
 30
0.0
 10
136.4614604712
 20
217.0777002622
 30
0.0
 10
136.4614604712
 20
215.4145632607
 30
0.0
  0
SPLINE
  5
296
100
AcDbEntity
  8
0
100
AcDbSpline
 62
7
  6
CONTINUOUS
 70
0
 71
3
 72
9
 73
5
 74
0
 42
0.0000001
 43
0.0000001
 44
0.0000000001
 40
0.0
 40
0.0
 40
0.0
 40
0.0
 40
0.2491266726
 40
1.0
 40
1.0
 40
1.0
 40
1.0
 10
115.7151862791
 20
332.2728087445
 30
0.0
 10
115.4966166113
 20
332.5508869062
 30
0.0
 10
114.5838248994
 20
333.638859694
 30
0.0
 10
113.5308745112
 20
334.6085549686
 30
0.0
 10
112.6829687377
 20
335.2547027564
 30
0.0
  0
SPLINE
  5
297
100
AcDbEntity
  8
0
100
AcDbSpline
 62
7
  6
CONTINUOUS
 70
0
 71
3
 72
11
 73
7
 74
0
 42
0.0000001
 43
0.0000001
 44
0.0000000001
 40
0.0
 40
0.0
 40
0.0
 40
0.0
 40
0.2289208724
 40
0.4704169537
 40
0.7274247615
 40
1.0
 40
1.0
 40
1.0
 40
1.0
 10
112.6829687377
 20
335.2547027564
 30
0.0
 10
111.4051094718
 20
336.2284972082
 30
0.0
 10
108.4856174678
 20
337.8659192934
 30
0.0
 10
103.5059164785
 20
339.1818070373
 30
0.0
 10
98.0596458241
 20
339.3823793613
 30
0.0
 10
94.3654505098
 20
338.7898613143
 30
0.0
 10
92.5093581378
 20
338.326787654
 30
0.0
  0
SPLINE
  5
298
100
AcDbEntity
  8
0
100
AcDbSpline
 62
7
  6
CONTINUOUS
 70
0
 71
3
 72
11
 73
7
 74
0
 42
0.0000001
 43
0.0000001
 44
0.0000000001
 40
0.0
 40
0.0
 40
0.0
 40
0.0
 40
0.2604633117
 40
0.5123426181
 40
0.7578281936
 40
1.0
 40
1.0
 40
1.0
 40
1.0
 10
131.7684244759
 20
221.3855266422
 30
0.0
 10
131.7684244759
 20
220.3270879396
 30
0.0
 10
131.9195859336
 20
218.2410728108
 30
0.0
 10
132.6284005372
 20
215.2302766488
 30
0.0
 10
133.8054144348
 20
212.4494317368
 30
0.0
 10
134.8926528476
 20
210.7779193218
 30
0.0
 10
135.5007930133
 20
210.0042049221
 30
0.0
  0
SPLINE
  5
299
100
AcDbEntity
  8
0
100
AcDbSpline
 62
7
  6
CONTINUOUS
 70
0
 71
3
 72
9
 73
5
 74
0
 42
0.0000001
 43
0.0000001
 44
0.0000000001
 40
0.0
 40
0.0
 40
0.0
 40
0.0
 40
0.5102290072
 40
1.0
 40
1.0
 40
1.0
 40
1.0
 10
64.8097638366
 20
306.5772258224
 30
0.0
 10
64.8097638366
 20
305.2164655764
 30
0.0
 10
65.0584649865
 20
302.5413820803
 30
0.0
 10
65.8620119227
 20
299.9729331865
 30
0.0
 10
66.391080696
 20
298.778678824
 30
0.0
  0
SPLINE
  5
29A
100
AcDbEntity
  8
0
100
AcDbSpline
 62
7
  6
CONTINUOUS
 70
0
 71
3
 72
9
 73
5
 74
0
 42
0.0000001
 43
0.0000001
 44
0.0000000001
 40
0.0
 40
0.0
 40
0.0
 40
0.0
 40
0.2517439929
 40
1.0
 40
1.0
 40
1.0
 40
1.0
 10
66.391080696
 20
298.778678824
 30
0.0
 10
66.5333249451
 20
298.4575942627
 30
0.0
 10
67.1370204659
 20
297.1996601759
 30
0.0
 10
67.897096061
 20
296.0165601153
 30
0.0
 10
68.5421323741
 20
295.1959041023
 30
0.0
  0
SPLINE
  5
29B
100
AcDbEntity
  8
0
100
AcDbSpline
 62
7
  6
CONTINUOUS
 70
0
 71
3
 72
14
 73
10
 74
0
 42
0.0000001
 43
0.0000001
 44
0.0000000001
 40
0.0
 40
0.0
 40
0.0
 40
0.0
 40
0.2558792264
 40
0.3877980815
 40
0.519116012
 40
0.6476099746
 40
0.7713634691
 40
0.8890072597
 40
1.0
 40
1.0
 40
1.0
 40
1.0
 10
92.5093581378
 20
338.326787654
 30
0.0
 10
88.7892442496
 20
337.3986621031
 30
0.0
 10
83.3561771576
 20
335.0117930528
 30
0.0
 10
77.0645344843
 20
330.4117660699
 30
0.0
 10
72.8635812241
 20
326.2781239168
 30
0.0
 10
69.4039753123
 20
321.6609142724
 30
0.0
 10
66.8154293266
 20
316.7303153771
 30
0.0
 10
65.2005956129
 20
311.6738187737
 30
0.0
 10
64.8097638366
 20
308.2403628239
 30
0.0
 10
64.8097638366
 20
306.5772258224
 30
0.0
  0
SPLINE
  5
29C
100
AcDbEntity
  8
0
100
AcDbSpline
 62
7
  6
CONTINUOUS
 70
0
 71
3
 72
14
 73
10
 74
0
 42
0.0000001
 43
0.0000001
 44
0.0000000001
 40
0.0
 40
0.0
 40
0.0
 40
0.0
 40
0.2558792264
 40
0.3877980815
 40
0.519116012
 40
0.6476099746
 40
0.7713634691
 40
0.8890072597
 40
1.0
 40
1.0
 40
1.0
 40
1.0
 10
159.468018777
 20
253.1350884738
 30
0.0
 10
155.7479048889
 20
252.2069629229
 30
0.0
 10
150.3148377968
 20
249.8200938726
 30
0.0
 10
144.0231951235
 20
245.2200668897
 30
0.0
 10
139.8222418633
 20
241.0864247366
 30
0.0
 10
136.3626359515
 20
236.4692150922
 30
0.0
 10
133.7740899658
 20
231.5386161969
 30
0.0
 10
132.1592562521
 20
226.4821195935
 30
0.0
 10
131.7684244759
 20
223.0486636437
 30
0.0
 10
131.7684244759
 20
221.3855266422
 30
0.0
  0
SPLINE
  5
29D
100
AcDbEntity
  8
0
100
AcDbSpline
 62
7
  6
CONTINUOUS
 70
0
 71
3
 72
14
 73
10
 74
0
 42
0.0000001
 43
0.0000001
 44
0.0000000001
 40
0.0
 40
0.0
 40
0.0
 40
0.0
 40
0.2763953478
 40
0.4074622998
 40
0.5335259761
 40
0.6549163442
 40
0.7723611348
 40
0.8869378277
 40
1.0
 40
1.0
 40
1.0
 40
1.0
 10
92.1286593266
 20
337.4129265202
 30
0.0
 10
94.3446180446
 20
337.9934736348
 30
0.0
 10
97.7236591918
 20
338.5089988998
 30
0.0
 10
102.1520055449
 20
338.339244373
 30
0.0
 10
105.252968114
 20
337.7975240978
 30
0.0
 10
108.1355244134
 20
336.8455506965
 30
0.0
 10
110.7505001665
 20
335.4972727766
 30
0.0
 10
113.0503627177
 20
333.7749974192
 30
0.0
 10
114.349902036
 20
332.3915733206
 30
0.0
 10
114.9289644718
 20
331.6548569851
 30
0.0
  0
SPLINE
  5
29E
100
AcDbEntity
  8
0
100
AcDbSpline
 62
7
  6
CONTINUOUS
 70
0
 71
3
 72
17
 73
13
 74
0
 42
0.0000001
 43
0.0000001
 44
0.0000000001
 40
0.0
 40
0.0
 40
0.0
 40
0.0
 40
0.0516985119
 40
0.1040992458
 40
0.1578306605
 40
0.2133894709
 40
0.3308675141
 40
0.4574655275
 40
0.5914410289
 40
0.6602773507
 40
0.7296272726
 40
1.0
 40
1.0
 40
1.0
 40
1.0
 10
69.3283541814
 20
295.8138558618
 30
0.0
 10
68.7448899101
 20
296.5561724642
 30
0.0
 10
67.7007703664
 20
298.1589374154
 30
0.0
 10
66.5668981839
 20
300.8236744781
 30
0.0
 10
65.87803083
 20
303.7090926205
 30
0.0
 10
65.5605199938
 20
307.8531070905
 30
0.0
 10
66.3741382446
 20
313.3408450621
 30
0.0
 10
69.0626214274
 20
319.7629913899
 30
0.0
 10
72.5489052983
 20
324.7220270916
 30
0.0
 10
75.9829914869
 20
328.3270603429
 30
0.0
 10
81.6300299308
 20
333.2018064374
 30
0.0
 10
87.3520252101
 20
336.1615218206
 30
0.0
 10
92.1286593266
 20
337.4129265202
 30
0.0
  0
SPLINE
  5
29F
100
AcDbEntity
  8
0
100
AcDbSpline
 62
7
  6
CONTINUOUS
 70
0
 71
3
 72
11
 73
7
 74
0
 42
0.0000001
 43
0.0000001
 44
0.0000000001
 40
0.0
 40
0.0
 40
0.0
 40
0.0
 40
0.2719170837
 40
0.5289475861
 40
0.770855092
 40
1.0
 40
1.0
 40
1.0
 40
1.0
 10
159.0873199658
 20
251.9762766149
 30
0.0
 10
160.814275773
 20
252.4287124851
 30
0.0
 10
164.2559034199
 20
253.0322461674
 30
0.0
 10
169.349266131
 20
252.9583245953
 30
0.0
 10
174.0452211314
 20
251.8772853839
 30
0.0
 10
176.8413422351
 20
250.4664284745
 30
0.0
 10
178.0815333588
 20
249.6148340056
 30
0.0
  0
SPLINE
  5
2A0
100
AcDbEntity
  8
0
100
AcDbSpline
 62
7
  6
CONTINUOUS
 70
0
 71
3
 72
12
 73
8
 74
0
 42
0.0000001
 43
0.0000001
 44
0.0000000001
 40
0.0
 40
0.0
 40
0.0
 40
0.0
 40
0.1131654963
 40
0.2285806464
 40
0.4689321671
 40
0.7259089762
 40
1.0
 40
1.0
 40
1.0
 40
1.0
 10
131.6792910254
 20
311.6178042
 30
0.0
 10
131.0511162884
 20
312.1973666985
 30
0.0
 10
129.6905179172
 20
313.2725847653
 30
0.0
 10
126.6118205978
 20
315.0441523285
 30
0.0
 10
122.1452144878
 20
316.4692249639
 30
0.0
 10
116.2829505804
 20
316.8329004235
 30
0.0
 10
112.2864749071
 20
316.2208622827
 30
0.0
 10
110.2779486555
 20
315.7197581258
 30
0.0
  0
SPLINE
  5
2A1
100
AcDbEntity
  8
0
100
AcDbSpline
 62
7
  6
CONTINUOUS
 70
0
 71
3
 72
17
 73
13
 74
0
 42
0.0000001
 43
0.0000001
 44
0.0000000001
 40
0.0
 40
0.0
 40
0.0
 40
0.0
 40
0.0516985119
 40
0.1040992458
 40
0.1578306605
 40
0.2133894709
 40
0.3308675141
 40
0.4574655275
 40
0.5914410289
 40
0.6602773507
 40
0.7296272726
 40
1.0
 40
1.0
 40
1.0
 40
1.0
 10
87.0969446991
 20
273.2068263336
 30
0.0
 10
86.5134804277
 20
273.949142936
 30
0.0
 10
85.4693608841
 20
275.5519078872
 30
0.0
 10
84.3354887016
 20
278.2166449499
 30
0.0
 10
83.6466213477
 20
281.1020630923
 30
0.0
 10
83.3291105115
 20
285.2460775623
 30
0.0
 10
84.1427287623
 20
290.7338155339
 30
0.0
 10
86.8312119451
 20
297.1559618617
 30
0.0
 10
90.317495816
 20
302.1149975634
 30
0.0
 10
93.7515820046
 20
305.7200308147
 30
0.0
 10
99.3986204484
 20
310.5947769092
 30
0.0
 10
105.1206157278
 20
313.5544922924
 30
0.0
 10
109.8972498443
 20
314.805896992
 30
0.0
  0
SPLINE
  5
2A2
100
AcDbEntity
  8
0
100
AcDbSpline
 62
7
  6
CONTINUOUS
 70
0
 71
3
 72
9
 73
5
 74
0
 42
0.0000001
 43
0.0000001
 44
0.0000000001
 40
0.0
 40
0.0
 40
0.0
 40
0.0
 40
0.4747884946
 40
1.0
 40
1.0
 40
1.0
 40
1.0
 10
155.0983002967
 20
220.0788458901
 30
0.0
 10
156.064010774
 20
219.7931996208
 30
0.0
 10
158.2422954713
 20
219.6546997929
 30
0.0
 10
160.3163363449
 20
220.2476919641
 30
0.0
 10
161.3356212115
 20
220.6972513757
 30
0.0
  0
SPLINE
  5
2A3
100
AcDbEntity
  8
0
100
AcDbSpline
 62
7
  6
CONTINUOUS
 70
0
 71
3
 72
11
 73
7
 74
0
 42
0.0000001
 43
0.0000001
 44
0.0000000001
 40
0.0
 40
0.0
 40
0.0
 40
0.0
 40
0.2671359245
 40
0.5261068486
 40
0.7713556072
 40
1.0
 40
1.0
 40
1.0
 40
1.0
 10
164.3072127546
 20
222.5534036779
 30
0.0
 10
164.8972702436
 20
223.0481713879
 30
0.0
 10
165.9738759705
 20
224.1305490204
 30
0.0
 10
167.2269837297
 20
225.9840420892
 30
0.0
 10
168.0363218997
 20
227.9522986094
 30
0.0
 10
168.2511548714
 20
229.319037499
 30
0.0
 10
168.2613565128
 20
229.9780444556
 30
0.0
  0
SPLINE
  5
2A4
100
AcDbEntity
  8
0
100
AcDbSpline
 62
7
  6
CONTINUOUS
 70
0
 71
3
 72
9
 73
5
 74
0
 42
0.0000001
 43
0.0000001
 44
0.0000000001
 40
0.0
 40
0.0
 40
0.0
 40
0.0
 40
0.2492678207
 40
1.0
 40
1.0
 40
1.0
 40
1.0
 10
187.3668829136
 20
241.1101461828
 30
0.0
 10
187.1669302724
 20
241.3645385851
 30
0.0
 10
186.3350898144
 20
242.3614687523
 30
0.0
 10
185.3858918386
 20
243.2600382605
 30
0.0
 10
184.6235163295
 20
243.8670371633
 30
0.0
  0
SPLINE
  5
2A5
100
AcDbEntity
  8
0
100
AcDbSpline
 62
7
  6
CONTINUOUS
 70
0
 71
3
 72
11
 73
7
 74
0
 42
0.0000001
 43
0.0000001
 44
0.0000000001
 40
0.0
 40
0.0
 40
0.0
 40
0.0
 40
0.2287031215
 40
0.4699755181
 40
0.7270269693
 40
1.0
 40
1.0
 40
1.0
 40
1.0
 10
184.6235163295
 20
243.8670371633
 30
0.0
 10
183.3461657085
 20
244.8840562256
 30
0.0
 10
180.4071895182
 20
246.6020826379
 30
0.0
 10
175.3572769677
 20
247.997106489
 30
0.0
 10
169.8149434269
 20
248.2333430627
 30
0.0
 10
166.0519244513
 20
247.63587529
 30
0.0
 10
164.1610547723
 20
247.1641250922
 30
0.0
  0
SPLINE
  5
2A6
100
AcDbEntity
  8
0
100
AcDbSpline
 62
7
  6
CONTINUOUS
 70
0
 71
3
 72
12
 73
8
 74
0
 42
0.0000001
 43
0.0000001
 44
0.0000000001
 40
0.0
 40
0.0
 40
0.0
 40
0.0
 40
0.1131654963
 40
0.2285806464
 40
0.4689321671
 40
0.7259089762
 40
1.0
 40
1.0
 40
1.0
 40
1.0
 10
148.2082124372
 20
290.5880092901
 30
0.0
 10
147.5800377002
 20
291.1675717885
 30
0.0
 10
146.219439329
 20
292.2427898554
 30
0.0
 10
143.1407420096
 20
294.0143574185
 30
0.0
 10
138.6741358996
 20
295.4394300539
 30
0.0
 10
132.8118719922
 20
295.8031055135
 30
0.0
 10
128.8153963189
 20
295.1910673727
 30
0.0
 10
126.8068700673
 20
294.6899632158
 30
0.0
  0
SPLINE
  5
2A7
100
AcDbEntity
  8
0
100
AcDbSpline
 62
7
  6
CONTINUOUS
 70
0
 71
3
 72
9
 73
5
 74
0
 42
0.0000001
 43
0.0000001
 44
0.0000000001
 40
0.0
 40
0.0
 40
0.0
 40
0.0
 40
0.5114360773
 40
1.0
 40
1.0
 40
1.0
 40
1.0
 10
99.1072757661
 20
262.9404013843
 30
0.0
 10
99.1072757661
 20
261.3168588422
 30
0.0
 10
99.4609856895
 20
258.1274915901
 30
0.0
 10
100.6187400934
 20
255.1252547637
 30
0.0
 10
101.3717092867
 20
253.7693646559
 30
0.0
  0
SPLINE
  5
2A8
100
AcDbEntity
  8
0
100
AcDbSpline
 62
7
  6
CONTINUOUS
 70
0
 71
3
 72
14
 73
10
 74
0
 42
0.0000001
 43
0.0000001
 44
0.0000000001
 40
0.0
 40
0.0
 40
0.0
 40
0.0
 40
0.2558792264
 40
0.3877980815
 40
0.519116012
 40
0.6476099746
 40
0.7713634691
 40
0.8890072597
 40
1.0
 40
1.0
 40
1.0
 40
1.0
 10
126.8068700673
 20
294.6899632158
 30
0.0
 10
123.0867561791
 20
293.761837665
 30
0.0
 10
117.6536890871
 20
291.3749686146
 30
0.0
 10
111.3620464138
 20
286.7749416317
 30
0.0
 10
107.1610931536
 20
282.6412994787
 30
0.0
 10
103.7014872418
 20
278.0240898343
 30
0.0
 10
101.1129412561
 20
273.0934909389
 30
0.0
 10
99.4981075424
 20
268.0369943356
 30
0.0
 10
99.1072757661
 20
264.6035383858
 30
0.0
 10
99.1072757661
 20
262.9404013843
 30
0.0
  0
SPLINE
  5
2A9
100
AcDbEntity
  8
0
100
AcDbSpline
 62
7
  6
CONTINUOUS
 70
0
 71
3
 72
14
 73
10
 74
0
 42
0.0000001
 43
0.0000001
 44
0.0000000001
 40
0.0
 40
0.0
 40
0.0
 40
0.0
 40
0.2763953478
 40
0.4074622998
 40
0.5335259761
 40
0.6549163442
 40
0.7723611348
 40
0.8869378277
 40
1.0
 40
1.0
 40
1.0
 40
1.0
 10
126.4261712561
 20
293.776102082
 30
0.0
 10
128.6421299741
 20
294.3566491967
 30
0.0
 10
132.0211711213
 20
294.8721744617
 30
0.0
 10
136.4495174744
 20
294.7024199348
 30
0.0
 10
139.5504800435
 20
294.1606996596
 30
0.0
 10
142.4330363429
 20
293.2087262584
 30
0.0
 10
145.048012096
 20
291.8604483385
 30
0.0
 10
147.3478746472
 20
290.1381729811
 30
0.0
 10
148.6474139655
 20
288.7547488825
 30
0.0
 10
149.2264764013
 20
288.0180325469
 30
0.0
  0
SPLINE
  5
2AA
100
AcDbEntity
  8
0
100
AcDbSpline
 62
7
  6
CONTINUOUS
 70
0
 71
3
 72
14
 73
10
 74
0
 42
0.0000001
 43
0.0000001
 44
0.0000000001
 40
0.0
 40
0.0
 40
0.0
 40
0.0
 40
0.1132713178
 40
0.2280197345
 40
0.3455726683
 40
0.4669916323
 40
0.593000144
 40
0.7239429112
 40
1.0
 40
1.0
 40
1.0
 40
1.0
 10
182.6738469183
 20
247.0811095643
 30
0.0
 10
182.0828521572
 20
247.8330104953
 30
0.0
 10
180.7586554181
 20
249.24604813
 30
0.0
 10
178.4188019187
 20
251.0109985852
 30
0.0
 10
175.7604014927
 20
252.4002152871
 30
0.0
 10
172.8304819825
 20
253.3912437782
 30
0.0
 10
169.6777243557
 20
253.9698130155
 30
0.0
 10
165.1728599193
 20
254.1859525978
 30
0.0
 10
161.7294812374
 20
253.6992973004
 30
0.0
 10
159.468018777
 20
253.1350884738
 30
0.0
  0
SPLINE
  5
2AB
100
AcDbEntity
  8
0
100
AcDbSpline
 62
7
  6
CONTINUOUS
 70
0
 71
3
 72
17
 73
13
 74
0
 42
0.0000001
 43
0.0000001
 44
0.0000000001
 40
0.0
 40
0.0
 40
0.0
 40
0.0
 40
0.0516985119
 40
0.1040992458
 40
0.1578306605
 40
0.2133894709
 40
0.3308675141
 40
0.4574655275
 40
0.5914410289
 40
0.6602773507
 40
0.7296272726
 40
1.0
 40
1.0
 40
1.0
 40
1.0
 10
103.6258661109
 20
252.1770314236
 30
0.0
 10
103.0424018395
 20
252.9193480261
 30
0.0
 10
101.9982822959
 20
254.5221129773
 30
0.0
 10
100.8644101134
 20
257.18685004
 30
0.0
 10
100.1755427595
 20
260.0722681823
 30
0.0
 10
99.8580319233
 20
264.2162826523
 30
0.0
 10
100.6716501741
 20
269.7040206239
 30
0.0
 10
103.3601333569
 20
276.1261669518
 30
0.0
 10
106.8464172278
 20
281.0852026535
 30
0.0
 10
110.2805034164
 20
284.6902359048
 30
0.0
 10
115.9275418602
 20
289.5649819992
 30
0.0
 10
121.6495371396
 20
292.5246973824
 30
0.0
 10
126.4261712561
 20
293.776102082
 30
0.0
  0
ENDSEC
  0
SECTION
  2
OBJECTS
  0
DICTIONARY
  5
C
100
AcDbDictionary
280
0
281
1
  3
ACAD_GROUP
350
D
  3
ACAD_MLINESTYLE
350
17
  3
ACAD_LAYOUT
350
1A
  3
ACAD_PLOTSETTINGS
350
19
  3
ACAD_PLOTSTYLENAME
350
E
  0
DICTIONARY
  5
D
102
{ACAD_REACTORS
330
C
102
}
100
AcDbDictionary
280
0
281
1
  0
ACDBDICTIONARYWDFLT
  5
E
102
{ACAD_REACTORS
330
C
102
}
100
AcDbDictionary
281
1
  3
Normal
350
F
100
AcDbDictionaryWithDefault
340
F
  0
DICTIONARY
  5
17
102
{ACAD_REACTORS
330
C
102
}
100
AcDbDictionary
280
0
281
1
  3
Standard
350
18
  0
DICTIONARY
  5
19
102
{ACAD_REACTORS
330
C
102
}
100
AcDbDictionary
281
1
  0
DICTIONARY
  5
1A
102
{ACAD_REACTORS
330
C
102
}
100
AcDbDictionary
281
1
  3
Model
350
2AC
  3
Layout1
350
2AD
  0
ACDBPLACEHOLDER
  5
F
102
{ACAD_REACTORS
330
E
102
}
  0
MLINESTYLE
  5
18
102
{ACAD_REACTORS
330
17
102
}
100
AcDbMlineStyle
  2
STANDARD
 70
0
  3

 62
256
 51
90.0
 52
90.0
 71
2
 49
0.5
 62
256
  6
BYLAYER
 49
-0.5
 62
256
  6
BYLAYER
  0
LAYOUT
  5
2AC
102
{ACAD_REACTORS
330
1A
102
}
100
AcDbPlotSettings
  1

  2
none_device
  4

  6

 40
0.0
 41
0.0
 42
0.0
 43
0.0
 44
210.0
 45
297.0
 46
0.0
 47
0.0
 48
0.0
 49
0.0
140
0.0
141
0.0
142
1.0
143
1.0
 70
1024
 72
1
 73
0
 74
0
  7

 75
0
147
1.0
148
0.0
149
0.0
100
AcDbLayout
  1
Model
 70
0
 71
0
 10
0.0
 20
0.0
 11
210.0
 21
297.0
 12
0.0
 22
0.0
 32
0.0
 14
0.0
 24
0.0
 34
0.0
 15
0.0
 25
0.0
 35
0.0
146
0.0
 13
0.0
 23
0.0
 33
0.0
 16
1.0
 26
0.0
 36
0.0
 17
0.0
 27
1.0
 37
0.0
 76
0
330
210
345
0
346
0
  0
LAYOUT
  5
2AD
102
{ACAD_REACTORS
330
1A
102
}
100
AcDbPlotSettings
  1

  2
none_device
  4

  6

 40
0.0
 41
0.0
 42
0.0
 43
0.0
 44
210.0
 45
297.0
 46
0.0
 47
0.0
 48
0.0
 49
0.0
140
0.0
141
0.0
142
1.0
143
1.0
 70
0
 72
1
 73
0
 74
0
  7

 75
0
147
1.0
148
0.0
149
0.0
100
AcDbLayout
  1
Layout1
 70
0
 71
1
 10
0.0
 20
0.0
 11
210.0
 21
297.0
 12
0.0
 22
0.0
 32
0.0
 14
0.0
 24
0.0
 34
0.0
 15
0.0
 25
0.0
 35
0.0
146
0.0
 13
0.0
 23
0.0
 33
0.0
 16
1.0
 26
0.0
 36
0.0
 17
0.0
 27
1.0
 37
0.0
 76
0
330
211
345
0
346
0
  0
ENDSEC
  0
EOF
