999
DXF file: C:\Users\sesa63760\Dev\_Creo\CAD\MCADID0000984_3D-CAD\drw0001_7.dxf
999
Pro/ENGINEER 2019471 by Parametric Technology Corporation
  0
SECTION
  2
HEADER
  9
$ACADVER
  1
AC1024
  9
$DWGCODEPAGE
  3
ANSI_1252
  9
$EXTMAX
 10
404.5001436686
 20
572.0787746171
 30
0.0
  9
$EXTMIN
 10
0.0
 20
0.0
 30
0.0
  9
$LIMMIN
 10
0.0
 20
0.0
  9
$LIMMAX
 10
404.5001436686
 20
572.0787746171
  9
$VIEWCTR
 10
202.2500718343
 20
286.0393873085
  9
$VIEWSIZE
 40
572.0787746171
  9
$CLAYER
  8
0
  9
$LTSCALE
 40
37.2910608639
  9
$CELTYPE
  6
BYLAYER
  9
$DIMSCALE
 40
1.0
  9
$DIMASZ
 40
4.8154779008
  9
$DIMEXO
 40
1.0
  9
$DIMDLI
 40
25.7647329605
  9
$DIMEXE
 40
1.0
  9
$DIMCEN
 40
6.1021735959
  9
$DIMLFAC
 40
1.0
  9
$DIMBLK
  1
_FILLED
  9
$DIMALT
 70
0
  9
$DIMALTF
 40
0.0393700787
  9
$DIMTXT
 40
6.7416690611
  9
$DIMTOL
 70
1
  9
$DIMLIM
 70
0
  9
$DIMTFAC
 40
1.0
  9
$DIMTP
 40
0.01
  9
$DIMTM
 40
0.01
  9
$DIMGAP
 40
0.625
  9
$DIMDSEP
 70
46
  9
$AUNITS
 70
0
  9
$PDMODE
 70
3
  9
$PDSIZE
 40
0.3125
  9
$HANDSEED
  5
4A1
  9
$TILEMODE
 70
1
  9
$MEASUREMENT
 70
1
  9
$INSUNITS
 70
4
  0
ENDSEC
  0
SECTION
  2
CLASSES
  0
CLASS
  1
ACDBDICTIONARYWDFLT
  2
AcDbDictionaryWithDefault
  3
AutoCAD 2000
 90
0
 91
1
280
0
281
0
  0
CLASS
  1
ACDBPLACEHOLDER
  2
AcDbPlaceHolder
  3
AutoCAD 2000
 90
0
 91
1
280
0
281
0
  0
CLASS
  1
LAYOUT
  2
AcDbLayout
  3
AutoCAD 2000
 90
0
 91
0
280
0
281
0
  0
ENDSEC
  0
SECTION
  2
TABLES
  0
TABLE
  2
VPORT
  5
8
100
AcDbSymbolTable
 70
2
  0
VPORT
  5
1F4
100
AcDbSymbolTableRecord
100
AcDbViewportTableRecord
  2
*ACTIVE
 70
0
 10
0.0
 20
0.0
 11
1.0
 21
1.0
 12
202.2500718343
 22
286.0393873085
 13
0.0
 23
0.0
 14
1.0
 24
1.0
 15
0.0
 25
0.0
 16
0.0
 26
0.0
 36
1.0
 17
0.0
 27
0.0
 37
0.0
 40
572.0787746171
 41
0.7070707071
 42
50.0
 43
0.0
 44
0.0
 50
0.0
 51
0.0
 71
0
 72
100
 73
1
 74
1
 75
0
 76
0
 77
0
 78
0
  0
ENDTAB
  0
TABLE
  2
LTYPE
  5
5
100
AcDbSymbolTable
 70
6
  0
LTYPE
  5
14
100
AcDbSymbolTableRecord
100
AcDbLinetypeTableRecord
  2
BYBLOCK
 70
0
  3

 72
65
 73
0
 40
0.0
  0
LTYPE
  5
15
100
AcDbSymbolTableRecord
100
AcDbLinetypeTableRecord
  2
BYLAYER
 70
0
  3

 72
65
 73
0
 40
0.0
  0
LTYPE
  5
16
100
AcDbSymbolTableRecord
100
AcDbLinetypeTableRecord
  2
CONTINUOUS
 70
64
  3
Solid line
 72
65
 73
0
 40
0.0
  0
LTYPE
  5
1F5
100
AcDbSymbolTableRecord
100
AcDbLinetypeTableRecord
  2
CENTER
 70
64
  3
____ _ ____ _ ____ _ ____ _ ____ _ ____ _ ____
 72
65
 73
4
 40
0.6
 49
0.375
 74
0
 49
-0.075
 74
0
 49
0.075
 74
0
 49
-0.075
 74
0
  0
LTYPE
  5
1F6
100
AcDbSymbolTableRecord
100
AcDbLinetypeTableRecord
  2
HIDDEN
 70
64
  3
- - - - - - - - - - - - - - - - - - - -
 72
65
 73
2
 40
0.2
 49
0.1
 74
0
 49
-0.1
 74
0
  0
LTYPE
  5
1F7
100
AcDbSymbolTableRecord
100
AcDbLinetypeTableRecord
  2
PHANTOM
 70
64
  3
_____ _ _ _____ _ _ _____ _ _ _____
 72
65
 73
6
 40
0.8
 49
0.45
 74
0
 49
-0.05
 74
0
 49
0.1
 74
0
 49
-0.05
 74
0
 49
0.1
 74
0
 49
-0.05
 74
0
  0
LTYPE
  5
1F8
100
AcDbSymbolTableRecord
100
AcDbLinetypeTableRecord
  2
DOT
 70
64
  3
. . . . . . . . . . . . . . . . . . . .
 72
65
 73
2
 40
0.2
 49
0.1
 74
0
 49
-0.1
 74
0
  0
LTYPE
  5
1F9
100
AcDbSymbolTableRecord
100
AcDbLinetypeTableRecord
  2
DASHED
 70
64
  3
- - - - - - - - - - - - - - - - - - - -
 72
65
 73
2
 40
0.2
 49
0.1
 74
0
 49
-0.1
 74
0
  0
ENDTAB
  0
TABLE
  2
LAYER
  5
2
100
AcDbSymbolTable
 70
36
  0
LAYER
  5
10
100
AcDbSymbolTableRecord
100
AcDbLayerTableRecord
  2
0
 70
0
 62
7
  6
CONTINUOUS
370
-3
390
F
  0
LAYER
  5
1FA
100
AcDbSymbolTableRecord
100
AcDbLayerTableRecord
  2
DEFAULT_1
 70
0
 62
7
  6
CENTER
370
-3
390
F
  0
LAYER
  5
1FB
100
AcDbSymbolTableRecord
100
AcDbLayerTableRecord
  2
DEFAULT_2
 70
0
 62
8
  6
HIDDEN
370
-3
390
F
  0
LAYER
  5
1FC
100
AcDbSymbolTableRecord
100
AcDbLayerTableRecord
  2
DEFAULT_3
 70
0
 62
7
  6
PHANTOM
370
-3
390
F
  0
LAYER
  5
1FD
100
AcDbSymbolTableRecord
100
AcDbLayerTableRecord
  2
00_COMPONENTS
 70
0
 62
7
  6
CONTINUOUS
370
-3
390
F
  0
LAYER
  5
1FE
100
AcDbSymbolTableRecord
100
AcDbLayerTableRecord
  2
01_1_DEFAULT_DATUMS
 70
0
 62
7
  6
CONTINUOUS
370
-3
390
F
  0
LAYER
  5
1FF
100
AcDbSymbolTableRecord
100
AcDbLayerTableRecord
  2
01_PLANES
 70
0
 62
7
  6
CONTINUOUS
370
-3
390
F
  0
LAYER
  5
200
100
AcDbSymbolTableRecord
100
AcDbLayerTableRecord
  2
02_COORD_SYS
 70
0
 62
7
  6
CONTINUOUS
370
-3
390
F
  0
LAYER
  5
201
100
AcDbSymbolTableRecord
100
AcDbLayerTableRecord
  2
03_AXES
 70
0
 62
7
  6
CONTINUOUS
370
-3
390
F
  0
LAYER
  5
202
100
AcDbSymbolTableRecord
100
AcDbLayerTableRecord
  2
04_POINTS
 70
0
 62
7
  6
CONTINUOUS
370
-3
390
F
  0
LAYER
  5
203
100
AcDbSymbolTableRecord
100
AcDbLayerTableRecord
  2
05_CURVES
 70
0
 62
7
  6
CONTINUOUS
370
-3
390
F
  0
LAYER
  5
204
100
AcDbSymbolTableRecord
100
AcDbLayerTableRecord
  2
06_SURFS
 70
0
 62
7
  6
CONTINUOUS
370
-3
390
F
  0
LAYER
  5
205
100
AcDbSymbolTableRecord
100
AcDbLayerTableRecord
  2
07_COSMETICS
 70
0
 62
7
  6
CONTINUOUS
370
-3
390
F
  0
LAYER
  5
206
100
AcDbSymbolTableRecord
100
AcDbLayerTableRecord
  2
10_NOTES
 70
0
 62
7
  6
CONTINUOUS
370
-3
390
F
  0
LAYER
  5
207
100
AcDbSymbolTableRecord
100
AcDbLayerTableRecord
  2
11_NOTES_PUB
 70
0
 62
7
  6
CONTINUOUS
370
-3
390
F
  0
LAYER
  5
208
100
AcDbSymbolTableRecord
100
AcDbLayerTableRecord
  2
13_REF_GTOL
 70
0
 62
7
  6
CONTINUOUS
370
-3
390
F
  0
LAYER
  5
209
100
AcDbSymbolTableRecord
100
AcDbLayerTableRecord
  2
16_MISC
 70
0
 62
7
  6
CONTINUOUS
370
-3
390
F
  0
LAYER
  5
20A
100
AcDbSymbolTableRecord
100
AcDbLayerTableRecord
  2
17_NO_PRINT
 70
0
 62
7
  6
CONTINUOUS
370
-3
390
F
  0
LAYER
  5
20B
100
AcDbSymbolTableRecord
100
AcDbLayerTableRecord
  2
18_DATUM_CAMS_JOINTS
 70
0
 62
7
  6
CONTINUOUS
370
-3
390
F
  0
LAYER
  5
20C
100
AcDbSymbolTableRecord
100
AcDbLayerTableRecord
  2
19_DATUM_FUNCTIONAL
 70
0
 62
7
  6
CONTINUOUS
370
-3
390
F
  0
LAYER
  5
20D
100
AcDbSymbolTableRecord
100
AcDbLayerTableRecord
  2
20_DATUM_KINEMATIC_SCHEME
 70
0
 62
7
  6
CONTINUOUS
370
-3
390
F
  0
ENDTAB
  0
TABLE
  2
STYLE
  5
3
100
AcDbSymbolTable
 70
1
  0
STYLE
  5
11
100
AcDbSymbolTableRecord
100
AcDbTextStyleTableRecord
  2
STANDARD
 70
0
 40
0.0
 41
0.8
 50
0.0
 71
0
 42
0.2
  3
txt
  4

  0
STYLE
  5
20E
100
AcDbSymbolTableRecord
100
AcDbTextStyleTableRecord
  2
TEXTSTYLE_1
 70
0
 40
0.0
 41
0.8
 50
0.0
 71
0
 42
0.2
  3
gdt
  4

  0
ENDTAB
  0
TABLE
  2
VIEW
  5
6
100
AcDbSymbolTable
 70
0
  0
ENDTAB
  0
TABLE
  2
UCS
  5
7
100
AcDbSymbolTable
 70
0
  0
ENDTAB
  0
TABLE
  2
APPID
  5
9
100
AcDbSymbolTable
 70
1
  0
APPID
  5
20F
100
AcDbSymbolTableRecord
100
AcDbRegAppTableRecord
  2
ACAD
 70
0
  0
ENDTAB
  0
TABLE
  2
BLOCK_RECORD
  5
1
100
AcDbSymbolTable
 70
0
  0
BLOCK_RECORD
  5
210
100
AcDbSymbolTableRecord
100
AcDbBlockTableRecord
  2
*Model_Space
  0
BLOCK_RECORD
  5
211
100
AcDbSymbolTableRecord
100
AcDbBlockTableRecord
  2
*Paper_Space
  0
BLOCK_RECORD
  5
212
100
AcDbSymbolTableRecord
100
AcDbBlockTableRecord
  2
_FILLED
  0
ENDTAB
  0
TABLE
  2
DIMSTYLE
  5
A
100
AcDbSymbolTable
 70
1
100
AcDbDimStyleTable
 71
0
  0
DIMSTYLE
105
213
100
AcDbSymbolTableRecord
100
AcDbDimStyleTableRecord
  2
STANDARD
 70
0
  3

  4

 40
1.0
 41
4.8154779008
 42
1.0
 43
0.38
 44
1.0
 45
0.0
 46
0.0
 47
0.01
 48
0.01
140
6.7416690611
141
0.09
142
0.0
143
25.4
144
1.0
145
0.0
146
1.0
147
0.625
 71
1
 72
0
 73
0
 74
0
 75
0
 76
0
 77
1
 78
8
 79
2
170
0
171
1
172
0
173
0
174
0
175
0
176
0
177
0
178
0
270
2
179
2
271
2
272
2
273
2
274
2
275
0
280
0
281
0
282
0
283
1
284
8
285
0
286
0
287
3
288
0
340
11
278
46
341
212
342
212
343
212
344
212
  0
ENDTAB
  0
ENDSEC
  0
SECTION
  2
BLOCKS
  0
BLOCK
  5
20
100
AcDbEntity
  8
0
100
AcDbBlockBegin
  2
*Model_Space
 70
0
 10
0.0
 20
0.0
 30
0.0
  3
*Model_Space
  1

  0
ENDBLK
  5
21
100
AcDbEntity
  8
0
100
AcDbBlockEnd
  0
BLOCK
  5
1C
100
AcDbEntity
  8
0
100
AcDbBlockBegin
  2
*Paper_Space
 70
0
 10
0.0
 20
0.0
 30
0.0
  3
*Paper_Space
  1

  0
ENDBLK
  5
1D
100
AcDbEntity
  8
0
100
AcDbBlockEnd
  0
BLOCK
  5
214
100
AcDbEntity
  8
0
100
AcDbBlockBegin
  2
_FILLED
 70
64
 10
0.0
 20
0.0
  3
_FILLED
  1

  0
SOLID
  5
215
100
AcDbEntity
  8
0
  6
BYBLOCK
 62
0
100
AcDbTrace
 10
0.0
 20
0.0
 11
-1.0
 21
0.25
 12
-1.0
 22
-0.25
 13
-1.0
 23
-0.25
  0
ENDBLK
  5
216
100
AcDbEntity
  8
0
  6
BYBLOCK
 62
0
100
AcDbBlockEnd
  0
ENDSEC
  0
SECTION
  2
ENTITIES
  0
LINE
  5
217
100
AcDbEntity
  8
0
100
AcDbLine
 62
7
  6
CONTINUOUS
 10
42.9502906527
 20
144.4533295676
 11
42.9502906527
 21
318.8533295676
  0
LINE
  5
218
100
AcDbEntity
  8
0
100
AcDbLine
 62
7
  6
CONTINUOUS
 10
43.4502906527
 20
155.9533295676
 11
43.4502906527
 21
315.8533295676
  0
LINE
  5
219
100
AcDbEntity
  8
0
100
AcDbLine
 62
7
  6
CONTINUOUS
 10
47.9502906527
 20
317.3533295676
 11
47.9502906527
 21
434.3533295676
  0
LINE
  5
21A
100
AcDbEntity
  8
0
100
AcDbLine
 62
7
  6
CONTINUOUS
 10
49.4502906527
 20
317.3533295676
 11
49.4502906527
 21
431.3533295676
  0
LINE
  5
21B
100
AcDbEntity
  8
0
100
AcDbLine
 62
7
  6
CONTINUOUS
 10
51.7002906527
 20
141.9552644094
 11
51.7002906527
 21
141.9581321222
  0
LINE
  5
21C
100
AcDbEntity
  8
0
100
AcDbLine
 62
7
  6
CONTINUOUS
 10
53.4502906527
 20
142.560526911
 11
53.4502906527
 21
141.9533295676
  0
LINE
  5
21D
100
AcDbEntity
  8
0
100
AcDbLine
 62
7
  6
CONTINUOUS
 10
54.4502906527
 20
141.9533295676
 11
54.4502906527
 21
142.560526911
  0
LINE
  5
21E
100
AcDbEntity
  8
0
100
AcDbLine
 62
7
  6
CONTINUOUS
 10
57.9502906527
 20
422.3533295676
 11
57.9502906527
 21
315.8533295676
  0
LINE
  5
21F
100
AcDbEntity
  8
0
100
AcDbLine
 62
7
  6
CONTINUOUS
 10
58.9502906527
 20
426.8533295676
 11
58.9502906527
 21
422.3533295676
  0
LINE
  5
220
100
AcDbEntity
  8
0
100
AcDbLine
 62
7
  6
CONTINUOUS
 10
307.5503508553
 20
140.6033295676
 11
297.5503508553
 21
140.6033295676
  0
LINE
  5
221
100
AcDbEntity
  8
0
100
AcDbLine
 62
7
  6
CONTINUOUS
 10
292.4711712486
 20
140.6033295676
 11
263.1295304621
 21
140.6033295676
  0
LINE
  5
222
100
AcDbEntity
  8
0
100
AcDbLine
 62
7
  6
CONTINUOUS
 10
258.0503508553
 20
140.6033295676
 11
248.0503508553
 21
140.6033295676
  0
LINE
  5
223
100
AcDbEntity
  8
0
100
AcDbLine
 62
7
  6
CONTINUOUS
 10
263.1295304621
 20
141.6033295676
 11
292.4711712486
 21
141.6033295676
  0
LINE
  5
224
100
AcDbEntity
  8
0
100
AcDbLine
 62
7
  6
CONTINUOUS
 10
354.0418601298
 20
141.9533295676
 11
352.4491422967
 21
141.9533295676
  0
LINE
  5
225
100
AcDbEntity
  8
0
100
AcDbLine
 62
7
  6
CONTINUOUS
 10
351.4516351125
 20
141.9533295676
 11
349.8587247248
 21
141.9533295676
  0
LINE
  5
226
100
AcDbEntity
  8
0
100
AcDbLine
 62
7
  6
CONTINUOUS
 10
56.0418601298
 20
141.9533295676
 11
54.4491422967
 21
141.9533295676
  0
LINE
  5
227
100
AcDbEntity
  8
0
100
AcDbLine
 62
7
  6
CONTINUOUS
 10
53.4516351125
 20
141.9533295676
 11
51.8587247248
 21
141.9533295676
  0
LINE
  5
228
100
AcDbEntity
  8
0
100
AcDbLine
 62
7
  6
CONTINUOUS
 10
212.4502906091
 20
143.4533295676
 11
237.8297148917
 21
143.4533295676
  0
LINE
  5
229
100
AcDbEntity
  8
0
100
AcDbLine
 62
7
  6
CONTINUOUS
 10
317.7709868189
 20
143.4533295676
 11
343.4502906091
 21
143.4533295676
  0
LINE
  5
22A
100
AcDbEntity
  8
0
100
AcDbLine
 62
7
  6
CONTINUOUS
 10
362.9502906527
 20
144.4533295676
 11
42.9502906527
 21
144.4533295676
  0
LINE
  5
22B
100
AcDbEntity
  8
0
100
AcDbLine
 62
7
  6
CONTINUOUS
 10
74.4502906527
 20
144.4533295676
 11
74.4502906527
 21
433.3533295676
  0
LINE
  5
22C
100
AcDbEntity
  8
0
100
AcDbLine
 62
7
  6
CONTINUOUS
 10
362.9502906527
 20
154.4533295676
 11
331.4502906527
 21
154.4533295676
  0
LINE
  5
22D
100
AcDbEntity
  8
0
100
AcDbLine
 62
7
  6
CONTINUOUS
 10
74.4502906527
 20
154.4533295676
 11
42.9502906527
 21
154.4533295676
  0
LINE
  5
22E
100
AcDbEntity
  8
0
100
AcDbLine
 62
7
  6
CONTINUOUS
 10
320.9502906527
 20
155.4533295676
 11
315.9502906527
 21
155.4533295676
  0
LINE
  5
22F
100
AcDbEntity
  8
0
100
AcDbLine
 62
7
  6
CONTINUOUS
 10
313.9502906527
 20
155.4533295676
 11
308.9502906527
 21
155.4533295676
  0
LINE
  5
230
100
AcDbEntity
  8
0
100
AcDbLine
 62
7
  6
CONTINUOUS
 10
306.9502906527
 20
155.4533295676
 11
301.9502906527
 21
155.4533295676
  0
LINE
  5
231
100
AcDbEntity
  8
0
100
AcDbLine
 62
7
  6
CONTINUOUS
 10
299.9502906527
 20
155.4533295676
 11
294.9502906527
 21
155.4533295676
  0
LINE
  5
232
100
AcDbEntity
  8
0
100
AcDbLine
 62
7
  6
CONTINUOUS
 10
292.9502906527
 20
155.4533295676
 11
287.9502906527
 21
155.4533295676
  0
LINE
  5
233
100
AcDbEntity
  8
0
100
AcDbLine
 62
7
  6
CONTINUOUS
 10
285.9502906527
 20
155.4533295676
 11
280.9502906527
 21
155.4533295676
  0
LINE
  5
234
100
AcDbEntity
  8
0
100
AcDbLine
 62
7
  6
CONTINUOUS
 10
278.9502906527
 20
155.4533295676
 11
273.9502906527
 21
155.4533295676
  0
LINE
  5
235
100
AcDbEntity
  8
0
100
AcDbLine
 62
7
  6
CONTINUOUS
 10
271.9502906527
 20
155.4533295676
 11
266.9502906527
 21
155.4533295676
  0
LINE
  5
236
100
AcDbEntity
  8
0
100
AcDbLine
 62
7
  6
CONTINUOUS
 10
264.9502906527
 20
155.4533295676
 11
259.9502906527
 21
155.4533295676
  0
LINE
  5
237
100
AcDbEntity
  8
0
100
AcDbLine
 62
7
  6
CONTINUOUS
 10
257.9502906527
 20
155.4533295676
 11
252.9502906527
 21
155.4533295676
  0
LINE
  5
238
100
AcDbEntity
  8
0
100
AcDbLine
 62
7
  6
CONTINUOUS
 10
250.9502906527
 20
155.4533295676
 11
245.9502906527
 21
155.4533295676
  0
LINE
  5
239
100
AcDbEntity
  8
0
100
AcDbLine
 62
7
  6
CONTINUOUS
 10
243.9502906527
 20
155.4533295676
 11
238.9502906527
 21
155.4533295676
  0
LINE
  5
23A
100
AcDbEntity
  8
0
100
AcDbLine
 62
7
  6
CONTINUOUS
 10
236.9502906527
 20
155.4533295676
 11
231.9502906527
 21
155.4533295676
  0
LINE
  5
23B
100
AcDbEntity
  8
0
100
AcDbLine
 62
7
  6
CONTINUOUS
 10
229.9502906527
 20
155.4533295676
 11
224.9502906527
 21
155.4533295676
  0
LINE
  5
23C
100
AcDbEntity
  8
0
100
AcDbLine
 62
7
  6
CONTINUOUS
 10
222.9502906527
 20
155.4533295676
 11
217.9502906527
 21
155.4533295676
  0
LINE
  5
23D
100
AcDbEntity
  8
0
100
AcDbLine
 62
7
  6
CONTINUOUS
 10
215.9502906527
 20
155.4533295676
 11
210.9502906527
 21
155.4533295676
  0
LINE
  5
23E
100
AcDbEntity
  8
0
100
AcDbLine
 62
7
  6
CONTINUOUS
 10
208.9502906527
 20
155.4533295676
 11
203.9502906527
 21
155.4533295676
  0
LINE
  5
23F
100
AcDbEntity
  8
0
100
AcDbLine
 62
7
  6
CONTINUOUS
 10
201.9502906527
 20
155.4533295676
 11
196.9502906527
 21
155.4533295676
  0
LINE
  5
240
100
AcDbEntity
  8
0
100
AcDbLine
 62
7
  6
CONTINUOUS
 10
194.9502906527
 20
155.4533295676
 11
189.9502906527
 21
155.4533295676
  0
LINE
  5
241
100
AcDbEntity
  8
0
100
AcDbLine
 62
7
  6
CONTINUOUS
 10
187.9502906527
 20
155.4533295676
 11
182.9502906527
 21
155.4533295676
  0
LINE
  5
242
100
AcDbEntity
  8
0
100
AcDbLine
 62
7
  6
CONTINUOUS
 10
180.9502906527
 20
155.4533295676
 11
175.9502906527
 21
155.4533295676
  0
LINE
  5
243
100
AcDbEntity
  8
0
100
AcDbLine
 62
7
  6
CONTINUOUS
 10
173.9502906527
 20
155.4533295676
 11
168.9502906527
 21
155.4533295676
  0
LINE
  5
244
100
AcDbEntity
  8
0
100
AcDbLine
 62
7
  6
CONTINUOUS
 10
166.9502906527
 20
155.4533295676
 11
161.9502906527
 21
155.4533295676
  0
LINE
  5
245
100
AcDbEntity
  8
0
100
AcDbLine
 62
7
  6
CONTINUOUS
 10
159.9502906527
 20
155.4533295676
 11
154.9502906527
 21
155.4533295676
  0
LINE
  5
246
100
AcDbEntity
  8
0
100
AcDbLine
 62
7
  6
CONTINUOUS
 10
152.9502906527
 20
155.4533295676
 11
147.9502906527
 21
155.4533295676
  0
LINE
  5
247
100
AcDbEntity
  8
0
100
AcDbLine
 62
7
  6
CONTINUOUS
 10
145.9502906527
 20
155.4533295676
 11
140.9502906527
 21
155.4533295676
  0
LINE
  5
248
100
AcDbEntity
  8
0
100
AcDbLine
 62
7
  6
CONTINUOUS
 10
138.9502906527
 20
155.4533295676
 11
133.9502906527
 21
155.4533295676
  0
LINE
  5
249
100
AcDbEntity
  8
0
100
AcDbLine
 62
7
  6
CONTINUOUS
 10
131.9502906527
 20
155.4533295676
 11
126.9502906527
 21
155.4533295676
  0
LINE
  5
24A
100
AcDbEntity
  8
0
100
AcDbLine
 62
7
  6
CONTINUOUS
 10
124.9502906527
 20
155.4533295676
 11
119.9502906527
 21
155.4533295676
  0
LINE
  5
24B
100
AcDbEntity
  8
0
100
AcDbLine
 62
7
  6
CONTINUOUS
 10
117.9502906527
 20
155.4533295676
 11
112.9502906527
 21
155.4533295676
  0
LINE
  5
24C
100
AcDbEntity
  8
0
100
AcDbLine
 62
7
  6
CONTINUOUS
 10
110.9502906527
 20
155.4533295676
 11
105.9502906527
 21
155.4533295676
  0
LINE
  5
24D
100
AcDbEntity
  8
0
100
AcDbLine
 62
7
  6
CONTINUOUS
 10
103.9502906527
 20
155.4533295676
 11
98.9502906527
 21
155.4533295676
  0
LINE
  5
24E
100
AcDbEntity
  8
0
100
AcDbLine
 62
7
  6
CONTINUOUS
 10
96.9502906527
 20
155.4533295676
 11
91.9502906527
 21
155.4533295676
  0
LINE
  5
24F
100
AcDbEntity
  8
0
100
AcDbLine
 62
7
  6
CONTINUOUS
 10
89.9502906527
 20
155.4533295676
 11
84.9502906527
 21
155.4533295676
  0
LINE
  5
250
100
AcDbEntity
  8
0
100
AcDbLine
 62
7
  6
CONTINUOUS
 10
43.4502906527
 20
155.9533295676
 11
74.4502906527
 21
155.9533295676
  0
LINE
  5
251
100
AcDbEntity
  8
0
100
AcDbLine
 62
7
  6
CONTINUOUS
 10
331.4502906527
 20
155.9533295676
 11
362.4502906527
 21
155.9533295676
  0
LINE
  5
252
100
AcDbEntity
  8
0
100
AcDbLine
 62
7
  6
CONTINUOUS
 10
84.9502906527
 20
155.4533295676
 11
84.9502906527
 21
185.4533295676
  0
LINE
  5
253
100
AcDbEntity
  8
0
100
AcDbLine
 62
7
  6
CONTINUOUS
 10
84.9502906527
 20
188.9533295676
 11
84.9502906527
 21
218.9533295676
  0
LINE
  5
254
100
AcDbEntity
  8
0
100
AcDbLine
 62
7
  6
CONTINUOUS
 10
84.9502906527
 20
222.4533295676
 11
84.9502906527
 21
252.4533295676
  0
LINE
  5
255
100
AcDbEntity
  8
0
100
AcDbLine
 62
7
  6
CONTINUOUS
 10
84.9502906527
 20
255.9533295676
 11
84.9502906527
 21
285.9533295676
  0
LINE
  5
256
100
AcDbEntity
  8
0
100
AcDbLine
 62
7
  6
CONTINUOUS
 10
89.9502906527
 20
285.9533295676
 11
89.9502906527
 21
255.9533295676
  0
LINE
  5
257
100
AcDbEntity
  8
0
100
AcDbLine
 62
7
  6
CONTINUOUS
 10
89.9502906527
 20
252.4533295676
 11
89.9502906527
 21
222.4533295676
  0
LINE
  5
258
100
AcDbEntity
  8
0
100
AcDbLine
 62
7
  6
CONTINUOUS
 10
89.9502906527
 20
218.9533295676
 11
89.9502906527
 21
188.9533295676
  0
LINE
  5
259
100
AcDbEntity
  8
0
100
AcDbLine
 62
7
  6
CONTINUOUS
 10
89.9502906527
 20
185.4533295676
 11
89.9502906527
 21
155.4533295676
  0
LINE
  5
25A
100
AcDbEntity
  8
0
100
AcDbLine
 62
7
  6
CONTINUOUS
 10
91.9502906527
 20
155.4533295676
 11
91.9502906527
 21
185.4533295676
  0
LINE
  5
25B
100
AcDbEntity
  8
0
100
AcDbLine
 62
7
  6
CONTINUOUS
 10
91.9502906527
 20
188.9533295676
 11
91.9502906527
 21
218.9533295676
  0
LINE
  5
25C
100
AcDbEntity
  8
0
100
AcDbLine
 62
7
  6
CONTINUOUS
 10
91.9502906527
 20
222.4533295676
 11
91.9502906527
 21
252.4533295676
  0
LINE
  5
25D
100
AcDbEntity
  8
0
100
AcDbLine
 62
7
  6
CONTINUOUS
 10
91.9502906527
 20
255.9533295676
 11
91.9502906527
 21
285.9533295676
  0
LINE
  5
25E
100
AcDbEntity
  8
0
100
AcDbLine
 62
7
  6
CONTINUOUS
 10
96.9502906527
 20
285.9533295676
 11
96.9502906527
 21
255.9533295676
  0
LINE
  5
25F
100
AcDbEntity
  8
0
100
AcDbLine
 62
7
  6
CONTINUOUS
 10
96.9502906527
 20
252.4533295676
 11
96.9502906527
 21
222.4533295676
  0
LINE
  5
260
100
AcDbEntity
  8
0
100
AcDbLine
 62
7
  6
CONTINUOUS
 10
96.9502906527
 20
218.9533295676
 11
96.9502906527
 21
188.9533295676
  0
LINE
  5
261
100
AcDbEntity
  8
0
100
AcDbLine
 62
7
  6
CONTINUOUS
 10
96.9502906527
 20
185.4533295676
 11
96.9502906527
 21
155.4533295676
  0
LINE
  5
262
100
AcDbEntity
  8
0
100
AcDbLine
 62
7
  6
CONTINUOUS
 10
98.9502906527
 20
155.4533295676
 11
98.9502906527
 21
185.4533295676
  0
LINE
  5
263
100
AcDbEntity
  8
0
100
AcDbLine
 62
7
  6
CONTINUOUS
 10
98.9502906527
 20
188.9533295676
 11
98.9502906527
 21
218.9533295676
  0
LINE
  5
264
100
AcDbEntity
  8
0
100
AcDbLine
 62
7
  6
CONTINUOUS
 10
98.9502906527
 20
222.4533295676
 11
98.9502906527
 21
252.4533295676
  0
LINE
  5
265
100
AcDbEntity
  8
0
100
AcDbLine
 62
7
  6
CONTINUOUS
 10
98.9502906527
 20
255.9533295676
 11
98.9502906527
 21
285.9533295676
  0
LINE
  5
266
100
AcDbEntity
  8
0
100
AcDbLine
 62
7
  6
CONTINUOUS
 10
84.9502906527
 20
185.4533295676
 11
89.9502906527
 21
185.4533295676
  0
LINE
  5
267
100
AcDbEntity
  8
0
100
AcDbLine
 62
7
  6
CONTINUOUS
 10
91.9502906527
 20
185.4533295676
 11
96.9502906527
 21
185.4533295676
  0
LINE
  5
268
100
AcDbEntity
  8
0
100
AcDbLine
 62
7
  6
CONTINUOUS
 10
98.9502906527
 20
185.4533295676
 11
103.9502906527
 21
185.4533295676
  0
LINE
  5
269
100
AcDbEntity
  8
0
100
AcDbLine
 62
7
  6
CONTINUOUS
 10
105.9502906527
 20
185.4533295676
 11
110.9502906527
 21
185.4533295676
  0
LINE
  5
26A
100
AcDbEntity
  8
0
100
AcDbLine
 62
7
  6
CONTINUOUS
 10
112.9502906527
 20
185.4533295676
 11
117.9502906527
 21
185.4533295676
  0
LINE
  5
26B
100
AcDbEntity
  8
0
100
AcDbLine
 62
7
  6
CONTINUOUS
 10
119.9502906527
 20
185.4533295676
 11
124.9502906527
 21
185.4533295676
  0
LINE
  5
26C
100
AcDbEntity
  8
0
100
AcDbLine
 62
7
  6
CONTINUOUS
 10
126.9502906527
 20
185.4533295676
 11
131.9502906527
 21
185.4533295676
  0
LINE
  5
26D
100
AcDbEntity
  8
0
100
AcDbLine
 62
7
  6
CONTINUOUS
 10
133.9502906527
 20
185.4533295676
 11
138.9502906527
 21
185.4533295676
  0
LINE
  5
26E
100
AcDbEntity
  8
0
100
AcDbLine
 62
7
  6
CONTINUOUS
 10
140.9502906527
 20
185.4533295676
 11
145.9502906527
 21
185.4533295676
  0
LINE
  5
26F
100
AcDbEntity
  8
0
100
AcDbLine
 62
7
  6
CONTINUOUS
 10
147.9502906527
 20
185.4533295676
 11
152.9502906527
 21
185.4533295676
  0
LINE
  5
270
100
AcDbEntity
  8
0
100
AcDbLine
 62
7
  6
CONTINUOUS
 10
154.9502906527
 20
185.4533295676
 11
159.9502906527
 21
185.4533295676
  0
LINE
  5
271
100
AcDbEntity
  8
0
100
AcDbLine
 62
7
  6
CONTINUOUS
 10
161.9502906527
 20
185.4533295676
 11
166.9502906527
 21
185.4533295676
  0
LINE
  5
272
100
AcDbEntity
  8
0
100
AcDbLine
 62
7
  6
CONTINUOUS
 10
168.9502906527
 20
185.4533295676
 11
173.9502906527
 21
185.4533295676
  0
LINE
  5
273
100
AcDbEntity
  8
0
100
AcDbLine
 62
7
  6
CONTINUOUS
 10
175.9502906527
 20
185.4533295676
 11
180.9502906527
 21
185.4533295676
  0
LINE
  5
274
100
AcDbEntity
  8
0
100
AcDbLine
 62
7
  6
CONTINUOUS
 10
182.9502906527
 20
185.4533295676
 11
187.9502906527
 21
185.4533295676
  0
LINE
  5
275
100
AcDbEntity
  8
0
100
AcDbLine
 62
7
  6
CONTINUOUS
 10
189.9502906527
 20
185.4533295676
 11
194.9502906527
 21
185.4533295676
  0
LINE
  5
276
100
AcDbEntity
  8
0
100
AcDbLine
 62
7
  6
CONTINUOUS
 10
196.9502906527
 20
185.4533295676
 11
201.9502906527
 21
185.4533295676
  0
LINE
  5
277
100
AcDbEntity
  8
0
100
AcDbLine
 62
7
  6
CONTINUOUS
 10
203.9502906527
 20
185.4533295676
 11
208.9502906527
 21
185.4533295676
  0
LINE
  5
278
100
AcDbEntity
  8
0
100
AcDbLine
 62
7
  6
CONTINUOUS
 10
210.9502906527
 20
185.4533295676
 11
215.9502906527
 21
185.4533295676
  0
LINE
  5
279
100
AcDbEntity
  8
0
100
AcDbLine
 62
7
  6
CONTINUOUS
 10
217.9502906527
 20
185.4533295676
 11
222.9502906527
 21
185.4533295676
  0
LINE
  5
27A
100
AcDbEntity
  8
0
100
AcDbLine
 62
7
  6
CONTINUOUS
 10
224.9502906527
 20
185.4533295676
 11
229.9502906527
 21
185.4533295676
  0
LINE
  5
27B
100
AcDbEntity
  8
0
100
AcDbLine
 62
7
  6
CONTINUOUS
 10
231.9502906527
 20
185.4533295676
 11
236.9502906527
 21
185.4533295676
  0
LINE
  5
27C
100
AcDbEntity
  8
0
100
AcDbLine
 62
7
  6
CONTINUOUS
 10
238.9502906527
 20
185.4533295676
 11
243.9502906527
 21
185.4533295676
  0
LINE
  5
27D
100
AcDbEntity
  8
0
100
AcDbLine
 62
7
  6
CONTINUOUS
 10
245.9502906527
 20
185.4533295676
 11
250.9502906527
 21
185.4533295676
  0
LINE
  5
27E
100
AcDbEntity
  8
0
100
AcDbLine
 62
7
  6
CONTINUOUS
 10
252.9502906527
 20
185.4533295676
 11
257.9502906527
 21
185.4533295676
  0
LINE
  5
27F
100
AcDbEntity
  8
0
100
AcDbLine
 62
7
  6
CONTINUOUS
 10
259.9502906527
 20
185.4533295676
 11
264.9502906527
 21
185.4533295676
  0
LINE
  5
280
100
AcDbEntity
  8
0
100
AcDbLine
 62
7
  6
CONTINUOUS
 10
266.9502906527
 20
185.4533295676
 11
271.9502906527
 21
185.4533295676
  0
LINE
  5
281
100
AcDbEntity
  8
0
100
AcDbLine
 62
7
  6
CONTINUOUS
 10
273.9502906527
 20
185.4533295676
 11
278.9502906527
 21
185.4533295676
  0
LINE
  5
282
100
AcDbEntity
  8
0
100
AcDbLine
 62
7
  6
CONTINUOUS
 10
280.9502906527
 20
185.4533295676
 11
285.9502906527
 21
185.4533295676
  0
LINE
  5
283
100
AcDbEntity
  8
0
100
AcDbLine
 62
7
  6
CONTINUOUS
 10
287.9502906527
 20
185.4533295676
 11
292.9502906527
 21
185.4533295676
  0
LINE
  5
284
100
AcDbEntity
  8
0
100
AcDbLine
 62
7
  6
CONTINUOUS
 10
294.9502906527
 20
185.4533295676
 11
299.9502906527
 21
185.4533295676
  0
LINE
  5
285
100
AcDbEntity
  8
0
100
AcDbLine
 62
7
  6
CONTINUOUS
 10
301.9502906527
 20
185.4533295676
 11
306.9502906527
 21
185.4533295676
  0
LINE
  5
286
100
AcDbEntity
  8
0
100
AcDbLine
 62
7
  6
CONTINUOUS
 10
308.9502906527
 20
185.4533295676
 11
313.9502906527
 21
185.4533295676
  0
LINE
  5
287
100
AcDbEntity
  8
0
100
AcDbLine
 62
7
  6
CONTINUOUS
 10
315.9502906527
 20
185.4533295676
 11
320.9502906527
 21
185.4533295676
  0
LINE
  5
288
100
AcDbEntity
  8
0
100
AcDbLine
 62
7
  6
CONTINUOUS
 10
103.9502906527
 20
285.9533295676
 11
103.9502906527
 21
255.9533295676
  0
LINE
  5
289
100
AcDbEntity
  8
0
100
AcDbLine
 62
7
  6
CONTINUOUS
 10
103.9502906527
 20
252.4533295676
 11
103.9502906527
 21
222.4533295676
  0
LINE
  5
28A
100
AcDbEntity
  8
0
100
AcDbLine
 62
7
  6
CONTINUOUS
 10
103.9502906527
 20
218.9533295676
 11
103.9502906527
 21
188.9533295676
  0
LINE
  5
28B
100
AcDbEntity
  8
0
100
AcDbLine
 62
7
  6
CONTINUOUS
 10
103.9502906527
 20
185.4533295676
 11
103.9502906527
 21
155.4533295676
  0
LINE
  5
28C
100
AcDbEntity
  8
0
100
AcDbLine
 62
7
  6
CONTINUOUS
 10
105.9502906527
 20
155.4533295676
 11
105.9502906527
 21
185.4533295676
  0
LINE
  5
28D
100
AcDbEntity
  8
0
100
AcDbLine
 62
7
  6
CONTINUOUS
 10
105.9502906527
 20
188.9533295676
 11
105.9502906527
 21
218.9533295676
  0
LINE
  5
28E
100
AcDbEntity
  8
0
100
AcDbLine
 62
7
  6
CONTINUOUS
 10
105.9502906527
 20
222.4533295676
 11
105.9502906527
 21
252.4533295676
  0
LINE
  5
28F
100
AcDbEntity
  8
0
100
AcDbLine
 62
7
  6
CONTINUOUS
 10
105.9502906527
 20
255.9533295676
 11
105.9502906527
 21
285.9533295676
  0
LINE
  5
290
100
AcDbEntity
  8
0
100
AcDbLine
 62
7
  6
CONTINUOUS
 10
110.9502906527
 20
285.9533295676
 11
110.9502906527
 21
255.9533295676
  0
LINE
  5
291
100
AcDbEntity
  8
0
100
AcDbLine
 62
7
  6
CONTINUOUS
 10
110.9502906527
 20
252.4533295676
 11
110.9502906527
 21
222.4533295676
  0
LINE
  5
292
100
AcDbEntity
  8
0
100
AcDbLine
 62
7
  6
CONTINUOUS
 10
110.9502906527
 20
218.9533295676
 11
110.9502906527
 21
188.9533295676
  0
LINE
  5
293
100
AcDbEntity
  8
0
100
AcDbLine
 62
7
  6
CONTINUOUS
 10
110.9502906527
 20
185.4533295676
 11
110.9502906527
 21
155.4533295676
  0
LINE
  5
294
100
AcDbEntity
  8
0
100
AcDbLine
 62
7
  6
CONTINUOUS
 10
112.9502906527
 20
155.4533295676
 11
112.9502906527
 21
185.4533295676
  0
LINE
  5
295
100
AcDbEntity
  8
0
100
AcDbLine
 62
7
  6
CONTINUOUS
 10
112.9502906527
 20
188.9533295676
 11
112.9502906527
 21
218.9533295676
  0
LINE
  5
296
100
AcDbEntity
  8
0
100
AcDbLine
 62
7
  6
CONTINUOUS
 10
112.9502906527
 20
222.4533295676
 11
112.9502906527
 21
252.4533295676
  0
LINE
  5
297
100
AcDbEntity
  8
0
100
AcDbLine
 62
7
  6
CONTINUOUS
 10
112.9502906527
 20
255.9533295676
 11
112.9502906527
 21
285.9533295676
  0
LINE
  5
298
100
AcDbEntity
  8
0
100
AcDbLine
 62
7
  6
CONTINUOUS
 10
117.9502906527
 20
285.9533295676
 11
117.9502906527
 21
255.9533295676
  0
LINE
  5
299
100
AcDbEntity
  8
0
100
AcDbLine
 62
7
  6
CONTINUOUS
 10
117.9502906527
 20
252.4533295676
 11
117.9502906527
 21
222.4533295676
  0
LINE
  5
29A
100
AcDbEntity
  8
0
100
AcDbLine
 62
7
  6
CONTINUOUS
 10
117.9502906527
 20
218.9533295676
 11
117.9502906527
 21
188.9533295676
  0
LINE
  5
29B
100
AcDbEntity
  8
0
100
AcDbLine
 62
7
  6
CONTINUOUS
 10
117.9502906527
 20
185.4533295676
 11
117.9502906527
 21
155.4533295676
  0
LINE
  5
29C
100
AcDbEntity
  8
0
100
AcDbLine
 62
7
  6
CONTINUOUS
 10
320.9502906527
 20
188.9533295676
 11
315.9502906527
 21
188.9533295676
  0
LINE
  5
29D
100
AcDbEntity
  8
0
100
AcDbLine
 62
7
  6
CONTINUOUS
 10
313.9502906527
 20
188.9533295676
 11
308.9502906527
 21
188.9533295676
  0
LINE
  5
29E
100
AcDbEntity
  8
0
100
AcDbLine
 62
7
  6
CONTINUOUS
 10
306.9502906527
 20
188.9533295676
 11
301.9502906527
 21
188.9533295676
  0
LINE
  5
29F
100
AcDbEntity
  8
0
100
AcDbLine
 62
7
  6
CONTINUOUS
 10
299.9502906527
 20
188.9533295676
 11
294.9502906527
 21
188.9533295676
  0
LINE
  5
2A0
100
AcDbEntity
  8
0
100
AcDbLine
 62
7
  6
CONTINUOUS
 10
292.9502906527
 20
188.9533295676
 11
287.9502906527
 21
188.9533295676
  0
LINE
  5
2A1
100
AcDbEntity
  8
0
100
AcDbLine
 62
7
  6
CONTINUOUS
 10
285.9502906527
 20
188.9533295676
 11
280.9502906527
 21
188.9533295676
  0
LINE
  5
2A2
100
AcDbEntity
  8
0
100
AcDbLine
 62
7
  6
CONTINUOUS
 10
278.9502906527
 20
188.9533295676
 11
273.9502906527
 21
188.9533295676
  0
LINE
  5
2A3
100
AcDbEntity
  8
0
100
AcDbLine
 62
7
  6
CONTINUOUS
 10
271.9502906527
 20
188.9533295676
 11
266.9502906527
 21
188.9533295676
  0
LINE
  5
2A4
100
AcDbEntity
  8
0
100
AcDbLine
 62
7
  6
CONTINUOUS
 10
264.9502906527
 20
188.9533295676
 11
259.9502906527
 21
188.9533295676
  0
LINE
  5
2A5
100
AcDbEntity
  8
0
100
AcDbLine
 62
7
  6
CONTINUOUS
 10
257.9502906527
 20
188.9533295676
 11
252.9502906527
 21
188.9533295676
  0
LINE
  5
2A6
100
AcDbEntity
  8
0
100
AcDbLine
 62
7
  6
CONTINUOUS
 10
250.9502906527
 20
188.9533295676
 11
245.9502906527
 21
188.9533295676
  0
LINE
  5
2A7
100
AcDbEntity
  8
0
100
AcDbLine
 62
7
  6
CONTINUOUS
 10
243.9502906527
 20
188.9533295676
 11
238.9502906527
 21
188.9533295676
  0
LINE
  5
2A8
100
AcDbEntity
  8
0
100
AcDbLine
 62
7
  6
CONTINUOUS
 10
236.9502906527
 20
188.9533295676
 11
231.9502906527
 21
188.9533295676
  0
LINE
  5
2A9
100
AcDbEntity
  8
0
100
AcDbLine
 62
7
  6
CONTINUOUS
 10
229.9502906527
 20
188.9533295676
 11
224.9502906527
 21
188.9533295676
  0
LINE
  5
2AA
100
AcDbEntity
  8
0
100
AcDbLine
 62
7
  6
CONTINUOUS
 10
222.9502906527
 20
188.9533295676
 11
217.9502906527
 21
188.9533295676
  0
LINE
  5
2AB
100
AcDbEntity
  8
0
100
AcDbLine
 62
7
  6
CONTINUOUS
 10
215.9502906527
 20
188.9533295676
 11
210.9502906527
 21
188.9533295676
  0
LINE
  5
2AC
100
AcDbEntity
  8
0
100
AcDbLine
 62
7
  6
CONTINUOUS
 10
208.9502906527
 20
188.9533295676
 11
203.9502906527
 21
188.9533295676
  0
LINE
  5
2AD
100
AcDbEntity
  8
0
100
AcDbLine
 62
7
  6
CONTINUOUS
 10
201.9502906527
 20
188.9533295676
 11
196.9502906527
 21
188.9533295676
  0
LINE
  5
2AE
100
AcDbEntity
  8
0
100
AcDbLine
 62
7
  6
CONTINUOUS
 10
194.9502906527
 20
188.9533295676
 11
189.9502906527
 21
188.9533295676
  0
LINE
  5
2AF
100
AcDbEntity
  8
0
100
AcDbLine
 62
7
  6
CONTINUOUS
 10
187.9502906527
 20
188.9533295676
 11
182.9502906527
 21
188.9533295676
  0
LINE
  5
2B0
100
AcDbEntity
  8
0
100
AcDbLine
 62
7
  6
CONTINUOUS
 10
180.9502906527
 20
188.9533295676
 11
175.9502906527
 21
188.9533295676
  0
LINE
  5
2B1
100
AcDbEntity
  8
0
100
AcDbLine
 62
7
  6
CONTINUOUS
 10
173.9502906527
 20
188.9533295676
 11
168.9502906527
 21
188.9533295676
  0
LINE
  5
2B2
100
AcDbEntity
  8
0
100
AcDbLine
 62
7
  6
CONTINUOUS
 10
166.9502906527
 20
188.9533295676
 11
161.9502906527
 21
188.9533295676
  0
LINE
  5
2B3
100
AcDbEntity
  8
0
100
AcDbLine
 62
7
  6
CONTINUOUS
 10
159.9502906527
 20
188.9533295676
 11
154.9502906527
 21
188.9533295676
  0
LINE
  5
2B4
100
AcDbEntity
  8
0
100
AcDbLine
 62
7
  6
CONTINUOUS
 10
152.9502906527
 20
188.9533295676
 11
147.9502906527
 21
188.9533295676
  0
LINE
  5
2B5
100
AcDbEntity
  8
0
100
AcDbLine
 62
7
  6
CONTINUOUS
 10
145.9502906527
 20
188.9533295676
 11
140.9502906527
 21
188.9533295676
  0
LINE
  5
2B6
100
AcDbEntity
  8
0
100
AcDbLine
 62
7
  6
CONTINUOUS
 10
138.9502906527
 20
188.9533295676
 11
133.9502906527
 21
188.9533295676
  0
LINE
  5
2B7
100
AcDbEntity
  8
0
100
AcDbLine
 62
7
  6
CONTINUOUS
 10
131.9502906527
 20
188.9533295676
 11
126.9502906527
 21
188.9533295676
  0
LINE
  5
2B8
100
AcDbEntity
  8
0
100
AcDbLine
 62
7
  6
CONTINUOUS
 10
124.9502906527
 20
188.9533295676
 11
119.9502906527
 21
188.9533295676
  0
LINE
  5
2B9
100
AcDbEntity
  8
0
100
AcDbLine
 62
7
  6
CONTINUOUS
 10
117.9502906527
 20
188.9533295676
 11
112.9502906527
 21
188.9533295676
  0
LINE
  5
2BA
100
AcDbEntity
  8
0
100
AcDbLine
 62
7
  6
CONTINUOUS
 10
110.9502906527
 20
188.9533295676
 11
105.9502906527
 21
188.9533295676
  0
LINE
  5
2BB
100
AcDbEntity
  8
0
100
AcDbLine
 62
7
  6
CONTINUOUS
 10
103.9502906527
 20
188.9533295676
 11
98.9502906527
 21
188.9533295676
  0
LINE
  5
2BC
100
AcDbEntity
  8
0
100
AcDbLine
 62
7
  6
CONTINUOUS
 10
96.9502906527
 20
188.9533295676
 11
91.9502906527
 21
188.9533295676
  0
LINE
  5
2BD
100
AcDbEntity
  8
0
100
AcDbLine
 62
7
  6
CONTINUOUS
 10
89.9502906527
 20
188.9533295676
 11
84.9502906527
 21
188.9533295676
  0
LINE
  5
2BE
100
AcDbEntity
  8
0
100
AcDbLine
 62
7
  6
CONTINUOUS
 10
119.9502906527
 20
155.4533295676
 11
119.9502906527
 21
185.4533295676
  0
LINE
  5
2BF
100
AcDbEntity
  8
0
100
AcDbLine
 62
7
  6
CONTINUOUS
 10
119.9502906527
 20
188.9533295676
 11
119.9502906527
 21
218.9533295676
  0
LINE
  5
2C0
100
AcDbEntity
  8
0
100
AcDbLine
 62
7
  6
CONTINUOUS
 10
119.9502906527
 20
222.4533295676
 11
119.9502906527
 21
252.4533295676
  0
LINE
  5
2C1
100
AcDbEntity
  8
0
100
AcDbLine
 62
7
  6
CONTINUOUS
 10
119.9502906527
 20
255.9533295676
 11
119.9502906527
 21
285.9533295676
  0
LINE
  5
2C2
100
AcDbEntity
  8
0
100
AcDbLine
 62
7
  6
CONTINUOUS
 10
124.9502906527
 20
285.9533295676
 11
124.9502906527
 21
255.9533295676
  0
LINE
  5
2C3
100
AcDbEntity
  8
0
100
AcDbLine
 62
7
  6
CONTINUOUS
 10
124.9502906527
 20
252.4533295676
 11
124.9502906527
 21
222.4533295676
  0
LINE
  5
2C4
100
AcDbEntity
  8
0
100
AcDbLine
 62
7
  6
CONTINUOUS
 10
124.9502906527
 20
218.9533295676
 11
124.9502906527
 21
188.9533295676
  0
LINE
  5
2C5
100
AcDbEntity
  8
0
100
AcDbLine
 62
7
  6
CONTINUOUS
 10
124.9502906527
 20
185.4533295676
 11
124.9502906527
 21
155.4533295676
  0
LINE
  5
2C6
100
AcDbEntity
  8
0
100
AcDbLine
 62
7
  6
CONTINUOUS
 10
126.9502906527
 20
155.4533295676
 11
126.9502906527
 21
185.4533295676
  0
LINE
  5
2C7
100
AcDbEntity
  8
0
100
AcDbLine
 62
7
  6
CONTINUOUS
 10
126.9502906527
 20
188.9533295676
 11
126.9502906527
 21
218.9533295676
  0
LINE
  5
2C8
100
AcDbEntity
  8
0
100
AcDbLine
 62
7
  6
CONTINUOUS
 10
126.9502906527
 20
222.4533295676
 11
126.9502906527
 21
252.4533295676
  0
LINE
  5
2C9
100
AcDbEntity
  8
0
100
AcDbLine
 62
7
  6
CONTINUOUS
 10
126.9502906527
 20
255.9533295676
 11
126.9502906527
 21
285.9533295676
  0
LINE
  5
2CA
100
AcDbEntity
  8
0
100
AcDbLine
 62
7
  6
CONTINUOUS
 10
131.9502906527
 20
285.9533295676
 11
131.9502906527
 21
255.9533295676
  0
LINE
  5
2CB
100
AcDbEntity
  8
0
100
AcDbLine
 62
7
  6
CONTINUOUS
 10
131.9502906527
 20
252.4533295676
 11
131.9502906527
 21
222.4533295676
  0
LINE
  5
2CC
100
AcDbEntity
  8
0
100
AcDbLine
 62
7
  6
CONTINUOUS
 10
131.9502906527
 20
218.9533295676
 11
131.9502906527
 21
188.9533295676
  0
LINE
  5
2CD
100
AcDbEntity
  8
0
100
AcDbLine
 62
7
  6
CONTINUOUS
 10
131.9502906527
 20
185.4533295676
 11
131.9502906527
 21
155.4533295676
  0
LINE
  5
2CE
100
AcDbEntity
  8
0
100
AcDbLine
 62
7
  6
CONTINUOUS
 10
133.9502906527
 20
155.4533295676
 11
133.9502906527
 21
185.4533295676
  0
LINE
  5
2CF
100
AcDbEntity
  8
0
100
AcDbLine
 62
7
  6
CONTINUOUS
 10
133.9502906527
 20
188.9533295676
 11
133.9502906527
 21
218.9533295676
  0
LINE
  5
2D0
100
AcDbEntity
  8
0
100
AcDbLine
 62
7
  6
CONTINUOUS
 10
133.9502906527
 20
222.4533295676
 11
133.9502906527
 21
252.4533295676
  0
LINE
  5
2D1
100
AcDbEntity
  8
0
100
AcDbLine
 62
7
  6
CONTINUOUS
 10
133.9502906527
 20
255.9533295676
 11
133.9502906527
 21
285.9533295676
  0
LINE
  5
2D2
100
AcDbEntity
  8
0
100
AcDbLine
 62
7
  6
CONTINUOUS
 10
138.9502906527
 20
285.9533295676
 11
138.9502906527
 21
255.9533295676
  0
LINE
  5
2D3
100
AcDbEntity
  8
0
100
AcDbLine
 62
7
  6
CONTINUOUS
 10
138.9502906527
 20
252.4533295676
 11
138.9502906527
 21
222.4533295676
  0
LINE
  5
2D4
100
AcDbEntity
  8
0
100
AcDbLine
 62
7
  6
CONTINUOUS
 10
138.9502906527
 20
218.9533295676
 11
138.9502906527
 21
188.9533295676
  0
LINE
  5
2D5
100
AcDbEntity
  8
0
100
AcDbLine
 62
7
  6
CONTINUOUS
 10
138.9502906527
 20
185.4533295676
 11
138.9502906527
 21
155.4533295676
  0
LINE
  5
2D6
100
AcDbEntity
  8
0
100
AcDbLine
 62
7
  6
CONTINUOUS
 10
140.9502906527
 20
155.4533295676
 11
140.9502906527
 21
185.4533295676
  0
LINE
  5
2D7
100
AcDbEntity
  8
0
100
AcDbLine
 62
7
  6
CONTINUOUS
 10
140.9502906527
 20
188.9533295676
 11
140.9502906527
 21
218.9533295676
  0
LINE
  5
2D8
100
AcDbEntity
  8
0
100
AcDbLine
 62
7
  6
CONTINUOUS
 10
140.9502906527
 20
222.4533295676
 11
140.9502906527
 21
252.4533295676
  0
LINE
  5
2D9
100
AcDbEntity
  8
0
100
AcDbLine
 62
7
  6
CONTINUOUS
 10
140.9502906527
 20
255.9533295676
 11
140.9502906527
 21
285.9533295676
  0
LINE
  5
2DA
100
AcDbEntity
  8
0
100
AcDbLine
 62
7
  6
CONTINUOUS
 10
145.9502906527
 20
285.9533295676
 11
145.9502906527
 21
255.9533295676
  0
LINE
  5
2DB
100
AcDbEntity
  8
0
100
AcDbLine
 62
7
  6
CONTINUOUS
 10
145.9502906527
 20
252.4533295676
 11
145.9502906527
 21
222.4533295676
  0
LINE
  5
2DC
100
AcDbEntity
  8
0
100
AcDbLine
 62
7
  6
CONTINUOUS
 10
145.9502906527
 20
218.9533295676
 11
145.9502906527
 21
188.9533295676
  0
LINE
  5
2DD
100
AcDbEntity
  8
0
100
AcDbLine
 62
7
  6
CONTINUOUS
 10
145.9502906527
 20
185.4533295676
 11
145.9502906527
 21
155.4533295676
  0
LINE
  5
2DE
100
AcDbEntity
  8
0
100
AcDbLine
 62
7
  6
CONTINUOUS
 10
84.9502906527
 20
218.9533295676
 11
89.9502906527
 21
218.9533295676
  0
LINE
  5
2DF
100
AcDbEntity
  8
0
100
AcDbLine
 62
7
  6
CONTINUOUS
 10
91.9502906527
 20
218.9533295676
 11
96.9502906527
 21
218.9533295676
  0
LINE
  5
2E0
100
AcDbEntity
  8
0
100
AcDbLine
 62
7
  6
CONTINUOUS
 10
98.9502906527
 20
218.9533295676
 11
103.9502906527
 21
218.9533295676
  0
LINE
  5
2E1
100
AcDbEntity
  8
0
100
AcDbLine
 62
7
  6
CONTINUOUS
 10
105.9502906527
 20
218.9533295676
 11
110.9502906527
 21
218.9533295676
  0
LINE
  5
2E2
100
AcDbEntity
  8
0
100
AcDbLine
 62
7
  6
CONTINUOUS
 10
112.9502906527
 20
218.9533295676
 11
117.9502906527
 21
218.9533295676
  0
LINE
  5
2E3
100
AcDbEntity
  8
0
100
AcDbLine
 62
7
  6
CONTINUOUS
 10
119.9502906527
 20
218.9533295676
 11
124.9502906527
 21
218.9533295676
  0
LINE
  5
2E4
100
AcDbEntity
  8
0
100
AcDbLine
 62
7
  6
CONTINUOUS
 10
126.9502906527
 20
218.9533295676
 11
131.9502906527
 21
218.9533295676
  0
LINE
  5
2E5
100
AcDbEntity
  8
0
100
AcDbLine
 62
7
  6
CONTINUOUS
 10
133.9502906527
 20
218.9533295676
 11
138.9502906527
 21
218.9533295676
  0
LINE
  5
2E6
100
AcDbEntity
  8
0
100
AcDbLine
 62
7
  6
CONTINUOUS
 10
140.9502906527
 20
218.9533295676
 11
145.9502906527
 21
218.9533295676
  0
LINE
  5
2E7
100
AcDbEntity
  8
0
100
AcDbLine
 62
7
  6
CONTINUOUS
 10
147.9502906527
 20
218.9533295676
 11
152.9502906527
 21
218.9533295676
  0
LINE
  5
2E8
100
AcDbEntity
  8
0
100
AcDbLine
 62
7
  6
CONTINUOUS
 10
154.9502906527
 20
218.9533295676
 11
159.9502906527
 21
218.9533295676
  0
LINE
  5
2E9
100
AcDbEntity
  8
0
100
AcDbLine
 62
7
  6
CONTINUOUS
 10
161.9502906527
 20
218.9533295676
 11
166.9502906527
 21
218.9533295676
  0
LINE
  5
2EA
100
AcDbEntity
  8
0
100
AcDbLine
 62
7
  6
CONTINUOUS
 10
168.9502906527
 20
218.9533295676
 11
173.9502906527
 21
218.9533295676
  0
LINE
  5
2EB
100
AcDbEntity
  8
0
100
AcDbLine
 62
7
  6
CONTINUOUS
 10
175.9502906527
 20
218.9533295676
 11
180.9502906527
 21
218.9533295676
  0
LINE
  5
2EC
100
AcDbEntity
  8
0
100
AcDbLine
 62
7
  6
CONTINUOUS
 10
182.9502906527
 20
218.9533295676
 11
187.9502906527
 21
218.9533295676
  0
LINE
  5
2ED
100
AcDbEntity
  8
0
100
AcDbLine
 62
7
  6
CONTINUOUS
 10
189.9502906527
 20
218.9533295676
 11
194.9502906527
 21
218.9533295676
  0
LINE
  5
2EE
100
AcDbEntity
  8
0
100
AcDbLine
 62
7
  6
CONTINUOUS
 10
196.9502906527
 20
218.9533295676
 11
201.9502906527
 21
218.9533295676
  0
LINE
  5
2EF
100
AcDbEntity
  8
0
100
AcDbLine
 62
7
  6
CONTINUOUS
 10
203.9502906527
 20
218.9533295676
 11
208.9502906527
 21
218.9533295676
  0
LINE
  5
2F0
100
AcDbEntity
  8
0
100
AcDbLine
 62
7
  6
CONTINUOUS
 10
210.9502906527
 20
218.9533295676
 11
215.9502906527
 21
218.9533295676
  0
LINE
  5
2F1
100
AcDbEntity
  8
0
100
AcDbLine
 62
7
  6
CONTINUOUS
 10
217.9502906527
 20
218.9533295676
 11
222.9502906527
 21
218.9533295676
  0
LINE
  5
2F2
100
AcDbEntity
  8
0
100
AcDbLine
 62
7
  6
CONTINUOUS
 10
224.9502906527
 20
218.9533295676
 11
229.9502906527
 21
218.9533295676
  0
LINE
  5
2F3
100
AcDbEntity
  8
0
100
AcDbLine
 62
7
  6
CONTINUOUS
 10
231.9502906527
 20
218.9533295676
 11
236.9502906527
 21
218.9533295676
  0
LINE
  5
2F4
100
AcDbEntity
  8
0
100
AcDbLine
 62
7
  6
CONTINUOUS
 10
238.9502906527
 20
218.9533295676
 11
243.9502906527
 21
218.9533295676
  0
LINE
  5
2F5
100
AcDbEntity
  8
0
100
AcDbLine
 62
7
  6
CONTINUOUS
 10
245.9502906527
 20
218.9533295676
 11
250.9502906527
 21
218.9533295676
  0
LINE
  5
2F6
100
AcDbEntity
  8
0
100
AcDbLine
 62
7
  6
CONTINUOUS
 10
252.9502906527
 20
218.9533295676
 11
257.9502906527
 21
218.9533295676
  0
LINE
  5
2F7
100
AcDbEntity
  8
0
100
AcDbLine
 62
7
  6
CONTINUOUS
 10
259.9502906527
 20
218.9533295676
 11
264.9502906527
 21
218.9533295676
  0
LINE
  5
2F8
100
AcDbEntity
  8
0
100
AcDbLine
 62
7
  6
CONTINUOUS
 10
266.9502906527
 20
218.9533295676
 11
271.9502906527
 21
218.9533295676
  0
LINE
  5
2F9
100
AcDbEntity
  8
0
100
AcDbLine
 62
7
  6
CONTINUOUS
 10
273.9502906527
 20
218.9533295676
 11
278.9502906527
 21
218.9533295676
  0
LINE
  5
2FA
100
AcDbEntity
  8
0
100
AcDbLine
 62
7
  6
CONTINUOUS
 10
280.9502906527
 20
218.9533295676
 11
285.9502906527
 21
218.9533295676
  0
LINE
  5
2FB
100
AcDbEntity
  8
0
100
AcDbLine
 62
7
  6
CONTINUOUS
 10
287.9502906527
 20
218.9533295676
 11
292.9502906527
 21
218.9533295676
  0
LINE
  5
2FC
100
AcDbEntity
  8
0
100
AcDbLine
 62
7
  6
CONTINUOUS
 10
294.9502906527
 20
218.9533295676
 11
299.9502906527
 21
218.9533295676
  0
LINE
  5
2FD
100
AcDbEntity
  8
0
100
AcDbLine
 62
7
  6
CONTINUOUS
 10
301.9502906527
 20
218.9533295676
 11
306.9502906527
 21
218.9533295676
  0
LINE
  5
2FE
100
AcDbEntity
  8
0
100
AcDbLine
 62
7
  6
CONTINUOUS
 10
308.9502906527
 20
218.9533295676
 11
313.9502906527
 21
218.9533295676
  0
LINE
  5
2FF
100
AcDbEntity
  8
0
100
AcDbLine
 62
7
  6
CONTINUOUS
 10
315.9502906527
 20
218.9533295676
 11
320.9502906527
 21
218.9533295676
  0
LINE
  5
300
100
AcDbEntity
  8
0
100
AcDbLine
 62
7
  6
CONTINUOUS
 10
320.9502906527
 20
222.4533295676
 11
315.9502906527
 21
222.4533295676
  0
LINE
  5
301
100
AcDbEntity
  8
0
100
AcDbLine
 62
7
  6
CONTINUOUS
 10
313.9502906527
 20
222.4533295676
 11
308.9502906527
 21
222.4533295676
  0
LINE
  5
302
100
AcDbEntity
  8
0
100
AcDbLine
 62
7
  6
CONTINUOUS
 10
306.9502906527
 20
222.4533295676
 11
301.9502906527
 21
222.4533295676
  0
LINE
  5
303
100
AcDbEntity
  8
0
100
AcDbLine
 62
7
  6
CONTINUOUS
 10
299.9502906527
 20
222.4533295676
 11
294.9502906527
 21
222.4533295676
  0
LINE
  5
304
100
AcDbEntity
  8
0
100
AcDbLine
 62
7
  6
CONTINUOUS
 10
292.9502906527
 20
222.4533295676
 11
287.9502906527
 21
222.4533295676
  0
LINE
  5
305
100
AcDbEntity
  8
0
100
AcDbLine
 62
7
  6
CONTINUOUS
 10
285.9502906527
 20
222.4533295676
 11
280.9502906527
 21
222.4533295676
  0
LINE
  5
306
100
AcDbEntity
  8
0
100
AcDbLine
 62
7
  6
CONTINUOUS
 10
278.9502906527
 20
222.4533295676
 11
273.9502906527
 21
222.4533295676
  0
LINE
  5
307
100
AcDbEntity
  8
0
100
AcDbLine
 62
7
  6
CONTINUOUS
 10
271.9502906527
 20
222.4533295676
 11
266.9502906527
 21
222.4533295676
  0
LINE
  5
308
100
AcDbEntity
  8
0
100
AcDbLine
 62
7
  6
CONTINUOUS
 10
264.9502906527
 20
222.4533295676
 11
259.9502906527
 21
222.4533295676
  0
LINE
  5
309
100
AcDbEntity
  8
0
100
AcDbLine
 62
7
  6
CONTINUOUS
 10
257.9502906527
 20
222.4533295676
 11
252.9502906527
 21
222.4533295676
  0
LINE
  5
30A
100
AcDbEntity
  8
0
100
AcDbLine
 62
7
  6
CONTINUOUS
 10
250.9502906527
 20
222.4533295676
 11
245.9502906527
 21
222.4533295676
  0
LINE
  5
30B
100
AcDbEntity
  8
0
100
AcDbLine
 62
7
  6
CONTINUOUS
 10
243.9502906527
 20
222.4533295676
 11
238.9502906527
 21
222.4533295676
  0
LINE
  5
30C
100
AcDbEntity
  8
0
100
AcDbLine
 62
7
  6
CONTINUOUS
 10
236.9502906527
 20
222.4533295676
 11
231.9502906527
 21
222.4533295676
  0
LINE
  5
30D
100
AcDbEntity
  8
0
100
AcDbLine
 62
7
  6
CONTINUOUS
 10
229.9502906527
 20
222.4533295676
 11
224.9502906527
 21
222.4533295676
  0
LINE
  5
30E
100
AcDbEntity
  8
0
100
AcDbLine
 62
7
  6
CONTINUOUS
 10
222.9502906527
 20
222.4533295676
 11
217.9502906527
 21
222.4533295676
  0
LINE
  5
30F
100
AcDbEntity
  8
0
100
AcDbLine
 62
7
  6
CONTINUOUS
 10
215.9502906527
 20
222.4533295676
 11
210.9502906527
 21
222.4533295676
  0
LINE
  5
310
100
AcDbEntity
  8
0
100
AcDbLine
 62
7
  6
CONTINUOUS
 10
208.9502906527
 20
222.4533295676
 11
203.9502906527
 21
222.4533295676
  0
LINE
  5
311
100
AcDbEntity
  8
0
100
AcDbLine
 62
7
  6
CONTINUOUS
 10
201.9502906527
 20
222.4533295676
 11
196.9502906527
 21
222.4533295676
  0
LINE
  5
312
100
AcDbEntity
  8
0
100
AcDbLine
 62
7
  6
CONTINUOUS
 10
194.9502906527
 20
222.4533295676
 11
189.9502906527
 21
222.4533295676
  0
LINE
  5
313
100
AcDbEntity
  8
0
100
AcDbLine
 62
7
  6
CONTINUOUS
 10
187.9502906527
 20
222.4533295676
 11
182.9502906527
 21
222.4533295676
  0
LINE
  5
314
100
AcDbEntity
  8
0
100
AcDbLine
 62
7
  6
CONTINUOUS
 10
180.9502906527
 20
222.4533295676
 11
175.9502906527
 21
222.4533295676
  0
LINE
  5
315
100
AcDbEntity
  8
0
100
AcDbLine
 62
7
  6
CONTINUOUS
 10
173.9502906527
 20
222.4533295676
 11
168.9502906527
 21
222.4533295676
  0
LINE
  5
316
100
AcDbEntity
  8
0
100
AcDbLine
 62
7
  6
CONTINUOUS
 10
166.9502906527
 20
222.4533295676
 11
161.9502906527
 21
222.4533295676
  0
LINE
  5
317
100
AcDbEntity
  8
0
100
AcDbLine
 62
7
  6
CONTINUOUS
 10
159.9502906527
 20
222.4533295676
 11
154.9502906527
 21
222.4533295676
  0
LINE
  5
318
100
AcDbEntity
  8
0
100
AcDbLine
 62
7
  6
CONTINUOUS
 10
152.9502906527
 20
222.4533295676
 11
147.9502906527
 21
222.4533295676
  0
LINE
  5
319
100
AcDbEntity
  8
0
100
AcDbLine
 62
7
  6
CONTINUOUS
 10
145.9502906527
 20
222.4533295676
 11
140.9502906527
 21
222.4533295676
  0
LINE
  5
31A
100
AcDbEntity
  8
0
100
AcDbLine
 62
7
  6
CONTINUOUS
 10
138.9502906527
 20
222.4533295676
 11
133.9502906527
 21
222.4533295676
  0
LINE
  5
31B
100
AcDbEntity
  8
0
100
AcDbLine
 62
7
  6
CONTINUOUS
 10
131.9502906527
 20
222.4533295676
 11
126.9502906527
 21
222.4533295676
  0
LINE
  5
31C
100
AcDbEntity
  8
0
100
AcDbLine
 62
7
  6
CONTINUOUS
 10
124.9502906527
 20
222.4533295676
 11
119.9502906527
 21
222.4533295676
  0
LINE
  5
31D
100
AcDbEntity
  8
0
100
AcDbLine
 62
7
  6
CONTINUOUS
 10
117.9502906527
 20
222.4533295676
 11
112.9502906527
 21
222.4533295676
  0
LINE
  5
31E
100
AcDbEntity
  8
0
100
AcDbLine
 62
7
  6
CONTINUOUS
 10
110.9502906527
 20
222.4533295676
 11
105.9502906527
 21
222.4533295676
  0
LINE
  5
31F
100
AcDbEntity
  8
0
100
AcDbLine
 62
7
  6
CONTINUOUS
 10
103.9502906527
 20
222.4533295676
 11
98.9502906527
 21
222.4533295676
  0
LINE
  5
320
100
AcDbEntity
  8
0
100
AcDbLine
 62
7
  6
CONTINUOUS
 10
96.9502906527
 20
222.4533295676
 11
91.9502906527
 21
222.4533295676
  0
LINE
  5
321
100
AcDbEntity
  8
0
100
AcDbLine
 62
7
  6
CONTINUOUS
 10
89.9502906527
 20
222.4533295676
 11
84.9502906527
 21
222.4533295676
  0
LINE
  5
322
100
AcDbEntity
  8
0
100
AcDbLine
 62
7
  6
CONTINUOUS
 10
147.9502906527
 20
155.4533295676
 11
147.9502906527
 21
185.4533295676
  0
LINE
  5
323
100
AcDbEntity
  8
0
100
AcDbLine
 62
7
  6
CONTINUOUS
 10
147.9502906527
 20
188.9533295676
 11
147.9502906527
 21
218.9533295676
  0
LINE
  5
324
100
AcDbEntity
  8
0
100
AcDbLine
 62
7
  6
CONTINUOUS
 10
147.9502906527
 20
222.4533295676
 11
147.9502906527
 21
252.4533295676
  0
LINE
  5
325
100
AcDbEntity
  8
0
100
AcDbLine
 62
7
  6
CONTINUOUS
 10
147.9502906527
 20
255.9533295676
 11
147.9502906527
 21
285.9533295676
  0
LINE
  5
326
100
AcDbEntity
  8
0
100
AcDbLine
 62
7
  6
CONTINUOUS
 10
152.9502906527
 20
285.9533295676
 11
152.9502906527
 21
255.9533295676
  0
LINE
  5
327
100
AcDbEntity
  8
0
100
AcDbLine
 62
7
  6
CONTINUOUS
 10
152.9502906527
 20
252.4533295676
 11
152.9502906527
 21
222.4533295676
  0
LINE
  5
328
100
AcDbEntity
  8
0
100
AcDbLine
 62
7
  6
CONTINUOUS
 10
152.9502906527
 20
218.9533295676
 11
152.9502906527
 21
188.9533295676
  0
LINE
  5
329
100
AcDbEntity
  8
0
100
AcDbLine
 62
7
  6
CONTINUOUS
 10
152.9502906527
 20
185.4533295676
 11
152.9502906527
 21
155.4533295676
  0
LINE
  5
32A
100
AcDbEntity
  8
0
100
AcDbLine
 62
7
  6
CONTINUOUS
 10
154.9502906527
 20
155.4533295676
 11
154.9502906527
 21
185.4533295676
  0
LINE
  5
32B
100
AcDbEntity
  8
0
100
AcDbLine
 62
7
  6
CONTINUOUS
 10
154.9502906527
 20
188.9533295676
 11
154.9502906527
 21
218.9533295676
  0
LINE
  5
32C
100
AcDbEntity
  8
0
100
AcDbLine
 62
7
  6
CONTINUOUS
 10
154.9502906527
 20
222.4533295676
 11
154.9502906527
 21
252.4533295676
  0
LINE
  5
32D
100
AcDbEntity
  8
0
100
AcDbLine
 62
7
  6
CONTINUOUS
 10
154.9502906527
 20
255.9533295676
 11
154.9502906527
 21
285.9533295676
  0
LINE
  5
32E
100
AcDbEntity
  8
0
100
AcDbLine
 62
7
  6
CONTINUOUS
 10
159.9502906527
 20
285.9533295676
 11
159.9502906527
 21
255.9533295676
  0
LINE
  5
32F
100
AcDbEntity
  8
0
100
AcDbLine
 62
7
  6
CONTINUOUS
 10
159.9502906527
 20
252.4533295676
 11
159.9502906527
 21
222.4533295676
  0
LINE
  5
330
100
AcDbEntity
  8
0
100
AcDbLine
 62
7
  6
CONTINUOUS
 10
159.9502906527
 20
218.9533295676
 11
159.9502906527
 21
188.9533295676
  0
LINE
  5
331
100
AcDbEntity
  8
0
100
AcDbLine
 62
7
  6
CONTINUOUS
 10
159.9502906527
 20
185.4533295676
 11
159.9502906527
 21
155.4533295676
  0
LINE
  5
332
100
AcDbEntity
  8
0
100
AcDbLine
 62
7
  6
CONTINUOUS
 10
161.9502906527
 20
155.4533295676
 11
161.9502906527
 21
185.4533295676
  0
LINE
  5
333
100
AcDbEntity
  8
0
100
AcDbLine
 62
7
  6
CONTINUOUS
 10
161.9502906527
 20
188.9533295676
 11
161.9502906527
 21
218.9533295676
  0
LINE
  5
334
100
AcDbEntity
  8
0
100
AcDbLine
 62
7
  6
CONTINUOUS
 10
161.9502906527
 20
222.4533295676
 11
161.9502906527
 21
252.4533295676
  0
LINE
  5
335
100
AcDbEntity
  8
0
100
AcDbLine
 62
7
  6
CONTINUOUS
 10
161.9502906527
 20
255.9533295676
 11
161.9502906527
 21
285.9533295676
  0
LINE
  5
336
100
AcDbEntity
  8
0
100
AcDbLine
 62
7
  6
CONTINUOUS
 10
166.9502906527
 20
285.9533295676
 11
166.9502906527
 21
255.9533295676
  0
LINE
  5
337
100
AcDbEntity
  8
0
100
AcDbLine
 62
7
  6
CONTINUOUS
 10
166.9502906527
 20
252.4533295676
 11
166.9502906527
 21
222.4533295676
  0
LINE
  5
338
100
AcDbEntity
  8
0
100
AcDbLine
 62
7
  6
CONTINUOUS
 10
166.9502906527
 20
218.9533295676
 11
166.9502906527
 21
188.9533295676
  0
LINE
  5
339
100
AcDbEntity
  8
0
100
AcDbLine
 62
7
  6
CONTINUOUS
 10
166.9502906527
 20
185.4533295676
 11
166.9502906527
 21
155.4533295676
  0
LINE
  5
33A
100
AcDbEntity
  8
0
100
AcDbLine
 62
7
  6
CONTINUOUS
 10
168.9502906527
 20
155.4533295676
 11
168.9502906527
 21
185.4533295676
  0
LINE
  5
33B
100
AcDbEntity
  8
0
100
AcDbLine
 62
7
  6
CONTINUOUS
 10
168.9502906527
 20
188.9533295676
 11
168.9502906527
 21
218.9533295676
  0
LINE
  5
33C
100
AcDbEntity
  8
0
100
AcDbLine
 62
7
  6
CONTINUOUS
 10
168.9502906527
 20
222.4533295676
 11
168.9502906527
 21
252.4533295676
  0
LINE
  5
33D
100
AcDbEntity
  8
0
100
AcDbLine
 62
7
  6
CONTINUOUS
 10
168.9502906527
 20
255.9533295676
 11
168.9502906527
 21
285.9533295676
  0
LINE
  5
33E
100
AcDbEntity
  8
0
100
AcDbLine
 62
7
  6
CONTINUOUS
 10
173.9502906527
 20
285.9533295676
 11
173.9502906527
 21
255.9533295676
  0
LINE
  5
33F
100
AcDbEntity
  8
0
100
AcDbLine
 62
7
  6
CONTINUOUS
 10
173.9502906527
 20
252.4533295676
 11
173.9502906527
 21
222.4533295676
  0
LINE
  5
340
100
AcDbEntity
  8
0
100
AcDbLine
 62
7
  6
CONTINUOUS
 10
173.9502906527
 20
218.9533295676
 11
173.9502906527
 21
188.9533295676
  0
LINE
  5
341
100
AcDbEntity
  8
0
100
AcDbLine
 62
7
  6
CONTINUOUS
 10
173.9502906527
 20
185.4533295676
 11
173.9502906527
 21
155.4533295676
  0
LINE
  5
342
100
AcDbEntity
  8
0
100
AcDbLine
 62
7
  6
CONTINUOUS
 10
84.9502906527
 20
252.4533295676
 11
89.9502906527
 21
252.4533295676
  0
LINE
  5
343
100
AcDbEntity
  8
0
100
AcDbLine
 62
7
  6
CONTINUOUS
 10
91.9502906527
 20
252.4533295676
 11
96.9502906527
 21
252.4533295676
  0
LINE
  5
344
100
AcDbEntity
  8
0
100
AcDbLine
 62
7
  6
CONTINUOUS
 10
98.9502906527
 20
252.4533295676
 11
103.9502906527
 21
252.4533295676
  0
LINE
  5
345
100
AcDbEntity
  8
0
100
AcDbLine
 62
7
  6
CONTINUOUS
 10
105.9502906527
 20
252.4533295676
 11
110.9502906527
 21
252.4533295676
  0
LINE
  5
346
100
AcDbEntity
  8
0
100
AcDbLine
 62
7
  6
CONTINUOUS
 10
112.9502906527
 20
252.4533295676
 11
117.9502906527
 21
252.4533295676
  0
LINE
  5
347
100
AcDbEntity
  8
0
100
AcDbLine
 62
7
  6
CONTINUOUS
 10
119.9502906527
 20
252.4533295676
 11
124.9502906527
 21
252.4533295676
  0
LINE
  5
348
100
AcDbEntity
  8
0
100
AcDbLine
 62
7
  6
CONTINUOUS
 10
126.9502906527
 20
252.4533295676
 11
131.9502906527
 21
252.4533295676
  0
LINE
  5
349
100
AcDbEntity
  8
0
100
AcDbLine
 62
7
  6
CONTINUOUS
 10
133.9502906527
 20
252.4533295676
 11
138.9502906527
 21
252.4533295676
  0
LINE
  5
34A
100
AcDbEntity
  8
0
100
AcDbLine
 62
7
  6
CONTINUOUS
 10
140.9502906527
 20
252.4533295676
 11
145.9502906527
 21
252.4533295676
  0
LINE
  5
34B
100
AcDbEntity
  8
0
100
AcDbLine
 62
7
  6
CONTINUOUS
 10
147.9502906527
 20
252.4533295676
 11
152.9502906527
 21
252.4533295676
  0
LINE
  5
34C
100
AcDbEntity
  8
0
100
AcDbLine
 62
7
  6
CONTINUOUS
 10
154.9502906527
 20
252.4533295676
 11
159.9502906527
 21
252.4533295676
  0
LINE
  5
34D
100
AcDbEntity
  8
0
100
AcDbLine
 62
7
  6
CONTINUOUS
 10
161.9502906527
 20
252.4533295676
 11
166.9502906527
 21
252.4533295676
  0
LINE
  5
34E
100
AcDbEntity
  8
0
100
AcDbLine
 62
7
  6
CONTINUOUS
 10
168.9502906527
 20
252.4533295676
 11
173.9502906527
 21
252.4533295676
  0
LINE
  5
34F
100
AcDbEntity
  8
0
100
AcDbLine
 62
7
  6
CONTINUOUS
 10
175.9502906527
 20
252.4533295676
 11
180.9502906527
 21
252.4533295676
  0
LINE
  5
350
100
AcDbEntity
  8
0
100
AcDbLine
 62
7
  6
CONTINUOUS
 10
182.9502906527
 20
252.4533295676
 11
187.9502906527
 21
252.4533295676
  0
LINE
  5
351
100
AcDbEntity
  8
0
100
AcDbLine
 62
7
  6
CONTINUOUS
 10
189.9502906527
 20
252.4533295676
 11
194.9502906527
 21
252.4533295676
  0
LINE
  5
352
100
AcDbEntity
  8
0
100
AcDbLine
 62
7
  6
CONTINUOUS
 10
196.9502906527
 20
252.4533295676
 11
201.9502906527
 21
252.4533295676
  0
LINE
  5
353
100
AcDbEntity
  8
0
100
AcDbLine
 62
7
  6
CONTINUOUS
 10
203.9502906527
 20
252.4533295676
 11
208.9502906527
 21
252.4533295676
  0
LINE
  5
354
100
AcDbEntity
  8
0
100
AcDbLine
 62
7
  6
CONTINUOUS
 10
210.9502906527
 20
252.4533295676
 11
215.9502906527
 21
252.4533295676
  0
LINE
  5
355
100
AcDbEntity
  8
0
100
AcDbLine
 62
7
  6
CONTINUOUS
 10
217.9502906527
 20
252.4533295676
 11
222.9502906527
 21
252.4533295676
  0
LINE
  5
356
100
AcDbEntity
  8
0
100
AcDbLine
 62
7
  6
CONTINUOUS
 10
224.9502906527
 20
252.4533295676
 11
229.9502906527
 21
252.4533295676
  0
LINE
  5
357
100
AcDbEntity
  8
0
100
AcDbLine
 62
7
  6
CONTINUOUS
 10
231.9502906527
 20
252.4533295676
 11
236.9502906527
 21
252.4533295676
  0
LINE
  5
358
100
AcDbEntity
  8
0
100
AcDbLine
 62
7
  6
CONTINUOUS
 10
238.9502906527
 20
252.4533295676
 11
243.9502906527
 21
252.4533295676
  0
LINE
  5
359
100
AcDbEntity
  8
0
100
AcDbLine
 62
7
  6
CONTINUOUS
 10
245.9502906527
 20
252.4533295676
 11
250.9502906527
 21
252.4533295676
  0
LINE
  5
35A
100
AcDbEntity
  8
0
100
AcDbLine
 62
7
  6
CONTINUOUS
 10
252.9502906527
 20
252.4533295676
 11
257.9502906527
 21
252.4533295676
  0
LINE
  5
35B
100
AcDbEntity
  8
0
100
AcDbLine
 62
7
  6
CONTINUOUS
 10
259.9502906527
 20
252.4533295676
 11
264.9502906527
 21
252.4533295676
  0
LINE
  5
35C
100
AcDbEntity
  8
0
100
AcDbLine
 62
7
  6
CONTINUOUS
 10
266.9502906527
 20
252.4533295676
 11
271.9502906527
 21
252.4533295676
  0
LINE
  5
35D
100
AcDbEntity
  8
0
100
AcDbLine
 62
7
  6
CONTINUOUS
 10
273.9502906527
 20
252.4533295676
 11
278.9502906527
 21
252.4533295676
  0
LINE
  5
35E
100
AcDbEntity
  8
0
100
AcDbLine
 62
7
  6
CONTINUOUS
 10
280.9502906527
 20
252.4533295676
 11
285.9502906527
 21
252.4533295676
  0
LINE
  5
35F
100
AcDbEntity
  8
0
100
AcDbLine
 62
7
  6
CONTINUOUS
 10
287.9502906527
 20
252.4533295676
 11
292.9502906527
 21
252.4533295676
  0
LINE
  5
360
100
AcDbEntity
  8
0
100
AcDbLine
 62
7
  6
CONTINUOUS
 10
294.9502906527
 20
252.4533295676
 11
299.9502906527
 21
252.4533295676
  0
LINE
  5
361
100
AcDbEntity
  8
0
100
AcDbLine
 62
7
  6
CONTINUOUS
 10
301.9502906527
 20
252.4533295676
 11
306.9502906527
 21
252.4533295676
  0
LINE
  5
362
100
AcDbEntity
  8
0
100
AcDbLine
 62
7
  6
CONTINUOUS
 10
308.9502906527
 20
252.4533295676
 11
313.9502906527
 21
252.4533295676
  0
LINE
  5
363
100
AcDbEntity
  8
0
100
AcDbLine
 62
7
  6
CONTINUOUS
 10
315.9502906527
 20
252.4533295676
 11
320.9502906527
 21
252.4533295676
  0
LINE
  5
364
100
AcDbEntity
  8
0
100
AcDbLine
 62
7
  6
CONTINUOUS
 10
320.9502906527
 20
255.9533295676
 11
315.9502906527
 21
255.9533295676
  0
LINE
  5
365
100
AcDbEntity
  8
0
100
AcDbLine
 62
7
  6
CONTINUOUS
 10
313.9502906527
 20
255.9533295676
 11
308.9502906527
 21
255.9533295676
  0
LINE
  5
366
100
AcDbEntity
  8
0
100
AcDbLine
 62
7
  6
CONTINUOUS
 10
306.9502906527
 20
255.9533295676
 11
301.9502906527
 21
255.9533295676
  0
LINE
  5
367
100
AcDbEntity
  8
0
100
AcDbLine
 62
7
  6
CONTINUOUS
 10
299.9502906527
 20
255.9533295676
 11
294.9502906527
 21
255.9533295676
  0
LINE
  5
368
100
AcDbEntity
  8
0
100
AcDbLine
 62
7
  6
CONTINUOUS
 10
292.9502906527
 20
255.9533295676
 11
287.9502906527
 21
255.9533295676
  0
LINE
  5
369
100
AcDbEntity
  8
0
100
AcDbLine
 62
7
  6
CONTINUOUS
 10
285.9502906527
 20
255.9533295676
 11
280.9502906527
 21
255.9533295676
  0
LINE
  5
36A
100
AcDbEntity
  8
0
100
AcDbLine
 62
7
  6
CONTINUOUS
 10
278.9502906527
 20
255.9533295676
 11
273.9502906527
 21
255.9533295676
  0
LINE
  5
36B
100
AcDbEntity
  8
0
100
AcDbLine
 62
7
  6
CONTINUOUS
 10
271.9502906527
 20
255.9533295676
 11
266.9502906527
 21
255.9533295676
  0
LINE
  5
36C
100
AcDbEntity
  8
0
100
AcDbLine
 62
7
  6
CONTINUOUS
 10
264.9502906527
 20
255.9533295676
 11
259.9502906527
 21
255.9533295676
  0
LINE
  5
36D
100
AcDbEntity
  8
0
100
AcDbLine
 62
7
  6
CONTINUOUS
 10
257.9502906527
 20
255.9533295676
 11
252.9502906527
 21
255.9533295676
  0
LINE
  5
36E
100
AcDbEntity
  8
0
100
AcDbLine
 62
7
  6
CONTINUOUS
 10
250.9502906527
 20
255.9533295676
 11
245.9502906527
 21
255.9533295676
  0
LINE
  5
36F
100
AcDbEntity
  8
0
100
AcDbLine
 62
7
  6
CONTINUOUS
 10
243.9502906527
 20
255.9533295676
 11
238.9502906527
 21
255.9533295676
  0
LINE
  5
370
100
AcDbEntity
  8
0
100
AcDbLine
 62
7
  6
CONTINUOUS
 10
236.9502906527
 20
255.9533295676
 11
231.9502906527
 21
255.9533295676
  0
LINE
  5
371
100
AcDbEntity
  8
0
100
AcDbLine
 62
7
  6
CONTINUOUS
 10
229.9502906527
 20
255.9533295676
 11
224.9502906527
 21
255.9533295676
  0
LINE
  5
372
100
AcDbEntity
  8
0
100
AcDbLine
 62
7
  6
CONTINUOUS
 10
222.9502906527
 20
255.9533295676
 11
217.9502906527
 21
255.9533295676
  0
LINE
  5
373
100
AcDbEntity
  8
0
100
AcDbLine
 62
7
  6
CONTINUOUS
 10
215.9502906527
 20
255.9533295676
 11
210.9502906527
 21
255.9533295676
  0
LINE
  5
374
100
AcDbEntity
  8
0
100
AcDbLine
 62
7
  6
CONTINUOUS
 10
208.9502906527
 20
255.9533295676
 11
203.9502906527
 21
255.9533295676
  0
LINE
  5
375
100
AcDbEntity
  8
0
100
AcDbLine
 62
7
  6
CONTINUOUS
 10
201.9502906527
 20
255.9533295676
 11
196.9502906527
 21
255.9533295676
  0
LINE
  5
376
100
AcDbEntity
  8
0
100
AcDbLine
 62
7
  6
CONTINUOUS
 10
194.9502906527
 20
255.9533295676
 11
189.9502906527
 21
255.9533295676
  0
LINE
  5
377
100
AcDbEntity
  8
0
100
AcDbLine
 62
7
  6
CONTINUOUS
 10
187.9502906527
 20
255.9533295676
 11
182.9502906527
 21
255.9533295676
  0
LINE
  5
378
100
AcDbEntity
  8
0
100
AcDbLine
 62
7
  6
CONTINUOUS
 10
180.9502906527
 20
255.9533295676
 11
175.9502906527
 21
255.9533295676
  0
LINE
  5
379
100
AcDbEntity
  8
0
100
AcDbLine
 62
7
  6
CONTINUOUS
 10
173.9502906527
 20
255.9533295676
 11
168.9502906527
 21
255.9533295676
  0
LINE
  5
37A
100
AcDbEntity
  8
0
100
AcDbLine
 62
7
  6
CONTINUOUS
 10
166.9502906527
 20
255.9533295676
 11
161.9502906527
 21
255.9533295676
  0
LINE
  5
37B
100
AcDbEntity
  8
0
100
AcDbLine
 62
7
  6
CONTINUOUS
 10
159.9502906527
 20
255.9533295676
 11
154.9502906527
 21
255.9533295676
  0
LINE
  5
37C
100
AcDbEntity
  8
0
100
AcDbLine
 62
7
  6
CONTINUOUS
 10
152.9502906527
 20
255.9533295676
 11
147.9502906527
 21
255.9533295676
  0
LINE
  5
37D
100
AcDbEntity
  8
0
100
AcDbLine
 62
7
  6
CONTINUOUS
 10
145.9502906527
 20
255.9533295676
 11
140.9502906527
 21
255.9533295676
  0
LINE
  5
37E
100
AcDbEntity
  8
0
100
AcDbLine
 62
7
  6
CONTINUOUS
 10
138.9502906527
 20
255.9533295676
 11
133.9502906527
 21
255.9533295676
  0
LINE
  5
37F
100
AcDbEntity
  8
0
100
AcDbLine
 62
7
  6
CONTINUOUS
 10
131.9502906527
 20
255.9533295676
 11
126.9502906527
 21
255.9533295676
  0
LINE
  5
380
100
AcDbEntity
  8
0
100
AcDbLine
 62
7
  6
CONTINUOUS
 10
124.9502906527
 20
255.9533295676
 11
119.9502906527
 21
255.9533295676
  0
LINE
  5
381
100
AcDbEntity
  8
0
100
AcDbLine
 62
7
  6
CONTINUOUS
 10
117.9502906527
 20
255.9533295676
 11
112.9502906527
 21
255.9533295676
  0
LINE
  5
382
100
AcDbEntity
  8
0
100
AcDbLine
 62
7
  6
CONTINUOUS
 10
110.9502906527
 20
255.9533295676
 11
105.9502906527
 21
255.9533295676
  0
LINE
  5
383
100
AcDbEntity
  8
0
100
AcDbLine
 62
7
  6
CONTINUOUS
 10
103.9502906527
 20
255.9533295676
 11
98.9502906527
 21
255.9533295676
  0
LINE
  5
384
100
AcDbEntity
  8
0
100
AcDbLine
 62
7
  6
CONTINUOUS
 10
96.9502906527
 20
255.9533295676
 11
91.9502906527
 21
255.9533295676
  0
LINE
  5
385
100
AcDbEntity
  8
0
100
AcDbLine
 62
7
  6
CONTINUOUS
 10
89.9502906527
 20
255.9533295676
 11
84.9502906527
 21
255.9533295676
  0
LINE
  5
386
100
AcDbEntity
  8
0
100
AcDbLine
 62
7
  6
CONTINUOUS
 10
175.9502906527
 20
155.4533295676
 11
175.9502906527
 21
185.4533295676
  0
LINE
  5
387
100
AcDbEntity
  8
0
100
AcDbLine
 62
7
  6
CONTINUOUS
 10
175.9502906527
 20
188.9533295676
 11
175.9502906527
 21
218.9533295676
  0
LINE
  5
388
100
AcDbEntity
  8
0
100
AcDbLine
 62
7
  6
CONTINUOUS
 10
175.9502906527
 20
222.4533295676
 11
175.9502906527
 21
252.4533295676
  0
LINE
  5
389
100
AcDbEntity
  8
0
100
AcDbLine
 62
7
  6
CONTINUOUS
 10
175.9502906527
 20
255.9533295676
 11
175.9502906527
 21
285.9533295676
  0
LINE
  5
38A
100
AcDbEntity
  8
0
100
AcDbLine
 62
7
  6
CONTINUOUS
 10
180.9502906527
 20
285.9533295676
 11
180.9502906527
 21
255.9533295676
  0
LINE
  5
38B
100
AcDbEntity
  8
0
100
AcDbLine
 62
7
  6
CONTINUOUS
 10
180.9502906527
 20
252.4533295676
 11
180.9502906527
 21
222.4533295676
  0
LINE
  5
38C
100
AcDbEntity
  8
0
100
AcDbLine
 62
7
  6
CONTINUOUS
 10
180.9502906527
 20
218.9533295676
 11
180.9502906527
 21
188.9533295676
  0
LINE
  5
38D
100
AcDbEntity
  8
0
100
AcDbLine
 62
7
  6
CONTINUOUS
 10
180.9502906527
 20
185.4533295676
 11
180.9502906527
 21
155.4533295676
  0
LINE
  5
38E
100
AcDbEntity
  8
0
100
AcDbLine
 62
7
  6
CONTINUOUS
 10
182.9502906527
 20
155.4533295676
 11
182.9502906527
 21
185.4533295676
  0
LINE
  5
38F
100
AcDbEntity
  8
0
100
AcDbLine
 62
7
  6
CONTINUOUS
 10
182.9502906527
 20
188.9533295676
 11
182.9502906527
 21
218.9533295676
  0
LINE
  5
390
100
AcDbEntity
  8
0
100
AcDbLine
 62
7
  6
CONTINUOUS
 10
182.9502906527
 20
222.4533295676
 11
182.9502906527
 21
252.4533295676
  0
LINE
  5
391
100
AcDbEntity
  8
0
100
AcDbLine
 62
7
  6
CONTINUOUS
 10
182.9502906527
 20
255.9533295676
 11
182.9502906527
 21
285.9533295676
  0
LINE
  5
392
100
AcDbEntity
  8
0
100
AcDbLine
 62
7
  6
CONTINUOUS
 10
187.9502906527
 20
285.9533295676
 11
187.9502906527
 21
255.9533295676
  0
LINE
  5
393
100
AcDbEntity
  8
0
100
AcDbLine
 62
7
  6
CONTINUOUS
 10
187.9502906527
 20
252.4533295676
 11
187.9502906527
 21
222.4533295676
  0
LINE
  5
394
100
AcDbEntity
  8
0
100
AcDbLine
 62
7
  6
CONTINUOUS
 10
187.9502906527
 20
218.9533295676
 11
187.9502906527
 21
188.9533295676
  0
LINE
  5
395
100
AcDbEntity
  8
0
100
AcDbLine
 62
7
  6
CONTINUOUS
 10
187.9502906527
 20
185.4533295676
 11
187.9502906527
 21
155.4533295676
  0
LINE
  5
396
100
AcDbEntity
  8
0
100
AcDbLine
 62
7
  6
CONTINUOUS
 10
189.9502906527
 20
155.4533295676
 11
189.9502906527
 21
185.4533295676
  0
LINE
  5
397
100
AcDbEntity
  8
0
100
AcDbLine
 62
7
  6
CONTINUOUS
 10
189.9502906527
 20
188.9533295676
 11
189.9502906527
 21
218.9533295676
  0
LINE
  5
398
100
AcDbEntity
  8
0
100
AcDbLine
 62
7
  6
CONTINUOUS
 10
189.9502906527
 20
222.4533295676
 11
189.9502906527
 21
252.4533295676
  0
LINE
  5
399
100
AcDbEntity
  8
0
100
AcDbLine
 62
7
  6
CONTINUOUS
 10
189.9502906527
 20
255.9533295676
 11
189.9502906527
 21
285.9533295676
  0
LINE
  5
39A
100
AcDbEntity
  8
0
100
AcDbLine
 62
7
  6
CONTINUOUS
 10
194.9502906527
 20
285.9533295676
 11
194.9502906527
 21
255.9533295676
  0
LINE
  5
39B
100
AcDbEntity
  8
0
100
AcDbLine
 62
7
  6
CONTINUOUS
 10
194.9502906527
 20
252.4533295676
 11
194.9502906527
 21
222.4533295676
  0
LINE
  5
39C
100
AcDbEntity
  8
0
100
AcDbLine
 62
7
  6
CONTINUOUS
 10
194.9502906527
 20
218.9533295676
 11
194.9502906527
 21
188.9533295676
  0
LINE
  5
39D
100
AcDbEntity
  8
0
100
AcDbLine
 62
7
  6
CONTINUOUS
 10
194.9502906527
 20
185.4533295676
 11
194.9502906527
 21
155.4533295676
  0
LINE
  5
39E
100
AcDbEntity
  8
0
100
AcDbLine
 62
7
  6
CONTINUOUS
 10
196.9502906527
 20
155.4533295676
 11
196.9502906527
 21
185.4533295676
  0
LINE
  5
39F
100
AcDbEntity
  8
0
100
AcDbLine
 62
7
  6
CONTINUOUS
 10
196.9502906527
 20
188.9533295676
 11
196.9502906527
 21
218.9533295676
  0
LINE
  5
3A0
100
AcDbEntity
  8
0
100
AcDbLine
 62
7
  6
CONTINUOUS
 10
196.9502906527
 20
222.4533295676
 11
196.9502906527
 21
252.4533295676
  0
LINE
  5
3A1
100
AcDbEntity
  8
0
100
AcDbLine
 62
7
  6
CONTINUOUS
 10
196.9502906527
 20
255.9533295676
 11
196.9502906527
 21
285.9533295676
  0
LINE
  5
3A2
100
AcDbEntity
  8
0
100
AcDbLine
 62
7
  6
CONTINUOUS
 10
201.9502906527
 20
285.9533295676
 11
201.9502906527
 21
255.9533295676
  0
LINE
  5
3A3
100
AcDbEntity
  8
0
100
AcDbLine
 62
7
  6
CONTINUOUS
 10
201.9502906527
 20
252.4533295676
 11
201.9502906527
 21
222.4533295676
  0
LINE
  5
3A4
100
AcDbEntity
  8
0
100
AcDbLine
 62
7
  6
CONTINUOUS
 10
201.9502906527
 20
218.9533295676
 11
201.9502906527
 21
188.9533295676
  0
LINE
  5
3A5
100
AcDbEntity
  8
0
100
AcDbLine
 62
7
  6
CONTINUOUS
 10
201.9502906527
 20
185.4533295676
 11
201.9502906527
 21
155.4533295676
  0
LINE
  5
3A6
100
AcDbEntity
  8
0
100
AcDbLine
 62
7
  6
CONTINUOUS
 10
203.9502906527
 20
155.4533295676
 11
203.9502906527
 21
185.4533295676
  0
LINE
  5
3A7
100
AcDbEntity
  8
0
100
AcDbLine
 62
7
  6
CONTINUOUS
 10
203.9502906527
 20
188.9533295676
 11
203.9502906527
 21
218.9533295676
  0
LINE
  5
3A8
100
AcDbEntity
  8
0
100
AcDbLine
 62
7
  6
CONTINUOUS
 10
203.9502906527
 20
222.4533295676
 11
203.9502906527
 21
252.4533295676
  0
LINE
  5
3A9
100
AcDbEntity
  8
0
100
AcDbLine
 62
7
  6
CONTINUOUS
 10
203.9502906527
 20
255.9533295676
 11
203.9502906527
 21
285.9533295676
  0
LINE
  5
3AA
100
AcDbEntity
  8
0
100
AcDbLine
 62
7
  6
CONTINUOUS
 10
84.9502906527
 20
285.9533295676
 11
89.9502906527
 21
285.9533295676
  0
LINE
  5
3AB
100
AcDbEntity
  8
0
100
AcDbLine
 62
7
  6
CONTINUOUS
 10
91.9502906527
 20
285.9533295676
 11
96.9502906527
 21
285.9533295676
  0
LINE
  5
3AC
100
AcDbEntity
  8
0
100
AcDbLine
 62
7
  6
CONTINUOUS
 10
98.9502906527
 20
285.9533295676
 11
103.9502906527
 21
285.9533295676
  0
LINE
  5
3AD
100
AcDbEntity
  8
0
100
AcDbLine
 62
7
  6
CONTINUOUS
 10
105.9502906527
 20
285.9533295676
 11
110.9502906527
 21
285.9533295676
  0
LINE
  5
3AE
100
AcDbEntity
  8
0
100
AcDbLine
 62
7
  6
CONTINUOUS
 10
112.9502906527
 20
285.9533295676
 11
117.9502906527
 21
285.9533295676
  0
LINE
  5
3AF
100
AcDbEntity
  8
0
100
AcDbLine
 62
7
  6
CONTINUOUS
 10
119.9502906527
 20
285.9533295676
 11
124.9502906527
 21
285.9533295676
  0
LINE
  5
3B0
100
AcDbEntity
  8
0
100
AcDbLine
 62
7
  6
CONTINUOUS
 10
126.9502906527
 20
285.9533295676
 11
131.9502906527
 21
285.9533295676
  0
LINE
  5
3B1
100
AcDbEntity
  8
0
100
AcDbLine
 62
7
  6
CONTINUOUS
 10
133.9502906527
 20
285.9533295676
 11
138.9502906527
 21
285.9533295676
  0
LINE
  5
3B2
100
AcDbEntity
  8
0
100
AcDbLine
 62
7
  6
CONTINUOUS
 10
140.9502906527
 20
285.9533295676
 11
145.9502906527
 21
285.9533295676
  0
LINE
  5
3B3
100
AcDbEntity
  8
0
100
AcDbLine
 62
7
  6
CONTINUOUS
 10
147.9502906527
 20
285.9533295676
 11
152.9502906527
 21
285.9533295676
  0
LINE
  5
3B4
100
AcDbEntity
  8
0
100
AcDbLine
 62
7
  6
CONTINUOUS
 10
154.9502906527
 20
285.9533295676
 11
159.9502906527
 21
285.9533295676
  0
LINE
  5
3B5
100
AcDbEntity
  8
0
100
AcDbLine
 62
7
  6
CONTINUOUS
 10
161.9502906527
 20
285.9533295676
 11
166.9502906527
 21
285.9533295676
  0
LINE
  5
3B6
100
AcDbEntity
  8
0
100
AcDbLine
 62
7
  6
CONTINUOUS
 10
168.9502906527
 20
285.9533295676
 11
173.9502906527
 21
285.9533295676
  0
LINE
  5
3B7
100
AcDbEntity
  8
0
100
AcDbLine
 62
7
  6
CONTINUOUS
 10
175.9502906527
 20
285.9533295676
 11
180.9502906527
 21
285.9533295676
  0
LINE
  5
3B8
100
AcDbEntity
  8
0
100
AcDbLine
 62
7
  6
CONTINUOUS
 10
182.9502906527
 20
285.9533295676
 11
187.9502906527
 21
285.9533295676
  0
LINE
  5
3B9
100
AcDbEntity
  8
0
100
AcDbLine
 62
7
  6
CONTINUOUS
 10
189.9502906527
 20
285.9533295676
 11
194.9502906527
 21
285.9533295676
  0
LINE
  5
3BA
100
AcDbEntity
  8
0
100
AcDbLine
 62
7
  6
CONTINUOUS
 10
196.9502906527
 20
285.9533295676
 11
201.9502906527
 21
285.9533295676
  0
LINE
  5
3BB
100
AcDbEntity
  8
0
100
AcDbLine
 62
7
  6
CONTINUOUS
 10
203.9502906527
 20
285.9533295676
 11
208.9502906527
 21
285.9533295676
  0
LINE
  5
3BC
100
AcDbEntity
  8
0
100
AcDbLine
 62
7
  6
CONTINUOUS
 10
210.9502906527
 20
285.9533295676
 11
215.9502906527
 21
285.9533295676
  0
LINE
  5
3BD
100
AcDbEntity
  8
0
100
AcDbLine
 62
7
  6
CONTINUOUS
 10
217.9502906527
 20
285.9533295676
 11
222.9502906527
 21
285.9533295676
  0
LINE
  5
3BE
100
AcDbEntity
  8
0
100
AcDbLine
 62
7
  6
CONTINUOUS
 10
224.9502906527
 20
285.9533295676
 11
229.9502906527
 21
285.9533295676
  0
LINE
  5
3BF
100
AcDbEntity
  8
0
100
AcDbLine
 62
7
  6
CONTINUOUS
 10
231.9502906527
 20
285.9533295676
 11
236.9502906527
 21
285.9533295676
  0
LINE
  5
3C0
100
AcDbEntity
  8
0
100
AcDbLine
 62
7
  6
CONTINUOUS
 10
238.9502906527
 20
285.9533295676
 11
243.9502906527
 21
285.9533295676
  0
LINE
  5
3C1
100
AcDbEntity
  8
0
100
AcDbLine
 62
7
  6
CONTINUOUS
 10
245.9502906527
 20
285.9533295676
 11
250.9502906527
 21
285.9533295676
  0
LINE
  5
3C2
100
AcDbEntity
  8
0
100
AcDbLine
 62
7
  6
CONTINUOUS
 10
252.9502906527
 20
285.9533295676
 11
257.9502906527
 21
285.9533295676
  0
LINE
  5
3C3
100
AcDbEntity
  8
0
100
AcDbLine
 62
7
  6
CONTINUOUS
 10
259.9502906527
 20
285.9533295676
 11
264.9502906527
 21
285.9533295676
  0
LINE
  5
3C4
100
AcDbEntity
  8
0
100
AcDbLine
 62
7
  6
CONTINUOUS
 10
266.9502906527
 20
285.9533295676
 11
271.9502906527
 21
285.9533295676
  0
LINE
  5
3C5
100
AcDbEntity
  8
0
100
AcDbLine
 62
7
  6
CONTINUOUS
 10
273.9502906527
 20
285.9533295676
 11
278.9502906527
 21
285.9533295676
  0
LINE
  5
3C6
100
AcDbEntity
  8
0
100
AcDbLine
 62
7
  6
CONTINUOUS
 10
280.9502906527
 20
285.9533295676
 11
285.9502906527
 21
285.9533295676
  0
LINE
  5
3C7
100
AcDbEntity
  8
0
100
AcDbLine
 62
7
  6
CONTINUOUS
 10
287.9502906527
 20
285.9533295676
 11
292.9502906527
 21
285.9533295676
  0
LINE
  5
3C8
100
AcDbEntity
  8
0
100
AcDbLine
 62
7
  6
CONTINUOUS
 10
294.9502906527
 20
285.9533295676
 11
299.9502906527
 21
285.9533295676
  0
LINE
  5
3C9
100
AcDbEntity
  8
0
100
AcDbLine
 62
7
  6
CONTINUOUS
 10
301.9502906527
 20
285.9533295676
 11
306.9502906527
 21
285.9533295676
  0
LINE
  5
3CA
100
AcDbEntity
  8
0
100
AcDbLine
 62
7
  6
CONTINUOUS
 10
308.9502906527
 20
285.9533295676
 11
313.9502906527
 21
285.9533295676
  0
LINE
  5
3CB
100
AcDbEntity
  8
0
100
AcDbLine
 62
7
  6
CONTINUOUS
 10
315.9502906527
 20
285.9533295676
 11
320.9502906527
 21
285.9533295676
  0
LINE
  5
3CC
100
AcDbEntity
  8
0
100
AcDbLine
 62
7
  6
CONTINUOUS
 10
208.9502906527
 20
285.9533295676
 11
208.9502906527
 21
255.9533295676
  0
LINE
  5
3CD
100
AcDbEntity
  8
0
100
AcDbLine
 62
7
  6
CONTINUOUS
 10
208.9502906527
 20
252.4533295676
 11
208.9502906527
 21
222.4533295676
  0
LINE
  5
3CE
100
AcDbEntity
  8
0
100
AcDbLine
 62
7
  6
CONTINUOUS
 10
208.9502906527
 20
218.9533295676
 11
208.9502906527
 21
188.9533295676
  0
LINE
  5
3CF
100
AcDbEntity
  8
0
100
AcDbLine
 62
7
  6
CONTINUOUS
 10
208.9502906527
 20
185.4533295676
 11
208.9502906527
 21
155.4533295676
  0
LINE
  5
3D0
100
AcDbEntity
  8
0
100
AcDbLine
 62
7
  6
CONTINUOUS
 10
210.9502906527
 20
155.4533295676
 11
210.9502906527
 21
185.4533295676
  0
LINE
  5
3D1
100
AcDbEntity
  8
0
100
AcDbLine
 62
7
  6
CONTINUOUS
 10
210.9502906527
 20
188.9533295676
 11
210.9502906527
 21
218.9533295676
  0
LINE
  5
3D2
100
AcDbEntity
  8
0
100
AcDbLine
 62
7
  6
CONTINUOUS
 10
210.9502906527
 20
222.4533295676
 11
210.9502906527
 21
252.4533295676
  0
LINE
  5
3D3
100
AcDbEntity
  8
0
100
AcDbLine
 62
7
  6
CONTINUOUS
 10
210.9502906527
 20
255.9533295676
 11
210.9502906527
 21
285.9533295676
  0
LINE
  5
3D4
100
AcDbEntity
  8
0
100
AcDbLine
 62
7
  6
CONTINUOUS
 10
212.4502906091
 20
144.4533295676
 11
212.4502906091
 21
143.4533295676
  0
LINE
  5
3D5
100
AcDbEntity
  8
0
100
AcDbLine
 62
7
  6
CONTINUOUS
 10
215.9502906527
 20
285.9533295676
 11
215.9502906527
 21
255.9533295676
  0
LINE
  5
3D6
100
AcDbEntity
  8
0
100
AcDbLine
 62
7
  6
CONTINUOUS
 10
215.9502906527
 20
252.4533295676
 11
215.9502906527
 21
222.4533295676
  0
LINE
  5
3D7
100
AcDbEntity
  8
0
100
AcDbLine
 62
7
  6
CONTINUOUS
 10
215.9502906527
 20
218.9533295676
 11
215.9502906527
 21
188.9533295676
  0
LINE
  5
3D8
100
AcDbEntity
  8
0
100
AcDbLine
 62
7
  6
CONTINUOUS
 10
215.9502906527
 20
185.4533295676
 11
215.9502906527
 21
155.4533295676
  0
LINE
  5
3D9
100
AcDbEntity
  8
0
100
AcDbLine
 62
7
  6
CONTINUOUS
 10
217.9502906527
 20
155.4533295676
 11
217.9502906527
 21
185.4533295676
  0
LINE
  5
3DA
100
AcDbEntity
  8
0
100
AcDbLine
 62
7
  6
CONTINUOUS
 10
217.9502906527
 20
188.9533295676
 11
217.9502906527
 21
218.9533295676
  0
LINE
  5
3DB
100
AcDbEntity
  8
0
100
AcDbLine
 62
7
  6
CONTINUOUS
 10
217.9502906527
 20
222.4533295676
 11
217.9502906527
 21
252.4533295676
  0
LINE
  5
3DC
100
AcDbEntity
  8
0
100
AcDbLine
 62
7
  6
CONTINUOUS
 10
217.9502906527
 20
255.9533295676
 11
217.9502906527
 21
285.9533295676
  0
LINE
  5
3DD
100
AcDbEntity
  8
0
100
AcDbLine
 62
7
  6
CONTINUOUS
 10
222.9502906527
 20
285.9533295676
 11
222.9502906527
 21
255.9533295676
  0
LINE
  5
3DE
100
AcDbEntity
  8
0
100
AcDbLine
 62
7
  6
CONTINUOUS
 10
222.9502906527
 20
252.4533295676
 11
222.9502906527
 21
222.4533295676
  0
LINE
  5
3DF
100
AcDbEntity
  8
0
100
AcDbLine
 62
7
  6
CONTINUOUS
 10
222.9502906527
 20
218.9533295676
 11
222.9502906527
 21
188.9533295676
  0
LINE
  5
3E0
100
AcDbEntity
  8
0
100
AcDbLine
 62
7
  6
CONTINUOUS
 10
222.9502906527
 20
185.4533295676
 11
222.9502906527
 21
155.4533295676
  0
LINE
  5
3E1
100
AcDbEntity
  8
0
100
AcDbLine
 62
7
  6
CONTINUOUS
 10
222.9502906091
 20
143.4533295676
 11
222.9502906091
 21
144.4533295676
  0
LINE
  5
3E2
100
AcDbEntity
  8
0
100
AcDbLine
 62
7
  6
CONTINUOUS
 10
224.9502906527
 20
155.4533295676
 11
224.9502906527
 21
185.4533295676
  0
LINE
  5
3E3
100
AcDbEntity
  8
0
100
AcDbLine
 62
7
  6
CONTINUOUS
 10
224.9502906527
 20
188.9533295676
 11
224.9502906527
 21
218.9533295676
  0
LINE
  5
3E4
100
AcDbEntity
  8
0
100
AcDbLine
 62
7
  6
CONTINUOUS
 10
224.9502906527
 20
222.4533295676
 11
224.9502906527
 21
252.4533295676
  0
LINE
  5
3E5
100
AcDbEntity
  8
0
100
AcDbLine
 62
7
  6
CONTINUOUS
 10
224.9502906527
 20
255.9533295676
 11
224.9502906527
 21
285.9533295676
  0
LINE
  5
3E6
100
AcDbEntity
  8
0
100
AcDbLine
 62
7
  6
CONTINUOUS
 10
229.9502906527
 20
285.9533295676
 11
229.9502906527
 21
255.9533295676
  0
LINE
  5
3E7
100
AcDbEntity
  8
0
100
AcDbLine
 62
7
  6
CONTINUOUS
 10
229.9502906527
 20
252.4533295676
 11
229.9502906527
 21
222.4533295676
  0
LINE
  5
3E8
100
AcDbEntity
  8
0
100
AcDbLine
 62
7
  6
CONTINUOUS
 10
229.9502906527
 20
218.9533295676
 11
229.9502906527
 21
188.9533295676
  0
LINE
  5
3E9
100
AcDbEntity
  8
0
100
AcDbLine
 62
7
  6
CONTINUOUS
 10
229.9502906527
 20
185.4533295676
 11
229.9502906527
 21
155.4533295676
  0
LINE
  5
3EA
100
AcDbEntity
  8
0
100
AcDbLine
 62
7
  6
CONTINUOUS
 10
231.9502906527
 20
155.4533295676
 11
231.9502906527
 21
185.4533295676
  0
LINE
  5
3EB
100
AcDbEntity
  8
0
100
AcDbLine
 62
7
  6
CONTINUOUS
 10
231.9502906527
 20
188.9533295676
 11
231.9502906527
 21
218.9533295676
  0
LINE
  5
3EC
100
AcDbEntity
  8
0
100
AcDbLine
 62
7
  6
CONTINUOUS
 10
231.9502906527
 20
222.4533295676
 11
231.9502906527
 21
252.4533295676
  0
LINE
  5
3ED
100
AcDbEntity
  8
0
100
AcDbLine
 62
7
  6
CONTINUOUS
 10
231.9502906527
 20
255.9533295676
 11
231.9502906527
 21
285.9533295676
  0
LINE
  5
3EE
100
AcDbEntity
  8
0
100
AcDbLine
 62
7
  6
CONTINUOUS
 10
57.9502906527
 20
315.8533295676
 11
43.4502906527
 21
315.8533295676
  0
LINE
  5
3EF
100
AcDbEntity
  8
0
100
AcDbLine
 62
7
  6
CONTINUOUS
 10
347.9502906527
 20
315.8533295676
 11
362.4502906527
 21
315.8533295676
  0
LINE
  5
3F0
100
AcDbEntity
  8
0
100
AcDbLine
 62
7
  6
CONTINUOUS
 10
362.9502906527
 20
317.3533295676
 11
347.9502906527
 21
317.3533295676
  0
LINE
  5
3F1
100
AcDbEntity
  8
0
100
AcDbLine
 62
7
  6
CONTINUOUS
 10
57.9502906527
 20
317.3533295676
 11
42.9502906527
 21
317.3533295676
  0
LINE
  5
3F2
100
AcDbEntity
  8
0
100
AcDbLine
 62
7
  6
CONTINUOUS
 10
236.9502906527
 20
285.9533295676
 11
236.9502906527
 21
255.9533295676
  0
LINE
  5
3F3
100
AcDbEntity
  8
0
100
AcDbLine
 62
7
  6
CONTINUOUS
 10
236.9502906527
 20
252.4533295676
 11
236.9502906527
 21
222.4533295676
  0
LINE
  5
3F4
100
AcDbEntity
  8
0
100
AcDbLine
 62
7
  6
CONTINUOUS
 10
236.9502906527
 20
218.9533295676
 11
236.9502906527
 21
188.9533295676
  0
LINE
  5
3F5
100
AcDbEntity
  8
0
100
AcDbLine
 62
7
  6
CONTINUOUS
 10
236.9502906527
 20
185.4533295676
 11
236.9502906527
 21
155.4533295676
  0
LINE
  5
3F6
100
AcDbEntity
  8
0
100
AcDbLine
 62
7
  6
CONTINUOUS
 10
237.8297148917
 20
144.4533295676
 11
237.8297148917
 21
140.526320323
  0
LINE
  5
3F7
100
AcDbEntity
  8
0
100
AcDbLine
 62
7
  6
CONTINUOUS
 10
238.9502906527
 20
155.4533295676
 11
238.9502906527
 21
185.4533295676
  0
LINE
  5
3F8
100
AcDbEntity
  8
0
100
AcDbLine
 62
7
  6
CONTINUOUS
 10
238.9502906527
 20
188.9533295676
 11
238.9502906527
 21
218.9533295676
  0
LINE
  5
3F9
100
AcDbEntity
  8
0
100
AcDbLine
 62
7
  6
CONTINUOUS
 10
238.9502906527
 20
222.4533295676
 11
238.9502906527
 21
252.4533295676
  0
LINE
  5
3FA
100
AcDbEntity
  8
0
100
AcDbLine
 62
7
  6
CONTINUOUS
 10
238.9502906527
 20
255.9533295676
 11
238.9502906527
 21
285.9533295676
  0
LINE
  5
3FB
100
AcDbEntity
  8
0
100
AcDbLine
 62
7
  6
CONTINUOUS
 10
243.9502906527
 20
285.9533295676
 11
243.9502906527
 21
255.9533295676
  0
LINE
  5
3FC
100
AcDbEntity
  8
0
100
AcDbLine
 62
7
  6
CONTINUOUS
 10
243.9502906527
 20
252.4533295676
 11
243.9502906527
 21
222.4533295676
  0
LINE
  5
3FD
100
AcDbEntity
  8
0
100
AcDbLine
 62
7
  6
CONTINUOUS
 10
243.9502906527
 20
218.9533295676
 11
243.9502906527
 21
188.9533295676
  0
LINE
  5
3FE
100
AcDbEntity
  8
0
100
AcDbLine
 62
7
  6
CONTINUOUS
 10
243.9502906527
 20
185.4533295676
 11
243.9502906527
 21
155.4533295676
  0
LINE
  5
3FF
100
AcDbEntity
  8
0
100
AcDbLine
 62
7
  6
CONTINUOUS
 10
244.6003508553
 20
140.9399396973
 11
244.6003508553
 21
144.4533295676
  0
LINE
  5
400
100
AcDbEntity
  8
0
100
AcDbLine
 62
7
  6
CONTINUOUS
 10
245.9502906527
 20
155.4533295676
 11
245.9502906527
 21
185.4533295676
  0
LINE
  5
401
100
AcDbEntity
  8
0
100
AcDbLine
 62
7
  6
CONTINUOUS
 10
245.9502906527
 20
188.9533295676
 11
245.9502906527
 21
218.9533295676
  0
LINE
  5
402
100
AcDbEntity
  8
0
100
AcDbLine
 62
7
  6
CONTINUOUS
 10
245.9502906527
 20
222.4533295676
 11
245.9502906527
 21
252.4533295676
  0
LINE
  5
403
100
AcDbEntity
  8
0
100
AcDbLine
 62
7
  6
CONTINUOUS
 10
245.9502906527
 20
255.9533295676
 11
245.9502906527
 21
285.9533295676
  0
LINE
  5
404
100
AcDbEntity
  8
0
100
AcDbLine
 62
7
  6
CONTINUOUS
 10
248.0503508553
 20
140.6033295676
 11
248.0503508553
 21
141.1211712347
  0
LINE
  5
405
100
AcDbEntity
  8
0
100
AcDbLine
 62
7
  6
CONTINUOUS
 10
42.9502906527
 20
318.8533295676
 11
47.9502906527
 21
318.8533295676
  0
LINE
  5
406
100
AcDbEntity
  8
0
100
AcDbLine
 62
7
  6
CONTINUOUS
 10
357.9502906527
 20
318.8533295676
 11
362.9502906527
 21
318.8533295676
  0
LINE
  5
407
100
AcDbEntity
  8
0
100
AcDbLine
 62
7
  6
CONTINUOUS
 10
249.6503508553
 20
140.6033295676
 11
249.6503508552
 21
141.1984613241
  0
LINE
  5
408
100
AcDbEntity
  8
0
100
AcDbLine
 62
7
  6
CONTINUOUS
 10
250.9502906527
 20
285.9533295676
 11
250.9502906527
 21
255.9533295676
  0
LINE
  5
409
100
AcDbEntity
  8
0
100
AcDbLine
 62
7
  6
CONTINUOUS
 10
250.9502906527
 20
252.4533295676
 11
250.9502906527
 21
222.4533295676
  0
LINE
  5
40A
100
AcDbEntity
  8
0
100
AcDbLine
 62
7
  6
CONTINUOUS
 10
250.9502906527
 20
218.9533295676
 11
250.9502906527
 21
188.9533295676
  0
LINE
  5
40B
100
AcDbEntity
  8
0
100
AcDbLine
 62
7
  6
CONTINUOUS
 10
250.9502906527
 20
185.4533295676
 11
250.9502906527
 21
155.4533295676
  0
LINE
  5
40C
100
AcDbEntity
  8
0
100
AcDbLine
 62
7
  6
CONTINUOUS
 10
252.9502906527
 20
155.4533295676
 11
252.9502906527
 21
185.4533295676
  0
LINE
  5
40D
100
AcDbEntity
  8
0
100
AcDbLine
 62
7
  6
CONTINUOUS
 10
252.9502906527
 20
188.9533295676
 11
252.9502906527
 21
218.9533295676
  0
LINE
  5
40E
100
AcDbEntity
  8
0
100
AcDbLine
 62
7
  6
CONTINUOUS
 10
252.9502906527
 20
222.4533295676
 11
252.9502906527
 21
252.4533295676
  0
LINE
  5
40F
100
AcDbEntity
  8
0
100
AcDbLine
 62
7
  6
CONTINUOUS
 10
252.9502906527
 20
255.9533295676
 11
252.9502906527
 21
285.9533295676
  0
LINE
  5
410
100
AcDbEntity
  8
0
100
AcDbLine
 62
7
  6
CONTINUOUS
 10
256.4503510242
 20
140.6033295676
 11
256.4503508553
 21
141.4792047961
  0
LINE
  5
411
100
AcDbEntity
  8
0
100
AcDbLine
 62
7
  6
CONTINUOUS
 10
257.9502906527
 20
285.9533295676
 11
257.9502906527
 21
255.9533295676
  0
LINE
  5
412
100
AcDbEntity
  8
0
100
AcDbLine
 62
7
  6
CONTINUOUS
 10
257.9502906527
 20
252.4533295676
 11
257.9502906527
 21
222.4533295676
  0
LINE
  5
413
100
AcDbEntity
  8
0
100
AcDbLine
 62
7
  6
CONTINUOUS
 10
257.9502906527
 20
218.9533295676
 11
257.9502906527
 21
188.9533295676
  0
LINE
  5
414
100
AcDbEntity
  8
0
100
AcDbLine
 62
7
  6
CONTINUOUS
 10
257.9502906527
 20
185.4533295676
 11
257.9502906527
 21
155.4533295676
  0
LINE
  5
415
100
AcDbEntity
  8
0
100
AcDbLine
 62
7
  6
CONTINUOUS
 10
258.0503508553
 20
140.6033295676
 11
258.0503508553
 21
141.5340370152
  0
LINE
  5
416
100
AcDbEntity
  8
0
100
AcDbLine
 62
7
  6
CONTINUOUS
 10
259.9502906527
 20
155.4533295676
 11
259.9502906527
 21
185.4533295676
  0
LINE
  5
417
100
AcDbEntity
  8
0
100
AcDbLine
 62
7
  6
CONTINUOUS
 10
259.9502906527
 20
188.9533295676
 11
259.9502906527
 21
218.9533295676
  0
LINE
  5
418
100
AcDbEntity
  8
0
100
AcDbLine
 62
7
  6
CONTINUOUS
 10
259.9502906527
 20
222.4533295676
 11
259.9502906527
 21
252.4533295676
  0
LINE
  5
419
100
AcDbEntity
  8
0
100
AcDbLine
 62
7
  6
CONTINUOUS
 10
259.9502906527
 20
255.9533295676
 11
259.9502906527
 21
285.9533295676
  0
LINE
  5
41A
100
AcDbEntity
  8
0
100
AcDbLine
 62
7
  6
CONTINUOUS
 10
263.1295304621
 20
141.6033295676
 11
263.1295304621
 21
140.6033295676
  0
LINE
  5
41B
100
AcDbEntity
  8
0
100
AcDbLine
 62
7
  6
CONTINUOUS
 10
264.5503508553
 20
141.6033295676
 11
264.5503508553
 21
140.6033295676
  0
LINE
  5
41C
100
AcDbEntity
  8
0
100
AcDbLine
 62
7
  6
CONTINUOUS
 10
264.9502906527
 20
285.9533295676
 11
264.9502906527
 21
255.9533295676
  0
LINE
  5
41D
100
AcDbEntity
  8
0
100
AcDbLine
 62
7
  6
CONTINUOUS
 10
264.9502906527
 20
252.4533295676
 11
264.9502906527
 21
222.4533295676
  0
LINE
  5
41E
100
AcDbEntity
  8
0
100
AcDbLine
 62
7
  6
CONTINUOUS
 10
264.9502906527
 20
218.9533295676
 11
264.9502906527
 21
188.9533295676
  0
LINE
  5
41F
100
AcDbEntity
  8
0
100
AcDbLine
 62
7
  6
CONTINUOUS
 10
264.9502906527
 20
185.4533295676
 11
264.9502906527
 21
155.4533295676
  0
LINE
  5
420
100
AcDbEntity
  8
0
100
AcDbLine
 62
7
  6
CONTINUOUS
 10
266.1503508553
 20
140.6033295676
 11
266.1503508553
 21
141.6033295676
  0
LINE
  5
421
100
AcDbEntity
  8
0
100
AcDbLine
 62
7
  6
CONTINUOUS
 10
266.9502906527
 20
155.4533295676
 11
266.9502906527
 21
185.4533295676
  0
LINE
  5
422
100
AcDbEntity
  8
0
100
AcDbLine
 62
7
  6
CONTINUOUS
 10
266.9502906527
 20
188.9533295676
 11
266.9502906527
 21
218.9533295676
  0
LINE
  5
423
100
AcDbEntity
  8
0
100
AcDbLine
 62
7
  6
CONTINUOUS
 10
266.9502906527
 20
222.4533295676
 11
266.9502906527
 21
252.4533295676
  0
LINE
  5
424
100
AcDbEntity
  8
0
100
AcDbLine
 62
7
  6
CONTINUOUS
 10
266.9502906527
 20
255.9533295676
 11
266.9502906527
 21
285.9533295676
  0
LINE
  5
425
100
AcDbEntity
  8
0
100
AcDbLine
 62
7
  6
CONTINUOUS
 10
271.9502906527
 20
285.9533295676
 11
271.9502906527
 21
255.9533295676
  0
LINE
  5
426
100
AcDbEntity
  8
0
100
AcDbLine
 62
7
  6
CONTINUOUS
 10
271.9502906527
 20
252.4533295676
 11
271.9502906527
 21
222.4533295676
  0
LINE
  5
427
100
AcDbEntity
  8
0
100
AcDbLine
 62
7
  6
CONTINUOUS
 10
271.9502906527
 20
218.9533295676
 11
271.9502906527
 21
188.9533295676
  0
LINE
  5
428
100
AcDbEntity
  8
0
100
AcDbLine
 62
7
  6
CONTINUOUS
 10
271.9502906527
 20
185.4533295676
 11
271.9502906527
 21
155.4533295676
  0
LINE
  5
429
100
AcDbEntity
  8
0
100
AcDbLine
 62
7
  6
CONTINUOUS
 10
272.9503510242
 20
141.6033295676
 11
272.9503510242
 21
140.6033295676
  0
LINE
  5
42A
100
AcDbEntity
  8
0
100
AcDbLine
 62
7
  6
CONTINUOUS
 10
273.9502906527
 20
155.4533295676
 11
273.9502906527
 21
185.4533295676
  0
LINE
  5
42B
100
AcDbEntity
  8
0
100
AcDbLine
 62
7
  6
CONTINUOUS
 10
273.9502906527
 20
188.9533295676
 11
273.9502906527
 21
218.9533295676
  0
LINE
  5
42C
100
AcDbEntity
  8
0
100
AcDbLine
 62
7
  6
CONTINUOUS
 10
273.9502906527
 20
222.4533295676
 11
273.9502906527
 21
252.4533295676
  0
LINE
  5
42D
100
AcDbEntity
  8
0
100
AcDbLine
 62
7
  6
CONTINUOUS
 10
273.9502906527
 20
255.9533295676
 11
273.9502906527
 21
285.9533295676
  0
LINE
  5
42E
100
AcDbEntity
  8
0
100
AcDbLine
 62
7
  6
CONTINUOUS
 10
274.5503508553
 20
140.6033295676
 11
274.5503508553
 21
141.6033295676
  0
LINE
  5
42F
100
AcDbEntity
  8
0
100
AcDbLine
 62
7
  6
CONTINUOUS
 10
47.9502906527
 20
351.8507521795
 11
49.4502906527
 21
351.8507521795
  0
LINE
  5
430
100
AcDbEntity
  8
0
100
AcDbLine
 62
7
  6
CONTINUOUS
 10
356.4502906527
 20
351.8507521795
 11
357.9502906527
 21
351.8507521795
  0
LINE
  5
431
100
AcDbEntity
  8
0
100
AcDbLine
 62
7
  6
CONTINUOUS
 10
357.9502906527
 20
359.3533295676
 11
356.4502906527
 21
359.3533295676
  0
LINE
  5
432
100
AcDbEntity
  8
0
100
AcDbLine
 62
7
  6
CONTINUOUS
 10
49.4502906527
 20
359.3533295676
 11
47.9502906527
 21
359.3533295676
  0
LINE
  5
433
100
AcDbEntity
  8
0
100
AcDbLine
 62
7
  6
CONTINUOUS
 10
278.9502906527
 20
285.9533295676
 11
278.9502906527
 21
255.9533295676
  0
LINE
  5
434
100
AcDbEntity
  8
0
100
AcDbLine
 62
7
  6
CONTINUOUS
 10
278.9502906527
 20
252.4533295676
 11
278.9502906527
 21
222.4533295676
  0
LINE
  5
435
100
AcDbEntity
  8
0
100
AcDbLine
 62
7
  6
CONTINUOUS
 10
278.9502906527
 20
218.9533295676
 11
278.9502906527
 21
188.9533295676
  0
LINE
  5
436
100
AcDbEntity
  8
0
100
AcDbLine
 62
7
  6
CONTINUOUS
 10
278.9502906527
 20
185.4533295676
 11
278.9502906527
 21
155.4533295676
  0
LINE
  5
437
100
AcDbEntity
  8
0
100
AcDbLine
 62
7
  6
CONTINUOUS
 10
280.9502906527
 20
155.4533295676
 11
280.9502906527
 21
185.4533295676
  0
LINE
  5
438
100
AcDbEntity
  8
0
100
AcDbLine
 62
7
  6
CONTINUOUS
 10
280.9502906527
 20
188.9533295676
 11
280.9502906527
 21
218.9533295676
  0
LINE
  5
439
100
AcDbEntity
  8
0
100
AcDbLine
 62
7
  6
CONTINUOUS
 10
280.9502906527
 20
222.4533295676
 11
280.9502906527
 21
252.4533295676
  0
LINE
  5
43A
100
AcDbEntity
  8
0
100
AcDbLine
 62
7
  6
CONTINUOUS
 10
280.9502906527
 20
255.9533295676
 11
280.9502906527
 21
285.9533295676
  0
LINE
  5
43B
100
AcDbEntity
  8
0
100
AcDbLine
 62
7
  6
CONTINUOUS
 10
281.0503508553
 20
141.6033295676
 11
281.0503508553
 21
140.6033295676
  0
LINE
  5
43C
100
AcDbEntity
  8
0
100
AcDbLine
 62
7
  6
CONTINUOUS
 10
282.650350855
 20
140.6033295676
 11
282.650350855
 21
141.6033295676
  0
LINE
  5
43D
100
AcDbEntity
  8
0
100
AcDbLine
 62
7
  6
CONTINUOUS
 10
285.9502906527
 20
285.9533295676
 11
285.9502906527
 21
255.9533295676
  0
LINE
  5
43E
100
AcDbEntity
  8
0
100
AcDbLine
 62
7
  6
CONTINUOUS
 10
285.9502906527
 20
252.4533295676
 11
285.9502906527
 21
222.4533295676
  0
LINE
  5
43F
100
AcDbEntity
  8
0
100
AcDbLine
 62
7
  6
CONTINUOUS
 10
285.9502906527
 20
218.9533295676
 11
285.9502906527
 21
188.9533295676
  0
LINE
  5
440
100
AcDbEntity
  8
0
100
AcDbLine
 62
7
  6
CONTINUOUS
 10
285.9502906527
 20
185.4533295676
 11
285.9502906527
 21
155.4533295676
  0
LINE
  5
441
100
AcDbEntity
  8
0
100
AcDbLine
 62
7
  6
CONTINUOUS
 10
287.9502906527
 20
155.4533295676
 11
287.9502906527
 21
185.4533295676
  0
LINE
  5
442
100
AcDbEntity
  8
0
100
AcDbLine
 62
7
  6
CONTINUOUS
 10
287.9502906527
 20
188.9533295676
 11
287.9502906527
 21
218.9533295676
  0
LINE
  5
443
100
AcDbEntity
  8
0
100
AcDbLine
 62
7
  6
CONTINUOUS
 10
287.9502906527
 20
222.4533295676
 11
287.9502906527
 21
252.4533295676
  0
LINE
  5
444
100
AcDbEntity
  8
0
100
AcDbLine
 62
7
  6
CONTINUOUS
 10
287.9502906527
 20
255.9533295676
 11
287.9502906527
 21
285.9533295676
  0
LINE
  5
445
100
AcDbEntity
  8
0
100
AcDbLine
 62
7
  6
CONTINUOUS
 10
289.4503508556
 20
141.6033295676
 11
289.4503508556
 21
140.6033295676
  0
LINE
  5
446
100
AcDbEntity
  8
0
100
AcDbLine
 62
7
  6
CONTINUOUS
 10
291.0503508553
 20
140.6033295676
 11
291.0503508553
 21
141.6033295676
  0
LINE
  5
447
100
AcDbEntity
  8
0
100
AcDbLine
 62
7
  6
CONTINUOUS
 10
292.4711712486
 20
140.6033295676
 11
292.4711712486
 21
141.6033295676
  0
LINE
  5
448
100
AcDbEntity
  8
0
100
AcDbLine
 62
7
  6
CONTINUOUS
 10
292.9502906527
 20
285.9533295676
 11
292.9502906527
 21
255.9533295676
  0
LINE
  5
449
100
AcDbEntity
  8
0
100
AcDbLine
 62
7
  6
CONTINUOUS
 10
292.9502906527
 20
252.4533295676
 11
292.9502906527
 21
222.4533295676
  0
LINE
  5
44A
100
AcDbEntity
  8
0
100
AcDbLine
 62
7
  6
CONTINUOUS
 10
292.9502906527
 20
218.9533295676
 11
292.9502906527
 21
188.9533295676
  0
LINE
  5
44B
100
AcDbEntity
  8
0
100
AcDbLine
 62
7
  6
CONTINUOUS
 10
292.9502906527
 20
185.4533295676
 11
292.9502906527
 21
155.4533295676
  0
LINE
  5
44C
100
AcDbEntity
  8
0
100
AcDbLine
 62
7
  6
CONTINUOUS
 10
294.9502906527
 20
155.4533295676
 11
294.9502906527
 21
185.4533295676
  0
LINE
  5
44D
100
AcDbEntity
  8
0
100
AcDbLine
 62
7
  6
CONTINUOUS
 10
294.9502906527
 20
188.9533295676
 11
294.9502906527
 21
218.9533295676
  0
LINE
  5
44E
100
AcDbEntity
  8
0
100
AcDbLine
 62
7
  6
CONTINUOUS
 10
294.9502906527
 20
222.4533295676
 11
294.9502906527
 21
252.4533295676
  0
LINE
  5
44F
100
AcDbEntity
  8
0
100
AcDbLine
 62
7
  6
CONTINUOUS
 10
294.9502906527
 20
255.9533295676
 11
294.9502906527
 21
285.9533295676
  0
LINE
  5
450
100
AcDbEntity
  8
0
100
AcDbLine
 62
7
  6
CONTINUOUS
 10
297.5503508553
 20
140.6033295676
 11
297.5503508553
 21
141.5340370152
  0
LINE
  5
451
100
AcDbEntity
  8
0
100
AcDbLine
 62
7
  6
CONTINUOUS
 10
299.9502906527
 20
285.9533295676
 11
299.9502906527
 21
255.9533295676
  0
LINE
  5
452
100
AcDbEntity
  8
0
100
AcDbLine
 62
7
  6
CONTINUOUS
 10
299.9502906527
 20
252.4533295676
 11
299.9502906527
 21
222.4533295676
  0
LINE
  5
453
100
AcDbEntity
  8
0
100
AcDbLine
 62
7
  6
CONTINUOUS
 10
299.9502906527
 20
218.9533295676
 11
299.9502906527
 21
188.9533295676
  0
LINE
  5
454
100
AcDbEntity
  8
0
100
AcDbLine
 62
7
  6
CONTINUOUS
 10
299.9502906527
 20
185.4533295676
 11
299.9502906527
 21
155.4533295676
  0
LINE
  5
455
100
AcDbEntity
  8
0
100
AcDbLine
 62
7
  6
CONTINUOUS
 10
301.9502906527
 20
155.4533295676
 11
301.9502906527
 21
185.4533295676
  0
LINE
  5
456
100
AcDbEntity
  8
0
100
AcDbLine
 62
7
  6
CONTINUOUS
 10
301.9502906527
 20
188.9533295676
 11
301.9502906527
 21
218.9533295676
  0
LINE
  5
457
100
AcDbEntity
  8
0
100
AcDbLine
 62
7
  6
CONTINUOUS
 10
301.9502906527
 20
222.4533295676
 11
301.9502906527
 21
252.4533295676
  0
LINE
  5
458
100
AcDbEntity
  8
0
100
AcDbLine
 62
7
  6
CONTINUOUS
 10
301.9502906527
 20
255.9533295676
 11
301.9502906527
 21
285.9533295676
  0
LINE
  5
459
100
AcDbEntity
  8
0
100
AcDbLine
 62
7
  6
CONTINUOUS
 10
305.9503510242
 20
140.6033295676
 11
305.9503508553
 21
141.1984613241
  0
LINE
  5
45A
100
AcDbEntity
  8
0
100
AcDbLine
 62
7
  6
CONTINUOUS
 10
299.1503508553
 20
140.6033295676
 11
299.1504923945
 21
141.4791997565
  0
LINE
  5
45B
100
AcDbEntity
  8
0
100
AcDbLine
 62
7
  6
CONTINUOUS
 10
306.9502906527
 20
285.9533295676
 11
306.9502906527
 21
255.9533295676
  0
LINE
  5
45C
100
AcDbEntity
  8
0
100
AcDbLine
 62
7
  6
CONTINUOUS
 10
306.9502906527
 20
252.4533295676
 11
306.9502906527
 21
222.4533295676
  0
LINE
  5
45D
100
AcDbEntity
  8
0
100
AcDbLine
 62
7
  6
CONTINUOUS
 10
306.9502906527
 20
218.9533295676
 11
306.9502906527
 21
188.9533295676
  0
LINE
  5
45E
100
AcDbEntity
  8
0
100
AcDbLine
 62
7
  6
CONTINUOUS
 10
306.9502906527
 20
185.4533295676
 11
306.9502906527
 21
155.4533295676
  0
LINE
  5
45F
100
AcDbEntity
  8
0
100
AcDbLine
 62
7
  6
CONTINUOUS
 10
307.5503508553
 20
140.6033295676
 11
307.5503508553
 21
141.1211712347
  0
LINE
  5
460
100
AcDbEntity
  8
0
100
AcDbLine
 62
7
  6
CONTINUOUS
 10
308.9502906527
 20
155.4533295676
 11
308.9502906527
 21
185.4533295676
  0
LINE
  5
461
100
AcDbEntity
  8
0
100
AcDbLine
 62
7
  6
CONTINUOUS
 10
308.9502906527
 20
188.9533295676
 11
308.9502906527
 21
218.9533295676
  0
LINE
  5
462
100
AcDbEntity
  8
0
100
AcDbLine
 62
7
  6
CONTINUOUS
 10
308.9502906527
 20
222.4533295676
 11
308.9502906527
 21
252.4533295676
  0
LINE
  5
463
100
AcDbEntity
  8
0
100
AcDbLine
 62
7
  6
CONTINUOUS
 10
308.9502906527
 20
255.9533295676
 11
308.9502906527
 21
285.9533295676
  0
LINE
  5
464
100
AcDbEntity
  8
0
100
AcDbLine
 62
7
  6
CONTINUOUS
 10
311.0003508553
 20
144.4533295676
 11
311.0003508553
 21
140.9399396973
  0
LINE
  5
465
100
AcDbEntity
  8
0
100
AcDbLine
 62
7
  6
CONTINUOUS
 10
313.9502906527
 20
285.9533295676
 11
313.9502906527
 21
255.9533295676
  0
LINE
  5
466
100
AcDbEntity
  8
0
100
AcDbLine
 62
7
  6
CONTINUOUS
 10
313.9502906527
 20
252.4533295676
 11
313.9502906527
 21
222.4533295676
  0
LINE
  5
467
100
AcDbEntity
  8
0
100
AcDbLine
 62
7
  6
CONTINUOUS
 10
313.9502906527
 20
218.9533295676
 11
313.9502906527
 21
188.9533295676
  0
LINE
  5
468
100
AcDbEntity
  8
0
100
AcDbLine
 62
7
  6
CONTINUOUS
 10
313.9502906527
 20
185.4533295676
 11
313.9502906527
 21
155.4533295676
  0
LINE
  5
469
100
AcDbEntity
  8
0
100
AcDbLine
 62
7
  6
CONTINUOUS
 10
315.9502906527
 20
155.4533295676
 11
315.9502906527
 21
185.4533295676
  0
LINE
  5
46A
100
AcDbEntity
  8
0
100
AcDbLine
 62
7
  6
CONTINUOUS
 10
315.9502906527
 20
188.9533295676
 11
315.9502906527
 21
218.9533295676
  0
LINE
  5
46B
100
AcDbEntity
  8
0
100
AcDbLine
 62
7
  6
CONTINUOUS
 10
315.9502906527
 20
222.4533295676
 11
315.9502906527
 21
252.4533295676
  0
LINE
  5
46C
100
AcDbEntity
  8
0
100
AcDbLine
 62
7
  6
CONTINUOUS
 10
315.9502906527
 20
255.9533295676
 11
315.9502906527
 21
285.9533295676
  0
LINE
  5
46D
100
AcDbEntity
  8
0
100
AcDbLine
 62
7
  6
CONTINUOUS
 10
317.7709868189
 20
140.526320323
 11
317.7709868189
 21
144.4533295676
  0
LINE
  5
46E
100
AcDbEntity
  8
0
100
AcDbLine
 62
7
  6
CONTINUOUS
 10
320.9502906527
 20
285.9533295676
 11
320.9502906527
 21
255.9533295676
  0
LINE
  5
46F
100
AcDbEntity
  8
0
100
AcDbLine
 62
7
  6
CONTINUOUS
 10
320.9502906527
 20
252.4533295676
 11
320.9502906527
 21
222.4533295676
  0
LINE
  5
470
100
AcDbEntity
  8
0
100
AcDbLine
 62
7
  6
CONTINUOUS
 10
320.9502906527
 20
218.9533295676
 11
320.9502906527
 21
188.9533295676
  0
LINE
  5
471
100
AcDbEntity
  8
0
100
AcDbLine
 62
7
  6
CONTINUOUS
 10
320.9502906527
 20
185.4533295676
 11
320.9502906527
 21
155.4533295676
  0
LINE
  5
472
100
AcDbEntity
  8
0
100
AcDbLine
 62
7
  6
CONTINUOUS
 10
331.4502906527
 20
433.3533295676
 11
331.4502906527
 21
144.4533295676
  0
LINE
  5
473
100
AcDbEntity
  8
0
100
AcDbLine
 62
7
  6
CONTINUOUS
 10
332.9502906091
 20
143.4533295676
 11
332.9502906091
 21
144.4533295676
  0
LINE
  5
474
100
AcDbEntity
  8
0
100
AcDbLine
 62
7
  6
CONTINUOUS
 10
343.4502906091
 20
143.4533295676
 11
343.4502906091
 21
144.4533295676
  0
LINE
  5
475
100
AcDbEntity
  8
0
100
AcDbLine
 62
7
  6
CONTINUOUS
 10
346.9502906527
 20
422.3533295676
 11
346.9502906527
 21
426.8533295676
  0
LINE
  5
476
100
AcDbEntity
  8
0
100
AcDbLine
 62
7
  6
CONTINUOUS
 10
347.9502906527
 20
315.8533295676
 11
347.9502906527
 21
422.3533295676
  0
LINE
  5
477
100
AcDbEntity
  8
0
100
AcDbLine
 62
7
  6
CONTINUOUS
 10
349.7002906527
 20
141.9552644094
 11
349.7002906527
 21
141.9581321222
  0
LINE
  5
478
100
AcDbEntity
  8
0
100
AcDbLine
 62
7
  6
CONTINUOUS
 10
347.9502906527
 20
422.3533295676
 11
331.4502906527
 21
422.3533295676
  0
LINE
  5
479
100
AcDbEntity
  8
0
100
AcDbLine
 62
7
  6
CONTINUOUS
 10
57.9502906527
 20
422.3533295676
 11
74.4502906527
 21
422.3533295676
  0
LINE
  5
47A
100
AcDbEntity
  8
0
100
AcDbLine
 62
7
  6
CONTINUOUS
 10
346.9502906527
 20
426.8533295676
 11
331.4502906527
 21
426.8533295676
  0
LINE
  5
47B
100
AcDbEntity
  8
0
100
AcDbLine
 62
7
  6
CONTINUOUS
 10
74.4502906527
 20
426.8533295676
 11
58.9502906527
 21
426.8533295676
  0
LINE
  5
47C
100
AcDbEntity
  8
0
100
AcDbLine
 62
7
  6
CONTINUOUS
 10
49.4502906527
 20
431.3533295676
 11
74.4502906527
 21
431.3533295676
  0
LINE
  5
47D
100
AcDbEntity
  8
0
100
AcDbLine
 62
7
  6
CONTINUOUS
 10
331.4502906527
 20
431.3533295676
 11
356.4502906527
 21
431.3533295676
  0
LINE
  5
47E
100
AcDbEntity
  8
0
100
AcDbLine
 62
7
  6
CONTINUOUS
 10
331.4502906527
 20
433.3533295676
 11
74.4502906527
 21
433.3533295676
  0
LINE
  5
47F
100
AcDbEntity
  8
0
100
AcDbLine
 62
7
  6
CONTINUOUS
 10
351.4502906527
 20
142.560526911
 11
351.4502906527
 21
141.9533295676
  0
LINE
  5
480
100
AcDbEntity
  8
0
100
AcDbLine
 62
7
  6
CONTINUOUS
 10
352.4502906527
 20
141.9533295676
 11
352.4502906527
 21
142.560526911
  0
LINE
  5
481
100
AcDbEntity
  8
0
100
AcDbLine
 62
7
  6
CONTINUOUS
 10
356.4502906527
 20
317.3533295676
 11
356.4502906527
 21
431.3533295676
  0
LINE
  5
482
100
AcDbEntity
  8
0
100
AcDbLine
 62
7
  6
CONTINUOUS
 10
357.9502906527
 20
317.3533295676
 11
357.9502906527
 21
434.3533295676
  0
LINE
  5
483
100
AcDbEntity
  8
0
100
AcDbLine
 62
7
  6
CONTINUOUS
 10
362.4502906527
 20
155.9533295676
 11
362.4502906527
 21
315.8533295676
  0
LINE
  5
484
100
AcDbEntity
  8
0
100
AcDbLine
 62
7
  6
CONTINUOUS
 10
362.9502906527
 20
144.4533295676
 11
362.9502906527
 21
318.8533295676
  0
LINE
  5
485
100
AcDbEntity
  8
0
100
AcDbLine
 62
7
  6
CONTINUOUS
 10
357.9502906527
 20
434.3533295676
 11
47.9502906527
 21
434.3533295676
  0
ARC
  5
486
100
AcDbEntity
  8
0
100
AcDbCircle
 62
7
  6
CONTINUOUS
 10
277.8003508553
 20
-458.1408228047
 40
600.0
100
AcDbArc
 50
86.1802565771
 51
93.8197434229
  0
ARC
  5
487
100
AcDbEntity
  8
0
100
AcDbCircle
 62
7
  6
CONTINUOUS
 10
53.9510790597
 20
147.5933358205
 40
5.1765474437
100
AcDbArc
 50
269.9952466313
 51
271.8415726499
  0
ARC
  5
488
100
AcDbEntity
  8
0
100
AcDbCircle
 62
7
  6
CONTINUOUS
 10
351.9511442116
 20
147.5892716136
 40
5.1724832427
100
AcDbArc
 50
269.9945212073
 51
271.8422980745
  0
ARC
  5
489
100
AcDbEntity
  8
0
100
AcDbCircle
 62
7
  6
CONTINUOUS
 10
351.9497027014
 20
147.5610414101
 40
5.1442531027
100
AcDbArc
 50
266.2893828955
 51
270.0105464264
  0
ARC
  5
48A
100
AcDbEntity
  8
0
100
AcDbCircle
 62
7
  6
CONTINUOUS
 10
53.9497027014
 20
147.5610414096
 40
5.1442531022
100
AcDbArc
 50
266.2893828954
 51
270.0105464263
  0
ARC
  5
48B
100
AcDbEntity
  8
0
100
AcDbCircle
 62
7
  6
CONTINUOUS
 10
53.9558366294
 20
147.4631248998
 40
5.0462509193
100
AcDbArc
 50
271.8350933276
 51
275.623116809
  0
ARC
  5
48C
100
AcDbEntity
  8
0
100
AcDbCircle
 62
7
  6
CONTINUOUS
 10
351.9558814189
 20
147.4624377047
 40
5.0455626424
100
AcDbArc
 50
271.8348348672
 51
275.6233752697
  0
ARC
  5
48D
100
AcDbEntity
  8
0
100
AcDbCircle
 62
7
  6
CONTINUOUS
 10
53.9386925351
 20
147.3999961166
 40
4.9828329021
100
AcDbArc
 50
264.3750132809
 51
266.2958759533
  0
ARC
  5
48E
100
AcDbEntity
  8
0
100
AcDbCircle
 62
7
  6
CONTINUOUS
 10
351.938692535
 20
147.3999961157
 40
4.9828329013
100
AcDbArc
 50
264.375013281
 51
266.2958759539
  0
ARC
  5
48F
100
AcDbEntity
  8
0
100
AcDbCircle
 62
7
  6
CONTINUOUS
 10
351.9502906527
 20
146.9601718169
 40
4.4279651418
100
AcDbArc
 50
263.5164075152
 51
276.4835924848
  0
ARC
  5
490
100
AcDbEntity
  8
0
100
AcDbCircle
 62
7
  6
CONTINUOUS
 10
53.9502906527
 20
146.9601718168
 40
4.4279651418
100
AcDbArc
 50
263.5164075151
 51
276.4835924849
  0
ARC
  5
491
100
AcDbEntity
  8
0
100
AcDbCircle
 62
7
  6
CONTINUOUS
 10
349.8589778453
 20
144.5774206801
 40
2.624091114
100
AcDbArc
 50
266.5330254193
 51
269.9980465502
  0
ARC
  5
492
100
AcDbEntity
  8
0
100
AcDbCircle
 62
7
  6
CONTINUOUS
 10
51.8589778453
 20
144.5774206801
 40
2.624091114
100
AcDbArc
 50
266.5330254193
 51
269.9980465515
  0
ARC
  5
493
100
AcDbEntity
  8
0
100
AcDbCircle
 62
7
  6
CONTINUOUS
 10
354.0416225156
 20
144.576791398
 40
2.6234618314
100
AcDbArc
 50
270.0015377482
 51
273.4673902801
  0
ARC
  5
494
100
AcDbEntity
  8
0
100
AcDbCircle
 62
7
  6
CONTINUOUS
 10
56.0416225156
 20
144.576791398
 40
2.6234618313
100
AcDbArc
 50
270.0015377492
 51
273.4673902801
  0
ARC
  5
495
100
AcDbEntity
  8
0
100
AcDbCircle
 62
7
  6
CONTINUOUS
 10
349.8589241104
 20
144.575646067
 40
2.6223164998
100
AcDbArc
 50
266.5318525484
 51
269.9989807773
  0
ARC
  5
496
100
AcDbEntity
  8
0
100
AcDbCircle
 62
7
  6
CONTINUOUS
 10
51.8589241104
 20
144.5756460672
 40
2.6223165
100
AcDbArc
 50
266.5318525485
 51
269.9989807774
  0
ARC
  5
497
100
AcDbEntity
  8
0
100
AcDbCircle
 62
7
  6
CONTINUOUS
 10
354.2002906527
 20
144.4533295676
 40
2.5
100
AcDbArc
 50
270.0
 51
360.0
  0
ARC
  5
498
100
AcDbEntity
  8
0
100
AcDbCircle
 62
7
  6
CONTINUOUS
 10
56.2002906527
 20
144.4533295677
 40
2.5
100
AcDbArc
 50
270.0
 51
359.9999999996
  0
ARC
  5
499
100
AcDbEntity
  8
0
100
AcDbCircle
 62
7
  6
CONTINUOUS
 10
51.7002906527
 20
144.4533295677
 40
2.5
100
AcDbArc
 50
179.9999999992
 51
269.9999999995
  0
ARC
  5
49A
100
AcDbEntity
  8
0
100
AcDbCircle
 62
7
  6
CONTINUOUS
 10
349.7002906527
 20
144.4533295676
 40
2.5
100
AcDbArc
 50
179.9999999989
 51
270.0000000003
  0
ARC
  5
49B
100
AcDbEntity
  8
0
100
AcDbCircle
 62
7
  6
CONTINUOUS
 10
349.8002906527
 20
144.4533295676
 40
2.5
100
AcDbArc
 50
180.0000000006
 51
267.7075572246
  0
ARC
  5
49C
100
AcDbEntity
  8
0
100
AcDbCircle
 62
7
  6
CONTINUOUS
 10
51.8002906527
 20
144.4533295676
 40
2.5
100
AcDbArc
 50
179.9999999999
 51
267.707557224
  0
SPLINE
  5
49D
100
AcDbEntity
  8
0
100
AcDbSpline
 62
7
  6
CONTINUOUS
 70
0
 71
3
 72
9
 73
5
 74
0
 42
0.0000001
 43
0.0000001
 44
0.0000000001
 40
0.0
 40
0.0
 40
0.0
 40
0.0
 40
0.5000001548
 40
1.0
 40
1.0
 40
1.0
 40
1.0
 10
356.6002903011
 20
144.4533295676
 30
0.0
 10
356.6002901095
 20
143.8309575172
 30
0.0
 10
356.0949040242
 20
142.5369665252
 30
0.0
 10
354.8221642096
 20
141.9802255683
 30
0.0
 10
354.2002906527
 20
141.955330414
 30
0.0
  0
SPLINE
  5
49E
100
AcDbEntity
  8
0
100
AcDbSpline
 62
7
  6
CONTINUOUS
 70
0
 71
3
 72
9
 73
5
 74
0
 42
0.0000001
 43
0.0000001
 44
0.0000000001
 40
0.0
 40
0.0
 40
0.0
 40
0.0
 40
0.5000001548
 40
1.0
 40
1.0
 40
1.0
 40
1.0
 10
58.6002903011
 20
144.4533295676
 30
0.0
 10
58.6002901095
 20
143.8309575172
 30
0.0
 10
58.0949040242
 20
142.5369665252
 30
0.0
 10
56.8221642096
 20
141.9802255683
 30
0.0
 10
56.2002906527
 20
141.955330414
 30
0.0
  0
ENDSEC
  0
SECTION
  2
OBJECTS
  0
DICTIONARY
  5
C
100
AcDbDictionary
280
0
281
1
  3
ACAD_GROUP
350
D
  3
ACAD_MLINESTYLE
350
17
  3
ACAD_LAYOUT
350
1A
  3
ACAD_PLOTSETTINGS
350
19
  3
ACAD_PLOTSTYLENAME
350
E
  0
DICTIONARY
  5
D
102
{ACAD_REACTORS
330
C
102
}
100
AcDbDictionary
280
0
281
1
  0
ACDBDICTIONARYWDFLT
  5
E
102
{ACAD_REACTORS
330
C
102
}
100
AcDbDictionary
281
1
  3
Normal
350
F
100
AcDbDictionaryWithDefault
340
F
  0
DICTIONARY
  5
17
102
{ACAD_REACTORS
330
C
102
}
100
AcDbDictionary
280
0
281
1
  3
Standard
350
18
  0
DICTIONARY
  5
19
102
{ACAD_REACTORS
330
C
102
}
100
AcDbDictionary
281
1
  0
DICTIONARY
  5
1A
102
{ACAD_REACTORS
330
C
102
}
100
AcDbDictionary
281
1
  3
Model
350
49F
  3
Layout1
350
4A0
  0
ACDBPLACEHOLDER
  5
F
102
{ACAD_REACTORS
330
E
102
}
  0
MLINESTYLE
  5
18
102
{ACAD_REACTORS
330
17
102
}
100
AcDbMlineStyle
  2
STANDARD
 70
0
  3

 62
256
 51
90.0
 52
90.0
 71
2
 49
0.5
 62
256
  6
BYLAYER
 49
-0.5
 62
256
  6
BYLAYER
  0
LAYOUT
  5
49F
102
{ACAD_REACTORS
330
1A
102
}
100
AcDbPlotSettings
  1

  2
none_device
  4

  6

 40
0.0
 41
0.0
 42
0.0
 43
0.0
 44
210.0
 45
297.0
 46
0.0
 47
0.0
 48
0.0
 49
0.0
140
0.0
141
0.0
142
1.0
143
1.0
 70
1024
 72
1
 73
0
 74
0
  7

 75
0
147
1.0
148
0.0
149
0.0
100
AcDbLayout
  1
Model
 70
0
 71
0
 10
0.0
 20
0.0
 11
210.0
 21
297.0
 12
0.0
 22
0.0
 32
0.0
 14
0.0
 24
0.0
 34
0.0
 15
0.0
 25
0.0
 35
0.0
146
0.0
 13
0.0
 23
0.0
 33
0.0
 16
1.0
 26
0.0
 36
0.0
 17
0.0
 27
1.0
 37
0.0
 76
0
330
210
345
0
346
0
  0
LAYOUT
  5
4A0
102
{ACAD_REACTORS
330
1A
102
}
100
AcDbPlotSettings
  1

  2
none_device
  4

  6

 40
0.0
 41
0.0
 42
0.0
 43
0.0
 44
210.0
 45
297.0
 46
0.0
 47
0.0
 48
0.0
 49
0.0
140
0.0
141
0.0
142
1.0
143
1.0
 70
0
 72
1
 73
0
 74
0
  7

 75
0
147
1.0
148
0.0
149
0.0
100
AcDbLayout
  1
Layout1
 70
0
 71
1
 10
0.0
 20
0.0
 11
210.0
 21
297.0
 12
0.0
 22
0.0
 32
0.0
 14
0.0
 24
0.0
 34
0.0
 15
0.0
 25
0.0
 35
0.0
146
0.0
 13
0.0
 23
0.0
 33
0.0
 16
1.0
 26
0.0
 36
0.0
 17
0.0
 27
1.0
 37
0.0
 76
0
330
211
345
0
346
0
  0
ENDSEC
  0
EOF
