  0
SECTION
  2
HEADER
  9
$ACADVER
  1
AC1009
  9
$DWGCODEPAGE
  3
ansi_1250
  9
$INSBASE
 10
0.0
 20
0.0
 30
0.0
  9
$EXTMIN
 10
-3.467073
 20
-3.320268
 30
0.0
  9
$EXTMAX
 10
3.747073
 20
5.528
 30
0.0
  9
$LIMMIN
 10
0.0
 20
0.0
  9
$LIMMAX
 10
0.0
 20
0.0
  9
$ORTHOMODE
 70
     0
  9
$REGENMODE
 70
     1
  9
$FILLMODE
 70
     1
  9
$QTEXTMODE
 70
     0
  9
$MIRRTEXT
 70
     1
  9
$DRAGMODE
 70
     2
  9
$LTSCALE
 40
1.0
  9
$OSMODE
 70
     0
  9
$ATTMODE
 70
     1
  9
$TEXTSIZE
 40
0.2
  9
$TRACEWID
 40
0.05
  9
$TEXTSTYLE
  7
STANDARD
  9
$CLAYER
  8
0
  9
$CELTYPE
  6
CONTINUOUS
  9
$CECOLOR
 62
   256
  9
$DIMSCALE
 40
1.0
  9
$DIMASZ
 40
0.18
  9
$DIMEXO
 40
0.0625
  9
$DIMDLI
 40
0.38
  9
$DIMRND
 40
0.0
  9
$DIMDLE
 40
0.0
  9
$DIMEXE
 40
0.18
  9
$DIMTP
 40
0.0
  9
$DIMTM
 40
0.0
  9
$DIMTXT
 40
0.18
  9
$DIMCEN
 40
0.09
  9
$DIMTSZ
 40
0.0
  9
$DIMTOL
 70
     0
  9
$DIMLIM
 70
     0
  9
$DIMTIH
 70
     1
  9
$DIMTOH
 70
     1
  9
$DIMSE1
 70
     0
  9
$DIMSE2
 70
     0
  9
$DIMTAD
 70
     0
  9
$DIMZIN
 70
     0
  9
$DIMBLK
  1

  9
$DIMASO
 70
     1
  9
$DIMSHO
 70
     1
  9
$DIMPOST
  1

  9
$DIMAPOST
  1

  9
$DIMALT
 70
     0
  9
$DIMALTD
 70
     2
  9
$DIMALTF
 40
25.4
  9
$DIMLFAC
 40
1.0
  9
$DIMTOFL
 70
     0
  9
$DIMTVP
 40
0.0
  9
$DIMTIX
 70
     0
  9
$DIMSOXD
 70
     0
  9
$DIMSAH
 70
     0
  9
$DIMBLK1
  1

  9
$DIMBLK2
  1

  9
$DIMSTYLE
  2
STANDARD
  9
$DIMCLRD
 70
     0
  9
$DIMCLRE
 70
     0
  9
$DIMCLRT
 70
     0
  9
$DIMTFAC
 40
1.0
  9
$DIMGAP
 40
0.09
  9
$LUNITS
 70
     2
  9
$LUPREC
 70
     4
  9
$AXISMODE
 70
     0
  9
$AXISUNIT
 10
0.0
 20
0.0
  9
$SKETCHINC
 40
0.1
  9
$FILLETRAD
 40
0.0
  9
$AUNITS
 70
     0
  9
$AUPREC
 70
     0
  9
$MENU
  1
acad
  9
$ELEVATION
 40
0.0
  9
$PELEVATION
 40
0.0
  9
$THICKNESS
 40
0.0
  9
$LIMCHECK
 70
     0
  9
$BLIPMODE
 70
     1
  9
$CHAMFERA
 40
0.0
  9
$CHAMFERB
 40
0.0
  9
$SKPOLY
 70
     0
  9
$TDCREATE
 40
0.000000000
  9
$TDUPDATE
 40
0.000000000
  9
$TDINDWG
 40
0.0000000000
  9
$TDUSRTIMER
 40
0.0000000000
  9
$USRTIMER
 70
     1
  9
$ANGBASE
 50
0.0
  9
$ANGDIR
 70
     0
  9
$PDMODE
 70
     0
  9
$PDSIZE
 40
0.0
  9
$PLINEWID
 40
0.0
  9
$COORDS
 70
     0
  9
$SPLFRAME
 70
     0
  9
$SPLINETYPE
 70
     6
  9
$SPLINESEGS
 70
     8
  9
$ATTDIA
 70
     0
  9
$ATTREQ
 70
     1
  9
$HANDLING
 70
     1
  9
$HANDSEED
  5
200
  9
$SURFTAB1
 70
     6
  9
$SURFTAB2
 70
     6
  9
$SURFTYPE
 70
     6
  9
$SURFU
 70
     6
  9
$SURFV
 70
     6
  9
$UCSNAME
  2

  9
$UCSORG
 10
0.0
 20
0.0
 30
0.0
  9
$UCSXDIR
 10
1.0
 20
0.0
 30
0.0
  9
$UCSYDIR
 10
0.0
 20
1.0
 30
0.0
  9
$PUCSNAME
  2

  9
$PUCSORG
 10
0.0
 20
0.0
 30
0.0
  9
$PUCSXDIR
 10
1.0
 20
0.0
 30
0.0
  9
$PUCSYDIR
 10
0.0
 20
1.0
 30
0.0
  9
$USERI1
 70
     0
  9
$USERI2
 70
     0
  9
$USERI3
 70
     0
  9
$USERI4
 70
     0
  9
$USERI5
 70
     0
  9
$USERR1
 40
0.0
  9
$USERR2
 40
0.0
  9
$USERR3
 40
0.0
  9
$USERR4
 40
0.0
  9
$USERR5
 40
0.0
  9
$WORLDVIEW
 70
     1
  9
$SHADEDGE
 70
     3
  9
$SHADEDIF
 70
    70
  9
$TILEMODE
 70
     1
  9
$MAXACTVP
 70
    16
  9
$PINSBASE
 10
0.0
 20
0.0
 30
0.0
  9
$PLIMCHECK
 70
     0
  9
$PEXTMIN
 10
1.000000E+20
 20
1.000000E+20
 30
1.000000E+20
  9
$PEXTMAX
 10
-1.000000E+20
 20
-1.000000E+20
 30
-1.000000E+20
  9
$PLIMMIN
 10
0.0
 20
0.0
  9
$PLIMMAX
 10
12.0
 20
9.0
  9
$UNITMODE
 70
     0
  9
$VISRETAIN
 70
     0
  9
$PLINEGEN
 70
     1
  9
$PSLTSCALE
 70
     0
  9
$TREEDEPTH
 70
  3020
  0
ENDSEC
  0
SECTION
  2
TABLES
  0
TABLE
  2
VPORT
 70
     1
  0
VPORT
  2
*ACTIVE
 70
     0
 10
0.0
 20
0.0
 11
1.0
 21
1.0
 12
6.591288
 22
4.579184
 13
0.0
 23
0.0
 14
1.0
 24
1.0
 15
0.0
 25
0.0
 16
0.0
 26
0.0
 36
1.0
 17
0.0
 27
0.0
 37
0.0
 40
9.158369
 41
0.688564
 42
50.0
 43
0.0
 44
0.0
 50
0.0
 51
0.0
 71
     0
 72
   100
 73
     1
 74
     1
 75
     0
 76
     0
 77
     0
 78
     0
  0
ENDTAB
  0
TABLE
  2
LTYPE
 70
     5
  0
LTYPE
  2
CONTINUOUS
 70
    64
  3
Solid line
 72
    65
 73
     0
 40
0.0
  0
LTYPE
  2
CENTER
 70
    64
  3
Center ____ _ ____ _ ____ _ ____ _ ____ _ ____
 72
    65
 73
     4
 40
50.8
 49
31.75
 49
-6.35
 49
6.35
 49
-6.35
  0
LTYPE
  2
HIDDEN
 70
    64
  3
Hidden __ __ __ __ __ __ __ __ __ __ __ __ __ __
 72
    65
 73
     2
 40
9.525
 49
6.35
 49
-3.175
  0
LTYPE
  2
CENTER2
 70
    64
  3
Center (.5x) ___ _ ___ _ ___ _ ___ _ ___ _ ___
 72
    65
 73
     4
 40
28.575
 49
19.05
 49
-3.175
 49
3.175
 49
-3.175
  0
LTYPE
  2
HIDDEN2
 70
    64
  3
Hidden (.5x) _ _ _ _ _ _ _ _ _ _ _ _ _ _ _ _ _
 72
    65
 73
     2
 40
4.7625
 49
3.175
 49
-1.5875
  0
ENDTAB
  0
TABLE
  2
LAYER
 70
     1
  0
LAYER
  2
0
 70
     0
 62
     7
  6
CONTINUOUS
  0
ENDTAB
  0
TABLE
  2
STYLE
 70
     1
  0
STYLE
  2
STANDARD
 70
     0
 40
0.0
 41
1.0
 50
0.0
 71
     0
 42
0.0
  3
txt
  4

  0
ENDTAB
  0
TABLE
  2
VIEW
 70
     0
  0
ENDTAB
  0
TABLE
  2
UCS
 70
     0
  0
ENDTAB
  0
TABLE
  2
APPID
 70
     1
  0
APPID
  2
ACAD
 70
     0
  0
ENDTAB
  0
TABLE
  2
DIMSTYLE
 70
     1
  0
DIMSTYLE
  2
STANDARD
 70
     0
  3

  4

  5

  6

  7

 40
1.0
 41
0.18
 42
0.0625
 43
0.38
 44
0.18
 45
0.0
 46
0.0
 47
0.0
 48
0.0
 71
     0
 72
     0
 73
     1
 74
     1
 75
     0
 76
     0
 77
     0
 78
     0
140
0.18
141
0.09
142
0.0
143
25.4
144
1.0
145
0.0
146
1.0
147
0.09
170
     0
171
     2
172
     0
173
     0
174
     0
175
     0
176
     0
177
     0
178
     0
  0
ENDTAB
  0
ENDSEC
  0
SECTION
  2
BLOCKS
  0
ENDSEC
  0
SECTION
  2
ENTITIES
  0
LINE
  8
0
  6
CONTINUOUS
 62
     7
  5
134
 10
0.5625
 20
0.075
 30
0.0
 11
0.32
 21
0.075
 31
0.0
  0
LINE
  8
0
  6
CONTINUOUS
 62
     7
  5
135
 10
-0.32
 20
0.075
 30
0.0
 11
-0.5625
 21
0.075
 31
0.0
  0
LINE
  8
0
  6
CONTINUOUS
 62
     7
  5
136
 10
0.24
 20
0.075
 30
0.0
 11
-0.24
 21
0.075
 31
0.0
  0
LINE
  8
0
  6
CONTINUOUS
 62
     7
  5
137
 10
0.798
 20
0.218
 30
0.0
 11
0.6885
 21
0.218
 31
0.0
  0
LINE
  8
0
  6
CONTINUOUS
 62
     7
  5
138
 10
0.6885
 20
0.218
 30
0.0
 11
0.6885
 21
0.143
 31
0.0
  0
LINE
  8
0
  6
CONTINUOUS
 62
     7
  5
139
 10
0.798
 20
0.143
 30
0.0
 11
0.6885
 21
0.143
 31
0.0
  0
LINE
  8
0
  6
CONTINUOUS
 62
     7
  5
13A
 10
-1.593
 20
0.036612
 30
0.0
 11
-1.593
 21
0.0
 31
0.0
  0
LINE
  8
0
  6
CONTINUOUS
 62
     7
  5
13B
 10
-1.593
 20
0.06
 30
0.0
 11
-1.593
 21
0.036612
 31
0.0
  0
LINE
  8
0
  6
CONTINUOUS
 62
     7
  5
13C
 10
-0.6885
 20
0.218
 30
0.0
 11
-0.798
 21
0.218
 31
0.0
  0
LINE
  8
0
  6
CONTINUOUS
 62
     7
  5
13D
 10
-0.6885
 20
0.218
 30
0.0
 11
-0.5625
 21
0.218
 31
0.0
  0
LINE
  8
0
  6
CONTINUOUS
 62
     7
  5
13E
 10
-0.32
 20
0.218
 30
0.0
 11
-0.5625
 21
0.218
 31
0.0
  0
LINE
  8
0
  6
CONTINUOUS
 62
     7
  5
13F
 10
0.24
 20
0.218
 30
0.0
 11
-0.24
 21
0.218
 31
0.0
  0
LINE
  8
0
  6
CONTINUOUS
 62
     7
  5
140
 10
0.5625
 20
0.218
 30
0.0
 11
0.32
 21
0.218
 31
0.0
  0
LINE
  8
0
  6
CONTINUOUS
 62
     7
  5
141
 10
0.5625
 20
0.218
 30
0.0
 11
0.6885
 21
0.218
 31
0.0
  0
LINE
  8
0
  6
CONTINUOUS
 62
     7
  5
142
 10
-0.5625
 20
0.075
 30
0.0
 11
-0.5625
 21
0.06
 31
0.0
  0
LINE
  8
0
  6
CONTINUOUS
 62
     7
  5
143
 10
-0.5625
 20
0.089645
 30
0.0
 11
-0.5625
 21
0.075
 31
0.0
  0
LINE
  8
0
  6
CONTINUOUS
 62
     7
  5
144
 10
-0.5625
 20
0.181388
 30
0.0
 11
-0.5625
 21
0.089645
 31
0.0
  0
LINE
  8
0
  6
CONTINUOUS
 62
     7
  5
145
 10
-0.5625
 20
0.218
 30
0.0
 11
-0.5625
 21
0.181388
 31
0.0
  0
LINE
  8
0
  6
CONTINUOUS
 62
     7
  5
146
 10
0.5625
 20
0.181388
 30
0.0
 11
0.5625
 21
0.218
 31
0.0
  0
LINE
  8
0
  6
CONTINUOUS
 62
     7
  5
147
 10
0.5625
 20
0.089645
 30
0.0
 11
0.5625
 21
0.181388
 31
0.0
  0
LINE
  8
0
  6
CONTINUOUS
 62
     7
  5
148
 10
0.5625
 20
0.075
 30
0.0
 11
0.5625
 21
0.089645
 31
0.0
  0
LINE
  8
0
  6
CONTINUOUS
 62
     7
  5
149
 10
0.5625
 20
0.06
 30
0.0
 11
0.5625
 21
0.075
 31
0.0
  0
LINE
  8
0
  6
CONTINUOUS
 62
     7
  5
14A
 10
0.6885
 20
0.143
 30
0.0
 11
0.5625
 21
0.143
 31
0.0
  0
LINE
  8
0
  6
CONTINUOUS
 62
     7
  5
14B
 10
-0.5625
 20
0.143
 30
0.0
 11
-0.6885
 21
0.143
 31
0.0
  0
LINE
  8
0
  6
CONTINUOUS
 62
     7
  5
14C
 10
-0.6885
 20
0.143
 30
0.0
 11
-0.6885
 21
0.218
 31
0.0
  0
LINE
  8
0
  6
CONTINUOUS
 62
     7
  5
14D
 10
-0.6885
 20
0.143
 30
0.0
 11
-0.798
 21
0.143
 31
0.0
  0
LINE
  8
0
  6
CONTINUOUS
 62
     7
  5
14E
 10
1.593
 20
0.036612
 30
0.0
 11
1.593
 21
0.06
 31
0.0
  0
LINE
  8
0
  6
CONTINUOUS
 62
     7
  5
14F
 10
1.593
 20
0.0
 30
0.0
 11
0.406
 21
0.0
 31
0.0
  0
LINE
  8
0
  6
CONTINUOUS
 62
     7
  5
150
 10
1.593
 20
0.0
 30
0.0
 11
1.593
 21
0.036612
 31
0.0
  0
LINE
  8
0
  6
CONTINUOUS
 62
     7
  5
151
 10
-1.591
 20
0.0
 30
0.0
 11
-1.593
 21
0.0
 31
0.0
  0
LINE
  8
0
  6
CONTINUOUS
 62
     7
  5
152
 10
0.32
 20
0.06
 30
0.0
 11
0.32
 21
0.23
 31
0.0
  0
LINE
  8
0
  6
CONTINUOUS
 62
     7
  5
153
 10
-0.24
 20
0.06
 30
0.0
 11
-0.24
 21
0.23
 31
0.0
  0
LINE
  8
0
  6
CONTINUOUS
 62
     7
  5
154
 10
0.765
 20
0.418
 30
0.0
 11
-0.485
 21
0.418
 31
0.0
  0
LINE
  8
0
  6
CONTINUOUS
 62
     7
  5
155
 10
-0.739
 20
0.23
 30
0.0
 11
-0.739
 21
0.218
 31
0.0
  0
ARC
  8
0
  6
CONTINUOUS
 62
     7
  5
156
 10
0.14
 20
0.286804
 30
0.0
 40
3.607073
 50
75.813789
 51
82.019687
  0
LINE
  8
0
  6
CONTINUOUS
 62
     7
  5
157
 10
1.024
 20
3.783877
 30
0.0
 11
1.024
 21
4.057877
 31
0.0
  0
ARC
  8
0
  6
CONTINUOUS
 62
     7
  5
158
 10
0.14
 20
0.560804
 30
0.0
 40
3.607073
 50
75.813789
 51
104.186211
  0
LINE
  8
0
  6
CONTINUOUS
 62
     7
  5
159
 10
-0.744
 20
4.057877
 30
0.0
 11
-0.744
 21
3.894468
 31
0.0
  0
LINE
  8
0
  6
CONTINUOUS
 62
     7
  5
15A
 10
1.024
 20
3.55
 30
0.0
 11
1.024
 21
3.783877
 31
0.0
  0
LINE
  8
0
  6
CONTINUOUS
 62
     7
  5
15B
 10
-1.6305
 20
1.231
 30
0.0
 11
1.6305
 21
1.231
 31
0.0
  0
LINE
  8
0
  6
CONTINUOUS
 62
     7
  5
15C
 10
1.6305
 20
1.231
 30
0.0
 11
1.6305
 21
1.35
 31
0.0
  0
LINE
  8
0
  6
CONTINUOUS
 62
     7
  5
15D
 10
1.6305
 20
2.33
 30
0.0
 11
1.6305
 21
3.3
 31
0.0
  0
LINE
  8
0
  6
CONTINUOUS
 62
     7
  5
15E
 10
-1.6305
 20
3.3
 30
0.0
 11
-1.6305
 21
2.33
 31
0.0
  0
LINE
  8
0
  6
CONTINUOUS
 62
     7
  5
15F
 10
-1.6305
 20
1.35
 30
0.0
 11
-1.6305
 21
1.231
 31
0.0
  0
ARC
  8
0
  6
CONTINUOUS
 62
     7
  5
160
 10
-0.875
 20
1.54
 30
0.0
 40
0.19
 50
36.491281
 51
52.752219
  0
ARC
  8
0
  6
CONTINUOUS
 62
     7
  5
161
 10
-0.875
 20
1.54
 30
0.0
 40
0.19
 50
127.247781
 51
143.508719
  0
ARC
  8
0
  6
CONTINUOUS
 62
     7
  5
162
 10
0.0
 20
1.54
 30
0.0
 40
0.19
 50
36.491281
 51
52.752219
  0
ARC
  8
0
  6
CONTINUOUS
 62
     7
  5
163
 10
0.0
 20
1.54
 30
0.0
 40
0.19
 50
127.247781
 51
143.508719
  0
LINE
  8
0
  6
CONTINUOUS
 62
     7
  5
164
 10
0.32
 20
0.23
 30
0.0
 11
0.8
 21
0.23
 31
0.0
  0
LINE
  8
0
  6
CONTINUOUS
 62
     7
  5
165
 10
0.8
 20
0.23
 30
0.0
 11
0.8
 21
0.06
 31
0.0
  0
LINE
  8
0
  6
CONTINUOUS
 62
     7
  5
166
 10
1.6305
 20
0.06
 30
0.0
 11
0.885265
 21
0.06
 31
0.0
  0
LINE
  8
0
  6
CONTINUOUS
 62
     7
  5
167
 10
-0.885265
 20
0.06
 30
0.0
 11
-1.6305
 21
0.06
 31
0.0
  0
LINE
  8
0
  6
CONTINUOUS
 62
     7
  5
168
 10
-0.8
 20
0.06
 30
0.0
 11
-0.8
 21
0.23
 31
0.0
  0
LINE
  8
0
  6
CONTINUOUS
 62
     7
  5
169
 10
0.7775
 20
3.55
 30
0.0
 11
0.66
 21
3.55
 31
0.0
  0
LINE
  8
0
  6
CONTINUOUS
 62
     7
  5
16A
 10
0.8275
 20
3.55
 30
0.0
 11
0.7775
 21
3.55
 31
0.0
  0
LINE
  8
0
  6
CONTINUOUS
 62
     7
  5
16B
 10
1.5625
 20
3.55
 30
0.0
 11
0.8275
 21
3.55
 31
0.0
  0
LINE
  8
0
  6
CONTINUOUS
 62
     7
  5
16C
 10
1.6125
 20
3.55
 30
0.0
 11
1.5625
 21
3.55
 31
0.0
  0
LINE
  8
0
  6
CONTINUOUS
 62
     7
  5
16D
 10
0.7775
 20
3.42
 30
0.0
 11
0.7775
 21
3.55
 31
0.0
  0
LINE
  8
0
  6
CONTINUOUS
 62
     7
  5
16E
 10
1.6125
 20
3.42
 30
0.0
 11
1.6125
 21
3.55
 31
0.0
  0
LINE
  8
0
  6
CONTINUOUS
 62
     7
  5
16F
 10
1.6125
 20
3.42
 30
0.0
 11
-0.1075
 21
3.42
 31
0.0
  0
LINE
  8
0
  6
CONTINUOUS
 62
     7
  5
170
 10
1.233
 20
3.55
 30
0.0
 11
1.233
 21
3.57
 31
0.0
  0
LINE
  8
0
  6
CONTINUOUS
 62
     7
  5
171
 10
1.127
 20
3.57
 30
0.0
 11
1.127
 21
3.55
 31
0.0
  0
LINE
  8
0
  6
CONTINUOUS
 62
     7
  5
172
 10
1.233
 20
3.57
 30
0.0
 11
1.233
 21
3.69
 31
0.0
  0
ARC
  8
0
  6
CONTINUOUS
 62
     7
  5
173
 10
0.875
 20
1.54
 30
0.0
 40
0.19
 50
36.491281
 51
52.752219
  0
ARC
  8
0
  6
CONTINUOUS
 62
     7
  5
174
 10
0.875
 20
1.54
 30
0.0
 40
0.19
 50
127.247781
 51
143.508719
  0
ARC
  8
0
  6
CONTINUOUS
 62
     7
  5
175
 10
1.407
 20
3.236
 30
0.0
 40
2.292
 50
165.090129
 51
175.395384
  0
ARC
  8
0
  6
CONTINUOUS
 62
     7
  5
176
 10
-0.711199
 20
3.8
 30
0.0
 40
0.1
 50
90.0
 51
165.090129
  0
LINE
  8
0
  6
CONTINUOUS
 62
     7
  5
177
 10
-0.711199
 20
3.9
 30
0.0
 11
0.56
 21
3.9
 31
0.0
  0
ARC
  8
0
  6
CONTINUOUS
 62
     7
  5
178
 10
0.56
 20
3.8
 30
0.0
 40
0.1
 50
0.0
 51
90.0
  0
LINE
  8
0
  6
CONTINUOUS
 62
     7
  5
179
 10
0.66
 20
3.8
 30
0.0
 11
0.66
 21
3.42
 31
0.0
  0
LINE
  8
0
  6
CONTINUOUS
 62
     7
  5
17A
 10
1.127
 20
3.69
 30
0.0
 11
1.127
 21
3.57
 31
0.0
  0
LINE
  8
0
  6
CONTINUOUS
 62
     7
  5
17B
 10
-1.4305
 20
3.42
 30
0.0
 11
-1.4305
 21
3.6
 31
0.0
  0
LINE
  8
0
  6
CONTINUOUS
 62
     7
  5
17C
 10
-1.4305
 20
3.66
 30
0.0
 11
-0.84544
 21
3.66
 31
0.0
  0
LINE
  8
0
  6
CONTINUOUS
 62
     7
  5
17D
 10
-1.4305
 20
3.6
 30
0.0
 11
-1.4305
 21
3.66
 31
0.0
  0
LINE
  8
0
  6
CONTINUOUS
 62
     7
  5
17E
 10
1.6305
 20
3.42
 30
0.0
 11
-1.6305
 21
3.42
 31
0.0
  0
LINE
  8
0
  6
CONTINUOUS
 62
     7
  5
17F
 10
1.6305
 20
1.231
 30
0.0
 11
1.6305
 21
0.06
 31
0.0
  0
LINE
  8
0
  6
CONTINUOUS
 62
     7
  5
180
 10
-1.6305
 20
0.06
 30
0.0
 11
-1.6305
 21
1.231
 31
0.0
  0
LINE
  8
0
  6
CONTINUOUS
 62
     7
  5
181
 10
-0.8
 20
0.23
 30
0.0
 11
-0.32
 21
0.23
 31
0.0
  0
LINE
  8
0
  6
CONTINUOUS
 62
     7
  5
182
 10
-0.32
 20
0.23
 30
0.0
 11
-0.32
 21
0.06
 31
0.0
  0
LINE
  8
0
  6
CONTINUOUS
 62
     7
  5
183
 10
-0.24
 20
0.23
 30
0.0
 11
0.24
 21
0.23
 31
0.0
  0
LINE
  8
0
  6
CONTINUOUS
 62
     7
  5
184
 10
0.24
 20
0.23
 30
0.0
 11
0.24
 21
0.06
 31
0.0
  0
LINE
  8
0
  6
CONTINUOUS
 62
     7
  5
185
 10
-1.6305
 20
2.33
 30
0.0
 11
-1.6305
 21
1.35
 31
0.0
  0
LINE
  8
0
  6
CONTINUOUS
 62
     7
  5
186
 10
-1.6305
 20
3.42
 30
0.0
 11
-1.6305
 21
3.3
 31
0.0
  0
LINE
  8
0
  6
CONTINUOUS
 62
     7
  5
187
 10
1.4405
 20
2.33
 30
0.0
 11
1.4405
 21
1.35
 31
0.0
  0
LINE
  8
0
  6
CONTINUOUS
 62
     7
  5
188
 10
1.6305
 20
1.35
 30
0.0
 11
1.4405
 21
1.35
 31
0.0
  0
LINE
  8
0
  6
CONTINUOUS
 62
     7
  5
189
 10
1.4405
 20
2.33
 30
0.0
 11
1.6305
 21
2.33
 31
0.0
  0
LINE
  8
0
  6
CONTINUOUS
 62
     7
  5
18A
 10
1.6305
 20
2.33
 30
0.0
 11
1.6305
 21
1.35
 31
0.0
  0
LINE
  8
0
  6
CONTINUOUS
 62
     7
  5
18B
 10
1.6305
 20
3.3
 30
0.0
 11
1.6305
 21
3.42
 31
0.0
  0
LINE
  8
0
  6
CONTINUOUS
 62
     7
  5
18C
 10
-1.6305
 20
2.33
 30
0.0
 11
-1.4405
 21
2.33
 31
0.0
  0
LINE
  8
0
  6
CONTINUOUS
 62
     7
  5
18D
 10
-1.4405
 20
2.33
 30
0.0
 11
-1.4405
 21
1.35
 31
0.0
  0
LINE
  8
0
  6
CONTINUOUS
 62
     7
  5
18E
 10
-1.4405
 20
1.35
 30
0.0
 11
-1.6305
 21
1.35
 31
0.0
  0
LINE
  8
0
  6
CONTINUOUS
 62
     7
  5
18F
 10
-0.798
 20
0.06
 30
0.0
 11
-0.798
 21
0.23
 31
0.0
  0
LINE
  8
0
  6
CONTINUOUS
 62
     7
  5
190
 10
0.798
 20
0.06
 30
0.0
 11
0.798
 21
0.23
 31
0.0
  0
LINE
  8
0
  6
CONTINUOUS
 62
     7
  5
191
 10
1.591
 20
0.0
 30
0.0
 11
1.561
 21
0.0
 31
0.0
  0
LINE
  8
0
  6
CONTINUOUS
 62
     7
  5
192
 10
1.561
 20
0.0
 30
0.0
 11
1.429423
 21
0.0
 31
0.0
  0
LINE
  8
0
  6
CONTINUOUS
 62
     7
  5
193
 10
1.429423
 20
0.0
 30
0.0
 11
1.005
 21
0.0
 31
0.0
  0
LINE
  8
0
  6
CONTINUOUS
 62
     7
  5
194
 10
1.005
 20
0.0
 30
0.0
 11
0.875
 21
0.0
 31
0.0
  0
LINE
  8
0
  6
CONTINUOUS
 62
     7
  5
195
 10
0.875
 20
0.0
 30
0.0
 11
0.745
 21
0.0
 31
0.0
  0
LINE
  8
0
  6
CONTINUOUS
 62
     7
  5
196
 10
0.745
 20
0.0
 30
0.0
 11
0.626
 21
0.0
 31
0.0
  0
LINE
  8
0
  6
CONTINUOUS
 62
     7
  5
197
 10
0.626
 20
0.0
 30
0.0
 11
0.406
 21
0.0
 31
0.0
  0
LINE
  8
0
  6
CONTINUOUS
 62
     7
  5
198
 10
0.406
 20
0.0
 30
0.0
 11
0.19
 21
0.0
 31
0.0
  0
LINE
  8
0
  6
CONTINUOUS
 62
     7
  5
199
 10
0.19
 20
0.0
 30
0.0
 11
-0.19
 21
0.0
 31
0.0
  0
LINE
  8
0
  6
CONTINUOUS
 62
     7
  5
19A
 10
-0.19
 20
0.0
 30
0.0
 11
-0.406
 21
0.0
 31
0.0
  0
LINE
  8
0
  6
CONTINUOUS
 62
     7
  5
19B
 10
-0.406
 20
0.0
 30
0.0
 11
-0.626
 21
0.0
 31
0.0
  0
LINE
  8
0
  6
CONTINUOUS
 62
     7
  5
19C
 10
-0.626
 20
0.0
 30
0.0
 11
-0.745
 21
0.0
 31
0.0
  0
LINE
  8
0
  6
CONTINUOUS
 62
     7
  5
19D
 10
-0.745
 20
0.0
 30
0.0
 11
-0.875
 21
0.0
 31
0.0
  0
LINE
  8
0
  6
CONTINUOUS
 62
     7
  5
19E
 10
-0.875
 20
0.0
 30
0.0
 11
-1.005
 21
0.0
 31
0.0
  0
LINE
  8
0
  6
CONTINUOUS
 62
     7
  5
19F
 10
-1.005
 20
0.0
 30
0.0
 11
-1.429423
 21
0.0
 31
0.0
  0
LINE
  8
0
  6
CONTINUOUS
 62
     7
  5
1A0
 10
-1.429423
 20
0.0
 30
0.0
 11
-1.561
 21
0.0
 31
0.0
  0
LINE
  8
0
  6
CONTINUOUS
 62
     7
  5
1A1
 10
-1.561
 20
0.0
 30
0.0
 11
-1.591
 21
0.0
 31
0.0
  0
LINE
  8
0
  6
CONTINUOUS
 62
     7
  5
1A2
 10
-0.406
 20
0.0
 30
0.0
 11
-0.406
 21
0.06
 31
0.0
  0
LINE
  8
0
  6
CONTINUOUS
 62
     7
  5
1A3
 10
-0.406
 20
0.06
 30
0.0
 11
-0.626
 21
0.06
 31
0.0
  0
LINE
  8
0
  6
CONTINUOUS
 62
     7
  5
1A4
 10
-0.626
 20
0.0
 30
0.0
 11
-0.626
 21
0.06
 31
0.0
  0
LINE
  8
0
  6
CONTINUOUS
 62
     7
  5
1A5
 10
-0.626
 20
0.06
 30
0.0
 11
-0.745
 21
0.06
 31
0.0
  0
LINE
  8
0
  6
CONTINUOUS
 62
     7
  5
1A6
 10
-0.745
 20
0.06
 30
0.0
 11
-0.875
 21
0.06
 31
0.0
  0
LINE
  8
0
  6
CONTINUOUS
 62
     7
  5
1A7
 10
-0.875
 20
0.0
 30
0.0
 11
-0.875
 21
0.06
 31
0.0
  0
LINE
  8
0
  6
CONTINUOUS
 62
     7
  5
1A8
 10
-0.875
 20
0.06
 30
0.0
 11
-0.885265
 21
0.06
 31
0.0
  0
LINE
  8
0
  6
CONTINUOUS
 62
     7
  5
1A9
 10
-1.429423
 20
0.0
 30
0.0
 11
-1.429423
 21
0.06
 31
0.0
  0
LINE
  8
0
  6
CONTINUOUS
 62
     7
  5
1AA
 10
-1.591
 20
0.0
 30
0.0
 11
-1.591
 21
0.06
 31
0.0
  0
LINE
  8
0
  6
CONTINUOUS
 62
     7
  5
1AB
 10
1.591
 20
0.0
 30
0.0
 11
1.591
 21
0.06
 31
0.0
  0
LINE
  8
0
  6
CONTINUOUS
 62
     7
  5
1AC
 10
1.429423
 20
0.0
 30
0.0
 11
1.429423
 21
0.06
 31
0.0
  0
LINE
  8
0
  6
CONTINUOUS
 62
     7
  5
1AD
 10
0.885265
 20
0.06
 30
0.0
 11
0.875
 21
0.06
 31
0.0
  0
LINE
  8
0
  6
CONTINUOUS
 62
     7
  5
1AE
 10
0.875
 20
0.0
 30
0.0
 11
0.875
 21
0.06
 31
0.0
  0
LINE
  8
0
  6
CONTINUOUS
 62
     7
  5
1AF
 10
0.875
 20
0.06
 30
0.0
 11
0.745
 21
0.06
 31
0.0
  0
LINE
  8
0
  6
CONTINUOUS
 62
     7
  5
1B0
 10
0.745
 20
0.06
 30
0.0
 11
0.626
 21
0.06
 31
0.0
  0
LINE
  8
0
  6
CONTINUOUS
 62
     7
  5
1B1
 10
0.626
 20
0.0
 30
0.0
 11
0.626
 21
0.06
 31
0.0
  0
LINE
  8
0
  6
CONTINUOUS
 62
     7
  5
1B2
 10
0.626
 20
0.06
 30
0.0
 11
0.406
 21
0.06
 31
0.0
  0
LINE
  8
0
  6
CONTINUOUS
 62
     7
  5
1B3
 10
0.406
 20
0.0
 30
0.0
 11
0.406
 21
0.06
 31
0.0
  0
LINE
  8
0
  6
CONTINUOUS
 62
     7
  5
1B4
 10
0.406
 20
0.06
 30
0.0
 11
0.19
 21
0.06
 31
0.0
  0
LINE
  8
0
  6
CONTINUOUS
 62
     7
  5
1B5
 10
0.19
 20
0.0
 30
0.0
 11
0.19
 21
0.06
 31
0.0
  0
LINE
  8
0
  6
CONTINUOUS
 62
     7
  5
1B6
 10
0.19
 20
0.06
 30
0.0
 11
-0.19
 21
0.06
 31
0.0
  0
LINE
  8
0
  6
CONTINUOUS
 62
     7
  5
1B7
 10
-0.19
 20
0.0
 30
0.0
 11
-0.19
 21
0.06
 31
0.0
  0
LINE
  8
0
  6
CONTINUOUS
 62
     7
  5
1B8
 10
-0.19
 20
0.06
 30
0.0
 11
-0.406
 21
0.06
 31
0.0
  0
LINE
  8
0
  6
CONTINUOUS
 62
     7
  5
1B9
 10
0.99
 20
1.65
 30
0.0
 11
0.875
 21
1.65
 31
0.0
  0
LINE
  8
0
  6
CONTINUOUS
 62
     7
  5
1BA
 10
0.875
 20
1.65
 30
0.0
 11
0.76
 21
1.65
 31
0.0
  0
LINE
  8
0
  6
CONTINUOUS
 62
     7
  5
1BB
 10
0.115
 20
1.65
 30
0.0
 11
0.0
 21
1.65
 31
0.0
  0
LINE
  8
0
  6
CONTINUOUS
 62
     7
  5
1BC
 10
0.0
 20
1.65
 30
0.0
 11
-0.115
 21
1.65
 31
0.0
  0
LINE
  8
0
  6
CONTINUOUS
 62
     7
  5
1BD
 10
-0.76
 20
1.65
 30
0.0
 11
-0.875
 21
1.65
 31
0.0
  0
LINE
  8
0
  6
CONTINUOUS
 62
     7
  5
1BE
 10
-0.875
 20
1.65
 30
0.0
 11
-0.99
 21
1.65
 31
0.0
  0
LINE
  8
0
  6
CONTINUOUS
 62
     7
  5
1BF
 10
0.59535
 20
1.852
 30
0.0
 11
0.27965
 21
1.852
 31
0.0
  0
LINE
  8
0
  6
CONTINUOUS
 62
     7
  5
1C0
 10
-0.27965
 20
1.852
 30
0.0
 11
-0.59535
 21
1.852
 31
0.0
  0
LINE
  8
0
  6
CONTINUOUS
 62
     7
  5
1C1
 10
0.59535
 20
1.96
 30
0.0
 11
0.59535
 21
1.852
 31
0.0
  0
LINE
  8
0
  6
CONTINUOUS
 62
     7
  5
1C2
 10
0.59535
 20
2.04
 30
0.0
 11
0.59535
 21
1.96
 31
0.0
  0
LINE
  8
0
  6
CONTINUOUS
 62
     7
  5
1C3
 10
0.27965
 20
1.96
 30
0.0
 11
0.27965
 21
2.04
 31
0.0
  0
LINE
  8
0
  6
CONTINUOUS
 62
     7
  5
1C4
 10
0.27965
 20
1.852
 30
0.0
 11
0.27965
 21
1.96
 31
0.0
  0
LINE
  8
0
  6
CONTINUOUS
 62
     7
  5
1C5
 10
0.63365
 20
2.04
 30
0.0
 11
0.59535
 21
2.04
 31
0.0
  0
LINE
  8
0
  6
CONTINUOUS
 62
     7
  5
1C6
 10
1.44
 20
2.04
 30
0.0
 11
1.11635
 21
2.04
 31
0.0
  0
LINE
  8
0
  6
CONTINUOUS
 62
     7
  5
1C7
 10
1.44
 20
1.96
 30
0.0
 11
1.44
 21
2.04
 31
0.0
  0
LINE
  8
0
  6
CONTINUOUS
 62
     7
  5
1C8
 10
1.11635
 20
2.04
 30
0.0
 11
0.63365
 21
2.04
 31
0.0
  0
LINE
  8
0
  6
CONTINUOUS
 62
     7
  5
1C9
 10
-0.27965
 20
1.96
 30
0.0
 11
-0.27965
 21
1.852
 31
0.0
  0
LINE
  8
0
  6
CONTINUOUS
 62
     7
  5
1CA
 10
-0.27965
 20
2.04
 30
0.0
 11
-0.27965
 21
1.96
 31
0.0
  0
LINE
  8
0
  6
CONTINUOUS
 62
     7
  5
1CB
 10
-0.59535
 20
1.96
 30
0.0
 11
-0.59535
 21
2.04
 31
0.0
  0
LINE
  8
0
  6
CONTINUOUS
 62
     7
  5
1CC
 10
-0.59535
 20
1.852
 30
0.0
 11
-0.59535
 21
1.96
 31
0.0
  0
LINE
  8
0
  6
CONTINUOUS
 62
     7
  5
1CD
 10
-0.24135
 20
2.04
 30
0.0
 11
-0.27965
 21
2.04
 31
0.0
  0
LINE
  8
0
  6
CONTINUOUS
 62
     7
  5
1CE
 10
0.27965
 20
2.04
 30
0.0
 11
0.24135
 21
2.04
 31
0.0
  0
LINE
  8
0
  6
CONTINUOUS
 62
     7
  5
1CF
 10
0.24135
 20
2.04
 30
0.0
 11
-0.24135
 21
2.04
 31
0.0
  0
LINE
  8
0
  6
CONTINUOUS
 62
     7
  5
1D0
 10
-1.11635
 20
2.04
 30
0.0
 11
-1.44
 21
2.04
 31
0.0
  0
LINE
  8
0
  6
CONTINUOUS
 62
     7
  5
1D1
 10
-0.59535
 20
2.04
 30
0.0
 11
-0.63365
 21
2.04
 31
0.0
  0
LINE
  8
0
  6
CONTINUOUS
 62
     7
  5
1D2
 10
-0.63365
 20
2.04
 30
0.0
 11
-1.11635
 21
2.04
 31
0.0
  0
LINE
  8
0
  6
CONTINUOUS
 62
     7
  5
1D3
 10
0.72225
 20
1.836
 30
0.0
 11
1.02775
 21
1.836
 31
0.0
  0
LINE
  8
0
  6
CONTINUOUS
 62
     7
  5
1D4
 10
1.02775
 20
1.53
 30
0.0
 11
0.72225
 21
1.53
 31
0.0
  0
LINE
  8
0
  6
CONTINUOUS
 62
     7
  5
1D5
 10
0.72225
 20
1.53
 30
0.0
 11
0.72225
 21
1.836
 31
0.0
  0
LINE
  8
0
  6
CONTINUOUS
 62
     7
  5
1D6
 10
1.02775
 20
1.836
 30
0.0
 11
1.02775
 21
1.53
 31
0.0
  0
LINE
  8
0
  6
CONTINUOUS
 62
     7
  5
1D7
 10
-0.15275
 20
1.836
 30
0.0
 11
0.15275
 21
1.836
 31
0.0
  0
LINE
  8
0
  6
CONTINUOUS
 62
     7
  5
1D8
 10
0.15275
 20
1.53
 30
0.0
 11
-0.15275
 21
1.53
 31
0.0
  0
LINE
  8
0
  6
CONTINUOUS
 62
     7
  5
1D9
 10
-0.15275
 20
1.53
 30
0.0
 11
-0.15275
 21
1.836
 31
0.0
  0
LINE
  8
0
  6
CONTINUOUS
 62
     7
  5
1DA
 10
0.15275
 20
1.836
 30
0.0
 11
0.15275
 21
1.53
 31
0.0
  0
LINE
  8
0
  6
CONTINUOUS
 62
     7
  5
1DB
 10
-1.02775
 20
1.836
 30
0.0
 11
-0.72225
 21
1.836
 31
0.0
  0
LINE
  8
0
  6
CONTINUOUS
 62
     7
  5
1DC
 10
-0.72225
 20
1.53
 30
0.0
 11
-1.02775
 21
1.53
 31
0.0
  0
LINE
  8
0
  6
CONTINUOUS
 62
     7
  5
1DD
 10
-1.02775
 20
1.53
 30
0.0
 11
-1.02775
 21
1.836
 31
0.0
  0
LINE
  8
0
  6
CONTINUOUS
 62
     7
  5
1DE
 10
-0.72225
 20
1.836
 30
0.0
 11
-0.72225
 21
1.53
 31
0.0
  0
LINE
  8
0
  6
CONTINUOUS
 62
     7
  5
1DF
 10
1.44
 20
1.29
 30
0.0
 11
-1.44
 21
1.29
 31
0.0
  0
LINE
  8
0
  6
CONTINUOUS
 62
     7
  5
1E0
 10
-1.44
 20
2.04
 30
0.0
 11
-1.44
 21
1.96
 31
0.0
  0
LINE
  8
0
  6
CONTINUOUS
 62
     7
  5
1E1
 10
-1.44
 20
1.96
 30
0.0
 11
-1.44
 21
1.29
 31
0.0
  0
LINE
  8
0
  6
CONTINUOUS
 62
     7
  5
1E2
 10
1.44
 20
1.29
 30
0.0
 11
1.44
 21
1.96
 31
0.0
  0
LINE
  8
0
  6
CONTINUOUS
 62
     7
  5
1E3
 10
-0.15
 20
1.624
 30
0.0
 11
-0.15
 21
1.53
 31
0.0
  0
LINE
  8
0
  6
CONTINUOUS
 62
     7
  5
1E4
 10
-0.15
 20
1.624
 30
0.0
 11
0.15
 21
1.624
 31
0.0
  0
LINE
  8
0
  6
CONTINUOUS
 62
     7
  5
1E5
 10
0.15
 20
1.624
 30
0.0
 11
0.15
 21
1.53
 31
0.0
  0
LINE
  8
0
  6
CONTINUOUS
 62
     7
  5
1E6
 10
-0.15
 20
1.624
 30
0.0
 11
-0.145255
 21
1.662479
 31
0.0
  0
LINE
  8
0
  6
CONTINUOUS
 62
     7
  5
1E7
 10
0.145255
 20
1.662479
 30
0.0
 11
0.15
 21
1.624
 31
0.0
  0
LINE
  8
0
  6
CONTINUOUS
 62
     7
  5
1E8
 10
0.725
 20
1.624
 30
0.0
 11
0.725
 21
1.53
 31
0.0
  0
LINE
  8
0
  6
CONTINUOUS
 62
     7
  5
1E9
 10
0.725
 20
1.624
 30
0.0
 11
1.025
 21
1.624
 31
0.0
  0
LINE
  8
0
  6
CONTINUOUS
 62
     7
  5
1EA
 10
1.025
 20
1.624
 30
0.0
 11
1.025
 21
1.53
 31
0.0
  0
LINE
  8
0
  6
CONTINUOUS
 62
     7
  5
1EB
 10
0.725
 20
1.624
 30
0.0
 11
0.72225
 21
1.633211
 31
0.0
  0
LINE
  8
0
  6
CONTINUOUS
 62
     7
  5
1EC
 10
0.99
 20
1.688198
 30
0.0
 11
1.025
 21
1.624
 31
0.0
  0
LINE
  8
0
  6
CONTINUOUS
 62
     7
  5
1ED
 10
-1.025
 20
1.624
 30
0.0
 11
-1.025
 21
1.53
 31
0.0
  0
LINE
  8
0
  6
CONTINUOUS
 62
     7
  5
1EE
 10
-1.025
 20
1.624
 30
0.0
 11
-0.725
 21
1.624
 31
0.0
  0
LINE
  8
0
  6
CONTINUOUS
 62
     7
  5
1EF
 10
-0.725
 20
1.624
 30
0.0
 11
-0.725
 21
1.53
 31
0.0
  0
LINE
  8
0
  6
CONTINUOUS
 62
     7
  5
1F0
 10
-1.025
 20
1.624
 30
0.0
 11
-0.99
 21
1.688198
 31
0.0
  0
LINE
  8
0
  6
CONTINUOUS
 62
     7
  5
1F1
 10
-0.72225
 20
1.633211
 30
0.0
 11
-0.725
 21
1.624
 31
0.0
  0
LINE
  8
0
  6
CONTINUOUS
 62
     7
  5
1F2
 10
1.233
 20
3.69
 30
0.0
 11
1.127
 21
3.69
 31
0.0
  0
LINE
  8
0
  6
CONTINUOUS
 62
     7
  5
1F3
 10
0.99
 20
1.65
 30
0.0
 11
0.99
 21
1.836
 31
0.0
  0
LINE
  8
0
  6
CONTINUOUS
 62
     7
  5
1F4
 10
0.76
 20
1.836
 30
0.0
 11
0.76
 21
1.65
 31
0.0
  0
LINE
  8
0
  6
CONTINUOUS
 62
     7
  5
1F5
 10
0.115
 20
1.65
 30
0.0
 11
0.115
 21
1.836
 31
0.0
  0
LINE
  8
0
  6
CONTINUOUS
 62
     7
  5
1F6
 10
-0.115
 20
1.836
 30
0.0
 11
-0.115
 21
1.65
 31
0.0
  0
LINE
  8
0
  6
CONTINUOUS
 62
     7
  5
1F7
 10
-0.76
 20
1.65
 30
0.0
 11
-0.76
 21
1.836
 31
0.0
  0
LINE
  8
0
  6
CONTINUOUS
 62
     7
  5
1F8
 10
-0.99
 20
1.836
 30
0.0
 11
-0.99
 21
1.65
 31
0.0
  0
LINE
  8
0
  6
CONTINUOUS
 62
     3
  5
1F9
 10
0.0
 20
0.075
 30
0.0
 11
0.0
 21
0.0
 31
0.0
  0
LINE
  8
0
  6
CONTINUOUS
 62
     3
  5
1FA
 10
0.83
 20
0.474377
 30
0.0
 11
0.83
 21
0.754377
 31
0.0
  0
LINE
  8
0
  6
CONTINUOUS
 62
     3
  5
1FB
 10
-0.55
 20
0.474377
 30
0.0
 11
-0.55
 21
0.754377
 31
0.0
  0
LINE
  8
0
  6
CONTINUOUS
 62
     3
  5
1FC
 10
0.516
 20
0.06
 30
0.0
 11
0.516
 21
0.0
 31
0.0
  0
LINE
  8
0
  6
CONTINUOUS
 62
     3
  5
1FD
 10
-0.516
 20
0.06
 30
0.0
 11
-0.516
 21
0.0
 31
0.0
  0
ENDSEC
  0
EOF
