999
DXF file: C:\Users\sesa63760\Dev\_Creo\CAD\MCADPD0005339_3D-CAD\drw0001_1.dxf
999
Pro/ENGINEER 2019471 by Parametric Technology Corporation
  0
SECTION
  2
HEADER
  9
$ACADVER
  1
AC1024
  9
$DWGCODEPAGE
  3
ANSI_1252
  9
$EXTMAX
 10
153.4226765227
 20
216.9834996536
 30
0.0
  9
$EXTMIN
 10
0.0
 20
0.0
 30
0.0
  9
$LIMMIN
 10
0.0
 20
0.0
  9
$LIMMAX
 10
153.4226765227
 20
216.9834996536
  9
$VIEWCTR
 10
76.7113382614
 20
108.4917498268
  9
$VIEWSIZE
 40
216.9834996536
  9
$CLAYER
  8
0
  9
$LTSCALE
 40
14.144109607
  9
$CELTYPE
  6
BYLAYER
  9
$DIMSCALE
 40
1.0
  9
$DIMASZ
 40
1.8264604348
  9
$DIMEXO
 40
1.0
  9
$DIMDLI
 40
9.7722939103
  9
$DIMEXE
 40
1.0
  9
$DIMCEN
 40
2.314490663
  9
$DIMLFAC
 40
1.0
  9
$DIMBLK
  1
_FILLED
  9
$DIMALT
 70
0
  9
$DIMALTF
 40
0.0393700787
  9
$DIMTXT
 40
2.5570446087
  9
$DIMTOL
 70
1
  9
$DIMLIM
 70
0
  9
$DIMTFAC
 40
1.0
  9
$DIMTP
 40
0.01
  9
$DIMTM
 40
0.01
  9
$DIMGAP
 40
0.625
  9
$DIMDSEP
 70
46
  9
$AUNITS
 70
0
  9
$PDMODE
 70
3
  9
$PDSIZE
 40
0.3125
  9
$HANDSEED
  5
2E3
  9
$TILEMODE
 70
1
  9
$MEASUREMENT
 70
1
  9
$INSUNITS
 70
4
  0
ENDSEC
  0
SECTION
  2
CLASSES
  0
CLASS
  1
ACDBDICTIONARYWDFLT
  2
AcDbDictionaryWithDefault
  3
AutoCAD 2000
 90
0
 91
1
280
0
281
0
  0
CLASS
  1
ACDBPLACEHOLDER
  2
AcDbPlaceHolder
  3
AutoCAD 2000
 90
0
 91
1
280
0
281
0
  0
CLASS
  1
LAYOUT
  2
AcDbLayout
  3
AutoCAD 2000
 90
0
 91
0
280
0
281
0
  0
ENDSEC
  0
SECTION
  2
TABLES
  0
TABLE
  2
VPORT
  5
8
100
AcDbSymbolTable
 70
2
  0
VPORT
  5
1F4
100
AcDbSymbolTableRecord
100
AcDbViewportTableRecord
  2
*ACTIVE
 70
0
 10
0.0
 20
0.0
 11
1.0
 21
1.0
 12
76.7113382614
 22
108.4917498268
 13
0.0
 23
0.0
 14
1.0
 24
1.0
 15
0.0
 25
0.0
 16
0.0
 26
0.0
 36
1.0
 17
0.0
 27
0.0
 37
0.0
 40
216.9834996536
 41
0.7070707071
 42
50.0
 43
0.0
 44
0.0
 50
0.0
 51
0.0
 71
0
 72
100
 73
1
 74
1
 75
0
 76
0
 77
0
 78
0
  0
ENDTAB
  0
TABLE
  2
LTYPE
  5
5
100
AcDbSymbolTable
 70
6
  0
LTYPE
  5
14
100
AcDbSymbolTableRecord
100
AcDbLinetypeTableRecord
  2
BYBLOCK
 70
0
  3

 72
65
 73
0
 40
0.0
  0
LTYPE
  5
15
100
AcDbSymbolTableRecord
100
AcDbLinetypeTableRecord
  2
BYLAYER
 70
0
  3

 72
65
 73
0
 40
0.0
  0
LTYPE
  5
16
100
AcDbSymbolTableRecord
100
AcDbLinetypeTableRecord
  2
CONTINUOUS
 70
64
  3
Solid line
 72
65
 73
0
 40
0.0
  0
LTYPE
  5
1F5
100
AcDbSymbolTableRecord
100
AcDbLinetypeTableRecord
  2
CENTER
 70
64
  3
____ _ ____ _ ____ _ ____ _ ____ _ ____ _ ____
 72
65
 73
4
 40
0.6
 49
0.375
 74
0
 49
-0.075
 74
0
 49
0.075
 74
0
 49
-0.075
 74
0
  0
LTYPE
  5
1F6
100
AcDbSymbolTableRecord
100
AcDbLinetypeTableRecord
  2
HIDDEN
 70
64
  3
- - - - - - - - - - - - - - - - - - - -
 72
65
 73
2
 40
0.2
 49
0.1
 74
0
 49
-0.1
 74
0
  0
LTYPE
  5
1F7
100
AcDbSymbolTableRecord
100
AcDbLinetypeTableRecord
  2
PHANTOM
 70
64
  3
_____ _ _ _____ _ _ _____ _ _ _____
 72
65
 73
6
 40
0.8
 49
0.45
 74
0
 49
-0.05
 74
0
 49
0.1
 74
0
 49
-0.05
 74
0
 49
0.1
 74
0
 49
-0.05
 74
0
  0
LTYPE
  5
1F8
100
AcDbSymbolTableRecord
100
AcDbLinetypeTableRecord
  2
DOT
 70
64
  3
. . . . . . . . . . . . . . . . . . . .
 72
65
 73
2
 40
0.2
 49
0.1
 74
0
 49
-0.1
 74
0
  0
LTYPE
  5
1F9
100
AcDbSymbolTableRecord
100
AcDbLinetypeTableRecord
  2
DASHED
 70
64
  3
- - - - - - - - - - - - - - - - - - - -
 72
65
 73
2
 40
0.2
 49
0.1
 74
0
 49
-0.1
 74
0
  0
ENDTAB
  0
TABLE
  2
LAYER
  5
2
100
AcDbSymbolTable
 70
36
  0
LAYER
  5
10
100
AcDbSymbolTableRecord
100
AcDbLayerTableRecord
  2
0
 70
0
 62
7
  6
CONTINUOUS
370
-3
390
F
  0
LAYER
  5
1FA
100
AcDbSymbolTableRecord
100
AcDbLayerTableRecord
  2
DEFAULT_1
 70
0
 62
7
  6
CENTER
370
-3
390
F
  0
LAYER
  5
1FB
100
AcDbSymbolTableRecord
100
AcDbLayerTableRecord
  2
DEFAULT_2
 70
0
 62
7
  6
HIDDEN
370
-3
390
F
  0
LAYER
  5
1FC
100
AcDbSymbolTableRecord
100
AcDbLayerTableRecord
  2
DEFAULT_3
 70
0
 62
7
  6
PHANTOM
370
-3
390
F
  0
LAYER
  5
1FD
100
AcDbSymbolTableRecord
100
AcDbLayerTableRecord
  2
00_COMPONENTS
 70
0
 62
7
  6
CONTINUOUS
370
-3
390
F
  0
LAYER
  5
1FE
100
AcDbSymbolTableRecord
100
AcDbLayerTableRecord
  2
01_1_DEFAULT_DATUMS
 70
0
 62
7
  6
CONTINUOUS
370
-3
390
F
  0
LAYER
  5
1FF
100
AcDbSymbolTableRecord
100
AcDbLayerTableRecord
  2
01_PLANES
 70
0
 62
7
  6
CONTINUOUS
370
-3
390
F
  0
LAYER
  5
200
100
AcDbSymbolTableRecord
100
AcDbLayerTableRecord
  2
02_COORD_SYS
 70
0
 62
7
  6
CONTINUOUS
370
-3
390
F
  0
LAYER
  5
201
100
AcDbSymbolTableRecord
100
AcDbLayerTableRecord
  2
03_AXES
 70
0
 62
7
  6
CONTINUOUS
370
-3
390
F
  0
LAYER
  5
202
100
AcDbSymbolTableRecord
100
AcDbLayerTableRecord
  2
04_POINTS
 70
0
 62
7
  6
CONTINUOUS
370
-3
390
F
  0
LAYER
  5
203
100
AcDbSymbolTableRecord
100
AcDbLayerTableRecord
  2
05_CURVES
 70
0
 62
7
  6
CONTINUOUS
370
-3
390
F
  0
LAYER
  5
204
100
AcDbSymbolTableRecord
100
AcDbLayerTableRecord
  2
06_SURFS
 70
0
 62
7
  6
CONTINUOUS
370
-3
390
F
  0
LAYER
  5
205
100
AcDbSymbolTableRecord
100
AcDbLayerTableRecord
  2
07_COSMETICS
 70
0
 62
7
  6
CONTINUOUS
370
-3
390
F
  0
LAYER
  5
206
100
AcDbSymbolTableRecord
100
AcDbLayerTableRecord
  2
10_NOTES
 70
0
 62
7
  6
CONTINUOUS
370
-3
390
F
  0
LAYER
  5
207
100
AcDbSymbolTableRecord
100
AcDbLayerTableRecord
  2
11_NOTES_PUB
 70
0
 62
7
  6
CONTINUOUS
370
-3
390
F
  0
LAYER
  5
208
100
AcDbSymbolTableRecord
100
AcDbLayerTableRecord
  2
13_REF_GTOL
 70
0
 62
7
  6
CONTINUOUS
370
-3
390
F
  0
LAYER
  5
209
100
AcDbSymbolTableRecord
100
AcDbLayerTableRecord
  2
16_MISC
 70
0
 62
7
  6
CONTINUOUS
370
-3
390
F
  0
LAYER
  5
20A
100
AcDbSymbolTableRecord
100
AcDbLayerTableRecord
  2
17_NO_PRINT
 70
0
 62
7
  6
CONTINUOUS
370
-3
390
F
  0
LAYER
  5
20B
100
AcDbSymbolTableRecord
100
AcDbLayerTableRecord
  2
18_DATUM_CAMS_JOINTS
 70
0
 62
7
  6
CONTINUOUS
370
-3
390
F
  0
LAYER
  5
20C
100
AcDbSymbolTableRecord
100
AcDbLayerTableRecord
  2
19_DATUM_FUNCTIONAL
 70
0
 62
7
  6
CONTINUOUS
370
-3
390
F
  0
LAYER
  5
20D
100
AcDbSymbolTableRecord
100
AcDbLayerTableRecord
  2
20_DATUM_KINEMATIC_SCHEME
 70
0
 62
7
  6
CONTINUOUS
370
-3
390
F
  0
ENDTAB
  0
TABLE
  2
STYLE
  5
3
100
AcDbSymbolTable
 70
1
  0
STYLE
  5
11
100
AcDbSymbolTableRecord
100
AcDbTextStyleTableRecord
  2
STANDARD
 70
0
 40
0.0
 41
1.0
 50
0.0
 71
0
 42
0.2
  3
ARIAL.TTF
  4

  0
STYLE
  5
20E
100
AcDbSymbolTableRecord
100
AcDbTextStyleTableRecord
  2
TEXTSTYLE_1
 70
0
 40
0.0
 41
0.8
 50
0.0
 71
0
 42
0.2
  3
gdt
  4

  0
ENDTAB
  0
TABLE
  2
VIEW
  5
6
100
AcDbSymbolTable
 70
0
  0
ENDTAB
  0
TABLE
  2
UCS
  5
7
100
AcDbSymbolTable
 70
0
  0
ENDTAB
  0
TABLE
  2
APPID
  5
9
100
AcDbSymbolTable
 70
1
  0
APPID
  5
20F
100
AcDbSymbolTableRecord
100
AcDbRegAppTableRecord
  2
ACAD
 70
0
  0
ENDTAB
  0
TABLE
  2
BLOCK_RECORD
  5
1
100
AcDbSymbolTable
 70
0
  0
BLOCK_RECORD
  5
210
100
AcDbSymbolTableRecord
100
AcDbBlockTableRecord
  2
*Model_Space
  0
BLOCK_RECORD
  5
211
100
AcDbSymbolTableRecord
100
AcDbBlockTableRecord
  2
*Paper_Space
  0
BLOCK_RECORD
  5
212
100
AcDbSymbolTableRecord
100
AcDbBlockTableRecord
  2
_FILLED
  0
ENDTAB
  0
TABLE
  2
DIMSTYLE
  5
A
100
AcDbSymbolTable
 70
1
100
AcDbDimStyleTable
 71
0
  0
DIMSTYLE
105
213
100
AcDbSymbolTableRecord
100
AcDbDimStyleTableRecord
  2
STANDARD
 70
0
  3

  4

 40
1.0
 41
1.8264604348
 42
1.0
 43
0.38
 44
1.0
 45
0.0
 46
0.0
 47
0.01
 48
0.01
140
2.5570446087
141
0.09
142
0.0
143
25.4
144
1.0
145
0.0
146
1.0
147
0.625
 71
1
 72
0
 73
0
 74
0
 75
0
 76
0
 77
1
 78
8
 79
2
170
0
171
1
172
0
173
0
174
0
175
0
176
0
177
0
178
0
270
2
179
2
271
2
272
2
273
2
274
2
275
0
280
0
281
0
282
0
283
1
284
8
285
0
286
0
287
3
288
0
340
11
278
46
341
212
342
212
343
212
344
212
  0
ENDTAB
  0
ENDSEC
  0
SECTION
  2
BLOCKS
  0
BLOCK
  5
20
100
AcDbEntity
  8
0
100
AcDbBlockBegin
  2
*Model_Space
 70
0
 10
0.0
 20
0.0
 30
0.0
  3
*Model_Space
  1

  0
ENDBLK
  5
21
100
AcDbEntity
  8
0
100
AcDbBlockEnd
  0
BLOCK
  5
1C
100
AcDbEntity
  8
0
100
AcDbBlockBegin
  2
*Paper_Space
 70
0
 10
0.0
 20
0.0
 30
0.0
  3
*Paper_Space
  1

  0
ENDBLK
  5
1D
100
AcDbEntity
  8
0
100
AcDbBlockEnd
  0
BLOCK
  5
214
100
AcDbEntity
  8
0
100
AcDbBlockBegin
  2
_FILLED
 70
64
 10
0.0
 20
0.0
  3
_FILLED
  1

  0
SOLID
  5
215
100
AcDbEntity
  8
0
  6
BYBLOCK
 62
0
100
AcDbTrace
 10
0.0
 20
0.0
 11
-1.0
 21
0.25
 12
-1.0
 22
-0.25
 13
-1.0
 23
-0.25
  0
ENDBLK
  5
216
100
AcDbEntity
  8
0
  6
BYBLOCK
 62
0
100
AcDbBlockEnd
  0
ENDSEC
  0
SECTION
  2
ENTITIES
  0
LINE
  5
217
100
AcDbEntity
  8
0
100
AcDbLine
 62
7
  6
BYLAYER
 10
17.7987956465
 20
82.2201835856
 11
17.7987956465
 21
123.0453044421
  0
LINE
  5
218
100
AcDbEntity
  8
0
100
AcDbLine
 62
7
  6
BYLAYER
 10
18.8594602342
 20
81.6078224538
 11
18.8594602342
 21
120.7999384761
  0
LINE
  5
219
100
AcDbEntity
  8
0
100
AcDbLine
 62
7
  6
BYLAYER
 10
25.2233947691
 20
122.0928240184
 11
25.2233947691
 21
121.5308967468
  0
LINE
  5
21A
100
AcDbEntity
  8
0
100
AcDbLine
 62
7
  6
BYLAYER
 10
25.2233947691
 20
117.1258022793
 11
25.2233947691
 21
85.2820198387
  0
LINE
  5
21B
100
AcDbEntity
  8
0
100
AcDbLine
 62
7
  6
BYLAYER
 10
28.4053885323
 20
112.83902346
 11
28.4053885323
 21
100.5914872031
  0
LINE
  5
21C
100
AcDbEntity
  8
0
100
AcDbLine
 62
7
  6
BYLAYER
 10
25.6077852885
 20
116.90387933
 11
25.5770026231
 21
116.105148891
  0
LINE
  5
21D
100
AcDbEntity
  8
0
100
AcDbLine
 62
7
  6
BYLAYER
 10
17.7987956465
 20
82.2201835856
 11
18.8594602342
 21
81.6078224538
  0
LINE
  5
21E
100
AcDbEntity
  8
0
100
AcDbLine
 62
7
  6
BYLAYER
 10
33.0016547371
 20
73.4430073634
 11
35.1229839126
 21
72.2182850999
  0
LINE
  5
21F
100
AcDbEntity
  8
0
100
AcDbLine
 62
7
  6
BYLAYER
 10
49.9722881406
 20
63.6452292549
 11
52.0936173161
 21
62.4205069914
  0
LINE
  5
220
100
AcDbEntity
  8
0
100
AcDbLine
 62
7
  6
BYLAYER
 10
66.235811819
 20
54.255691901
 11
67.2964764067
 21
53.6433307692
  0
LINE
  5
221
100
AcDbEntity
  8
0
100
AcDbLine
 62
7
  6
BYLAYER
 10
33.0016547371
 20
73.4430073634
 11
33.0016547371
 21
111.8186209685
  0
LINE
  5
222
100
AcDbEntity
  8
0
100
AcDbLine
 62
7
  6
BYLAYER
 10
35.1229839126
 20
72.2182850999
 11
35.1229839126
 21
107.736140245
  0
LINE
  5
223
100
AcDbEntity
  8
0
100
AcDbLine
 62
7
  6
BYLAYER
 10
35.1229839126
 20
108.5526426621
 11
35.1229839126
 21
113.0434059564
  0
LINE
  5
224
100
AcDbEntity
  8
0
100
AcDbLine
 62
7
  6
BYLAYER
 10
66.235811819
 20
61.6040254826
 11
58.457551851
 21
66.0947043762
  0
LINE
  5
225
100
AcDbEntity
  8
0
100
AcDbLine
 62
7
  6
BYLAYER
 10
49.9722881406
 20
70.9935628366
 11
41.4869184475
 21
75.8924824847
  0
LINE
  5
226
100
AcDbEntity
  8
0
100
AcDbLine
 62
7
  6
BYLAYER
 10
33.0016547371
 20
80.7913409451
 11
25.2233947691
 21
85.2820198387
  0
LINE
  5
227
100
AcDbEntity
  8
0
100
AcDbLine
 62
7
  6
BYLAYER
 10
77.1956947345
 20
59.3586130199
 11
86.3882800115
 21
54.051391501
  0
LINE
  5
228
100
AcDbEntity
  8
0
100
AcDbLine
 62
7
  6
BYLAYER
 10
88.5091793678
 20
163.8697198292
 11
65.881856577
 21
150.8059069054
  0
LINE
  5
229
100
AcDbEntity
  8
0
100
AcDbLine
 62
7
  6
BYLAYER
 10
39.0119107629
 20
135.2926290582
 11
17.7987956465
 21
123.0453044421
  0
LINE
  5
22A
100
AcDbEntity
  8
0
100
AcDbLine
 62
7
  6
BYLAYER
 10
66.5889604142
 20
146.723387765
 11
42.901081457
 21
133.047266108
  0
LINE
  5
22B
100
AcDbEntity
  8
0
100
AcDbLine
 62
7
  6
BYLAYER
 10
91.8666730862
 20
54.1541655701
 11
89.2164599672
 21
55.684232213
  0
LINE
  5
22C
100
AcDbEntity
  8
0
100
AcDbLine
 62
7
  6
BYLAYER
 10
93.424098392
 20
55.2037469097
 11
93.2883675689
 21
55.2821093642
  0
LINE
  5
22D
100
AcDbEntity
  8
0
100
AcDbLine
 62
7
  6
BYLAYER
 10
41.4869184475
 20
75.8924824847
 11
41.4869184475
 21
104.0620040482
  0
LINE
  5
22E
100
AcDbEntity
  8
0
100
AcDbLine
 62
7
  6
BYLAYER
 10
42.9089275641
 20
106.4906997354
 11
42.9089275641
 21
110.9814630296
  0
LINE
  5
22F
100
AcDbEntity
  8
0
100
AcDbLine
 62
7
  6
BYLAYER
 10
44.2549497905
 20
111.7585070841
 11
44.2549497905
 21
116.2492703783
  0
LINE
  5
230
100
AcDbEntity
  8
0
100
AcDbLine
 62
7
  6
BYLAYER
 10
44.6689122106
 20
91.2019498491
 11
44.6689122106
 21
102.2249206529
  0
LINE
  5
231
100
AcDbEntity
  8
0
100
AcDbLine
 62
7
  6
BYLAYER
 10
98.4087155199
 20
158.154349266
 11
95.580300171
 21
156.5213726505
  0
LINE
  5
232
100
AcDbEntity
  8
0
100
AcDbLine
 62
7
  6
BYLAYER
 10
93.4593183837
 20
58.1338330398
 11
91.338006872
 21
59.3585451054
  0
LINE
  5
233
100
AcDbEntity
  8
0
100
AcDbLine
 62
7
  6
BYLAYER
 10
98.8179232741
 20
58.1674477812
 11
98.6878795576
 21
58.2425268574
  0
LINE
  5
234
100
AcDbEntity
  8
0
100
AcDbLine
 62
7
  6
BYLAYER
 10
46.2329111631
 20
104.5716403247
 11
46.2329111631
 21
109.0624036189
  0
LINE
  5
235
100
AcDbEntity
  8
0
100
AcDbLine
 62
7
  6
BYLAYER
 10
46.7298338285
 20
113.1874511219
 11
46.7298338285
 21
114.8204277375
  0
LINE
  5
236
100
AcDbEntity
  8
0
100
AcDbLine
 62
7
  6
BYLAYER
 10
48.4594206507
 20
120.7431553358
 11
48.4594206507
 21
118.6767082714
  0
LINE
  5
237
100
AcDbEntity
  8
0
100
AcDbLine
 62
7
  6
BYLAYER
 10
48.9193131244
 20
111.974340437
 11
48.9193131244
 21
114.0432958833
  0
LINE
  5
238
100
AcDbEntity
  8
0
100
AcDbLine
 62
7
  6
BYLAYER
 10
49.9722881406
 20
104.4703501114
 11
49.9722881406
 21
99.9795868172
  0
LINE
  5
239
100
AcDbEntity
  8
0
100
AcDbLine
 62
7
  6
BYLAYER
 10
49.9722881406
 20
99.1630844001
 11
49.9722881406
 21
63.6452292549
  0
LINE
  5
23A
100
AcDbEntity
  8
0
100
AcDbLine
 62
7
  6
BYLAYER
 10
98.4087155199
 20
155.7048420146
 11
96.2648300848
 21
154.46707657
  0
LINE
  5
23B
100
AcDbEntity
  8
0
100
AcDbLine
 62
7
  6
BYLAYER
 10
101.5907092831
 20
156.3172658706
 11
98.7622939342
 21
154.6842892551
  0
LINE
  5
23C
100
AcDbEntity
  8
0
100
AcDbLine
 62
7
  6
BYLAYER
 10
66.235811819
 20
78.7505762423
 11
60.932435889
 21
81.8124124951
  0
LINE
  5
23D
100
AcDbEntity
  8
0
100
AcDbLine
 62
7
  6
BYLAYER
 10
49.9722881406
 20
88.1401135963
 11
44.6689122106
 21
91.2019498491
  0
LINE
  5
23E
100
AcDbEntity
  8
0
100
AcDbLine
 62
7
  6
BYLAYER
 10
28.4053885323
 20
100.5914872031
 11
33.0016547371
 21
97.9378917048
  0
LINE
  5
23F
100
AcDbEntity
  8
0
100
AcDbLine
 62
7
  6
BYLAYER
 10
51.4994112224
 20
120.8400813235
 11
51.4994112224
 21
120.4318371696
  0
LINE
  5
240
100
AcDbEntity
  8
0
100
AcDbLine
 62
7
  6
BYLAYER
 10
51.8897418608
 20
107.8375935556
 11
51.8897418608
 21
112.3283568498
  0
LINE
  5
241
100
AcDbEntity
  8
0
100
AcDbLine
 62
7
  6
BYLAYER
 10
52.0936173161
 20
62.4205069914
 11
52.0936173161
 21
101.6126230136
  0
LINE
  5
242
100
AcDbEntity
  8
0
100
AcDbLine
 62
7
  6
BYLAYER
 10
52.8822563281
 20
106.7776420145
 11
52.8822563281
 21
111.2684053087
  0
LINE
  5
243
100
AcDbEntity
  8
0
100
AcDbLine
 62
7
  6
BYLAYER
 10
54.2149464915
 20
102.0209055843
 11
54.2149464915
 21
100.38790075
  0
LINE
  5
244
100
AcDbEntity
  8
0
100
AcDbLine
 62
7
  6
BYLAYER
 10
55.2150798751
 20
115.6091813682
 11
55.2150798751
 21
119.7193575839
  0
LINE
  5
245
100
AcDbEntity
  8
0
100
AcDbLine
 62
7
  6
BYLAYER
 10
55.3571403661
 20
107.5792774355
 11
55.3571403661
 21
109.8395626678
  0
LINE
  5
246
100
AcDbEntity
  8
0
100
AcDbLine
 62
7
  6
BYLAYER
 10
35.1229839126
 20
113.0434059564
 11
48.4594206507
 21
120.7431553358
  0
LINE
  5
247
100
AcDbEntity
  8
0
100
AcDbLine
 62
7
  6
BYLAYER
 10
57.7721654039
 20
124.461636021
 11
51.4994112224
 21
120.8400813235
  0
LINE
  5
248
100
AcDbEntity
  8
0
100
AcDbLine
 62
7
  6
BYLAYER
 10
59.8112342092
 20
125.2306417635
 11
44.2549497905
 21
116.2492703783
  0
LINE
  5
249
100
AcDbEntity
  8
0
100
AcDbLine
 62
7
  6
BYLAYER
 10
35.1229839126
 20
108.5526426621
 11
44.2549497905
 21
113.8249541485
  0
LINE
  5
24A
100
AcDbEntity
  8
0
100
AcDbLine
 62
7
  6
BYLAYER
 10
96.6412856511
 20
70.5854631549
 11
94.3431981802
 21
71.9122345593
  0
LINE
  5
24B
100
AcDbEntity
  8
0
100
AcDbLine
 62
7
  6
BYLAYER
 10
35.1229839126
 20
107.736140245
 11
49.9722881406
 21
99.1630844001
  0
LINE
  5
24C
100
AcDbEntity
  8
0
100
AcDbLine
 62
7
  6
BYLAYER
 10
49.9722881406
 20
99.9795868172
 11
35.1229839126
 21
108.5526426621
  0
LINE
  5
24D
100
AcDbEntity
  8
0
100
AcDbLine
 62
7
  6
BYLAYER
 10
33.0016547371
 20
110.1854279617
 11
28.4053885323
 21
112.83902346
  0
LINE
  5
24E
100
AcDbEntity
  8
0
100
AcDbLine
 62
7
  6
BYLAYER
 10
60.932435889
 20
94.0599487521
 11
66.235811819
 21
90.9981124993
  0
LINE
  5
24F
100
AcDbEntity
  8
0
100
AcDbLine
 62
7
  6
BYLAYER
 10
57.0433618404
 20
103.6538821998
 11
57.0433618404
 21
102.0208773655
  0
LINE
  5
250
100
AcDbEntity
  8
0
100
AcDbLine
 62
7
  6
BYLAYER
 10
57.3969402547
 20
100.183822189
 11
57.3969402547
 21
98.5508173547
  0
LINE
  5
251
100
AcDbEntity
  8
0
100
AcDbLine
 62
7
  6
BYLAYER
 10
57.7721654039
 20
124.0533918671
 11
57.7721654039
 21
124.461636021
  0
LINE
  5
252
100
AcDbEntity
  8
0
100
AcDbLine
 62
7
  6
BYLAYER
 10
58.457551851
 20
101.6125595214
 11
58.457551851
 21
100.7961629244
  0
LINE
  5
253
100
AcDbEntity
  8
0
100
AcDbLine
 62
7
  6
BYLAYER
 10
58.457551851
 20
97.9384868168
 11
58.457551851
 21
66.0947043762
  0
LINE
  5
254
100
AcDbEntity
  8
0
100
AcDbLine
 62
7
  6
BYLAYER
 10
60.932435889
 20
81.8124124951
 11
60.932435889
 21
94.0599487521
  0
LINE
  5
255
100
AcDbEntity
  8
0
100
AcDbLine
 62
7
  6
BYLAYER
 10
58.8419423704
 20
97.7165638675
 11
58.811159705
 21
96.9178334285
  0
LINE
  5
256
100
AcDbEntity
  8
0
100
AcDbLine
 62
7
  6
BYLAYER
 10
46.7298338285
 20
114.8204277375
 11
55.2150798751
 21
119.7193575839
  0
LINE
  5
257
100
AcDbEntity
  8
0
100
AcDbLine
 62
7
  6
BYLAYER
 10
48.5657582618
 20
114.2474162606
 11
42.9089275641
 21
110.9814630296
  0
LINE
  5
258
100
AcDbEntity
  8
0
100
AcDbLine
 62
7
  6
BYLAYER
 10
48.9193131244
 20
114.0432958833
 11
46.7980016127
 21
112.8185634217
  0
LINE
  5
259
100
AcDbEntity
  8
0
100
AcDbLine
 62
7
  6
BYLAYER
 10
28.4053885323
 20
100.5914872031
 11
33.0016547371
 21
103.2451268936
  0
LINE
  5
25A
100
AcDbEntity
  8
0
100
AcDbLine
 62
7
  6
BYLAYER
 10
57.4470928062
 20
116.8978269426
 11
48.5897952037
 21
111.7840943124
  0
LINE
  5
25B
100
AcDbEntity
  8
0
100
AcDbLine
 62
7
  6
BYLAYER
 10
51.5361869982
 20
112.5324772271
 11
49.4148754866
 21
111.3077447655
  0
LINE
  5
25C
100
AcDbEntity
  8
0
100
AcDbLine
 62
7
  6
BYLAYER
 10
46.2329111631
 20
109.0624036189
 11
51.8897418608
 21
112.3283568498
  0
LINE
  5
25D
100
AcDbEntity
  8
0
100
AcDbLine
 62
7
  6
BYLAYER
 10
25.5770026231
 20
116.105148891
 11
33.0016547371
 21
111.8186209685
  0
LINE
  5
25E
100
AcDbEntity
  8
0
100
AcDbLine
 62
7
  6
BYLAYER
 10
58.811159705
 20
96.9178334285
 11
66.235811819
 21
92.6313055061
  0
LINE
  5
25F
100
AcDbEntity
  8
0
100
AcDbLine
 62
7
  6
BYLAYER
 10
42.9089275641
 20
106.4906997354
 11
46.2329111631
 21
104.5716403247
  0
LINE
  5
260
100
AcDbEntity
  8
0
100
AcDbLine
 62
7
  6
BYLAYER
 10
18.8594602342
 20
120.7999384761
 11
25.6077852885
 21
116.90387933
  0
LINE
  5
261
100
AcDbEntity
  8
0
100
AcDbLine
 62
7
  6
BYLAYER
 10
52.0936173161
 20
101.6126230136
 11
54.2149464915
 21
100.38790075
  0
LINE
  5
262
100
AcDbEntity
  8
0
100
AcDbLine
 62
7
  6
BYLAYER
 10
57.3969402547
 20
98.5508173547
 11
58.8419423704
 21
97.7165638675
  0
LINE
  5
263
100
AcDbEntity
  8
0
100
AcDbLine
 62
7
  6
BYLAYER
 10
17.7987956465
 20
123.0453044421
 11
35.1229839126
 21
113.0434059564
  0
LINE
  5
264
100
AcDbEntity
  8
0
100
AcDbLine
 62
7
  6
BYLAYER
 10
49.9722881406
 20
104.4703501114
 11
54.2149464915
 21
102.0209055843
  0
LINE
  5
265
100
AcDbEntity
  8
0
100
AcDbLine
 62
7
  6
BYLAYER
 10
57.3969402547
 20
100.183822189
 11
67.2964764067
 21
94.4684516257
  0
LINE
  5
266
100
AcDbEntity
  8
0
100
AcDbLine
 62
7
  6
BYLAYER
 10
63.1408417435
 20
113.9252137746
 11
63.3087248787
 21
112.1700994909
  0
LINE
  5
267
100
AcDbEntity
  8
0
100
AcDbLine
 62
7
  6
BYLAYER
 10
63.1408417435
 20
113.9252137746
 11
63.1408417435
 21
112.0731726962
  0
LINE
  5
268
100
AcDbEntity
  8
0
100
AcDbLine
 62
7
  6
BYLAYER
 10
65.881856577
 20
150.8059069054
 11
65.881856577
 21
147.1316460283
  0
LINE
  5
269
100
AcDbEntity
  8
0
100
AcDbLine
 62
7
  6
BYLAYER
 10
66.235811819
 20
54.255691901
 11
66.235811819
 21
92.6313055061
  0
LINE
  5
26A
100
AcDbEntity
  8
0
100
AcDbLine
 62
7
  6
BYLAYER
 10
67.2964764067
 20
53.6433307692
 11
67.2964764067
 21
94.4684516257
  0
LINE
  5
26B
100
AcDbEntity
  8
0
100
AcDbLine
 62
7
  6
BYLAYER
 10
61.3675023746
 20
116.1673351551
 11
52.8822563281
 21
111.2684053087
  0
LINE
  5
26C
100
AcDbEntity
  8
0
100
AcDbLine
 62
7
  6
BYLAYER
 10
52.8822563281
 20
110.4980149673
 11
51.8897418608
 21
109.9249898929
  0
LINE
  5
26D
100
AcDbEntity
  8
0
100
AcDbLine
 62
7
  6
BYLAYER
 10
55.3571403661
 20
109.8395626678
 11
70.9134247848
 21
118.820934053
  0
LINE
  5
26E
100
AcDbEntity
  8
0
100
AcDbLine
 62
7
  6
BYLAYER
 10
46.2329111631
 20
104.5716403247
 11
51.8897418608
 21
107.8375935556
  0
LINE
  5
26F
100
AcDbEntity
  8
0
100
AcDbLine
 62
7
  6
BYLAYER
 10
63.1408417435
 20
113.9252137746
 11
69.5814657047
 21
117.643687556
  0
LINE
  5
270
100
AcDbEntity
  8
0
100
AcDbLine
 62
7
  6
BYLAYER
 10
49.9722881406
 20
104.4703501114
 11
63.3087248787
 21
112.1700994909
  0
LINE
  5
271
100
AcDbEntity
  8
0
100
AcDbLine
 62
7
  6
BYLAYER
 10
42.9089275641
 20
110.9814630296
 11
46.2329111631
 21
109.0624036189
  0
LINE
  5
272
100
AcDbEntity
  8
0
100
AcDbLine
 62
7
  6
BYLAYER
 10
113.9653296629
 20
69.972913502
 11
111.8440181512
 21
71.1976255676
  0
LINE
  5
273
100
AcDbEntity
  8
0
100
AcDbLine
 62
7
  6
BYLAYER
 10
52.8822563281
 20
106.7776420145
 11
53.4254620869
 21
106.4640291182
  0
LINE
  5
274
100
AcDbEntity
  8
0
100
AcDbLine
 62
7
  6
BYLAYER
 10
105.4800836163
 20
76.5050174954
 11
104.5961964599
 21
77.0153184385
  0
LINE
  5
275
100
AcDbEntity
  8
0
100
AcDbLine
 62
7
  6
BYLAYER
 10
49.4148754866
 20
111.3077447655
 11
46.7980016127
 21
112.8185634217
  0
LINE
  5
276
100
AcDbEntity
  8
0
100
AcDbLine
 62
7
  6
BYLAYER
 10
44.2549497905
 20
116.2492703783
 11
46.7298338285
 21
114.8204277375
  0
LINE
  5
277
100
AcDbEntity
  8
0
100
AcDbLine
 62
7
  6
BYLAYER
 10
52.8822563281
 20
111.2684053087
 11
55.3571403661
 21
109.8395626678
  0
LINE
  5
278
100
AcDbEntity
  8
0
100
AcDbLine
 62
7
  6
BYLAYER
 10
70.9134247848
 20
116.8746980194
 11
70.9134247848
 21
118.820934053
  0
LINE
  5
279
100
AcDbEntity
  8
0
100
AcDbLine
 62
7
  6
BYLAYER
 10
54.2149464915
 20
102.0209055843
 11
57.0433618404
 21
103.6538821998
  0
LINE
  5
27A
100
AcDbEntity
  8
0
100
AcDbLine
 62
7
  6
BYLAYER
 10
18.8594602342
 20
81.6078224538
 11
25.2233947691
 21
85.2820198387
  0
LINE
  5
27B
100
AcDbEntity
  8
0
100
AcDbLine
 62
7
  6
BYLAYER
 10
59.5691936797
 20
101.4379658024
 11
58.457551851
 21
101.6125595214
  0
LINE
  5
27C
100
AcDbEntity
  8
0
100
AcDbLine
 62
7
  6
BYLAYER
 10
51.8897418608
 20
112.3283568498
 11
51.5361869982
 21
112.5324772271
  0
LINE
  5
27D
100
AcDbEntity
  8
0
100
AcDbLine
 62
7
  6
BYLAYER
 10
48.9193131244
 20
114.0432958833
 11
48.5657582618
 21
114.2474162606
  0
LINE
  5
27E
100
AcDbEntity
  8
0
100
AcDbLine
 62
7
  6
BYLAYER
 10
104.7729797791
 20
82.22054147
 11
102.6516506036
 21
83.4452637336
  0
LINE
  5
27F
100
AcDbEntity
  8
0
100
AcDbLine
 62
7
  6
BYLAYER
 10
110.9601383547
 20
78.8524072708
 11
108.6620508838
 21
80.1791786752
  0
LINE
  5
280
100
AcDbEntity
  8
0
100
AcDbLine
 62
7
  6
BYLAYER
 10
54.2149464915
 20
100.38790075
 11
57.0433618404
 21
102.0208773655
  0
LINE
  5
281
100
AcDbEntity
  8
0
100
AcDbLine
 62
7
  6
BYLAYER
 10
58.457551851
 20
101.6125595214
 11
59.5397505072
 21
102.2373634773
  0
LINE
  5
282
100
AcDbEntity
  8
0
100
AcDbLine
 62
7
  6
BYLAYER
 10
57.3969402547
 20
100.183822189
 11
60.2253556035
 21
101.8167988044
  0
LINE
  5
283
100
AcDbEntity
  8
0
100
AcDbLine
 62
7
  6
BYLAYER
 10
44.6689122106
 20
91.2019498491
 11
49.9722881406
 21
94.2638370929
  0
LINE
  5
284
100
AcDbEntity
  8
0
100
AcDbLine
 62
7
  6
BYLAYER
 10
100.5303567558
 20
92.8350002265
 11
104.0658729979
 21
90.7938151502
  0
LINE
  5
285
100
AcDbEntity
  8
0
100
AcDbLine
 62
7
  6
BYLAYER
 10
55.2150798751
 20
119.7193575839
 11
61.3675023746
 21
116.1673351551
  0
LINE
  5
286
100
AcDbEntity
  8
0
100
AcDbLine
 62
7
  6
BYLAYER
 10
103.0051839717
 20
96.305204894
 11
104.0658729979
 21
95.692829653
  0
LINE
  5
287
100
AcDbEntity
  8
0
100
AcDbLine
 62
7
  6
BYLAYER
 10
39.0119107629
 20
135.2926290582
 11
57.7721654039
 21
124.461636021
  0
LINE
  5
288
100
AcDbEntity
  8
0
100
AcDbLine
 62
7
  6
BYLAYER
 10
69.5814657047
 20
117.643687556
 11
88.5095915232
 21
106.7157762418
  0
LINE
  5
289
100
AcDbEntity
  8
0
100
AcDbLine
 62
7
  6
BYLAYER
 10
70.9134247848
 20
118.820934053
 11
59.8112342092
 21
125.2306417635
  0
LINE
  5
28A
100
AcDbEntity
  8
0
100
AcDbLine
 62
7
  6
BYLAYER
 10
86.3882800115
 20
54.051391501
 11
86.3882800115
 21
64.6659229237
  0
LINE
  5
28B
100
AcDbEntity
  8
0
100
AcDbLine
 62
7
  6
BYLAYER
 10
87.8024876859
 20
101.8167687937
 11
87.8024876859
 21
102.6332712109
  0
LINE
  5
28C
100
AcDbEntity
  8
0
100
AcDbLine
 62
7
  6
BYLAYER
 10
88.5095915232
 20
106.7157762418
 11
88.5095915232
 21
103.0415153647
  0
LINE
  5
28D
100
AcDbEntity
  8
0
100
AcDbLine
 62
7
  6
BYLAYER
 10
67.2964764067
 20
94.4684516257
 11
88.5095915232
 21
106.7157762418
  0
LINE
  5
28E
100
AcDbEntity
  8
0
100
AcDbLine
 62
7
  6
BYLAYER
 10
115.3795373373
 20
122.2290540889
 11
138.0068601281
 21
135.2928670128
  0
LINE
  5
28F
100
AcDbEntity
  8
0
100
AcDbLine
 62
7
  6
BYLAYER
 10
87.8024876859
 20
102.6332712109
 11
88.5095915232
 21
103.0415153647
  0
LINE
  5
290
100
AcDbEntity
  8
0
100
AcDbLine
 62
7
  6
BYLAYER
 10
115.3795373373
 20
118.5547932119
 11
116.0866411745
 21
118.9630373657
  0
LINE
  5
291
100
AcDbEntity
  8
0
100
AcDbLine
 62
7
  6
BYLAYER
 10
35.1229839126
 20
72.2182850999
 11
41.4869184475
 21
75.8924824847
  0
LINE
  5
292
100
AcDbEntity
  8
0
100
AcDbLine
 62
7
  6
BYLAYER
 10
116.0866411745
 20
118.1465349486
 11
87.8024876859
 21
101.8167687937
  0
LINE
  5
293
100
AcDbEntity
  8
0
100
AcDbLine
 62
7
  6
BYLAYER
 10
91.338006872
 20
56.9091005781
 11
91.338006872
 21
65.0741247494
  0
LINE
  5
294
100
AcDbEntity
  8
0
100
AcDbLine
 62
7
  6
BYLAYER
 10
91.8666730862
 20
59.0533264293
 11
91.8666730862
 21
54.1541655701
  0
LINE
  5
295
100
AcDbEntity
  8
0
100
AcDbLine
 62
7
  6
BYLAYER
 10
93.2883675689
 20
54.9749763628
 11
93.2883675689
 21
58.2325293058
  0
LINE
  5
296
100
AcDbEntity
  8
0
100
AcDbLine
 62
7
  6
BYLAYER
 10
93.424098392
 20
58.1541668514
 11
93.424098392
 21
55.2037469097
  0
LINE
  5
297
100
AcDbEntity
  8
0
100
AcDbLine
 62
7
  6
BYLAYER
 10
93.4593183837
 20
58.1338330398
 11
93.4593183837
 21
66.2988572111
  0
LINE
  5
298
100
AcDbEntity
  8
0
100
AcDbLine
 62
7
  6
BYLAYER
 10
94.3431981802
 20
75.3824377833
 11
94.3431981802
 21
69.2586696548
  0
LINE
  5
299
100
AcDbEntity
  8
0
100
AcDbLine
 62
7
  6
BYLAYER
 10
60.932435889
 20
81.8124124951
 11
66.235811819
 21
84.8742997389
  0
LINE
  5
29A
100
AcDbEntity
  8
0
100
AcDbLine
 62
7
  6
BYLAYER
 10
48.4594206507
 20
120.7431553358
 11
51.4994112224
 21
120.8400813235
  0
LINE
  5
29B
100
AcDbEntity
  8
0
100
AcDbLine
 62
7
  6
BYLAYER
 10
95.580300171
 20
154.702803852
 11
95.580300171
 21
156.5213726505
  0
LINE
  5
29C
100
AcDbEntity
  8
0
100
AcDbLine
 62
7
  6
BYLAYER
 10
96.6412856511
 20
70.5854631549
 11
96.6412856511
 21
76.7092312833
  0
LINE
  5
29D
100
AcDbEntity
  8
0
100
AcDbLine
 62
7
  6
BYLAYER
 10
98.4087155199
 20
158.154349266
 11
98.4087155199
 21
155.7048420146
  0
LINE
  5
29E
100
AcDbEntity
  8
0
100
AcDbLine
 62
7
  6
BYLAYER
 10
98.6880937912
 20
58.2428979292
 11
98.6880937912
 21
61.1526499089
  0
LINE
  5
29F
100
AcDbEntity
  8
0
100
AcDbLine
 62
7
  6
BYLAYER
 10
98.8179232741
 20
61.2276065484
 11
98.8179232741
 21
58.1674477812
  0
LINE
  5
2A0
100
AcDbEntity
  8
0
100
AcDbLine
 62
7
  6
BYLAYER
 10
99.8232529186
 20
73.2390642644
 11
99.8232529186
 21
77.3215763501
  0
LINE
  5
2A1
100
AcDbEntity
  8
0
100
AcDbLine
 62
7
  6
BYLAYER
 10
100.3519191327
 20
62.1132541837
 11
100.3519191327
 21
59.0530954165
  0
LINE
  5
2A2
100
AcDbEntity
  8
0
100
AcDbLine
 62
7
  6
BYLAYER
 10
100.5303567558
 20
79.7710765468
 11
100.5303567558
 21
94.8763712637
  0
LINE
  5
2A3
100
AcDbEntity
  8
0
100
AcDbLine
 62
7
  6
BYLAYER
 10
102.298098685
 20
93.8557083527
 11
102.298098685
 21
91.8144170365
  0
LINE
  5
2A4
100
AcDbEntity
  8
0
100
AcDbLine
 62
7
  6
BYLAYER
 10
102.6516506036
 20
94.0598304296
 11
102.6516506036
 21
91.6102983589
  0
LINE
  5
2A5
100
AcDbEntity
  8
0
100
AcDbLine
 62
7
  6
BYLAYER
 10
102.6516506036
 20
89.1608159269
 11
102.6516506036
 21
83.4452637336
  0
LINE
  5
2A6
100
AcDbEntity
  8
0
100
AcDbLine
 62
7
  6
BYLAYER
 10
104.0658729979
 20
95.692829653
 11
104.0658729979
 21
94.8763272358
  0
LINE
  5
2A7
100
AcDbEntity
  8
0
100
AcDbLine
 62
7
  6
BYLAYER
 10
104.0658729979
 20
90.7938151502
 11
104.0658729979
 21
89.977312733
  0
LINE
  5
2A8
100
AcDbEntity
  8
0
100
AcDbLine
 62
7
  6
BYLAYER
 10
104.7729797791
 20
97.3258361869
 11
104.7729797791
 21
82.22054147
  0
LINE
  5
2A9
100
AcDbEntity
  8
0
100
AcDbLine
 62
7
  6
BYLAYER
 10
105.4800836163
 20
76.5050174954
 11
105.4800836163
 21
80.587529581
  0
LINE
  5
2AA
100
AcDbEntity
  8
0
100
AcDbLine
 62
7
  6
BYLAYER
 10
100.5303567558
 20
94.8763712637
 11
104.7729797791
 21
97.3258361869
  0
LINE
  5
2AB
100
AcDbEntity
  8
0
100
AcDbLine
 62
7
  6
BYLAYER
 10
100.5303538118
 20
93.6516088836
 11
104.0658729979
 21
95.692829653
  0
LINE
  5
2AC
100
AcDbEntity
  8
0
100
AcDbLine
 62
7
  6
BYLAYER
 10
104.0658729979
 20
94.8763272358
 11
100.5303538118
 21
92.8351064665
  0
LINE
  5
2AD
100
AcDbEntity
  8
0
100
AcDbLine
 62
7
  6
BYLAYER
 10
52.0936173161
 20
62.4205069914
 11
58.457551851
 21
66.0947043762
  0
LINE
  5
2AE
100
AcDbEntity
  8
0
100
AcDbLine
 62
7
  6
BYLAYER
 10
65.881856577
 20
147.1316460283
 11
116.0866411745
 21
118.1465349486
  0
LINE
  5
2AF
100
AcDbEntity
  8
0
100
AcDbLine
 62
7
  6
BYLAYER
 10
108.6620508838
 20
77.5256137707
 11
108.6620508838
 21
83.6493818992
  0
LINE
  5
2B0
100
AcDbEntity
  8
0
100
AcDbLine
 62
7
  6
BYLAYER
 10
110.9601383547
 20
84.9761753992
 11
110.9601383547
 21
78.8524072708
  0
LINE
  5
2B1
100
AcDbEntity
  8
0
100
AcDbLine
 62
7
  6
BYLAYER
 10
100.5303538118
 20
88.7525943808
 11
104.0658729979
 21
90.7938151502
  0
LINE
  5
2B2
100
AcDbEntity
  8
0
100
AcDbLine
 62
7
  6
BYLAYER
 10
104.0658729979
 20
89.977312733
 11
100.5303538118
 21
87.9360919637
  0
LINE
  5
2B3
100
AcDbEntity
  8
0
100
AcDbLine
 62
7
  6
BYLAYER
 10
65.881856577
 20
150.8059069054
 11
115.3795373373
 21
122.2290540889
  0
LINE
  5
2B4
100
AcDbEntity
  8
0
100
AcDbLine
 62
7
  6
BYLAYER
 10
111.8440181512
 20
68.7481810404
 11
111.8440181512
 21
76.9132052117
  0
LINE
  5
2B5
100
AcDbEntity
  8
0
100
AcDbLine
 62
7
  6
BYLAYER
 10
113.9653296629
 20
69.972913502
 11
113.9653296629
 21
78.1379376733
  0
LINE
  5
2B6
100
AcDbEntity
  8
0
100
AcDbLine
 62
7
  6
BYLAYER
 10
115.3795373373
 20
122.2290540889
 11
115.3795373373
 21
118.5547932119
  0
LINE
  5
2B7
100
AcDbEntity
  8
0
100
AcDbLine
 62
7
  6
BYLAYER
 10
116.0866411745
 20
118.9630373657
 11
116.0866411745
 21
118.1465349486
  0
LINE
  5
2B8
100
AcDbEntity
  8
0
100
AcDbLine
 62
7
  6
BYLAYER
 10
105.4800836163
 20
80.587529581
 11
104.5961964599
 21
77.0153184385
  0
LINE
  5
2B9
100
AcDbEntity
  8
0
100
AcDbLine
 62
7
  6
BYLAYER
 10
102.6516506036
 20
83.4452637336
 11
100.5303567558
 21
82.2205414701
  0
LINE
  5
2BA
100
AcDbEntity
  8
0
100
AcDbLine
 62
7
  6
BYLAYER
 10
104.7729797791
 20
82.22054147
 11
100.5303567558
 21
79.7710765468
  0
LINE
  5
2BB
100
AcDbEntity
  8
0
100
AcDbLine
 62
7
  6
BYLAYER
 10
96.6412856511
 20
76.7092312833
 11
94.3431981802
 21
75.3824377833
  0
LINE
  5
2BC
100
AcDbEntity
  8
0
100
AcDbLine
 62
7
  6
BYLAYER
 10
108.6620508838
 20
83.6493818992
 11
110.9601383547
 21
84.9761753992
  0
LINE
  5
2BD
100
AcDbEntity
  8
0
100
AcDbLine
 62
7
  6
BYLAYER
 10
99.8232529186
 20
77.3215763501
 11
105.4800836163
 21
80.587529581
  0
LINE
  5
2BE
100
AcDbEntity
  8
0
100
AcDbLine
 62
7
  6
BYLAYER
 10
118.9150565234
 20
72.8306225791
 11
118.9150565234
 21
83.4451540018
  0
LINE
  5
2BF
100
AcDbEntity
  8
0
100
AcDbLine
 62
7
  6
BYLAYER
 10
104.5961964599
 20
77.0153184385
 11
99.8232529186
 21
74.2596746491
  0
LINE
  5
2C0
100
AcDbEntity
  8
0
100
AcDbLine
 62
7
  6
BYLAYER
 10
105.4800836163
 20
76.5050174954
 11
99.8232529186
 21
73.2390642644
  0
LINE
  5
2C1
100
AcDbEntity
  8
0
100
AcDbLine
 62
7
  6
BYLAYER
 10
138.0068601281
 20
94.4677461563
 11
118.9150565234
 21
83.4451540018
  0
LINE
  5
2C2
100
AcDbEntity
  8
0
100
AcDbLine
 62
7
  6
BYLAYER
 10
110.9601383547
 20
78.8524072708
 11
108.6620508838
 21
77.5256137707
  0
LINE
  5
2C3
100
AcDbEntity
  8
0
100
AcDbLine
 62
7
  6
BYLAYER
 10
67.2964764067
 20
53.6433307692
 11
86.3882800115
 21
64.6659229237
  0
LINE
  5
2C4
100
AcDbEntity
  8
0
100
AcDbLine
 62
7
  6
BYLAYER
 10
94.3431981802
 20
69.2586696548
 11
96.6412856511
 21
70.5854631549
  0
LINE
  5
2C5
100
AcDbEntity
  8
0
100
AcDbLine
 62
7
  6
BYLAYER
 10
113.9653296629
 20
78.1379376733
 11
111.8440181512
 21
76.9132052117
  0
LINE
  5
2C6
100
AcDbEntity
  8
0
100
AcDbLine
 62
7
  6
BYLAYER
 10
93.4593183837
 20
66.2988572111
 11
91.338006872
 21
65.0741247494
  0
LINE
  5
2C7
100
AcDbEntity
  8
0
100
AcDbLine
 62
7
  6
BYLAYER
 10
86.3882800115
 20
54.051391501
 11
91.338006872
 21
56.9091005781
  0
LINE
  5
2C8
100
AcDbEntity
  8
0
100
AcDbLine
 62
7
  6
BYLAYER
 10
93.4593183837
 20
58.1338330398
 11
111.8440181512
 21
68.7481810404
  0
LINE
  5
2C9
100
AcDbEntity
  8
0
100
AcDbLine
 62
7
  6
BYLAYER
 10
113.9653296629
 20
69.972913502
 11
118.9150565234
 21
72.8306225791
  0
LINE
  5
2CA
100
AcDbEntity
  8
0
100
AcDbLine
 62
7
  6
BYLAYER
 10
98.6880937912
 20
58.2428979292
 11
93.424098392
 21
55.2037469097
  0
LINE
  5
2CB
100
AcDbEntity
  8
0
100
AcDbLine
 62
7
  6
BYLAYER
 10
100.3519191327
 20
59.0530954165
 11
98.8179232741
 21
58.1674477812
  0
LINE
  5
2CC
100
AcDbEntity
  8
0
100
AcDbLine
 62
7
  6
BYLAYER
 10
93.2883675689
 20
54.9749763628
 11
91.8666730862
 21
54.1541655701
  0
LINE
  5
2CD
100
AcDbEntity
  8
0
100
AcDbLine
 62
7
  6
BYLAYER
 10
138.0068601281
 20
135.2928670128
 11
101.5907092831
 21
156.3172658706
  0
LINE
  5
2CE
100
AcDbEntity
  8
0
100
AcDbLine
 62
7
  6
BYLAYER
 10
98.4087155199
 20
158.154349266
 11
88.5091793678
 21
163.8697198292
  0
LINE
  5
2CF
100
AcDbEntity
  8
0
100
AcDbLine
 62
7
  6
BYLAYER
 10
138.0068601281
 20
94.4677461563
 11
138.0068601281
 21
135.2928670128
  0
ARC
  5
2D0
100
AcDbEntity
  8
0
100
AcDbCircle
 62
7
  6
BYLAYER
 10
25.1010447812
 20
120.1953299186
 40
1.8766337747
100
AcDbArc
 50
119.4909771034
 51
119.9990890569
  0
SPLINE
  5
2D1
100
AcDbEntity
  8
0
100
AcDbSpline
 62
7
  6
BYLAYER
 70
0
 71
3
 72
11
 73
7
 74
0
 42
0.0000001
 43
0.0000001
 44
0.0000000001
 40
0.0
 40
0.0
 40
0.0
 40
0.0
 40
0.2177648073
 40
0.4508950352
 40
0.7103684932
 40
1.0
 40
1.0
 40
1.0
 40
1.0
 10
132.0518602923
 20
136.2113935484
 30
0.0
 10
132.0518300364
 20
136.1352238711
 30
0.0
 10
132.0238009698
 20
135.9764423099
 30
0.0
 10
131.9033663248
 20
135.7551989512
 30
0.0
 10
131.7130531657
 20
135.5552583042
 30
0.0
 10
131.553856395
 20
135.4455652713
 30
0.0
 10
131.4661216662
 20
135.3949119044
 30
0.0
  0
SPLINE
  5
2D2
100
AcDbEntity
  8
0
100
AcDbSpline
 62
7
  6
BYLAYER
 70
0
 71
3
 72
11
 73
7
 74
0
 42
0.0000001
 43
0.0000001
 44
0.0000000001
 40
0.0
 40
0.0
 40
0.0
 40
0.0
 40
0.2177648073
 40
0.4508950352
 40
0.7103684932
 40
1.0
 40
1.0
 40
1.0
 40
1.0
 10
27.5769312597
 20
122.6370808193
 30
0.0
 10
27.5769010039
 20
122.560911142
 30
0.0
 10
27.5488719373
 20
122.4021295808
 30
0.0
 10
27.4284372923
 20
122.1808862222
 30
0.0
 10
27.2381241332
 20
121.9809455751
 30
0.0
 10
27.0789273625
 20
121.8712525422
 30
0.0
 10
26.9911926337
 20
121.8205991753
 30
0.0
  0
SPLINE
  5
2D3
100
AcDbEntity
  8
0
100
AcDbSpline
 62
7
  6
BYLAYER
 70
0
 71
3
 72
9
 73
5
 74
0
 42
0.0000001
 43
0.0000001
 44
0.0000000001
 40
0.0
 40
0.0
 40
0.0
 40
0.0
 40
0.2440730921
 40
1.0
 40
1.0
 40
1.0
 40
1.0
 10
26.9890299321
 20
121.8217639014
 30
0.0
 10
26.972741366
 20
121.8311401372
 30
0.0
 10
26.9054357099
 20
121.8685621803
 30
0.0
 10
26.8359781829
 20
121.90208224
 30
0.0
 10
26.7826242676
 20
121.9253553192
 30
0.0
  0
SPLINE
  5
2D4
100
AcDbEntity
  8
0
100
AcDbSpline
 62
7
  6
BYLAYER
 70
0
 71
3
 72
11
 73
7
 74
0
 42
0.0000001
 43
0.0000001
 44
0.0000000001
 40
0.0
 40
0.0
 40
0.0
 40
0.0
 40
0.2449335985
 40
0.5073653751
 40
0.7658213534
 40
1.0
 40
1.0
 40
1.0
 40
1.0
 10
26.7826242676
 20
121.9253553192
 30
0.0
 10
26.5817783615
 20
122.0129646849
 30
0.0
 10
26.1396851692
 20
122.1363680294
 30
0.0
 10
25.4516625816
 20
122.1796358347
 30
0.0
 10
24.7780881965
 20
122.0880693415
 30
0.0
 10
24.3595581434
 20
121.9319509998
 30
0.0
 10
24.1772033253
 20
121.8288143197
 30
0.0
  0
SPLINE
  5
2D5
100
AcDbEntity
  8
0
100
AcDbSpline
 62
7
  6
BYLAYER
 70
0
 71
3
 72
11
 73
7
 74
0
 42
0.0000001
 43
0.0000001
 44
0.0000000001
 40
0.0
 40
0.0
 40
0.0
 40
0.0
 40
0.2177648073
 40
0.4508950352
 40
0.7103684932
 40
1.0
 40
1.0
 40
1.0
 40
1.0
 10
60.8843115578
 20
102.735340654
 30
0.0
 10
60.88427752
 20
102.649649767
 30
0.0
 10
60.8527448201
 20
102.4710205107
 30
0.0
 10
60.7172558444
 20
102.2221217322
 30
0.0
 10
60.5031535405
 20
101.9971885042
 30
0.0
 10
60.3240571734
 20
101.8737838422
 30
0.0
 10
60.2253556035
 20
101.8167988044
 30
0.0
  0
SPLINE
  5
2D6
100
AcDbEntity
  8
0
100
AcDbSpline
 62
7
  6
BYLAYER
 70
0
 71
3
 72
11
 73
7
 74
0
 42
0.0000001
 43
0.0000001
 44
0.0000000001
 40
0.0
 40
0.0
 40
0.0
 40
0.0
 40
0.2332894139
 40
0.4959532343
 40
0.7608181913
 40
1.0
 40
1.0
 40
1.0
 40
1.0
 10
60.3202324096
 20
101.96258161
 30
0.0
 10
60.0983249574
 20
102.1074914608
 30
0.0
 10
59.5656690098
 20
102.3222629789
 30
0.0
 10
58.7017573514
 20
102.4344954362
 30
0.0
 10
57.8277891669
 20
102.3514997573
 30
0.0
 10
57.2786836365
 20
102.1567396569
 30
0.0
 10
57.0433618404
 20
102.0208773655
 30
0.0
  0
SPLINE
  5
2D7
100
AcDbEntity
  8
0
100
AcDbSpline
 62
7
  6
BYLAYER
 70
0
 71
3
 72
17
 73
13
 74
0
 42
0.0000001
 43
0.0000001
 44
0.0000000001
 40
0.0
 40
0.0
 40
0.0
 40
0.0
 40
0.128688448
 40
0.2702796817
 40
0.4174325464
 40
0.5617749928
 40
0.6954478191
 40
0.8127119577
 40
0.8646769781
 40
0.912510124
 40
0.9571398159
 40
1.0
 40
1.0
 40
1.0
 40
1.0
 10
98.7622939342
 20
154.6842892551
 30
0.0
 10
98.5957415342
 20
154.5881307562
 30
0.0
 10
98.218636678
 20
154.4325385468
 30
0.0
 10
97.604038318
 20
154.3095716713
 30
0.0
 10
96.9539868166
 20
154.2915766694
 30
0.0
 10
96.3215386138
 20
154.3804464027
 30
0.0
 10
95.7579603407
 20
154.5686879047
 30
0.0
 10
95.3659911776
 20
154.8072842783
 30
0.0
 10
95.1359650463
 20
155.0381458241
 30
0.0
 10
95.0137606372
 20
155.2178827407
 30
0.0
 10
94.9384579821
 20
155.4074691567
 30
0.0
 10
94.9213187741
 20
155.5387786011
 30
0.0
 10
94.9213442167
 20
155.602830801
 30
0.0
  0
SPLINE
  5
2D8
100
AcDbEntity
  8
0
100
AcDbSpline
 62
7
  6
BYLAYER
 70
0
 71
3
 72
17
 73
13
 74
0
 42
0.0000001
 43
0.0000001
 44
0.0000000001
 40
0.0
 40
0.0
 40
0.0
 40
0.0
 40
0.128688448
 40
0.2702796817
 40
0.4174325464
 40
0.5617749928
 40
0.6954478191
 40
0.8127119577
 40
0.8646769781
 40
0.912510124
 40
0.9571398159
 40
1.0
 40
1.0
 40
1.0
 40
1.0
 10
131.4661216662
 20
135.3949119044
 30
0.0
 10
131.3180750885
 20
135.3094376831
 30
0.0
 10
130.9828707719
 20
135.171133497
 30
0.0
 10
130.4365611185
 20
135.0618296076
 30
0.0
 10
129.8587375617
 20
135.0458340504
 30
0.0
 10
129.2965613814
 20
135.1248293689
 30
0.0
 10
128.7956029165
 20
135.2921551484
 30
0.0
 10
128.4471858826
 20
135.5042408138
 30
0.0
 10
128.2427182103
 20
135.7094510768
 30
0.0
 10
128.1340920689
 20
135.8692172248
 30
0.0
 10
128.0671563754
 20
136.0377384836
 30
0.0
 10
128.0519215239
 20
136.1544579897
 30
0.0
 10
128.0519441396
 20
136.2113932784
 30
0.0
  0
SPLINE
  5
2D9
100
AcDbEntity
  8
0
100
AcDbSpline
 62
7
  6
BYLAYER
 70
0
 71
3
 72
17
 73
13
 74
0
 42
0.0000001
 43
0.0000001
 44
0.0000000001
 40
0.0
 40
0.0
 40
0.0
 40
0.0
 40
0.128688448
 40
0.2702796817
 40
0.4174325464
 40
0.5617749928
 40
0.6954478191
 40
0.8127119577
 40
0.8646769781
 40
0.912510124
 40
0.9571398159
 40
1.0
 40
1.0
 40
1.0
 40
1.0
 10
26.9911926337
 20
121.8205991753
 30
0.0
 10
26.8431460559
 20
121.735124954
 30
0.0
 10
26.5079417393
 20
121.5968207679
 30
0.0
 10
25.961632086
 20
121.4875168786
 30
0.0
 10
25.3838085292
 20
121.4715213213
 30
0.0
 10
24.8216323489
 20
121.5505166398
 30
0.0
 10
24.3206738839
 20
121.7178424193
 30
0.0
 10
23.9722568501
 20
121.9299280847
 30
0.0
 10
23.7677891778
 20
122.1351383477
 30
0.0
 10
23.6591630364
 20
122.2949044958
 30
0.0
 10
23.5922273429
 20
122.4634257545
 30
0.0
 10
23.5769924914
 20
122.5801452606
 30
0.0
 10
23.5770151071
 20
122.6370805494
 30
0.0
  0
SPLINE
  5
2DA
100
AcDbEntity
  8
0
100
AcDbSpline
 62
7
  6
BYLAYER
 70
0
 71
3
 72
16
 73
12
 74
0
 42
0.0000001
 43
0.0000001
 44
0.0000000001
 40
0.0
 40
0.0
 40
0.0
 40
0.0
 40
0.0428278523
 40
0.0872451936
 40
0.1852794412
 40
0.3000786353
 40
0.4309779094
 40
0.5733940408
 40
0.7206179343
 40
0.8651209709
 40
1.0
 40
1.0
 40
1.0
 40
1.0
 10
57.4471262853
 20
116.8977688747
 30
0.0
 10
57.485096883
 20
116.9196920071
 30
0.0
 10
57.5682326581
 20
116.9550446536
 30
0.0
 10
57.7568126727
 20
116.9865006969
 30
0.0
 10
58.0233841971
 20
116.943805046
 30
0.0
 10
58.3412419027
 20
116.7849271577
 30
0.0
 10
58.6511865391
 20
116.532115253
 30
0.0
 10
58.931905958
 20
116.203052724
 30
0.0
 10
59.1635575983
 20
115.821524336
 30
0.0
 10
59.3293576768
 20
115.4155694182
 30
0.0
 10
59.3906643086
 20
115.1340407798
 30
0.0
 10
59.4051251024
 20
114.9967174978
 30
0.0
  0
SPLINE
  5
2DB
100
AcDbEntity
  8
0
100
AcDbSpline
 62
7
  6
BYLAYER
 70
0
 71
3
 72
17
 73
13
 74
0
 42
0.0000001
 43
0.0000001
 44
0.0000000001
 40
0.0
 40
0.0
 40
0.0
 40
0.0
 40
0.128688448
 40
0.2702796817
 40
0.4174325464
 40
0.5617749928
 40
0.6954478191
 40
0.8127119577
 40
0.8646769781
 40
0.912510124
 40
0.9571398159
 40
1.0
 40
1.0
 40
1.0
 40
1.0
 10
128.6376827656
 20
137.0278749225
 30
0.0
 10
128.7857293434
 20
137.1133491438
 30
0.0
 10
129.12093366
 20
137.2516533299
 30
0.0
 10
129.6672433133
 20
137.3609572192
 30
0.0
 10
130.2450668701
 20
137.3769527765
 30
0.0
 10
130.8072430505
 20
137.297957458
 30
0.0
 10
131.3082015154
 20
137.1306316784
 30
0.0
 10
131.6566185492
 20
136.918546013
 30
0.0
 10
131.8610862216
 20
136.71333575
 30
0.0
 10
131.969712363
 20
136.553569602
 30
0.0
 10
132.0366480564
 20
136.3850483433
 30
0.0
 10
132.0518829079
 20
136.2683288371
 30
0.0
 10
132.0518602923
 20
136.2113935484
 30
0.0
  0
SPLINE
  5
2DC
100
AcDbEntity
  8
0
100
AcDbSpline
 62
7
  6
BYLAYER
 70
0
 71
3
 72
11
 73
7
 74
0
 42
0.0000001
 43
0.0000001
 44
0.0000000001
 40
0.0
 40
0.0
 40
0.0
 40
0.0
 40
0.2177648073
 40
0.4508950352
 40
0.7103684932
 40
1.0
 40
1.0
 40
1.0
 40
1.0
 10
128.0519441396
 20
136.2113932784
 30
0.0
 10
128.0519743955
 20
136.2875629557
 30
0.0
 10
128.080003462
 20
136.4463445169
 30
0.0
 10
128.2004381071
 20
136.6675878756
 30
0.0
 10
128.3907512662
 20
136.8675285227
 30
0.0
 10
128.5499480368
 20
136.9772215555
 30
0.0
 10
128.6376827656
 20
137.0278749225
 30
0.0
  0
SPLINE
  5
2DD
100
AcDbEntity
  8
0
100
AcDbSpline
 62
7
  6
BYLAYER
 70
0
 71
3
 72
17
 73
13
 74
0
 42
0.0000001
 43
0.0000001
 44
0.0000000001
 40
0.0
 40
0.0
 40
0.0
 40
0.0
 40
0.128688448
 40
0.2702796817
 40
0.4174325464
 40
0.5617749928
 40
0.6954478191
 40
0.8127119577
 40
0.8646769781
 40
0.912510124
 40
0.9571398159
 40
1.0
 40
1.0
 40
1.0
 40
1.0
 10
24.1627537331
 20
123.4535621934
 30
0.0
 10
24.3108003109
 20
123.5390364147
 30
0.0
 10
24.6460046275
 20
123.6773406008
 30
0.0
 10
25.1923142808
 20
123.7866444901
 30
0.0
 10
25.7701378376
 20
123.8026400474
 30
0.0
 10
26.3323140179
 20
123.7236447289
 30
0.0
 10
26.8332724829
 20
123.5563189493
 30
0.0
 10
27.1816895167
 20
123.3442332839
 30
0.0
 10
27.3861571891
 20
123.1390230209
 30
0.0
 10
27.4947833305
 20
122.9792568729
 30
0.0
 10
27.5617190239
 20
122.8107356142
 30
0.0
 10
27.5769538754
 20
122.6940161081
 30
0.0
 10
27.5769312597
 20
122.6370808193
 30
0.0
  0
SPLINE
  5
2DE
100
AcDbEntity
  8
0
100
AcDbSpline
 62
7
  6
BYLAYER
 70
0
 71
3
 72
17
 73
13
 74
0
 42
0.0000001
 43
0.0000001
 44
0.0000000001
 40
0.0
 40
0.0
 40
0.0
 40
0.0
 40
0.128688448
 40
0.2702796817
 40
0.4174325464
 40
0.5617749928
 40
0.6954478191
 40
0.8127119577
 40
0.8646769781
 40
0.912510124
 40
0.9571398159
 40
1.0
 40
1.0
 40
1.0
 40
1.0
 10
57.0433618404
 20
103.6538821998
 30
0.0
 10
57.2099142404
 20
103.7500406988
 30
0.0
 10
57.5870190965
 20
103.9056329081
 30
0.0
 10
58.2016174566
 20
104.0285997836
 30
0.0
 10
58.851668958
 20
104.0465947856
 30
0.0
 10
59.4841171608
 20
103.9577250522
 30
0.0
 10
60.0476954339
 20
103.7694835502
 30
0.0
 10
60.4396645969
 20
103.5308871767
 30
0.0
 10
60.6696907283
 20
103.3000256308
 30
0.0
 10
60.7918951374
 20
103.1202887143
 30
0.0
 10
60.8671977925
 20
102.9307022982
 30
0.0
 10
60.8843370005
 20
102.7993928538
 30
0.0
 10
60.8843115578
 20
102.735340654
 30
0.0
  0
SPLINE
  5
2DF
100
AcDbEntity
  8
0
100
AcDbSpline
 62
7
  6
BYLAYER
 70
0
 71
3
 72
11
 73
7
 74
0
 42
0.0000001
 43
0.0000001
 44
0.0000000001
 40
0.0
 40
0.0
 40
0.0
 40
0.0
 40
0.2177648073
 40
0.4508950352
 40
0.7103684932
 40
1.0
 40
1.0
 40
1.0
 40
1.0
 10
94.9213442167
 20
155.602830801
 30
0.0
 10
94.9213782546
 20
155.6885216879
 30
0.0
 10
94.9529109545
 20
155.8671509442
 30
0.0
 10
95.0883999301
 20
156.1160497228
 30
0.0
 10
95.3025022341
 20
156.3409829507
 30
0.0
 10
95.4815986011
 20
156.4643876127
 30
0.0
 10
95.580300171
 20
156.5213726505
 30
0.0
  0
SPLINE
  5
2E0
100
AcDbEntity
  8
0
100
AcDbSpline
 62
7
  6
BYLAYER
 70
0
 71
3
 72
11
 73
7
 74
0
 42
0.0000001
 43
0.0000001
 44
0.0000000001
 40
0.0
 40
0.0
 40
0.0
 40
0.0
 40
0.2177648073
 40
0.4508950352
 40
0.7103684932
 40
1.0
 40
1.0
 40
1.0
 40
1.0
 10
23.5770151071
 20
122.6370805494
 30
0.0
 10
23.577045363
 20
122.7132502266
 30
0.0
 10
23.6050744295
 20
122.8720317878
 30
0.0
 10
23.7255090745
 20
123.0932751465
 30
0.0
 10
23.9158222336
 20
123.2932157936
 30
0.0
 10
24.0750190043
 20
123.4029088264
 30
0.0
 10
24.1627537331
 20
123.4535621934
 30
0.0
  0
ENDSEC
  0
SECTION
  2
OBJECTS
  0
DICTIONARY
  5
C
100
AcDbDictionary
280
0
281
1
  3
ACAD_GROUP
350
D
  3
ACAD_MLINESTYLE
350
17
  3
ACAD_LAYOUT
350
1A
  3
ACAD_PLOTSETTINGS
350
19
  3
ACAD_PLOTSTYLENAME
350
E
  0
DICTIONARY
  5
D
102
{ACAD_REACTORS
330
C
102
}
100
AcDbDictionary
280
0
281
1
  0
ACDBDICTIONARYWDFLT
  5
E
102
{ACAD_REACTORS
330
C
102
}
100
AcDbDictionary
281
1
  3
Normal
350
F
100
AcDbDictionaryWithDefault
340
F
  0
DICTIONARY
  5
17
102
{ACAD_REACTORS
330
C
102
}
100
AcDbDictionary
280
0
281
1
  3
Standard
350
18
  0
DICTIONARY
  5
19
102
{ACAD_REACTORS
330
C
102
}
100
AcDbDictionary
281
1
  0
DICTIONARY
  5
1A
102
{ACAD_REACTORS
330
C
102
}
100
AcDbDictionary
281
1
  3
Model
350
2E1
  3
Layout1
350
2E2
  0
ACDBPLACEHOLDER
  5
F
102
{ACAD_REACTORS
330
E
102
}
  0
MLINESTYLE
  5
18
102
{ACAD_REACTORS
330
17
102
}
100
AcDbMlineStyle
  2
STANDARD
 70
0
  3

 62
256
 51
90.0
 52
90.0
 71
2
 49
0.5
 62
256
  6
BYLAYER
 49
-0.5
 62
256
  6
BYLAYER
  0
LAYOUT
  5
2E1
102
{ACAD_REACTORS
330
1A
102
}
100
AcDbPlotSettings
  1

  2
none_device
  4

  6

 40
0.0
 41
0.0
 42
0.0
 43
0.0
 44
210.0
 45
297.0
 46
0.0
 47
0.0
 48
0.0
 49
0.0
140
0.0
141
0.0
142
1.0
143
1.0
 70
1024
 72
1
 73
0
 74
0
  7

 75
0
147
1.0
148
0.0
149
0.0
100
AcDbLayout
  1
Model
 70
0
 71
0
 10
0.0
 20
0.0
 11
210.0
 21
297.0
 12
0.0
 22
0.0
 32
0.0
 14
0.0
 24
0.0
 34
0.0
 15
0.0
 25
0.0
 35
0.0
146
0.0
 13
0.0
 23
0.0
 33
0.0
 16
1.0
 26
0.0
 36
0.0
 17
0.0
 27
1.0
 37
0.0
 76
0
330
210
345
0
346
0
  0
LAYOUT
  5
2E2
102
{ACAD_REACTORS
330
1A
102
}
100
AcDbPlotSettings
  1

  2
none_device
  4

  6

 40
0.0
 41
0.0
 42
0.0
 43
0.0
 44
210.0
 45
297.0
 46
0.0
 47
0.0
 48
0.0
 49
0.0
140
0.0
141
0.0
142
1.0
143
1.0
 70
0
 72
1
 73
0
 74
0
  7

 75
0
147
1.0
148
0.0
149
0.0
100
AcDbLayout
  1
Layout1
 70
0
 71
1
 10
0.0
 20
0.0
 11
210.0
 21
297.0
 12
0.0
 22
0.0
 32
0.0
 14
0.0
 24
0.0
 34
0.0
 15
0.0
 25
0.0
 35
0.0
146
0.0
 13
0.0
 23
0.0
 33
0.0
 16
1.0
 26
0.0
 36
0.0
 17
0.0
 27
1.0
 37
0.0
 76
0
330
211
345
0
346
0
  0
ENDSEC
  0
EOF
