999
DXF file: Y:\001_SCHNEIDER_PARIS\maxime fuentes - génération CAD 2D\TRAVAIL\XALD164H29H7_2D-Views\xald164h29h7_2d-views_7.dxf
999
Pro/ENGINEER 2018260 by Parametric Technology Corporation
  0
SECTION
  2
HEADER
  9
$ACADVER
  1
AC1027
  9
$DWGCODEPAGE
  3
ANSI_1252
  9
$EXTMAX
 10
558.8
 20
431.8
 30
0.0
  9
$EXTMIN
 10
0.0
 20
0.0
 30
0.0
  9
$LIMMIN
 10
0.0
 20
0.0
  9
$LIMMAX
 10
558.8
 20
431.8
  9
$VIEWCTR
 10
279.4
 20
215.9
  9
$VIEWSIZE
 40
431.8
  9
$CLAYER
  8
0
  9
$LTSCALE
 40
30.734
  9
$CELTYPE
  6
BYLAYER
  9
$DIMSCALE
 40
1.0
  9
$DIMASZ
 40
3.5
  9
$DIMEXO
 40
1.0
  9
$DIMDLI
 40
21.2344
  9
$DIMEXE
 40
3.0
  9
$DIMCEN
 40
5.0292
  9
$DIMLFAC
 40
1.0
  9
$DIMBLK
  1
_FILLED
  9
$DIMALT
 70
0
  9
$DIMALTF
 40
0.0393700787
  9
$DIMTXT
 40
4.0
  9
$DIMTOL
 70
1
  9
$DIMLIM
 70
0
  9
$DIMTFAC
 40
1.0
  9
$DIMTP
 40
0.0001
  9
$DIMTM
 40
0.0001
  9
$DIMGAP
 40
0.625
  9
$DIMDSEP
 70
46
  9
$AUNITS
 70
0
  9
$PDMODE
 70
0
  9
$PDSIZE
 40
0.01
  9
$HANDSEED
  5
2B5
  9
$TILEMODE
 70
1
  9
$MEASUREMENT
 70
1
  9
$INSUNITS
 70
4
  0
ENDSEC
  0
SECTION
  2
CLASSES
  0
CLASS
  1
ACDBDICTIONARYWDFLT
  2
AcDbDictionaryWithDefault
  3
AutoCAD 2000
 90
0
 91
1
280
0
281
0
  0
CLASS
  1
ACDBPLACEHOLDER
  2
AcDbPlaceHolder
  3
AutoCAD 2000
 90
0
 91
1
280
0
281
0
  0
CLASS
  1
LAYOUT
  2
AcDbLayout
  3
AutoCAD 2000
 90
0
 91
0
280
0
281
0
  0
ENDSEC
  0
SECTION
  2
TABLES
  0
TABLE
  2
VPORT
  5
8
100
AcDbSymbolTable
 70
2
  0
VPORT
  5
1F4
100
AcDbSymbolTableRecord
100
AcDbViewportTableRecord
  2
*ACTIVE
 70
0
 10
0.0
 20
0.0
 11
1.0
 21
1.0
 12
279.4
 22
215.9
 13
0.0
 23
0.0
 14
1.0
 24
1.0
 15
0.0
 25
0.0
 16
0.0
 26
0.0
 36
1.0
 17
0.0
 27
0.0
 37
0.0
 40
431.8
 41
1.2941176471
 42
50.0
 43
0.0
 44
0.0
 50
0.0
 51
0.0
 71
0
 72
100
 73
1
 74
1
 75
0
 76
0
 77
0
 78
0
  0
ENDTAB
  0
TABLE
  2
LTYPE
  5
5
100
AcDbSymbolTable
 70
6
  0
LTYPE
  5
14
100
AcDbSymbolTableRecord
100
AcDbLinetypeTableRecord
  2
BYBLOCK
 70
0
  3

 72
65
 73
0
 40
0.0
  0
LTYPE
  5
15
100
AcDbSymbolTableRecord
100
AcDbLinetypeTableRecord
  2
BYLAYER
 70
0
  3

 72
65
 73
0
 40
0.0
  0
LTYPE
  5
16
100
AcDbSymbolTableRecord
100
AcDbLinetypeTableRecord
  2
CONTINUOUS
 70
64
  3
Solid line
 72
65
 73
0
 40
0.0
  0
LTYPE
  5
1F5
100
AcDbSymbolTableRecord
100
AcDbLinetypeTableRecord
  2
CENTER
 70
64
  3
____ _ ____ _ ____ _ ____ _ ____ _ ____ _ ____
 72
65
 73
4
 40
0.6
 49
0.375
 74
0
 49
-0.075
 74
0
 49
0.075
 74
0
 49
-0.075
 74
0
  0
LTYPE
  5
1F6
100
AcDbSymbolTableRecord
100
AcDbLinetypeTableRecord
  2
HIDDEN
 70
64
  3
- - - - - - - - - - - - - - - - - - - -
 72
65
 73
2
 40
0.2
 49
0.1
 74
0
 49
-0.1
 74
0
  0
LTYPE
  5
1F7
100
AcDbSymbolTableRecord
100
AcDbLinetypeTableRecord
  2
PHANTOM
 70
64
  3
_____ _ _ _____ _ _ _____ _ _ _____
 72
65
 73
6
 40
0.8
 49
0.45
 74
0
 49
-0.05
 74
0
 49
0.1
 74
0
 49
-0.05
 74
0
 49
0.1
 74
0
 49
-0.05
 74
0
  0
LTYPE
  5
1F8
100
AcDbSymbolTableRecord
100
AcDbLinetypeTableRecord
  2
DOT
 70
64
  3
. . . . . . . . . . . . . . . . . . . .
 72
65
 73
2
 40
0.2
 49
0.1
 74
0
 49
-0.1
 74
0
  0
LTYPE
  5
1F9
100
AcDbSymbolTableRecord
100
AcDbLinetypeTableRecord
  2
DASHED
 70
64
  3
- - - - - - - - - - - - - - - - - - - -
 72
65
 73
2
 40
0.2
 49
0.1
 74
0
 49
-0.1
 74
0
  0
ENDTAB
  0
TABLE
  2
LAYER
  5
2
100
AcDbSymbolTable
 70
36
  0
LAYER
  5
10
100
AcDbSymbolTableRecord
100
AcDbLayerTableRecord
  2
0
 70
0
 62
7
  6
CONTINUOUS
370
-3
390
F
  0
LAYER
  5
1FA
100
AcDbSymbolTableRecord
100
AcDbLayerTableRecord
  2
DEFAULT_1
 70
0
 62
7
  6
CENTER
370
-3
390
F
  0
LAYER
  5
1FB
100
AcDbSymbolTableRecord
100
AcDbLayerTableRecord
  2
DEFAULT_2
 70
0
 62
8
  6
HIDDEN
370
-3
390
F
  0
LAYER
  5
1FC
100
AcDbSymbolTableRecord
100
AcDbLayerTableRecord
  2
DEFAULT_3
 70
0
 62
7
  6
PHANTOM
370
-3
390
F
  0
LAYER
  5
1FD
100
AcDbSymbolTableRecord
100
AcDbLayerTableRecord
  2
01_ALL_DTM_PLN
 70
0
 62
7
  6
CONTINUOUS
370
-3
390
F
  0
LAYER
  5
1FE
100
AcDbSymbolTableRecord
100
AcDbLayerTableRecord
  2
01__ASM_ALL_DTM_PLN
 70
0
 62
7
  6
CONTINUOUS
370
-3
390
F
  0
LAYER
  5
1FF
100
AcDbSymbolTableRecord
100
AcDbLayerTableRecord
  2
01__ASM_DEF_DTM_PLN
 70
0
 62
7
  6
CONTINUOUS
370
-3
390
F
  0
LAYER
  5
200
100
AcDbSymbolTableRecord
100
AcDbLayerTableRecord
  2
01___PRT_ALL_DTM_PLN
 70
0
 62
7
  6
CONTINUOUS
370
-3
390
F
  0
LAYER
  5
201
100
AcDbSymbolTableRecord
100
AcDbLayerTableRecord
  2
01___PRT_DEF_DTM_PLN
 70
0
 62
7
  6
CONTINUOUS
370
-3
390
F
  0
LAYER
  5
202
100
AcDbSymbolTableRecord
100
AcDbLayerTableRecord
  2
02_ALL_AXES
 70
0
 62
7
  6
CONTINUOUS
370
-3
390
F
  0
LAYER
  5
203
100
AcDbSymbolTableRecord
100
AcDbLayerTableRecord
  2
02__ASM_ALL_AXES
 70
0
 62
7
  6
CONTINUOUS
370
-3
390
F
  0
LAYER
  5
204
100
AcDbSymbolTableRecord
100
AcDbLayerTableRecord
  2
02___PRT_ALL_AXES
 70
0
 62
7
  6
CONTINUOUS
370
-3
390
F
  0
LAYER
  5
205
100
AcDbSymbolTableRecord
100
AcDbLayerTableRecord
  2
03_ALL_CURVES
 70
0
 62
7
  6
CONTINUOUS
370
-3
390
F
  0
LAYER
  5
206
100
AcDbSymbolTableRecord
100
AcDbLayerTableRecord
  2
03__ASM_ALL_CURVES
 70
0
 62
7
  6
CONTINUOUS
370
-3
390
F
  0
LAYER
  5
207
100
AcDbSymbolTableRecord
100
AcDbLayerTableRecord
  2
03___PRT_ALL_CURVES
 70
0
 62
7
  6
CONTINUOUS
370
-3
390
F
  0
LAYER
  5
208
100
AcDbSymbolTableRecord
100
AcDbLayerTableRecord
  2
04_ALL_DTM_PNT
 70
0
 62
7
  6
CONTINUOUS
370
-3
390
F
  0
LAYER
  5
209
100
AcDbSymbolTableRecord
100
AcDbLayerTableRecord
  2
04__ASM_ALL_DTM_PNT
 70
0
 62
7
  6
CONTINUOUS
370
-3
390
F
  0
LAYER
  5
20A
100
AcDbSymbolTableRecord
100
AcDbLayerTableRecord
  2
04___PRT_ALL_DTM_PNT
 70
0
 62
7
  6
CONTINUOUS
370
-3
390
F
  0
LAYER
  5
20B
100
AcDbSymbolTableRecord
100
AcDbLayerTableRecord
  2
05_ALL_DTM_CSYS
 70
0
 62
7
  6
CONTINUOUS
370
-3
390
F
  0
LAYER
  5
20C
100
AcDbSymbolTableRecord
100
AcDbLayerTableRecord
  2
05__ASM_ALL_DTM_CSYS
 70
0
 62
7
  6
CONTINUOUS
370
-3
390
F
  0
LAYER
  5
20D
100
AcDbSymbolTableRecord
100
AcDbLayerTableRecord
  2
05__ASM_DEF_DTM_CSYS
 70
0
 62
7
  6
CONTINUOUS
370
-3
390
F
  0
LAYER
  5
20E
100
AcDbSymbolTableRecord
100
AcDbLayerTableRecord
  2
05___PRT_ALL_DTM_CSYS
 70
0
 62
7
  6
CONTINUOUS
370
-3
390
F
  0
LAYER
  5
20F
100
AcDbSymbolTableRecord
100
AcDbLayerTableRecord
  2
05___PRT_DEF_DTM_CSYS
 70
0
 62
7
  6
CONTINUOUS
370
-3
390
F
  0
LAYER
  5
210
100
AcDbSymbolTableRecord
100
AcDbLayerTableRecord
  2
06_ALL_SURFS
 70
0
 62
7
  6
CONTINUOUS
370
-3
390
F
  0
LAYER
  5
211
100
AcDbSymbolTableRecord
100
AcDbLayerTableRecord
  2
06__ASM_ALL_SURFS
 70
0
 62
7
  6
CONTINUOUS
370
-3
390
F
  0
LAYER
  5
212
100
AcDbSymbolTableRecord
100
AcDbLayerTableRecord
  2
06___PRT_ALL_SURFS
 70
0
 62
7
  6
CONTINUOUS
370
-3
390
F
  0
LAYER
  5
213
100
AcDbSymbolTableRecord
100
AcDbLayerTableRecord
  2
07__ASM_ALL_SKELETONS
 70
0
 62
7
  6
CONTINUOUS
370
-3
390
F
  0
LAYER
  5
214
100
AcDbSymbolTableRecord
100
AcDbLayerTableRecord
  2
CLOSED_SHELL
 70
0
 62
7
  6
CONTINUOUS
370
-3
390
F
  0
LAYER
  5
215
100
AcDbSymbolTableRecord
100
AcDbLayerTableRecord
  2
Colour
 70
0
 62
7
  6
CONTINUOUS
370
-3
390
F
  0
LAYER
  5
216
100
AcDbSymbolTableRecord
100
AcDbLayerTableRecord
  2
ORIENTED_CLOSED_SHE
 70
0
 62
7
  6
CONTINUOUS
370
-3
390
F
  0
ENDTAB
  0
TABLE
  2
STYLE
  5
3
100
AcDbSymbolTable
 70
1
  0
STYLE
  5
11
100
AcDbSymbolTableRecord
100
AcDbTextStyleTableRecord
  2
STANDARD
 70
0
 40
0.0
 41
0.6
 50
0.0
 71
0
 42
0.2
  3
txt
  4

  0
STYLE
  5
217
100
AcDbSymbolTableRecord
100
AcDbTextStyleTableRecord
  2
TEXTSTYLE_1
 70
0
 40
0.0
 41
0.8
 50
0.0
 71
0
 42
0.2
  3
gdt
  4

  0
ENDTAB
  0
TABLE
  2
VIEW
  5
6
100
AcDbSymbolTable
 70
0
  0
ENDTAB
  0
TABLE
  2
UCS
  5
7
100
AcDbSymbolTable
 70
0
  0
ENDTAB
  0
TABLE
  2
APPID
  5
9
100
AcDbSymbolTable
 70
1
  0
APPID
  5
218
100
AcDbSymbolTableRecord
100
AcDbRegAppTableRecord
  2
ACAD
 70
0
  0
ENDTAB
  0
TABLE
  2
BLOCK_RECORD
  5
1
100
AcDbSymbolTable
 70
0
  0
BLOCK_RECORD
  5
219
100
AcDbSymbolTableRecord
100
AcDbBlockTableRecord
  2
*Model_Space
  0
BLOCK_RECORD
  5
21A
100
AcDbSymbolTableRecord
100
AcDbBlockTableRecord
  2
*Paper_Space
  0
BLOCK_RECORD
  5
21B
100
AcDbSymbolTableRecord
100
AcDbBlockTableRecord
  2
_FILLED
  0
ENDTAB
  0
TABLE
  2
DIMSTYLE
  5
A
100
AcDbSymbolTable
 70
1
100
AcDbDimStyleTable
 71
0
  0
DIMSTYLE
105
21C
100
AcDbSymbolTableRecord
100
AcDbDimStyleTableRecord
  2
STANDARD
 70
0
  3

  4

 40
1.0
 41
3.5
 42
1.0
 43
0.38
 44
3.0
 45
0.0
 46
0.0
 47
0.0001
 48
0.0001
140
4.0
141
0.09
142
0.0
143
25.4
144
1.0
145
0.0
146
1.0
147
0.625
 71
1.0
 72
0.0
 73
0
 74
0
 75
0
 76
0
 77
1
 78
8
 79
2
170
0
171
3
172
0
173
0
174
0
175
0
176
0
177
0
178
0
270
2
179
4
271
4
272
4
273
2
274
2
275
0
280
0
281
0
282
0
283
1
284
8
285
0
286
0
287
3
288
0
340
11
278
46
341
21B
342
21B
343
21B
344
21B
  0
ENDTAB
  0
ENDSEC
  0
SECTION
  2
BLOCKS
  0
BLOCK
  5
20
100
AcDbEntity
  8
0
100
AcDbBlockBegin
  2
*Model_Space
 70
0
 10
0.0
 20
0.0
 30
0.0
  3
*Model_Space
  1

  0
ENDBLK
  5
21
100
AcDbEntity
  8
0
100
AcDbBlockEnd
  0
BLOCK
  5
1C
100
AcDbEntity
  8
0
100
AcDbBlockBegin
  2
*Paper_Space
 70
0
 10
0.0
 20
0.0
 30
0.0
  3
*Paper_Space
  1

  0
ENDBLK
  5
1D
100
AcDbEntity
  8
0
100
AcDbBlockEnd
  0
BLOCK
  5
21D
100
AcDbEntity
  8
0
100
AcDbBlockBegin
  2
_FILLED
 70
64
 10
0.0
 20
0.0
  3
_FILLED
  1

  0
SOLID
  5
21E
100
AcDbEntity
  8
0
  6
BYBLOCK
 62
0
100
AcDbTrace
 10
0.0
 20
0.0
 11
-1.0
 21
0.2857142857
 12
-1.0
 22
-0.2857142857
 13
-1.0
 23
-0.2857142857
  0
ENDBLK
  5
21F
100
AcDbEntity
  8
0
  6
BYBLOCK
 62
0
100
AcDbBlockEnd
  0
ENDSEC
  0
SECTION
  2
ENTITIES
  0
LINE
  5
220
100
AcDbEntity
  8
0
100
AcDbLine
 62
7
  6
CONTINUOUS
 10
660.7879842813
 20
191.9794857973
 11
660.7879842813
 21
194.1150932383
  0
LINE
  5
221
100
AcDbEntity
  8
0
100
AcDbLine
 62
7
  6
CONTINUOUS
 10
663.6955985556
 20
211.3427279893
 11
663.6955985556
 21
174.7518510462
  0
LINE
  5
222
100
AcDbEntity
  8
0
100
AcDbLine
 62
7
  6
CONTINUOUS
 10
668.5770009795
 20
210.5470617717
 11
668.5770009795
 21
175.5475172645
  0
LINE
  5
223
100
AcDbEntity
  8
0
100
AcDbLine
 62
7
  6
CONTINUOUS
 10
719.6618488886
 20
159.0391325822
 11
747.3016041554
 21
159.7627742285
  0
LINE
  5
224
100
AcDbEntity
  8
0
100
AcDbLine
 62
9
  6
CONTINUOUS
 10
747.3016704252
 20
159.7646628763
 11
719.5307935676
 21
159.0374569977
  0
LINE
  5
225
100
AcDbEntity
  8
0
100
AcDbLine
 62
7
  6
CONTINUOUS
 10
719.6536837928
 20
159.0588070173
 11
747.3013153341
 21
159.7826551323
  0
LINE
  5
226
100
AcDbEntity
  8
0
100
AcDbLine
 62
9
  6
CONTINUOUS
 10
747.3011165703
 20
159.867098606
 11
720.668282412
 21
159.1782533543
  0
LINE
  5
227
100
AcDbEntity
  8
0
100
AcDbLine
 62
9
  6
CONTINUOUS
 10
721.9635480033
 20
159.4298557176
 11
747.3020023524
 21
160.0840185145
  0
LINE
  5
228
100
AcDbEntity
  8
0
100
AcDbLine
 62
9
  6
CONTINUOUS
 10
747.3016106264
 20
160.6666466588
 11
723.2492571025
 21
160.0490077488
  0
LINE
  5
229
100
AcDbEntity
  8
0
100
AcDbLine
 62
7
  6
CONTINUOUS
 10
714.31777832
 20
159.0484451297
 11
714.2568727451
 21
159.0476689197
  0
LINE
  5
22A
100
AcDbEntity
  8
0
100
AcDbLine
 62
7
  6
CONTINUOUS
 10
715.9362247088
 20
159.0530316133
 11
714.31777832
 21
159.0484451297
  0
LINE
  5
22B
100
AcDbEntity
  8
0
100
AcDbLine
 62
7
  6
CONTINUOUS
 10
717.7382769968
 20
159.0554051048
 11
714.2565636546
 21
159.0476550098
  0
LINE
  5
22C
100
AcDbEntity
  8
0
100
AcDbLine
 62
7
  6
CONTINUOUS
 10
719.5307935434
 20
159.0571334195
 11
715.9362247088
 21
159.0530316133
  0
LINE
  5
22D
100
AcDbEntity
  8
0
100
AcDbLine
 62
7
  6
CONTINUOUS
 10
714.2565636489
 20
159.0468918706
 11
717.7248509433
 21
159.0391674369
  0
LWPOLYLINE
  5
22E
100
AcDbEntity
  8
0
100
AcDbPolyline
 62
7
  6
CONTINUOUS
 90
4
 70
0
 10
714.2568727413
 20
159.0469057882
 10
714.3177783118
 20
159.0461002783
 10
714.8626111345
 20
159.0437820946
 10
719.5307953677
 20
159.0374569967
  0
LINE
  5
22F
100
AcDbEntity
  8
0
100
AcDbLine
 62
9
  6
CONTINUOUS
 10
698.5582544225
 20
159.7498531868
 11
720.6697592785
 21
159.1784576125
  0
LINE
  5
230
100
AcDbEntity
  8
0
100
AcDbLine
 62
9
  6
CONTINUOUS
 10
698.3921787692
 20
160.0383071148
 11
721.9635438851
 21
159.4299485897
  0
LINE
  5
231
100
AcDbEntity
  8
0
100
AcDbLine
 62
7
  6
CONTINUOUS
 10
698.7228409122
 20
159.4536943746
 11
714.2571726698
 21
159.0469136497
  0
LINE
  5
232
100
AcDbEntity
  8
0
100
AcDbLine
 62
9
  6
CONTINUOUS
 10
698.6418869061
 20
159.6041299488
 11
719.5308632057
 21
159.0571396955
  0
LINE
  5
233
100
AcDbEntity
  8
0
100
AcDbLine
 62
9
  6
CONTINUOUS
 10
723.249257103
 20
160.0490081419
 11
698.012995901
 21
160.6970485423
  0
LINE
  5
234
100
AcDbEntity
  8
0
100
AcDbLine
 62
7
  6
CONTINUOUS
 10
723.249258517
 20
166.0750804508
 11
747.3016106266
 21
166.5607944073
  0
LINE
  5
235
100
AcDbEntity
  8
0
100
AcDbLine
 62
9
  6
CONTINUOUS
 10
748.74925673
 20
166.5604031412
 11
747.3016106266
 21
166.5607946105
  0
LINE
  5
236
100
AcDbEntity
  8
0
100
AcDbLine
 62
9
  6
CONTINUOUS
 10
697.6691903369
 20
166.5917207511
 11
723.2492585194
 21
166.0751707069
  0
LINE
  5
237
100
AcDbEntity
  8
0
100
AcDbLine
 62
7
  6
CONTINUOUS
 10
681.4832313262
 20
208.0472895178
 11
681.4832313262
 21
178.0472895178
  0
LINE
  5
238
100
AcDbEntity
  8
0
100
AcDbLine
 62
7
  6
CONTINUOUS
 10
682.34925673
 20
207.5472750372
 11
682.34925673
 21
178.5473039989
  0
LINE
  5
239
100
AcDbEntity
  8
0
100
AcDbLine
 62
7
  6
CONTINUOUS
 10
695.34925673
 20
220.812129057
 11
698.013007814
 21
225.4245215037
  0
LINE
  5
23A
100
AcDbEntity
  8
0
100
AcDbLine
 62
7
  6
CONTINUOUS
 10
698.6418888442
 20
226.5101282802
 11
698.013007814
 21
225.4245215037
  0
LINE
  5
23B
100
AcDbEntity
  8
0
100
AcDbLine
 62
7
  6
CONTINUOUS
 10
698.6418888442
 20
226.5101282802
 11
698.7228297399
 21
226.64086531
  0
LINE
  5
23C
100
AcDbEntity
  8
0
100
AcDbLine
 62
9
  6
CONTINUOUS
 10
697.3537606135
 20
169.516577537
 11
695.34925673
 21
169.5145682751
  0
LINE
  5
23D
100
AcDbEntity
  8
0
100
AcDbLine
 62
7
  6
CONTINUOUS
 10
698.6418888442
 20
159.5844507554
 11
697.7115546429
 21
161.190830656
  0
LINE
  5
23E
100
AcDbEntity
  8
0
100
AcDbLine
 62
7
  6
CONTINUOUS
 10
697.7115546429
 20
161.190830656
 11
695.34925673
 21
165.2824499785
  0
LINE
  5
23F
100
AcDbEntity
  8
0
100
AcDbLine
 62
7
  6
CONTINUOUS
 10
695.34925673
 20
165.312138351
 11
698.3921801582
 21
160.0383600204
  0
LINE
  5
240
100
AcDbEntity
  8
0
100
AcDbLine
 62
7
  6
CONTINUOUS
 10
698.3921801582
 20
160.0383600204
 11
698.6418869228
 21
159.6041305874
  0
LINE
  5
241
100
AcDbEntity
  8
0
100
AcDbLine
 62
7
  6
CONTINUOUS
 10
689.0992567301
 20
207.2972871315
 11
688.24925673
 21
206.4472872738
  0
LINE
  5
242
100
AcDbEntity
  8
0
100
AcDbLine
 62
7
  6
CONTINUOUS
 10
689.0992567301
 20
178.797291904
 11
688.24925673
 21
179.6472917617
  0
LINE
  5
243
100
AcDbEntity
  8
0
100
AcDbLine
 62
7
  6
CONTINUOUS
 10
698.7228297399
 20
159.4537137255
 11
698.6418869228
 21
159.6041305874
  0
LINE
  5
244
100
AcDbEntity
  8
0
100
AcDbLine
 62
7
  6
CONTINUOUS
 10
688.24925673
 20
206.4472872738
 11
688.24925673
 21
179.6472917617
  0
LINE
  5
245
100
AcDbEntity
  8
0
100
AcDbLine
 62
7
  6
CONTINUOUS
 10
689.0992567301
 20
178.7972919041
 11
689.0992567301
 21
207.2972871315
  0
LINE
  5
246
100
AcDbEntity
  8
0
100
AcDbLine
 62
7
  6
CONTINUOUS
 10
681.4832313262
 20
178.0472895178
 11
668.5770009795
 21
178.0472895178
  0
LINE
  5
247
100
AcDbEntity
  8
0
100
AcDbLine
 62
7
  6
CONTINUOUS
 10
695.34925673
 20
178.1464216887
 11
694.34925673
 21
178.1464216887
  0
LINE
  5
248
100
AcDbEntity
  8
0
100
AcDbLine
 62
7
  6
CONTINUOUS
 10
694.34925673
 20
178.1481600948
 11
695.34925673
 21
178.1481600948
  0
LINE
  5
249
100
AcDbEntity
  8
0
100
AcDbLine
 62
7
  6
CONTINUOUS
 10
692.34925673
 20
208.0892427805
 11
692.34925673
 21
217.9553295667
  0
LINE
  5
24A
100
AcDbEntity
  8
0
100
AcDbLine
 62
7
  6
CONTINUOUS
 10
694.09925673
 20
207.2972871315
 11
694.09925673
 21
178.7972919041
  0
LINE
  5
24B
100
AcDbEntity
  8
0
100
AcDbLine
 62
7
  6
CONTINUOUS
 10
689.0992567301
 20
178.7972919041
 11
694.09925673
 21
178.7972919041
  0
LINE
  5
24C
100
AcDbEntity
  8
0
100
AcDbLine
 62
7
  6
CONTINUOUS
 10
694.09925673
 20
179.472291791
 11
694.34925673
 21
179.472291791
  0
LINE
  5
24D
100
AcDbEntity
  8
0
100
AcDbLine
 62
7
  6
CONTINUOUS
 10
688.24925673
 20
179.6472917617
 11
682.34925673
 21
179.6472917617
  0
LINE
  5
24E
100
AcDbEntity
  8
0
100
AcDbLine
 62
7
  6
CONTINUOUS
 10
694.34925673
 20
178.1472920137
 11
694.34925673
 21
209.1059097702
  0
LINE
  5
24F
100
AcDbEntity
  8
0
100
AcDbLine
 62
7
  6
CONTINUOUS
 10
695.34925673
 20
165.2824499785
 11
695.34925673
 21
220.812129057
  0
LINE
  5
250
100
AcDbEntity
  8
0
100
AcDbLine
 62
7
  6
CONTINUOUS
 10
697.3537606135
 20
169.516577537
 11
697.3537606135
 21
216.6165696493
  0
LINE
  5
251
100
AcDbEntity
  8
0
100
AcDbLine
 62
7
  6
CONTINUOUS
 10
694.34925673
 20
188.002788009
 11
694.09925673
 21
188.002788009
  0
LINE
  5
252
100
AcDbEntity
  8
0
100
AcDbLine
 62
9
  6
CONTINUOUS
 10
695.34925673
 20
191.5559127083
 11
694.34925673
 21
191.5559127083
  0
LINE
  5
253
100
AcDbEntity
  8
0
100
AcDbLine
 62
7
  6
CONTINUOUS
 10
694.09925673
 20
192.1551430181
 11
694.34925673
 21
192.1551430181
  0
LINE
  5
254
100
AcDbEntity
  8
0
100
AcDbLine
 62
9
  6
CONTINUOUS
 10
747.3015945218
 20
159.7826659937
 11
747.3012173046
 21
159.7829641107
  0
LINE
  5
255
100
AcDbEntity
  8
0
100
AcDbLine
 62
7
  6
CONTINUOUS
 10
682.34925673
 20
178.5472895178
 11
681.4832313262
 21
178.0472895178
  0
LINE
  5
256
100
AcDbEntity
  8
0
100
AcDbLine
 62
7
  6
CONTINUOUS
 10
694.34925673
 20
193.9551427166
 11
694.09925673
 21
193.9551427166
  0
LINE
  5
257
100
AcDbEntity
  8
0
100
AcDbLine
 62
7
  6
CONTINUOUS
 10
682.3492567299
 20
207.5472895179
 11
681.4832313262
 21
208.0472895178
  0
LINE
  5
258
100
AcDbEntity
  8
0
100
AcDbLine
 62
7
  6
CONTINUOUS
 10
694.09925673
 20
198.1063747884
 11
694.34925673
 21
198.1063747884
  0
LINE
  5
259
100
AcDbEntity
  8
0
100
AcDbLine
 62
7
  6
CONTINUOUS
 10
714.2568727451
 20
159.0476689197
 11
714.2568727413
 21
159.0469057882
  0
LINE
  5
25A
100
AcDbEntity
  8
0
100
AcDbLine
 62
7
  6
CONTINUOUS
 10
688.24925673
 20
206.4472872738
 11
682.34925673
 21
206.4472872738
  0
LINE
  5
25B
100
AcDbEntity
  8
0
100
AcDbLine
 62
7
  6
CONTINUOUS
 10
694.09925673
 20
206.6222872445
 11
694.34925673
 21
206.6222872445
  0
LINE
  5
25C
100
AcDbEntity
  8
0
100
AcDbLine
 62
7
  6
CONTINUOUS
 10
689.0992567301
 20
207.2972871315
 11
694.09925673
 21
207.2972871315
  0
LINE
  5
25D
100
AcDbEntity
  8
0
100
AcDbLine
 62
7
  6
CONTINUOUS
 10
681.4832313262
 20
208.0472895178
 11
668.5770009795
 21
208.0472895178
  0
LINE
  5
25E
100
AcDbEntity
  8
0
100
AcDbLine
 62
7
  6
CONTINUOUS
 10
694.34925673
 20
208.0892427805
 11
692.34925673
 21
208.0892427805
  0
LINE
  5
25F
100
AcDbEntity
  8
0
100
AcDbLine
 62
7
  6
CONTINUOUS
 10
692.34925673
 20
208.1053312162
 11
694.34925673
 21
208.1053312162
  0
LINE
  5
260
100
AcDbEntity
  8
0
100
AcDbLine
 62
7
  6
CONTINUOUS
 10
723.2491503186
 20
162.0816270014
 11
723.2491684222
 21
161.7288387535
  0
LINE
  5
261
100
AcDbEntity
  8
0
100
AcDbLine
 62
7
  6
CONTINUOUS
 10
723.249257103
 20
160.0490081419
 11
723.249257103
 21
161.7238656164
  0
LINE
  5
262
100
AcDbEntity
  8
0
100
AcDbLine
 62
7
  6
CONTINUOUS
 10
723.2493718942
 20
224.0766919039
 11
723.2493033374
 21
226.072692139
  0
LINE
  5
263
100
AcDbEntity
  8
0
100
AcDbLine
 62
7
  6
CONTINUOUS
 10
723.2492559052
 20
220.0588586127
 11
723.2493703432
 21
165.0999733455
  0
LINE
  5
264
100
AcDbEntity
  8
0
100
AcDbLine
 62
7
  6
CONTINUOUS
 10
723.2491437138
 20
221.0667980479
 11
723.2493737481
 21
224.073218501
  0
LINE
  5
265
100
AcDbEntity
  8
0
100
AcDbLine
 62
7
  6
CONTINUOUS
 10
723.2493723255
 20
165.0707309835
 11
723.2491505
 21
162.0993234515
  0
LINE
  5
266
100
AcDbEntity
  8
0
100
AcDbLine
 62
9
  6
CONTINUOUS
 10
694.34925673
 20
209.1059097702
 11
692.34925673
 21
209.1059097702
  0
LINE
  5
267
100
AcDbEntity
  8
0
100
AcDbLine
 62
9
  6
CONTINUOUS
 10
695.34925673
 20
216.6145603874
 11
697.3537606135
 21
216.6165696493
  0
LINE
  5
268
100
AcDbEntity
  8
0
100
AcDbLine
 62
9
  6
CONTINUOUS
 10
692.34925673
 20
216.9559084552
 11
695.34925673
 21
216.9559084552
  0
LINE
  5
269
100
AcDbEntity
  8
0
100
AcDbLine
 62
7
  6
CONTINUOUS
 10
695.34925673
 20
217.9553295667
 11
692.34925673
 21
217.9553295667
  0
LINE
  5
26A
100
AcDbEntity
  8
0
100
AcDbLine
 62
7
  6
CONTINUOUS
 10
723.2492559052
 20
220.0588586127
 11
697.6684062964
 21
219.5414287974
  0
LINE
  5
26B
100
AcDbEntity
  8
0
100
AcDbLine
 62
9
  6
CONTINUOUS
 10
747.3016106266
 20
219.572393535
 11
748.74925673
 21
219.5720020657
  0
LINE
  5
26C
100
AcDbEntity
  8
0
100
AcDbLine
 62
9
  6
CONTINUOUS
 10
747.3016106266
 20
219.5723607777
 11
723.2492559063
 21
220.0587706048
  0
LINE
  5
26D
100
AcDbEntity
  8
0
100
AcDbLine
 62
9
  6
CONTINUOUS
 10
698.6418882085
 20
226.5101244081
 11
719.5308815481
 21
227.0571218578
  0
LINE
  5
26E
100
AcDbEntity
  8
0
100
AcDbLine
 62
7
  6
CONTINUOUS
 10
714.2571726588
 20
227.0476653856
 11
698.7228409122
 21
226.6408846609
  0
LINE
  5
26F
100
AcDbEntity
  8
0
100
AcDbLine
 62
9
  6
CONTINUOUS
 10
721.9617710799
 20
226.6882131199
 11
698.3919593569
 21
226.0790176369
  0
LINE
  5
270
100
AcDbEntity
  8
0
100
AcDbLine
 62
9
  6
CONTINUOUS
 10
698.5579802147
 20
226.3656200375
 11
720.6689147225
 21
226.9377646234
  0
LINE
  5
271
100
AcDbEntity
  8
0
100
AcDbLine
 62
9
  6
CONTINUOUS
 10
698.0129961015
 20
225.4245012073
 11
723.2493033374
 21
226.072692139
  0
LINE
  5
272
100
AcDbEntity
  8
0
100
AcDbLine
 62
9
  6
CONTINUOUS
 10
723.2493032736
 20
226.0726894088
 11
747.3016110043
 21
225.4549093363
  0
LINE
  5
273
100
AcDbEntity
  8
0
100
AcDbLine
 62
7
  6
CONTINUOUS
 10
714.2568727615
 20
227.0476732462
 11
714.317778303
 21
227.048478756
  0
LINE
  5
274
100
AcDbEntity
  8
0
100
AcDbLine
 62
7
  6
CONTINUOUS
 10
714.317778303
 20
227.048478756
 11
715.9362246432
 21
227.053027048
  0
LINE
  5
275
100
AcDbEntity
  8
0
100
AcDbLine
 62
7
  6
CONTINUOUS
 10
714.2565636673
 20
227.047687164
 11
719.5307936094
 21
227.0571220849
  0
LINE
  5
276
100
AcDbEntity
  8
0
100
AcDbLine
 62
7
  6
CONTINUOUS
 10
715.9362246432
 20
227.053027048
 11
719.5307936094
 21
227.0571220849
  0
LINE
  5
277
100
AcDbEntity
  8
0
100
AcDbLine
 62
9
  6
CONTINUOUS
 10
747.3031735617
 20
226.0333428489
 11
721.9618680582
 21
226.6883251194
  0
LINE
  5
278
100
AcDbEntity
  8
0
100
AcDbLine
 62
9
  6
CONTINUOUS
 10
747.3022867807
 20
226.2488052319
 11
720.6681974885
 21
226.9378184011
  0
LINE
  5
279
100
AcDbEntity
  8
0
100
AcDbLine
 62
7
  6
CONTINUOUS
 10
747.3016041565
 20
226.331804807
 11
719.661778034
 21
227.0554483084
  0
LINE
  5
27A
100
AcDbEntity
  8
0
100
AcDbLine
 62
9
  6
CONTINUOUS
 10
747.3027697927
 20
226.2487318678
 11
747.3011782252
 21
226.2784328631
  0
LINE
  5
27B
100
AcDbEntity
  8
0
100
AcDbLine
 62
9
  6
CONTINUOUS
 10
747.301751099
 20
226.3131650796
 11
747.3015588621
 21
226.3296940624
  0
LINE
  5
27C
100
AcDbEntity
  8
0
100
AcDbLine
 62
9
  6
CONTINUOUS
 10
747.3022867807
 20
226.2488052319
 11
747.3031735617
 21
226.0333428489
  0
LINE
  5
27D
100
AcDbEntity
  8
0
100
AcDbLine
 62
9
  6
CONTINUOUS
 10
747.3016110043
 20
225.4549093363
 11
747.3016110043
 21
223.9245106434
  0
LINE
  5
27E
100
AcDbEntity
  8
0
100
AcDbLine
 62
9
  6
CONTINUOUS
 10
747.3016106266
 20
219.5723607777
 11
747.3016106266
 21
166.5607944073
  0
LINE
  5
27F
100
AcDbEntity
  8
0
100
AcDbLine
 62
9
  6
CONTINUOUS
 10
747.3016106264
 20
162.2047962221
 11
747.3016106264
 21
160.6666466588
  0
LINE
  5
280
100
AcDbEntity
  8
0
100
AcDbLine
 62
7
  6
CONTINUOUS
 10
748.74925673
 20
160.4392219554
 11
748.74925673
 21
225.655357096
  0
LINE
  5
281
100
AcDbEntity
  8
0
100
AcDbLine
 62
9
  6
CONTINUOUS
 10
747.3016718098
 20
159.782678709
 11
747.3016704272
 21
159.7646739334
  0
LINE
  5
282
100
AcDbEntity
  8
0
100
AcDbLine
 62
9
  6
CONTINUOUS
 10
747.3020023524
 20
160.0840185145
 11
747.301556312
 21
159.8285944806
  0
LINE
  5
283
100
AcDbEntity
  8
0
100
AcDbLine
 62
9
  6
CONTINUOUS
 10
747.3012173046
 20
159.7829641107
 11
747.301556312
 21
159.8285944806
  0
LINE
  5
284
100
AcDbEntity
  8
0
100
AcDbLine
 62
9
  6
CONTINUOUS
 10
747.3011782252
 20
226.2784328631
 11
747.301751099
 21
226.3131650796
  0
LINE
  5
285
100
AcDbEntity
  8
0
100
AcDbLine
 62
9
  6
CONTINUOUS
 10
747.3015588621
 20
226.3296940624
 11
747.3016172659
 21
226.331801375
  0
LINE
  5
286
100
AcDbEntity
  8
0
100
AcDbLine
 62
9
  6
CONTINUOUS
 10
747.3016172692
 20
159.7627776619
 11
747.3016706773
 21
159.7646744402
  0
ARC
  5
287
100
AcDbEntity
  8
0
100
AcDbCircle
 62
7
  6
CONTINUOUS
 10
746.3869737627
 20
30.3309998656
 40
131.3888978897
100
AcDbArc
 50
100.7128249927
 51
101.2875783065
  0
ARC
  5
288
100
AcDbEntity
  8
0
100
AcDbCircle
 62
7
  6
CONTINUOUS
 10
745.9569060259
 20
354.4740171394
 40
130.0191455517
100
AcDbArc
 50
258.7848126084
 51
259.3650568748
  0
ARC
  5
289
100
AcDbEntity
  8
0
100
AcDbCircle
 62
9
  6
CONTINUOUS
 10
683.9377466515
 20
160.4671896735
 40
63.3641844622
100
AcDbArc
 50
359.653315336
 51
0.1803098641
  0
ARC
  5
28A
100
AcDbEntity
  8
0
100
AcDbCircle
 62
7
  6
CONTINUOUS
 10
713.1675942143
 20
191.9606590072
 40
52.379609933
100
AcDbArc
 50
180.0
 51
199.1802670431
  0
ARC
  5
28B
100
AcDbEntity
  8
0
100
AcDbCircle
 62
7
  6
CONTINUOUS
 10
713.1675942143
 20
194.1339200284
 40
52.379609933
100
AcDbArc
 50
160.8197329569
 51
180.0
  0
ARC
  5
28C
100
AcDbEntity
  8
0
100
AcDbCircle
 62
7
  6
CONTINUOUS
 10
719.532896187
 20
163.9571885426
 40
4.9197465335
100
AcDbArc
 50
271.0106912369
 51
271.5011152689
  0
ARC
  5
28D
100
AcDbEntity
  8
0
100
AcDbCircle
 62
7
  6
CONTINUOUS
 10
719.5344726752
 20
222.2142448493
 40
4.8428773482
100
AcDbArc
 50
88.4939518344
 51
90.0429311794
  0
ARC
  5
28E
100
AcDbEntity
  8
0
100
AcDbCircle
 62
7
  6
CONTINUOUS
 10
719.5347212358
 20
163.8442903839
 40
4.8068337502
100
AcDbArc
 50
269.9537841483
 51
271.0126775628
  0
ARC
  5
28F
100
AcDbEntity
  8
0
100
AcDbCircle
 62
7
  6
CONTINUOUS
 10
666.0770009795
 20
210.5472895178
 40
2.5
100
AcDbArc
 50
0.0000000106
 51
162.2810681239
  0
ARC
  5
290
100
AcDbEntity
  8
0
100
AcDbCircle
 62
7
  6
CONTINUOUS
 10
666.0770009795
 20
175.5472895178
 40
2.5
100
AcDbArc
 50
197.7189318761
 51
360.0
  0
ARC
  5
291
100
AcDbEntity
  8
0
100
AcDbCircle
 62
9
  6
CONTINUOUS
 10
747.2511576456
 20
224.241531443
 40
2.0078620705
100
AcDbArc
 50
41.7449428886
 51
88.5270496424
  0
ARC
  5
292
100
AcDbEntity
  8
0
100
AcDbCircle
 62
9
  6
CONTINUOUS
 10
747.2514601336
 20
161.8736740717
 40
2.0071459985
100
AcDbArc
 50
271.4314047856
 51
318.264941058
  0
ARC
  5
293
100
AcDbEntity
  8
0
100
AcDbCircle
 62
7
  6
CONTINUOUS
 10
747.2492603843
 20
161.7620922549
 40
2.0000000213
100
AcDbArc
 50
271.4997075194
 51
318.5902189266
  0
ARC
  5
294
100
AcDbEntity
  8
0
100
AcDbCircle
 62
7
  6
CONTINUOUS
 10
747.2492603855
 20
224.3324867826
 40
2.0000000213
100
AcDbArc
 50
41.4097811237
 51
88.5002924805
  0
ARC
  5
295
100
AcDbEntity
  8
0
100
AcDbCircle
 62
7
  6
CONTINUOUS
 10
747.2492605207
 20
161.78198118
 40
2.0000000155
100
AcDbArc
 50
271.4994303461
 51
318.5902132095
  0
ARC
  5
296
100
AcDbEntity
  8
0
100
AcDbCircle
 62
9
  6
CONTINUOUS
 10
747.2494438652
 20
161.7638638996
 40
1.9998715295
100
AcDbArc
 50
271.4964541967
 51
318.5868244326
  0
SPLINE
  5
297
100
AcDbEntity
  8
0
100
AcDbSpline
 62
7
  6
CONTINUOUS
 70
0
 71
3
 72
8
 73
4
 74
0
 42
0.0000001
 43
0.0000001
 44
0.0000000001
 40
0.0
 40
0.0
 40
0.0
 40
0.0
 40
1.0
 40
1.0
 40
1.0
 40
1.0
 10
719.5308632057
 20
159.0571396955
 30
0.0
 10
719.5717108798
 20
159.0570703216
 30
0.0
 10
719.6125612214
 20
159.0577461441
 30
0.0
 10
719.653394936
 20
159.0588162153
 30
0.0
  0
SPLINE
  5
298
100
AcDbEntity
  8
0
100
AcDbSpline
 62
7
  6
CONTINUOUS
 70
0
 71
3
 72
9
 73
5
 74
0
 42
0.0000001
 43
0.0000001
 44
0.0000000001
 40
0.0
 40
0.0
 40
0.0
 40
0.0
 40
0.2421797604
 40
1.0
 40
1.0
 40
1.0
 40
1.0
 10
719.653394936
 20
159.0588162153
 30
0.0
 10
719.7359256753
 20
159.0609789812
 30
0.0
 10
720.0764941072
 20
159.0782862808
 30
0.0
 10
720.4149400324
 20
159.1281609184
 30
0.0
 10
720.6683250253
 20
159.1785202665
 30
0.0
  0
SPLINE
  5
299
100
AcDbEntity
  8
0
100
AcDbSpline
 62
7
  6
CONTINUOUS
 70
0
 71
3
 72
14
 73
10
 74
0
 42
0.0000001
 43
0.0000001
 44
0.0000000001
 40
0.0
 40
0.0
 40
0.0
 40
0.0
 40
0.0615574769
 40
0.1334707656
 40
0.2226790334
 40
0.3328912131
 40
0.465919599
 40
0.6218404928
 40
1.0
 40
1.0
 40
1.0
 40
1.0
 10
723.2492580648
 20
226.0726349669
 30
0.0
 10
723.2494020825
 20
226.1032656358
 30
0.0
 10
723.232102923
 20
226.1702188419
 30
0.0
 10
723.1628433265
 20
226.2590253857
 30
0.0
 10
723.0556163539
 20
226.3424091913
 30
0.0
 10
722.9096854791
 20
226.4213934978
 30
0.0
 10
722.7253050049
 20
226.495979168
 30
0.0
 10
722.4086099182
 20
226.5961862445
 30
0.0
 10
722.1485164299
 20
226.6534469558
 30
0.0
 10
721.9635410619
 20
226.6879852702
 30
0.0
  0
SPLINE
  5
29A
100
AcDbEntity
  8
0
100
AcDbSpline
 62
7
  6
CONTINUOUS
 70
0
 71
3
 72
10
 73
6
 74
0
 42
0.0000001
 43
0.0000001
 44
0.0000000001
 40
0.0
 40
0.0
 40
0.0
 40
0.0
 40
0.2581539426
 40
0.511146575
 40
1.0
 40
1.0
 40
1.0
 40
1.0
 10
720.6681917398
 20
226.9378710823
 30
0.0
 10
720.5827666844
 20
226.9557733289
 30
0.0
 10
720.412358614
 20
226.9850877408
 30
0.0
 10
720.0775588949
 20
227.0321912971
 30
0.0
 10
719.826978096
 20
227.0511224
 30
0.0
 10
719.6617554654
 20
227.0554492554
 30
0.0
  0
SPLINE
  5
29B
100
AcDbEntity
  8
0
100
AcDbSpline
 62
7
  6
CONTINUOUS
 70
0
 71
3
 72
14
 73
10
 74
0
 42
0.0000001
 43
0.0000001
 44
0.0000000001
 40
0.0
 40
0.0
 40
0.0
 40
0.0
 40
0.3780130957
 40
0.5336979302
 40
0.6665098051
 40
0.7767314486
 40
0.866083747
 40
0.9381851739
 40
1.0
 40
1.0
 40
1.0
 40
1.0
 10
721.9635409804
 20
159.429839411
 30
0.0
 10
722.1486567458
 20
159.4646404861
 30
0.0
 10
722.4088953346
 20
159.5221027729
 30
0.0
 10
722.7255282986
 20
159.6230644171
 30
0.0
 10
722.9097204479
 20
159.6982613433
 30
0.0
 10
723.0555955987
 20
159.7777452679
 30
0.0
 10
723.1629219508
 20
159.8615917993
 30
0.0
 10
723.2321787449
 20
159.9509844583
 30
0.0
 10
723.249402311
 20
160.0182629877
 30
0.0
 10
723.2492582235
 20
160.0490641073
 30
0.0
  0
SPLINE
  5
29C
100
AcDbEntity
  8
0
100
AcDbSpline
 62
7
  6
CONTINUOUS
 70
0
 71
3
 72
13
 73
9
 74
0
 42
0.0000001
 43
0.0000001
 44
0.0000000001
 40
0.0
 40
0.0
 40
0.0
 40
0.0
 40
0.0593689571
 40
0.1411948005
 40
0.2454726644
 40
0.3702566537
 40
0.6675326765
 40
1.0
 40
1.0
 40
1.0
 40
1.0
 10
697.8113708716
 20
162.2325447581
 30
0.0
 10
697.8592999707
 20
162.3055512544
 30
0.0
 10
697.9330231721
 20
162.5037148086
 30
0.0
 10
697.9958385407
 20
162.8593689236
 30
0.0
 10
698.0265586584
 20
163.3166022439
 30
0.0
 10
698.0217550707
 20
164.0911558049
 30
0.0
 10
697.9218347329
 20
165.1984078031
 30
0.0
 10
697.7689780044
 20
166.1130008141
 30
0.0
 10
697.6691811733
 20
166.5917800935
 30
0.0
  0
SPLINE
  5
29D
100
AcDbEntity
  8
0
100
AcDbSpline
 62
7
  6
CONTINUOUS
 70
0
 71
3
 72
9
 73
5
 74
0
 42
0.0000001
 43
0.0000001
 44
0.0000000001
 40
0.0
 40
0.0
 40
0.0
 40
0.0
 40
0.5000203297
 40
1.0
 40
1.0
 40
1.0
 40
1.0
 10
697.6691903369
 20
166.5917207511
 30
0.0
 10
697.5690097942
 20
167.0723788408
 30
0.0
 10
697.4092408122
 20
168.0429065515
 30
0.0
 10
697.3537606134
 20
169.0256303476
 30
0.0
 10
697.3537606134
 20
169.5165775308
 30
0.0
  0
SPLINE
  5
29E
100
AcDbEntity
  8
0
100
AcDbSpline
 62
9
  6
CONTINUOUS
 70
0
 71
3
 72
10
 73
6
 74
0
 42
0.0000001
 43
0.0000001
 44
0.0000000001
 40
0.0
 40
0.0
 40
0.0
 40
0.0
 40
0.2499968592
 40
0.6250029406
 40
1.0
 40
1.0
 40
1.0
 40
1.0
 10
723.2492560436
 20
161.7238398769
 30
0.0
 10
721.1294579344
 20
161.7661834245
 30
0.0
 10
715.8298379184
 20
161.8703796023
 30
0.0
 10
707.3506183166
 20
162.043717179
 30
0.0
 10
700.9910802059
 20
162.1688869844
 30
0.0
 10
697.8113708716
 20
162.2325447581
 30
0.0
  0
SPLINE
  5
29F
100
AcDbEntity
  8
0
100
AcDbSpline
 62
7
  6
CONTINUOUS
 70
0
 71
3
 72
10
 73
6
 74
0
 42
0.0000001
 43
0.0000001
 44
0.0000000001
 40
0.0
 40
0.0
 40
0.0
 40
0.0
 40
0.5222097436
 40
0.7565457917
 40
1.0
 40
1.0
 40
1.0
 40
1.0
 10
697.8113713696
 20
162.2325634224
 30
0.0
 10
697.7069230841
 20
162.0734801721
 30
0.0
 10
697.5832214823
 20
161.8082623441
 30
0.0
 10
697.6107240515
 20
161.4379992807
 30
0.0
 10
697.6801353992
 20
161.2751372664
 30
0.0
 10
697.724410086
 20
161.1982527517
 30
0.0
  0
SPLINE
  5
2A0
100
AcDbEntity
  8
0
100
AcDbSpline
 62
7
  6
CONTINUOUS
 70
0
 71
3
 72
8
 73
4
 74
0
 42
0.0000001
 43
0.0000001
 44
0.0000000001
 40
0.0
 40
0.0
 40
0.0
 40
0.0
 40
1.0
 40
1.0
 40
1.0
 40
1.0
 10
747.3017426398
 20
162.1998320253
 30
0.0
 10
739.2842062111
 20
162.0434323659
 30
0.0
 10
731.2667049655
 20
161.8852325411
 30
0.0
 10
723.2491684222
 20
161.7288387535
 30
0.0
  0
LINE
  5
2A1
100
AcDbEntity
  8
0
100
AcDbLine
 62
7
  6
CONTINUOUS
 10
723.2493703432
 20
165.0999733455
 11
723.2493723255
 21
165.0707309835
  0
LINE
  5
2A2
100
AcDbEntity
  8
0
100
AcDbLine
 62
7
  6
CONTINUOUS
 10
723.2491505
 20
162.0993234515
 11
723.2491503186
 21
162.0816270014
  0
SPLINE
  5
2A3
100
AcDbEntity
  8
0
100
AcDbSpline
 62
9
  6
CONTINUOUS
 70
0
 71
3
 72
11
 73
7
 74
0
 42
0.0000001
 43
0.0000001
 44
0.0000000001
 40
0.0
 40
0.0
 40
0.0
 40
0.0
 40
0.137821392
 40
0.3681011733
 40
0.6661417207
 40
1.0
 40
1.0
 40
1.0
 40
1.0
 10
747.3016116146
 20
162.2048222634
 30
0.0
 10
747.3087408699
 20
162.4048164437
 30
0.0
 10
747.3134843703
 20
162.9393828489
 30
0.0
 10
747.3167633117
 20
163.9065877118
 30
0.0
 10
747.3124340157
 20
165.1585216992
 30
0.0
 10
747.3059707428
 20
166.0760323751
 30
0.0
 10
747.3016117519
 20
166.5607860162
 30
0.0
  0
SPLINE
  5
2A4
100
AcDbEntity
  8
0
100
AcDbSpline
 62
9
  6
CONTINUOUS
 70
0
 71
3
 72
9
 73
5
 74
0
 42
0.0000001
 43
0.0000001
 44
0.0000000001
 40
0.0
 40
0.0
 40
0.0
 40
0.0
 40
0.4824053103
 40
1.0
 40
1.0
 40
1.0
 40
1.0
 10
747.3016110041
 20
225.4549092101
 30
0.0
 10
747.5629523705
 20
225.4481966446
 30
0.0
 10
748.1069944831
 20
225.3284253645
 30
0.0
 10
748.561714966
 20
224.9999970745
 30
0.0
 10
748.7492567275
 20
224.7914138226
 30
0.0
  0
SPLINE
  5
2A5
100
AcDbEntity
  8
0
100
AcDbSpline
 62
9
  6
CONTINUOUS
 70
0
 71
3
 72
9
 73
5
 74
0
 42
0.0000001
 43
0.0000001
 44
0.0000000001
 40
0.0
 40
0.0
 40
0.0
 40
0.0
 40
0.5182537589
 40
1.0
 40
1.0
 40
1.0
 40
1.0
 10
748.7492494193
 20
225.3643152379
 30
0.0
 10
748.5620565009
 20
225.574367212
 30
0.0
 10
748.1080831325
 20
225.9057167554
 30
0.0
 10
747.5630479097
 20
226.0269538123
 30
0.0
 10
747.3015962779
 20
226.0337272642
 30
0.0
  0
SPLINE
  5
2A6
100
AcDbEntity
  8
0
100
AcDbSpline
 62
9
  6
CONTINUOUS
 70
0
 71
3
 72
9
 73
5
 74
0
 42
0.0000001
 43
0.0000001
 44
0.0000000001
 40
0.0
 40
0.0
 40
0.0
 40
0.0
 40
0.5166318459
 40
1.0
 40
1.0
 40
1.0
 40
1.0
 10
748.7492462031
 20
223.2696786825
 30
0.0
 10
748.5611865323
 20
223.4761021993
 30
0.0
 10
748.1053845621
 20
223.8002348489
 30
0.0
 10
747.5627911466
 20
223.917872609
 30
0.0
 10
747.3016105344
 20
223.9244932742
 30
0.0
  0
LINE
  5
2A7
100
AcDbEntity
  8
0
100
AcDbLine
 62
7
  6
CONTINUOUS
 10
723.2490311304
 20
221.0659499763
 11
723.2491420259
 21
221.034024295
  0
LINE
  5
2A8
100
AcDbEntity
  8
0
100
AcDbLine
 62
7
  6
CONTINUOUS
 10
723.2491420259
 20
221.034024295
 11
723.2492558327
 21
220.0587705494
  0
SPLINE
  5
2A9
100
AcDbEntity
  8
0
100
AcDbSpline
 62
9
  6
CONTINUOUS
 70
0
 71
3
 72
11
 73
7
 74
0
 42
0.0000001
 43
0.0000001
 44
0.0000000001
 40
0.0
 40
0.0
 40
0.0
 40
0.0
 40
0.3340965438
 40
0.6322184923
 40
0.8624142847
 40
1.0
 40
1.0
 40
1.0
 40
1.0
 10
747.3016095623
 20
219.5723607709
 30
0.0
 10
747.3059679455
 20
220.0570337422
 30
0.0
 10
747.3124294548
 20
220.9742011442
 30
0.0
 10
747.3167649367
 20
222.2253763554
 30
0.0
 10
747.3134771539
 20
223.1913841658
 30
0.0
 10
747.3087523298
 20
223.7250178085
 30
0.0
 10
747.3016100812
 20
223.9244932874
 30
0.0
  0
SPLINE
  5
2AA
100
AcDbEntity
  8
0
100
AcDbSpline
 62
9
  6
CONTINUOUS
 70
0
 71
3
 72
9
 73
5
 74
0
 42
0.0000001
 43
0.0000001
 44
0.0000000001
 40
0.0
 40
0.0
 40
0.0
 40
0.0
 40
0.4833896378
 40
1.0
 40
1.0
 40
1.0
 40
1.0
 10
747.3016099186
 20
162.2048106568
 30
0.0
 10
747.5627857256
 20
162.2114291665
 30
0.0
 10
748.1053443203
 20
162.3290187258
 30
0.0
 10
748.5611682847
 20
162.6530533802
 30
0.0
 10
748.7492388965
 20
162.8594274048
 30
0.0
  0
SPLINE
  5
2AB
100
AcDbEntity
  8
0
100
AcDbSpline
 62
9
  6
CONTINUOUS
 70
0
 71
3
 72
9
 73
5
 74
0
 42
0.0000001
 43
0.0000001
 44
0.0000000001
 40
0.0
 40
0.0
 40
0.0
 40
0.0
 40
0.51757779
 40
1.0
 40
1.0
 40
1.0
 40
1.0
 10
748.7492557493
 20
161.3299907029
 30
0.0
 10
748.5617050823
 20
161.1214453391
 30
0.0
 10
748.1069652738
 20
160.7930929569
 30
0.0
 10
747.5629489753
 20
160.6733594503
 30
0.0
 10
747.3016105813
 20
160.6666485581
 30
0.0
  0
SPLINE
  5
2AC
100
AcDbEntity
  8
0
100
AcDbSpline
 62
9
  6
CONTINUOUS
 70
0
 71
3
 72
9
 73
5
 74
0
 42
0.0000001
 43
0.0000001
 44
0.0000000001
 40
0.0
 40
0.0
 40
0.0
 40
0.0
 40
0.5182273008
 40
1.0
 40
1.0
 40
1.0
 40
1.0
 10
748.7492556022
 20
160.7532748693
 30
0.0
 10
748.5620618081
 20
160.5432553848
 30
0.0
 10
748.1080603018
 20
160.2119875346
 30
0.0
 10
747.5630536465
 20
160.0907413033
 30
0.0
 10
747.3015962759
 20
160.0839688472
 30
0.0
  0
SPLINE
  5
2AD
100
AcDbEntity
  8
0
100
AcDbSpline
 62
9
  6
CONTINUOUS
 70
0
 71
3
 72
9
 73
5
 74
0
 42
0.0000001
 43
0.0000001
 44
0.0000000001
 40
0.0
 40
0.0
 40
0.0
 40
0.0
 40
0.3014297986
 40
1.0
 40
1.0
 40
1.0
 40
1.0
 10
747.3016447418
 20
225.4549588268
 30
0.0
 10
747.3017580204
 20
225.5131295769
 30
0.0
 10
747.3019745213
 20
225.7061123115
 30
0.0
 10
747.3017065746
 20
225.8990975007
 30
0.0
 10
747.3007985942
 20
226.0339066939
 30
0.0
  0
SPLINE
  5
2AE
100
AcDbEntity
  8
0
100
AcDbSpline
 62
9
  6
CONTINUOUS
 70
0
 71
3
 72
10
 73
6
 74
0
 42
0.0000001
 43
0.0000001
 44
0.0000000001
 40
0.0
 40
0.0
 40
0.0
 40
0.0
 40
0.249996864
 40
0.6250029347
 40
1.0
 40
1.0
 40
1.0
 40
1.0
 10
723.2492568733
 20
224.4061917256
 30
0.0
 10
725.2535955166
 20
224.3660978415
 30
0.0
 10
730.2645601094
 20
224.2674421184
 30
0.0
 10
738.2819408646
 20
224.103356338
 30
0.0
 10
744.2950927339
 20
223.9848389811
 30
0.0
 10
747.3016123381
 20
223.9245707685
 30
0.0
  0
SPLINE
  5
2AF
100
AcDbEntity
  8
0
100
AcDbSpline
 62
7
  6
CONTINUOUS
 70
0
 71
3
 72
11
 73
7
 74
0
 42
0.0000001
 43
0.0000001
 44
0.0000000001
 40
0.0
 40
0.0
 40
0.0
 40
0.0
 40
0.242468879
 40
0.4756537055
 40
0.7222774063
 40
1.0
 40
1.0
 40
1.0
 40
1.0
 10
697.7244100861
 20
224.9260146568
 30
0.0
 10
697.680143044
 20
224.84954039
 30
0.0
 10
697.6104377182
 20
224.6876364955
 30
0.0
 10
697.5907069308
 20
224.4200509928
 30
0.0
 10
697.6627180792
 20
224.1493641712
 30
0.0
 10
697.7564405983
 20
223.9812061941
 30
0.0
 10
697.8121567242
 20
223.8967129672
 30
0.0
  0
SPLINE
  5
2B0
100
AcDbEntity
  8
0
100
AcDbSpline
 62
7
  6
CONTINUOUS
 70
0
 71
3
 72
8
 73
4
 74
0
 42
0.0000001
 43
0.0000001
 44
0.0000000001
 40
0.0
 40
0.0
 40
0.0
 40
0.0
 40
1.0
 40
1.0
 40
1.0
 40
1.0
 10
697.8120195384
 20
223.9019280693
 30
0.0
 10
706.2911578101
 20
224.0676204203
 30
0.0
 10
714.7702589492
 20
224.2352093997
 30
0.0
 10
723.2493973472
 20
224.4008952893
 30
0.0
  0
SPLINE
  5
2B1
100
AcDbEntity
  8
0
100
AcDbSpline
 62
7
  6
CONTINUOUS
 70
0
 71
3
 72
9
 73
5
 74
0
 42
0.0000001
 43
0.0000001
 44
0.0000000001
 40
0.0
 40
0.0
 40
0.0
 40
0.0
 40
0.4999804795
 40
1.0
 40
1.0
 40
1.0
 40
1.0
 10
697.3537606134
 20
216.6165696551
 30
0.0
 10
697.3537606134
 20
217.1075040977
 30
0.0
 10
697.4088471769
 20
218.0902009809
 30
0.0
 10
697.5682095169
 20
219.060788731
 30
0.0
 10
697.6684062964
 20
219.5414287974
 30
0.0
  0
SPLINE
  5
2B2
100
AcDbEntity
  8
0
100
AcDbSpline
 62
7
  6
CONTINUOUS
 70
0
 71
3
 72
13
 73
9
 74
0
 42
0.0000001
 43
0.0000001
 44
0.0000000001
 40
0.0
 40
0.0
 40
0.0
 40
0.0
 40
0.3323887208
 40
0.6296241244
 40
0.7544125758
 40
0.8587006869
 40
0.940567654
 40
1.0
 40
1.0
 40
1.0
 40
1.0
 10
697.6685501816
 20
219.5414256468
 30
0.0
 10
697.7687868955
 20
220.0201528292
 30
0.0
 10
697.9201279507
 20
220.9351386876
 30
0.0
 10
698.0213601998
 20
222.0423649072
 30
0.0
 10
698.0272822427
 20
222.817129507
 30
0.0
 10
697.9972966341
 20
223.2746190951
 30
0.0
 10
697.9341027595
 20
223.630633006
 30
0.0
 10
697.8597584391
 20
223.8286527387
 30
0.0
 10
697.8120195384
 20
223.9019280693
 30
0.0
  0
ENDSEC
  0
SECTION
  2
OBJECTS
  0
DICTIONARY
  5
C
100
AcDbDictionary
280
0
281
1
  3
ACAD_GROUP
350
D
  3
ACAD_MLINESTYLE
350
17
  3
ACAD_LAYOUT
350
1A
  3
ACAD_PLOTSETTINGS
350
19
  3
ACAD_PLOTSTYLENAME
350
E
  0
DICTIONARY
  5
D
102
{ACAD_REACTORS
330
C
102
}
100
AcDbDictionary
280
0
281
1
  0
ACDBDICTIONARYWDFLT
  5
E
102
{ACAD_REACTORS
330
C
102
}
100
AcDbDictionary
281
1
  3
Normal
350
F
100
AcDbDictionaryWithDefault
340
F
  0
DICTIONARY
  5
17
102
{ACAD_REACTORS
330
C
102
}
100
AcDbDictionary
280
0
281
1
  3
Standard
350
18
  0
DICTIONARY
  5
19
102
{ACAD_REACTORS
330
C
102
}
100
AcDbDictionary
281
1
  0
DICTIONARY
  5
1A
102
{ACAD_REACTORS
330
C
102
}
100
AcDbDictionary
281
1
  3
Model
350
2B3
  3
Layout1
350
2B4
  0
ACDBPLACEHOLDER
  5
F
102
{ACAD_REACTORS
330
E
102
}
  0
MLINESTYLE
  5
18
102
{ACAD_REACTORS
330
17
102
}
100
AcDbMlineStyle
  2
STANDARD
 70
0
  3

 62
256
 51
90.0
 52
90.0
 71
2
 49
0.5
 62
256
  6
BYLAYER
 49
-0.5
 62
256
  6
BYLAYER
  0
LAYOUT
  5
2B3
102
{ACAD_REACTORS
330
1A
102
}
100
AcDbPlotSettings
  1

  2
none_device
  4
ANSI_C_(22.00_x_17.00_Inches)
  6

 40
0.0
 41
0.0
 42
0.0
 43
0.0
 44
558.8
 45
431.8
 46
0.0
 47
0.0
 48
0.0
 49
0.0
140
0.0
141
0.0
142
1.0
143
1.0
 70
1024
 72
1
 73
0
 74
0
  7

 75
0
147
1.0
148
0.0
149
0.0
100
AcDbLayout
  1
Model
 70
0
 71
0
 10
0.0
 20
0.0
 11
558.8
 21
431.8
 12
0.0
 22
0.0
 32
0.0
 14
0.0
 24
0.0
 34
0.0
 15
0.0
 25
0.0
 35
0.0
146
0.0
 13
0.0
 23
0.0
 33
0.0
 16
1.0
 26
0.0
 36
0.0
 17
0.0
 27
1.0
 37
0.0
 76
0
330
219
345
0
346
0
  0
LAYOUT
  5
2B4
102
{ACAD_REACTORS
330
1A
102
}
100
AcDbPlotSettings
  1

  2
none_device
  4
ANSI_C_(22.00_x_17.00_Inches)
  6

 40
0.0
 41
0.0
 42
0.0
 43
0.0
 44
558.8
 45
431.8
 46
0.0
 47
0.0
 48
0.0
 49
0.0
140
0.0
141
0.0
142
1.0
143
1.0
 70
0
 72
1
 73
0
 74
0
  7

 75
0
147
1.0
148
0.0
149
0.0
100
AcDbLayout
  1
Layout1
 70
0
 71
1
 10
0.0
 20
0.0
 11
558.8
 21
431.8
 12
0.0
 22
0.0
 32
0.0
 14
0.0
 24
0.0
 34
0.0
 15
0.0
 25
0.0
 35
0.0
146
0.0
 13
0.0
 23
0.0
 33
0.0
 16
1.0
 26
0.0
 36
0.0
 17
0.0
 27
1.0
 37
0.0
 76
0
330
21A
345
0
346
0
  0
ENDSEC
  0
EOF
