999
DXF file: C:\Users\sesa63760\Dev\_Creo\CAD\MCADID0000147_3D-CAD\drw0001_6.dxf
999
Pro/ENGINEER 2019471 by Parametric Technology Corporation
  0
SECTION
  2
HEADER
  9
$ACADVER
  1
AC1024
  9
$DWGCODEPAGE
  3
ANSI_1252
  9
$EXTMAX
 10
222.222266428
 20
314.2857768053
 30
0.0
  9
$EXTMIN
 10
0.0
 20
0.0
 30
0.0
  9
$LIMMIN
 10
0.0
 20
0.0
  9
$LIMMAX
 10
222.222266428
 20
314.2857768053
  9
$VIEWCTR
 10
111.111133214
 20
157.1428884026
  9
$VIEWSIZE
 40
314.2857768053
  9
$CLAYER
  8
0
  9
$LTSCALE
 40
20.4867765621
  9
$CELTYPE
  6
BYLAYER
  9
$DIMSCALE
 40
1.0
  9
$DIMASZ
 40
2.6455031718
  9
$DIMEXO
 40
1.0
  9
$DIMDLI
 40
14.1545001702
  9
$DIMEXE
 40
1.0
  9
$DIMCEN
 40
3.3523816193
  9
$DIMLFAC
 40
1.0
  9
$DIMBLK
  1
_FILLED
  9
$DIMALT
 70
0
  9
$DIMALTF
 40
0.0393700787
  9
$DIMTXT
 40
3.7037044405
  9
$DIMTOL
 70
1
  9
$DIMLIM
 70
0
  9
$DIMTFAC
 40
1.0
  9
$DIMTP
 40
0.01
  9
$DIMTM
 40
0.01
  9
$DIMGAP
 40
0.625
  9
$DIMDSEP
 70
46
  9
$AUNITS
 70
0
  9
$PDMODE
 70
3
  9
$PDSIZE
 40
0.3125
  9
$HANDSEED
  5
4E5
  9
$TILEMODE
 70
1
  9
$MEASUREMENT
 70
1
  9
$INSUNITS
 70
4
  0
ENDSEC
  0
SECTION
  2
CLASSES
  0
CLASS
  1
ACDBDICTIONARYWDFLT
  2
AcDbDictionaryWithDefault
  3
AutoCAD 2000
 90
0
 91
1
280
0
281
0
  0
CLASS
  1
ACDBPLACEHOLDER
  2
AcDbPlaceHolder
  3
AutoCAD 2000
 90
0
 91
1
280
0
281
0
  0
CLASS
  1
LAYOUT
  2
AcDbLayout
  3
AutoCAD 2000
 90
0
 91
0
280
0
281
0
  0
ENDSEC
  0
SECTION
  2
TABLES
  0
TABLE
  2
VPORT
  5
8
100
AcDbSymbolTable
 70
2
  0
VPORT
  5
1F4
100
AcDbSymbolTableRecord
100
AcDbViewportTableRecord
  2
*ACTIVE
 70
0
 10
0.0
 20
0.0
 11
1.0
 21
1.0
 12
111.111133214
 22
157.1428884026
 13
0.0
 23
0.0
 14
1.0
 24
1.0
 15
0.0
 25
0.0
 16
0.0
 26
0.0
 36
1.0
 17
0.0
 27
0.0
 37
0.0
 40
314.2857768053
 41
0.7070707071
 42
50.0
 43
0.0
 44
0.0
 50
0.0
 51
0.0
 71
0
 72
100
 73
1
 74
1
 75
0
 76
0
 77
0
 78
0
  0
ENDTAB
  0
TABLE
  2
LTYPE
  5
5
100
AcDbSymbolTable
 70
6
  0
LTYPE
  5
14
100
AcDbSymbolTableRecord
100
AcDbLinetypeTableRecord
  2
BYBLOCK
 70
0
  3

 72
65
 73
0
 40
0.0
  0
LTYPE
  5
15
100
AcDbSymbolTableRecord
100
AcDbLinetypeTableRecord
  2
BYLAYER
 70
0
  3

 72
65
 73
0
 40
0.0
  0
LTYPE
  5
16
100
AcDbSymbolTableRecord
100
AcDbLinetypeTableRecord
  2
CONTINUOUS
 70
64
  3
Solid line
 72
65
 73
0
 40
0.0
  0
LTYPE
  5
1F5
100
AcDbSymbolTableRecord
100
AcDbLinetypeTableRecord
  2
CENTER
 70
64
  3
____ _ ____ _ ____ _ ____ _ ____ _ ____ _ ____
 72
65
 73
4
 40
0.6
 49
0.375
 74
0
 49
-0.075
 74
0
 49
0.075
 74
0
 49
-0.075
 74
0
  0
LTYPE
  5
1F6
100
AcDbSymbolTableRecord
100
AcDbLinetypeTableRecord
  2
HIDDEN
 70
64
  3
- - - - - - - - - - - - - - - - - - - -
 72
65
 73
2
 40
0.2
 49
0.1
 74
0
 49
-0.1
 74
0
  0
LTYPE
  5
1F7
100
AcDbSymbolTableRecord
100
AcDbLinetypeTableRecord
  2
PHANTOM
 70
64
  3
_____ _ _ _____ _ _ _____ _ _ _____
 72
65
 73
6
 40
0.8
 49
0.45
 74
0
 49
-0.05
 74
0
 49
0.1
 74
0
 49
-0.05
 74
0
 49
0.1
 74
0
 49
-0.05
 74
0
  0
LTYPE
  5
1F8
100
AcDbSymbolTableRecord
100
AcDbLinetypeTableRecord
  2
DOT
 70
64
  3
. . . . . . . . . . . . . . . . . . . .
 72
65
 73
2
 40
0.2
 49
0.1
 74
0
 49
-0.1
 74
0
  0
LTYPE
  5
1F9
100
AcDbSymbolTableRecord
100
AcDbLinetypeTableRecord
  2
DASHED
 70
64
  3
- - - - - - - - - - - - - - - - - - - -
 72
65
 73
2
 40
0.2
 49
0.1
 74
0
 49
-0.1
 74
0
  0
ENDTAB
  0
TABLE
  2
LAYER
  5
2
100
AcDbSymbolTable
 70
36
  0
LAYER
  5
10
100
AcDbSymbolTableRecord
100
AcDbLayerTableRecord
  2
0
 70
0
 62
7
  6
CONTINUOUS
370
-3
390
F
  0
LAYER
  5
1FA
100
AcDbSymbolTableRecord
100
AcDbLayerTableRecord
  2
DEFAULT_1
 70
0
 62
7
  6
CENTER
370
-3
390
F
  0
LAYER
  5
1FB
100
AcDbSymbolTableRecord
100
AcDbLayerTableRecord
  2
DEFAULT_2
 70
0
 62
8
  6
HIDDEN
370
-3
390
F
  0
LAYER
  5
1FC
100
AcDbSymbolTableRecord
100
AcDbLayerTableRecord
  2
DEFAULT_3
 70
0
 62
7
  6
PHANTOM
370
-3
390
F
  0
LAYER
  5
1FD
100
AcDbSymbolTableRecord
100
AcDbLayerTableRecord
  2
00_COMPONENTS
 70
0
 62
7
  6
CONTINUOUS
370
-3
390
F
  0
LAYER
  5
1FE
100
AcDbSymbolTableRecord
100
AcDbLayerTableRecord
  2
01_1_DEFAULT_DATUMS
 70
0
 62
7
  6
CONTINUOUS
370
-3
390
F
  0
LAYER
  5
1FF
100
AcDbSymbolTableRecord
100
AcDbLayerTableRecord
  2
01_PLANES
 70
0
 62
7
  6
CONTINUOUS
370
-3
390
F
  0
LAYER
  5
200
100
AcDbSymbolTableRecord
100
AcDbLayerTableRecord
  2
02_COORD_SYS
 70
0
 62
7
  6
CONTINUOUS
370
-3
390
F
  0
LAYER
  5
201
100
AcDbSymbolTableRecord
100
AcDbLayerTableRecord
  2
03_AXES
 70
0
 62
7
  6
CONTINUOUS
370
-3
390
F
  0
LAYER
  5
202
100
AcDbSymbolTableRecord
100
AcDbLayerTableRecord
  2
04_POINTS
 70
0
 62
7
  6
CONTINUOUS
370
-3
390
F
  0
LAYER
  5
203
100
AcDbSymbolTableRecord
100
AcDbLayerTableRecord
  2
05_CURVES
 70
0
 62
7
  6
CONTINUOUS
370
-3
390
F
  0
LAYER
  5
204
100
AcDbSymbolTableRecord
100
AcDbLayerTableRecord
  2
06_SURFS
 70
0
 62
7
  6
CONTINUOUS
370
-3
390
F
  0
LAYER
  5
205
100
AcDbSymbolTableRecord
100
AcDbLayerTableRecord
  2
07_COSMETICS
 70
0
 62
7
  6
CONTINUOUS
370
-3
390
F
  0
LAYER
  5
206
100
AcDbSymbolTableRecord
100
AcDbLayerTableRecord
  2
10_NOTES
 70
0
 62
7
  6
CONTINUOUS
370
-3
390
F
  0
LAYER
  5
207
100
AcDbSymbolTableRecord
100
AcDbLayerTableRecord
  2
11_NOTES_PUB
 70
0
 62
7
  6
CONTINUOUS
370
-3
390
F
  0
LAYER
  5
208
100
AcDbSymbolTableRecord
100
AcDbLayerTableRecord
  2
13_REF_GTOL
 70
0
 62
7
  6
CONTINUOUS
370
-3
390
F
  0
LAYER
  5
209
100
AcDbSymbolTableRecord
100
AcDbLayerTableRecord
  2
16_MISC
 70
0
 62
7
  6
CONTINUOUS
370
-3
390
F
  0
LAYER
  5
20A
100
AcDbSymbolTableRecord
100
AcDbLayerTableRecord
  2
17_NO_PRINT
 70
0
 62
7
  6
CONTINUOUS
370
-3
390
F
  0
LAYER
  5
20B
100
AcDbSymbolTableRecord
100
AcDbLayerTableRecord
  2
18_DATUM_CAMS_JOINTS
 70
0
 62
7
  6
CONTINUOUS
370
-3
390
F
  0
LAYER
  5
20C
100
AcDbSymbolTableRecord
100
AcDbLayerTableRecord
  2
19_DATUM_FUNCTIONAL
 70
0
 62
7
  6
CONTINUOUS
370
-3
390
F
  0
LAYER
  5
20D
100
AcDbSymbolTableRecord
100
AcDbLayerTableRecord
  2
20_DATUM_KINEMATIC_SCHEME
 70
0
 62
7
  6
CONTINUOUS
370
-3
390
F
  0
ENDTAB
  0
TABLE
  2
STYLE
  5
3
100
AcDbSymbolTable
 70
1
  0
STYLE
  5
11
100
AcDbSymbolTableRecord
100
AcDbTextStyleTableRecord
  2
STANDARD
 70
0
 40
0.0
 41
0.8
 50
0.0
 71
0
 42
0.2
  3
txt
  4

  0
STYLE
  5
20E
100
AcDbSymbolTableRecord
100
AcDbTextStyleTableRecord
  2
TEXTSTYLE_1
 70
0
 40
0.0
 41
0.8
 50
0.0
 71
0
 42
0.2
  3
gdt
  4

  0
ENDTAB
  0
TABLE
  2
VIEW
  5
6
100
AcDbSymbolTable
 70
0
  0
ENDTAB
  0
TABLE
  2
UCS
  5
7
100
AcDbSymbolTable
 70
0
  0
ENDTAB
  0
TABLE
  2
APPID
  5
9
100
AcDbSymbolTable
 70
1
  0
APPID
  5
20F
100
AcDbSymbolTableRecord
100
AcDbRegAppTableRecord
  2
ACAD
 70
0
  0
ENDTAB
  0
TABLE
  2
BLOCK_RECORD
  5
1
100
AcDbSymbolTable
 70
0
  0
BLOCK_RECORD
  5
210
100
AcDbSymbolTableRecord
100
AcDbBlockTableRecord
  2
*Model_Space
  0
BLOCK_RECORD
  5
211
100
AcDbSymbolTableRecord
100
AcDbBlockTableRecord
  2
*Paper_Space
  0
BLOCK_RECORD
  5
212
100
AcDbSymbolTableRecord
100
AcDbBlockTableRecord
  2
_FILLED
  0
ENDTAB
  0
TABLE
  2
DIMSTYLE
  5
A
100
AcDbSymbolTable
 70
1
100
AcDbDimStyleTable
 71
0
  0
DIMSTYLE
105
213
100
AcDbSymbolTableRecord
100
AcDbDimStyleTableRecord
  2
STANDARD
 70
0
  3

  4

 40
1.0
 41
2.6455031718
 42
1.0
 43
0.38
 44
1.0
 45
0.0
 46
0.0
 47
0.01
 48
0.01
140
3.7037044405
141
0.09
142
0.0
143
25.4
144
1.0
145
0.0
146
1.0
147
0.625
 71
1
 72
0
 73
0
 74
0
 75
0
 76
0
 77
1
 78
8
 79
2
170
0
171
1
172
0
173
0
174
0
175
0
176
0
177
0
178
0
270
2
179
2
271
2
272
2
273
2
274
2
275
0
280
0
281
0
282
0
283
1
284
8
285
0
286
0
287
3
288
0
340
11
278
46
341
212
342
212
343
212
344
212
  0
ENDTAB
  0
ENDSEC
  0
SECTION
  2
BLOCKS
  0
BLOCK
  5
20
100
AcDbEntity
  8
0
100
AcDbBlockBegin
  2
*Model_Space
 70
0
 10
0.0
 20
0.0
 30
0.0
  3
*Model_Space
  1

  0
ENDBLK
  5
21
100
AcDbEntity
  8
0
100
AcDbBlockEnd
  0
BLOCK
  5
1C
100
AcDbEntity
  8
0
100
AcDbBlockBegin
  2
*Paper_Space
 70
0
 10
0.0
 20
0.0
 30
0.0
  3
*Paper_Space
  1

  0
ENDBLK
  5
1D
100
AcDbEntity
  8
0
100
AcDbBlockEnd
  0
BLOCK
  5
214
100
AcDbEntity
  8
0
100
AcDbBlockBegin
  2
_FILLED
 70
64
 10
0.0
 20
0.0
  3
_FILLED
  1

  0
SOLID
  5
215
100
AcDbEntity
  8
0
  6
BYBLOCK
 62
0
100
AcDbTrace
 10
0.0
 20
0.0
 11
-1.0
 21
0.25
 12
-1.0
 22
-0.25
 13
-1.0
 23
-0.25
  0
ENDBLK
  5
216
100
AcDbEntity
  8
0
  6
BYBLOCK
 62
0
100
AcDbBlockEnd
  0
ENDSEC
  0
SECTION
  2
ENTITIES
  0
LINE
  5
217
100
AcDbEntity
  8
0
100
AcDbLine
 62
7
  6
CONTINUOUS
 10
64.1573467807
 20
260.9065266437
 11
64.7251057437
 21
261.4742856067
  0
LINE
  5
218
100
AcDbEntity
  8
0
100
AcDbLine
 62
7
  6
CONTINUOUS
 10
146.433871687
 20
48.1427766437
 11
122.1845467807
 21
48.1427766437
  0
LINE
  5
219
100
AcDbEntity
  8
0
100
AcDbLine
 62
7
  6
CONTINUOUS
 10
121.9345467807
 20
48.3927766437
 11
125.9564454791
 21
48.3927766801
  0
LINE
  5
21A
100
AcDbEntity
  8
0
100
AcDbLine
 62
7
  6
CONTINUOUS
 10
146.9345467807
 20
48.6427766437
 11
125.6875960148
 21
48.6427766437
  0
LINE
  5
21B
100
AcDbEntity
  8
0
100
AcDbLine
 62
7
  6
CONTINUOUS
 10
27.9581761368
 20
194.3999615995
 11
27.5525270948
 21
193.6974694297
  0
LINE
  5
21C
100
AcDbEntity
  8
0
100
AcDbLine
 62
7
  6
CONTINUOUS
 10
65.6919631383
 20
262.0124788217
 11
65.047618223
 21
260.8971248733
  0
LINE
  5
21D
100
AcDbEntity
  8
0
100
AcDbLine
 62
7
  6
CONTINUOUS
 10
67.0817319211
 20
262.0138092995
 11
66.4374210555
 21
260.8984166488
  0
LINE
  5
21E
100
AcDbEntity
  8
0
100
AcDbLine
 62
7
  6
CONTINUOUS
 10
73.5536125581
 20
256.9652217963
 11
74.1952604852
 21
257.7798858435
  0
LINE
  5
21F
100
AcDbEntity
  8
0
100
AcDbLine
 62
7
  6
CONTINUOUS
 10
67.6180569906
 20
240.3434158205
 11
68.2600701388
 21
240.7495510064
  0
LINE
  5
220
100
AcDbEntity
  8
0
100
AcDbLine
 62
7
  6
CONTINUOUS
 10
27.96186325
 20
194.4003129689
 11
28.0173414738
 21
192.8604652981
  0
LWPOLYLINE
  5
221
100
AcDbEntity
  8
0
100
AcDbPolyline
 62
7
  6
CONTINUOUS
 90
3
 70
0
 10
29.9822415746
 20
162.885330938
 10
29.9265181329
 20
164.4303712553
 10
29.8687699021
 20
168.795560728
  0
LINE
  5
222
100
AcDbEntity
  8
0
100
AcDbLine
 62
7
  6
CONTINUOUS
 10
28.7675163617
 20
163.5879046395
 11
28.7045486326
 21
165.459887572
  0
LWPOLYLINE
  5
223
100
AcDbEntity
  8
0
100
AcDbPolyline
 62
7
  6
CONTINUOUS
 90
3
 70
0
 10
28.2479501414
 20
168.8511289547
 10
28.3062775356
 20
164.4557289446
 10
28.3628575537
 20
162.8860968736
  0
LINE
  5
224
100
AcDbEntity
  8
0
100
AcDbLine
 62
7
  6
CONTINUOUS
 10
28.0173414738
 20
192.8604652981
 11
28.0750936042
 21
188.4994192333
  0
LWPOLYLINE
  5
225
100
AcDbEntity
  8
0
100
AcDbPolyline
 62
7
  6
CONTINUOUS
 90
4
 70
0
 10
29.3348167707
 20
183.4108234648
 10
29.2851574184
 20
188.4889361576
 10
29.2271850847
 20
192.4610043547
 10
29.1765634905
 20
193.6974305211
  0
LINE
  5
226
100
AcDbEntity
  8
0
100
AcDbLine
 62
7
  6
CONTINUOUS
 10
28.7045486326
 20
165.459887572
 11
28.6209549084
 21
172.6745139407
  0
LWPOLYLINE
  5
227
100
AcDbEntity
  8
0
100
AcDbPolyline
 62
7
  6
CONTINUOUS
 90
4
 70
0
 10
29.7421170146
 20
183.4146747715
 10
29.6963401186
 20
188.4206186808
 10
29.6380570447
 20
192.823232754
 10
29.5813252399
 20
194.3994163847
  0
LINE
  5
228
100
AcDbEntity
  8
0
100
AcDbLine
 62
7
  6
CONTINUOUS
 10
28.6209549084
 20
172.6745139407
 11
28.5156666419
 21
184.4862310572
  0
LINE
  5
229
100
AcDbEntity
  8
0
100
AcDbLine
 62
7
  6
CONTINUOUS
 10
29.387522929
 20
177.4203423441
 11
29.366517054
 21
179.870912733
  0
LINE
  5
22A
100
AcDbEntity
  8
0
100
AcDbLine
 62
7
  6
CONTINUOUS
 10
28.0750936042
 20
188.4994192333
 11
28.2479501414
 21
168.8511289547
  0
LINE
  5
22B
100
AcDbEntity
  8
0
100
AcDbLine
 62
7
  6
CONTINUOUS
 10
29.8687699021
 20
168.795560728
 11
29.792227992
 21
177.4448844434
  0
LINE
  5
22C
100
AcDbEntity
  8
0
100
AcDbLine
 62
7
  6
CONTINUOUS
 10
25.1345467807
 20
164.242820397
 11
25.1345467807
 21
193.0427328905
  0
LINE
  5
22D
100
AcDbEntity
  8
0
100
AcDbLine
 62
7
  6
CONTINUOUS
 10
25.6345467807
 20
163.7427766437
 11
25.6345467807
 21
193.5427766437
  0
LINE
  5
22E
100
AcDbEntity
  8
0
100
AcDbLine
 62
7
  6
CONTINUOUS
 10
26.7345467803
 20
193.5427766437
 11
26.7345467803
 21
163.7427766437
  0
LINE
  5
22F
100
AcDbEntity
  8
0
100
AcDbLine
 62
7
  6
CONTINUOUS
 10
28.7670822953
 20
194.4000417325
 11
28.362674614
 21
193.6996002796
  0
LINE
  5
230
100
AcDbEntity
  8
0
100
AcDbLine
 62
7
  6
CONTINUOUS
 10
31.1971436
 20
194.3999105572
 11
30.7927259923
 21
193.6994584872
  0
LINE
  5
231
100
AcDbEntity
  8
0
100
AcDbLine
 62
7
  6
CONTINUOUS
 10
32.8177043122
 20
194.4000443178
 11
32.4125038643
 21
193.6982907561
  0
LINE
  5
232
100
AcDbEntity
  8
0
100
AcDbLine
 62
7
  6
CONTINUOUS
 10
33.6272646238
 20
194.3997347375
 11
33.2227557723
 21
193.6991394587
  0
LINE
  5
233
100
AcDbEntity
  8
0
100
AcDbLine
 62
7
  6
CONTINUOUS
 10
35.2474500945
 20
194.4000641688
 11
34.8425156643
 21
193.6987499439
  0
LINE
  5
234
100
AcDbEntity
  8
0
100
AcDbLine
 62
7
  6
CONTINUOUS
 10
36.0574293925
 20
194.39956001
 11
35.6527664616
 21
193.6987174959
  0
LINE
  5
235
100
AcDbEntity
  8
0
100
AcDbLine
 62
7
  6
CONTINUOUS
 10
37.6772374123
 20
194.4000797993
 11
37.2725468596
 21
193.6991684872
  0
LINE
  5
236
100
AcDbEntity
  8
0
100
AcDbLine
 62
7
  6
CONTINUOUS
 10
68.4683530045
 20
262.0125290265
 11
67.8257754857
 21
260.9000169589
  0
LINE
  5
237
100
AcDbEntity
  8
0
100
AcDbLine
 62
7
  6
CONTINUOUS
 10
29.5780237093
 20
194.3993367963
 11
29.1727104773
 21
193.6974280948
  0
LINE
  5
238
100
AcDbEntity
  8
0
100
AcDbLine
 62
7
  6
CONTINUOUS
 10
30.3879599902
 20
194.4000157667
 11
29.9825086691
 21
193.6978483445
  0
LINE
  5
239
100
AcDbEntity
  8
0
100
AcDbLine
 62
7
  6
CONTINUOUS
 10
69.8575029878
 20
262.0130080893
 11
69.2150882052
 21
260.9007240789
  0
LINE
  5
23A
100
AcDbEntity
  8
0
100
AcDbLine
 62
7
  6
CONTINUOUS
 10
32.0081851314
 20
194.3994047013
 11
31.6026739419
 21
193.6971654295
  0
LINE
  5
23B
100
AcDbEntity
  8
0
100
AcDbLine
 62
7
  6
CONTINUOUS
 10
71.2467725378
 20
262.0131390125
 11
70.6042233459
 21
260.9006293553
  0
LINE
  5
23C
100
AcDbEntity
  8
0
100
AcDbLine
 62
7
  6
CONTINUOUS
 10
72.635842638
 20
262.0132805327
 11
71.9933671752
 21
260.9008796954
  0
LINE
  5
23D
100
AcDbEntity
  8
0
100
AcDbLine
 62
7
  6
CONTINUOUS
 10
34.4382994564
 20
194.3995306777
 11
34.0326340451
 21
193.6970306222
  0
LINE
  5
23E
100
AcDbEntity
  8
0
100
AcDbLine
 62
7
  6
CONTINUOUS
 10
74.0247099089
 20
262.0133465373
 11
73.3824700641
 21
260.9013205724
  0
LINE
  5
23F
100
AcDbEntity
  8
0
100
AcDbLine
 62
7
  6
CONTINUOUS
 10
75.4138760319
 20
262.0130665706
 11
74.7713703007
 21
260.9006319848
  0
LINE
  5
240
100
AcDbEntity
  8
0
100
AcDbLine
 62
7
  6
CONTINUOUS
 10
36.8683488251
 20
194.3996901138
 11
36.4625942269
 21
193.6970353895
  0
LINE
  5
241
100
AcDbEntity
  8
0
100
AcDbLine
 62
7
  6
CONTINUOUS
 10
76.8030546364
 20
262.0132140239
 11
76.1605160666
 21
260.9007162144
  0
LINE
  5
242
100
AcDbEntity
  8
0
100
AcDbLine
 62
7
  6
CONTINUOUS
 10
38.4876209304
 20
194.3994213519
 11
38.0827608078
 21
193.6982586714
  0
LINE
  5
243
100
AcDbEntity
  8
0
100
AcDbLine
 62
7
  6
CONTINUOUS
 10
35.2498741332
 20
194.3958659543
 11
35.25150781
 21
194.3984607638
  0
LINE
  5
244
100
AcDbEntity
  8
0
100
AcDbLine
 62
7
  6
CONTINUOUS
 10
31.1972690132
 20
194.3996933543
 11
31.1988636642
 21
194.4014447876
  0
LINE
  5
245
100
AcDbEntity
  8
0
100
AcDbLine
 62
7
  6
CONTINUOUS
 10
26.7345467803
 20
193.5427766441
 11
27.3115543274
 21
194.1197841901
  0
LINE
  5
246
100
AcDbEntity
  8
0
100
AcDbLine
 62
7
  6
CONTINUOUS
 10
40.1071046401
 20
194.4000835541
 11
39.7026000025
 21
193.6994797789
  0
LINE
  5
247
100
AcDbEntity
  8
0
100
AcDbLine
 62
7
  6
CONTINUOUS
 10
27.0567815997
 20
163.4220748344
 11
27.1513976448
 21
163.5859509698
  0
LINE
  5
248
100
AcDbEntity
  8
0
100
AcDbLine
 62
7
  6
CONTINUOUS
 10
29.1770126171
 20
162.8854764498
 11
29.5814626709
 21
163.5859895812
  0
LINE
  5
249
100
AcDbEntity
  8
0
100
AcDbLine
 62
7
  6
CONTINUOUS
 10
78.1920150769
 20
262.013327952
 11
77.5496454624
 21
260.9010942688
  0
LINE
  5
24A
100
AcDbEntity
  8
0
100
AcDbLine
 62
7
  6
CONTINUOUS
 10
39.2983161676
 20
194.3998471003
 11
38.8925579314
 21
193.6971793608
  0
LINE
  5
24B
100
AcDbEntity
  8
0
100
AcDbLine
 62
7
  6
CONTINUOUS
 10
40.9178214827
 20
194.3993423514
 11
40.5127417739
 21
193.6978198149
  0
LINE
  5
24C
100
AcDbEntity
  8
0
100
AcDbLine
 62
7
  6
CONTINUOUS
 10
64.2880511461
 20
231.252570567
 11
64.3645340732
 21
231.38498977
  0
LINE
  5
24D
100
AcDbEntity
  8
0
100
AcDbLine
 62
7
  6
CONTINUOUS
 10
27.5697420386
 20
162.9093783792
 11
27.961574877
 21
163.5879499414
  0
LINE
  5
24E
100
AcDbEntity
  8
0
100
AcDbLine
 62
7
  6
CONTINUOUS
 10
66.5010890399
 20
230.2724362937
 11
67.1430602595
 21
231.3840129123
  0
LINE
  5
24F
100
AcDbEntity
  8
0
100
AcDbLine
 62
7
  6
CONTINUOUS
 10
28.3661857488
 20
162.8862232741
 11
28.7713635977
 21
163.5879076582
  0
LINE
  5
250
100
AcDbEntity
  8
0
100
AcDbLine
 62
7
  6
CONTINUOUS
 10
67.8895685516
 20
230.2722727594
 11
68.5320436111
 21
231.3846729469
  0
LINE
  5
251
100
AcDbEntity
  8
0
100
AcDbLine
 62
7
  6
CONTINUOUS
 10
29.9858218676
 20
162.8856495742
 11
30.3915496051
 21
163.5882693753
  0
LINE
  5
252
100
AcDbEntity
  8
0
100
AcDbLine
 62
7
  6
CONTINUOUS
 10
69.2786382474
 20
230.2724142757
 11
69.9211874383
 21
231.3849239315
  0
LINE
  5
253
100
AcDbEntity
  8
0
100
AcDbLine
 62
7
  6
CONTINUOUS
 10
30.7963845293
 20
162.8861749755
 11
31.2013396678
 21
163.587492977
  0
LINE
  5
254
100
AcDbEntity
  8
0
100
AcDbLine
 62
7
  6
CONTINUOUS
 10
65.167389274
 20
230.3739398225
 11
65.7541610085
 21
231.3895557559
  0
LINE
  5
255
100
AcDbEntity
  8
0
100
AcDbLine
 62
7
  6
CONTINUOUS
 10
37.6814253587
 20
194.3928264721
 11
37.6832059752
 21
194.3950449595
  0
LINE
  5
256
100
AcDbEntity
  8
0
100
AcDbLine
 62
7
  6
CONTINUOUS
 10
36.0574984503
 20
194.3994404071
 11
36.0590455576
 21
194.4009992378
  0
LINE
  5
257
100
AcDbEntity
  8
0
100
AcDbLine
 62
7
  6
CONTINUOUS
 10
34.4400579883
 20
194.4010109635
 11
34.4381416998
 21
194.3992574858
  0
LINE
  5
258
100
AcDbEntity
  8
0
100
AcDbLine
 62
7
  6
CONTINUOUS
 10
39.3002304479
 20
194.4014583869
 11
39.2981556089
 21
194.3995690531
  0
LINE
  5
259
100
AcDbEntity
  8
0
100
AcDbLine
 62
7
  6
CONTINUOUS
 10
38.4876277906
 20
194.3994094703
 11
38.4892245615
 21
194.400837121
  0
LINE
  5
25A
100
AcDbEntity
  8
0
100
AcDbLine
 62
7
  6
CONTINUOUS
 10
32.8177189123
 20
194.4000190278
 11
32.819801891
 21
194.4018530728
  0
LINE
  5
25B
100
AcDbEntity
  8
0
100
AcDbLine
 62
7
  6
CONTINUOUS
 10
40.9177841578
 20
194.3994069997
 11
40.9194344112
 21
194.4007502367
  0
LINE
  5
25C
100
AcDbEntity
  8
0
100
AcDbLine
 62
7
  6
CONTINUOUS
 10
28.7689008818
 20
194.4016478875
 11
28.7672331589
 21
194.4003030321
  0
LINE
  5
25D
100
AcDbEntity
  8
0
100
AcDbLine
 62
7
  6
CONTINUOUS
 10
30.3879173087
 20
194.4000897015
 11
30.3900274145
 21
194.4017905566
  0
LINE
  5
25E
100
AcDbEntity
  8
0
100
AcDbLine
 62
7
  6
CONTINUOUS
 10
40.1090534167
 20
194.4017850495
 11
40.107269295
 21
194.4003687384
  0
LINE
  5
25F
100
AcDbEntity
  8
0
100
AcDbLine
 62
7
  6
CONTINUOUS
 10
33.6270917391
 20
194.3980495059
 11
33.6257051247
 21
194.3970337267
  0
LINE
  5
260
100
AcDbEntity
  8
0
100
AcDbLine
 62
7
  6
CONTINUOUS
 10
29.5779333189
 20
194.3994933635
 11
29.579672328
 21
194.4007530491
  0
LINE
  5
261
100
AcDbEntity
  8
0
100
AcDbLine
 62
7
  6
CONTINUOUS
 10
27.9580671381
 20
194.4001504187
 11
27.9601813508
 21
194.4016676136
  0
LINE
  5
262
100
AcDbEntity
  8
0
100
AcDbLine
 62
7
  6
CONTINUOUS
 10
32.0080470356
 20
194.399643911
 11
32.009880976
 21
194.4008449603
  0
LINE
  5
263
100
AcDbEntity
  8
0
100
AcDbLine
 62
7
  6
CONTINUOUS
 10
121.9345467807
 20
80.1427766437
 11
125.6875960148
 21
80.1427766437
  0
LINE
  5
264
100
AcDbEntity
  8
0
100
AcDbLine
 62
7
  6
CONTINUOUS
 10
41.4325450452
 20
188.719034544
 11
41.4042848371
 21
190.590809939
  0
LINE
  5
265
100
AcDbEntity
  8
0
100
AcDbLine
 62
7
  6
CONTINUOUS
 10
41.6489549978
 20
166.6942925896
 11
41.6085959954
 21
169.7401808163
  0
LINE
  5
266
100
AcDbEntity
  8
0
100
AcDbLine
 62
7
  6
CONTINUOUS
 10
41.0365689837
 20
188.3826678907
 11
40.9782910445
 21
192.8064492138
  0
LWPOLYLINE
  5
267
100
AcDbEntity
  8
0
100
AcDbPolyline
 62
7
  6
CONTINUOUS
 90
3
 70
0
 10
41.2369303432
 20
166.6888416106
 10
41.1522109287
 20
175.0537718932
 10
41.0365689837
 20
188.3826678907
  0
LINE
  5
268
100
AcDbEntity
  8
0
100
AcDbLine
 62
7
  6
CONTINUOUS
 10
41.6085959954
 20
169.7401808163
 11
41.4325450452
 21
188.719034544
  0
LINE
  5
269
100
AcDbEntity
  8
0
100
AcDbLine
 62
7
  6
CONTINUOUS
 10
41.2345467807
 20
161.4927766437
 11
41.2345467807
 21
166.391850207
  0
LINE
  5
26A
100
AcDbEntity
  8
0
100
AcDbLine
 62
7
  6
CONTINUOUS
 10
41.2345467807
 20
190.8927766437
 11
41.2345467807
 21
195.791850207
  0
LINE
  5
26B
100
AcDbEntity
  8
0
100
AcDbLine
 62
7
  6
CONTINUOUS
 10
41.5345467807
 20
161.1927766437
 11
41.5345467807
 21
166.6927766437
  0
LINE
  5
26C
100
AcDbEntity
  8
0
100
AcDbLine
 62
7
  6
CONTINUOUS
 10
41.5345467807
 20
190.5927766437
 11
41.5345467807
 21
196.0927766437
  0
LINE
  5
26D
100
AcDbEntity
  8
0
100
AcDbLine
 62
7
  6
CONTINUOUS
 10
42.1345449228
 20
190.5927766437
 11
42.1345449228
 21
166.6927766437
  0
LINE
  5
26E
100
AcDbEntity
  8
0
100
AcDbLine
 62
7
  6
CONTINUOUS
 10
44.2345467807
 20
159.6427766437
 11
44.2345467807
 21
197.6427766437
  0
LINE
  5
26F
100
AcDbEntity
  8
0
100
AcDbLine
 62
7
  6
CONTINUOUS
 10
46.9345467807
 20
159.6427766437
 11
46.9345467807
 21
197.6427766437
  0
LINE
  5
270
100
AcDbEntity
  8
0
100
AcDbLine
 62
7
  6
CONTINUOUS
 10
47.9345467807
 20
149.8260789457
 11
47.9345467807
 21
200.6115813161
  0
LINE
  5
271
100
AcDbEntity
  8
0
100
AcDbLine
 62
7
  6
CONTINUOUS
 10
48.9258202452
 20
200.6115813161
 11
48.9258202483
 21
158.2954587546
  0
LINE
  5
272
100
AcDbEntity
  8
0
100
AcDbLine
 62
7
  6
CONTINUOUS
 10
48.9258202257
 20
152.2956872162
 11
48.9258202483
 21
151.8260027919
  0
LINE
  5
273
100
AcDbEntity
  8
0
100
AcDbLine
 62
7
  6
CONTINUOUS
 10
31.6069265598
 20
162.8854694895
 11
32.0115262018
 21
163.5862305189
  0
LINE
  5
274
100
AcDbEntity
  8
0
100
AcDbLine
 62
7
  6
CONTINUOUS
 10
33.2265822563
 20
162.8860603304
 11
33.6313277563
 21
163.58703651
  0
LINE
  5
275
100
AcDbEntity
  8
0
100
AcDbLine
 62
7
  6
CONTINUOUS
 10
34.0367443948
 20
162.8854815541
 11
34.4415667447
 21
163.5866106312
  0
LINE
  5
276
100
AcDbEntity
  8
0
100
AcDbLine
 62
7
  6
CONTINUOUS
 10
35.6567609334
 20
162.8858978087
 11
36.0613309098
 21
163.5865907299
  0
LINE
  5
277
100
AcDbEntity
  8
0
100
AcDbLine
 62
7
  6
CONTINUOUS
 10
36.4665035858
 20
162.8854997182
 11
36.8715867396
 21
163.5870595917
  0
LINE
  5
278
100
AcDbEntity
  8
0
100
AcDbLine
 62
7
  6
CONTINUOUS
 10
38.086903217
 20
162.8857174552
 11
38.491351975
 21
163.5862177664
  0
LINE
  5
279
100
AcDbEntity
  8
0
100
AcDbLine
 62
7
  6
CONTINUOUS
 10
40.5169926659
 20
162.8855603652
 11
40.9213935679
 21
163.5859884383
  0
LINE
  5
27A
100
AcDbEntity
  8
0
100
AcDbLine
 62
7
  6
CONTINUOUS
 10
70.6679077974
 20
230.272545199
 11
71.3103225791
 21
231.3848292078
  0
LINE
  5
27B
100
AcDbEntity
  8
0
100
AcDbLine
 62
7
  6
CONTINUOUS
 10
32.4157480293
 20
162.8857913537
 11
32.8215159384
 21
163.5884713031
  0
LINE
  5
27C
100
AcDbEntity
  8
0
100
AcDbLine
 62
7
  6
CONTINUOUS
 10
72.0572429563
 20
230.2725750938
 11
72.699399428
 21
231.3844409441
  0
LINE
  5
27D
100
AcDbEntity
  8
0
100
AcDbLine
 62
7
  6
CONTINUOUS
 10
73.445793647
 20
230.2723392647
 11
74.0883322178
 21
231.3848370757
  0
LINE
  5
27E
100
AcDbEntity
  8
0
100
AcDbLine
 62
7
  6
CONTINUOUS
 10
34.8457633877
 20
162.8859547828
 11
35.2514772458
 21
163.5885380194
  0
LINE
  5
27F
100
AcDbEntity
  8
0
100
AcDbLine
 62
7
  6
CONTINUOUS
 10
74.8349722532
 20
230.2724867176
 11
75.4774779836
 21
231.3849213019
  0
LINE
  5
280
100
AcDbEntity
  8
0
100
AcDbLine
 62
7
  6
CONTINUOUS
 10
37.2758513219
 20
162.8860991781
 11
37.6814369586
 21
163.588463831
  0
LINE
  5
281
100
AcDbEntity
  8
0
100
AcDbLine
 62
7
  6
CONTINUOUS
 10
76.2242991008
 20
230.2725783176
 11
76.8665900539
 21
231.3846605635
  0
LINE
  5
282
100
AcDbEntity
  8
0
100
AcDbLine
 62
7
  6
CONTINUOUS
 10
77.6135794012
 20
230.2725255032
 11
78.2556199943
 21
231.3842081338
  0
LINE
  5
283
100
AcDbEntity
  8
0
100
AcDbLine
 62
7
  6
CONTINUOUS
 10
38.8962435275
 20
162.8855231133
 11
39.3015888757
 21
163.5875158226
  0
LINE
  5
284
100
AcDbEntity
  8
0
100
AcDbLine
 62
7
  6
CONTINUOUS
 10
39.7059942794
 20
162.8861948954
 11
40.1113985242
 21
163.5882551537
  0
LINE
  5
285
100
AcDbEntity
  8
0
100
AcDbLine
 62
7
  6
CONTINUOUS
 10
48.3746893694
 20
201.4401702848
 11
63.4345467807
 21
211.6157496167
  0
LINE
  5
286
100
AcDbEntity
  8
0
100
AcDbLine
 62
7
  6
CONTINUOUS
 10
65.3245467807
 20
212.8927766437
 11
66.3887501065
 21
213.611832945
  0
LINE
  5
287
100
AcDbEntity
  8
0
100
AcDbLine
 62
7
  6
CONTINUOUS
 10
63.4345467807
 20
210.4147749227
 11
62.9872963942
 21
210.1125787158
  0
LINE
  5
288
100
AcDbEntity
  8
0
100
AcDbLine
 62
7
  6
CONTINUOUS
 10
53.9914462376
 20
204.0343015812
 11
48.9258202452
 21
200.6115813161
  0
LINE
  5
289
100
AcDbEntity
  8
0
100
AcDbLine
 62
7
  6
CONTINUOUS
 10
36.8681735807
 20
194.3999936923
 11
36.8701813059
 21
194.4012272031
  0
LINE
  5
28A
100
AcDbEntity
  8
0
100
AcDbLine
 62
7
  6
CONTINUOUS
 10
62.987298547
 20
210.1125744763
 11
56.9900588431
 21
207.0603578619
  0
LINE
  5
28B
100
AcDbEntity
  8
0
100
AcDbLine
 62
7
  6
CONTINUOUS
 10
124.9345467966
 20
84.1427766437
 11
122.1845467807
 21
84.1427766437
  0
LINE
  5
28C
100
AcDbEntity
  8
0
100
AcDbLine
 62
7
  6
CONTINUOUS
 10
122.1845467807
 20
48.1427766437
 11
121.9345467807
 21
48.3927766437
  0
LINE
  5
28D
100
AcDbEntity
  8
0
100
AcDbLine
 62
7
  6
CONTINUOUS
 10
81.4345467807
 20
97.1427766437
 11
80.9345467807
 21
97.6427766437
  0
LINE
  5
28E
100
AcDbEntity
  8
0
100
AcDbLine
 62
7
  6
CONTINUOUS
 10
27.4974718993
 20
162.9814359474
 11
27.5018546302
 21
162.9754687949
  0
LINE
  5
28F
100
AcDbEntity
  8
0
100
AcDbLine
 62
7
  6
CONTINUOUS
 10
27.1476414141
 20
163.5859438584
 11
27.4955545295
 21
162.9833520506
  0
LINE
  5
290
100
AcDbEntity
  8
0
100
AcDbLine
 62
7
  6
CONTINUOUS
 10
27.9577264218
 20
163.5879528333
 11
28.3629310509
 21
162.8862241772
  0
LINE
  5
291
100
AcDbEntity
  8
0
100
AcDbLine
 62
7
  6
CONTINUOUS
 10
28.7675163686
 20
163.5879046515
 11
29.1730755301
 21
162.8855597796
  0
LINE
  5
292
100
AcDbEntity
  8
0
100
AcDbLine
 62
7
  6
CONTINUOUS
 10
29.5777031494
 20
163.5859968148
 11
29.9821045291
 21
162.8855683038
  0
LINE
  5
293
100
AcDbEntity
  8
0
100
AcDbLine
 62
7
  6
CONTINUOUS
 10
30.3876928433
 20
163.5882713071
 11
30.7931091695
 21
162.886190881
  0
LINE
  5
294
100
AcDbEntity
  8
0
100
AcDbLine
 62
7
  6
CONTINUOUS
 10
31.197504374
 20
163.5874890385
 11
31.6028345244
 21
162.8855214023
  0
LINE
  5
295
100
AcDbEntity
  8
0
100
AcDbLine
 62
7
  6
CONTINUOUS
 10
32.0077434316
 20
163.5862369835
 11
32.4121976195
 21
162.8857281618
  0
LINE
  5
296
100
AcDbEntity
  8
0
100
AcDbLine
 62
7
  6
CONTINUOUS
 10
32.8176541993
 20
163.5884722582
 11
33.2232493119
 21
162.8860915896
  0
LINE
  5
297
100
AcDbEntity
  8
0
100
AcDbLine
 62
7
  6
CONTINUOUS
 10
33.627507509
 20
163.5870316723
 11
34.0325744827
 21
162.8854985223
  0
LINE
  5
298
100
AcDbEntity
  8
0
100
AcDbLine
 62
7
  6
CONTINUOUS
 10
34.4377633372
 20
163.5866162778
 11
34.8423425802
 21
162.8859084965
  0
LINE
  5
299
100
AcDbEntity
  8
0
100
AcDbLine
 62
7
  6
CONTINUOUS
 10
35.2476139105
 20
163.5885379895
 11
35.6533333495
 21
162.8859450881
  0
LINE
  5
29A
100
AcDbEntity
  8
0
100
AcDbLine
 62
7
  6
CONTINUOUS
 10
37.2758906012
 20
162.8876933037
 11
37.2780467613
 21
162.8899011035
  0
LINE
  5
29B
100
AcDbEntity
  8
0
100
AcDbLine
 62
7
  6
CONTINUOUS
 10
34.8457764152
 20
162.8875734834
 11
34.8479871327
 21
162.8898057073
  0
LINE
  5
29C
100
AcDbEntity
  8
0
100
AcDbLine
 62
7
  6
CONTINUOUS
 10
33.2265394392
 20
162.8861344875
 11
33.2249748859
 21
162.8846333673
  0
LINE
  5
29D
100
AcDbEntity
  8
0
100
AcDbLine
 62
7
  6
CONTINUOUS
 10
32.4138806513
 20
162.8842238035
 11
32.4159215092
 21
162.8860917752
  0
LINE
  5
29E
100
AcDbEntity
  8
0
100
AcDbLine
 62
7
  6
CONTINUOUS
 10
29.9838693865
 20
162.8840001271
 11
29.9859457547
 21
162.8858641169
  0
LINE
  5
29F
100
AcDbEntity
  8
0
100
AcDbLine
 62
7
  6
CONTINUOUS
 10
30.7947778722
 20
162.8847645324
 11
30.7963731884
 21
162.8861553348
  0
LINE
  5
2A0
100
AcDbEntity
  8
0
100
AcDbLine
 62
7
  6
CONTINUOUS
 10
31.6049219934
 20
162.8837252163
 11
31.6067722703
 21
162.8852022608
  0
LINE
  5
2A1
100
AcDbEntity
  8
0
100
AcDbLine
 62
7
  6
CONTINUOUS
 10
29.1751162546
 20
162.8838151309
 11
29.1768509881
 21
162.885196505
  0
LINE
  5
2A2
100
AcDbEntity
  8
0
100
AcDbLine
 62
7
  6
CONTINUOUS
 10
28.3662532323
 20
162.8861063872
 11
28.3645734684
 21
162.8848139985
  0
LINE
  5
2A3
100
AcDbEntity
  8
0
100
AcDbLine
 62
7
  6
CONTINUOUS
 10
124.9345467807
 20
93.6427766437
 11
146.9345467807
 21
93.6427766437
  0
LINE
  5
2A4
100
AcDbEntity
  8
0
100
AcDbLine
 62
7
  6
CONTINUOUS
 10
170.9345467807
 20
95.1427766437
 11
100.9345467807
 21
95.1427766437
  0
LINE
  5
2A5
100
AcDbEntity
  8
0
100
AcDbLine
 62
7
  6
CONTINUOUS
 10
100.9345467807
 20
95.8427766437
 11
170.9345467807
 21
95.8427766437
  0
LINE
  5
2A6
100
AcDbEntity
  8
0
100
AcDbLine
 62
7
  6
CONTINUOUS
 10
171.9345467807
 20
96.8427766437
 11
99.9345467807
 21
96.8427766437
  0
LINE
  5
2A7
100
AcDbEntity
  8
0
100
AcDbLine
 62
7
  6
CONTINUOUS
 10
190.4345467807
 20
97.1427766437
 11
81.4345467807
 21
97.1427766437
  0
LINE
  5
2A8
100
AcDbEntity
  8
0
100
AcDbLine
 62
7
  6
CONTINUOUS
 10
190.9345467807
 20
97.6427766437
 11
80.9345467807
 21
97.6427766437
  0
LINE
  5
2A9
100
AcDbEntity
  8
0
100
AcDbLine
 62
7
  6
CONTINUOUS
 10
26.7345467803
 20
163.7427766434
 11
27.0557301787
 21
163.4215932456
  0
LINE
  5
2AA
100
AcDbEntity
  8
0
100
AcDbLine
 62
7
  6
CONTINUOUS
 10
27.5018546302
 20
162.9754687949
 11
27.5685659714
 21
162.9087574539
  0
LINE
  5
2AB
100
AcDbEntity
  8
0
100
AcDbLine
 62
7
  6
CONTINUOUS
 10
32.4123117985
 20
162.8859259079
 11
32.4138806513
 21
162.8842238035
  0
LINE
  5
2AC
100
AcDbEntity
  8
0
100
AcDbLine
 62
7
  6
CONTINUOUS
 10
34.0349861715
 20
162.8896754254
 11
34.0366404869
 21
162.8870951684
  0
LINE
  5
2AD
100
AcDbEntity
  8
0
100
AcDbLine
 62
7
  6
CONTINUOUS
 10
36.0575286722
 20
163.5865850323
 11
36.462336117
 21
162.8854805802
  0
LINE
  5
2AE
100
AcDbEntity
  8
0
100
AcDbLine
 62
7
  6
CONTINUOUS
 10
36.867765497
 20
163.5870643759
 11
37.2725229092
 21
162.8860688631
  0
LINE
  5
2AF
100
AcDbEntity
  8
0
100
AcDbLine
 62
7
  6
CONTINUOUS
 10
37.6775754247
 20
163.5884628163
 11
38.0833437768
 21
162.8857817049
  0
LINE
  5
2B0
100
AcDbEntity
  8
0
100
AcDbLine
 62
7
  6
CONTINUOUS
 10
38.487570538
 20
163.5862112536
 11
38.8921587198
 21
162.8854691789
  0
LINE
  5
2B1
100
AcDbEntity
  8
0
100
AcDbLine
 62
7
  6
CONTINUOUS
 10
39.2977527707
 20
163.5875197055
 11
39.7027212162
 21
162.8861799038
  0
LINE
  5
2B2
100
AcDbEntity
  8
0
100
AcDbLine
 62
7
  6
CONTINUOUS
 10
40.1075421707
 20
163.588253163
 11
40.5132640392
 21
162.8856427704
  0
LINE
  5
2B3
100
AcDbEntity
  8
0
100
AcDbLine
 62
7
  6
CONTINUOUS
 10
40.9176355271
 20
163.5859811662
 11
41.2345467807
 21
163.0370865266
  0
LINE
  5
2B4
100
AcDbEntity
  8
0
100
AcDbLine
 62
7
  6
CONTINUOUS
 10
27.5563790906
 20
193.6974668993
 11
27.3127016235
 21
194.1194601489
  0
LINE
  5
2B5
100
AcDbEntity
  8
0
100
AcDbLine
 62
7
  6
CONTINUOUS
 10
28.3664267468
 20
193.6996015805
 11
27.9620141021
 21
194.4000516891
  0
LINE
  5
2B6
100
AcDbEntity
  8
0
100
AcDbLine
 62
7
  6
CONTINUOUS
 10
62.3285467807
 20
231.3790266437
 11
62.3285467807
 21
260.9065266437
  0
LINE
  5
2B7
100
AcDbEntity
  8
0
100
AcDbLine
 62
7
  6
CONTINUOUS
 10
63.4345467807
 20
149.6927766437
 11
63.4345467807
 21
154.5927766437
  0
LINE
  5
2B8
100
AcDbEntity
  8
0
100
AcDbLine
 62
7
  6
CONTINUOUS
 10
63.4345467807
 20
207.6927766437
 11
63.4345467807
 21
212.5927766437
  0
LINE
  5
2B9
100
AcDbEntity
  8
0
100
AcDbLine
 62
7
  6
CONTINUOUS
 10
63.7345467807
 20
149.3927766437
 11
63.7345467807
 21
154.8927766437
  0
LINE
  5
2BA
100
AcDbEntity
  8
0
100
AcDbLine
 62
7
  6
CONTINUOUS
 10
63.7345467807
 20
207.3927766437
 11
63.7345467807
 21
212.8927766437
  0
LINE
  5
2BB
100
AcDbEntity
  8
0
100
AcDbLine
 62
7
  6
CONTINUOUS
 10
64.1573467807
 20
260.9065266437
 11
64.1573467807
 21
231.3790266437
  0
LINE
  5
2BC
100
AcDbEntity
  8
0
100
AcDbLine
 62
7
  6
CONTINUOUS
 10
66.4345467807
 20
148.673320681
 11
66.4345467807
 21
158.1426624129
  0
LINE
  5
2BD
100
AcDbEntity
  8
0
100
AcDbLine
 62
7
  6
CONTINUOUS
 10
66.4345467807
 20
204.1428908746
 11
66.4345467807
 21
213.6122326065
  0
LINE
  5
2BE
100
AcDbEntity
  8
0
100
AcDbLine
 62
7
  6
CONTINUOUS
 10
35.6551277012
 20
162.8844385475
 11
35.6566693701
 21
162.8857392253
  0
LINE
  5
2BF
100
AcDbEntity
  8
0
100
AcDbLine
 62
7
  6
CONTINUOUS
 10
38.8962640974
 20
162.8854874817
 11
38.8941579021
 21
162.8837290482
  0
LINE
  5
2C0
100
AcDbEntity
  8
0
100
AcDbLine
 62
7
  6
CONTINUOUS
 10
36.464405743
 20
162.8836872557
 11
36.4664255944
 21
162.885364645
  0
LINE
  5
2C1
100
AcDbEntity
  8
0
100
AcDbLine
 62
7
  6
CONTINUOUS
 10
40.5152220692
 20
162.8839878303
 11
40.5168535031
 21
162.8853193321
  0
LINE
  5
2C2
100
AcDbEntity
  8
0
100
AcDbLine
 62
7
  6
CONTINUOUS
 10
34.0348795838
 20
162.8887117099
 11
34.0327044426
 21
162.8870951535
  0
LINE
  5
2C3
100
AcDbEntity
  8
0
100
AcDbLine
 62
7
  6
CONTINUOUS
 10
38.0870708694
 20
162.8874223867
 11
38.0884718347
 21
162.8884342946
  0
LINE
  5
2C4
100
AcDbEntity
  8
0
100
AcDbLine
 62
7
  6
CONTINUOUS
 10
39.7061127825
 20
162.8859896291
 11
39.70432749
 21
162.8847700038
  0
LINE
  5
2C5
100
AcDbEntity
  8
0
100
AcDbLine
 62
7
  6
CONTINUOUS
 10
200.9345467807
 20
103.1427766437
 11
70.9345467807
 21
103.1427766437
  0
LINE
  5
2C6
100
AcDbEntity
  8
0
100
AcDbLine
 62
7
  6
CONTINUOUS
 10
28.3628575537
 20
162.8860968736
 11
28.3645736677
 21
162.8848145705
  0
LINE
  5
2C7
100
AcDbEntity
  8
0
100
AcDbLine
 62
7
  6
CONTINUOUS
 10
29.1729905829
 20
162.8854126271
 11
29.1751162546
 21
162.8838151309
  0
LINE
  5
2C8
100
AcDbEntity
  8
0
100
AcDbLine
 62
7
  6
CONTINUOUS
 10
29.9838693864
 20
162.8840001405
 11
29.9822415746
 21
162.885330938
  0
LINE
  5
2C9
100
AcDbEntity
  8
0
100
AcDbLine
 62
7
  6
CONTINUOUS
 10
31.6028262178
 20
162.8855070136
 11
31.6049219934
 21
162.8837252163
  0
LINE
  5
2CA
100
AcDbEntity
  8
0
100
AcDbLine
 62
7
  6
CONTINUOUS
 10
30.794777873
 20
162.8847645573
 11
30.7930096223
 21
162.8863632729
  0
LINE
  5
2CB
100
AcDbEntity
  8
0
100
AcDbLine
 62
7
  6
CONTINUOUS
 10
38.0833614538
 20
162.8874223157
 11
38.0812111687
 21
162.8894748234
  0
LINE
  5
2CC
100
AcDbEntity
  8
0
100
AcDbLine
 62
7
  6
CONTINUOUS
 10
36.462453895
 20
162.8856845775
 11
36.464405743
 21
162.8836872557
  0
LINE
  5
2CD
100
AcDbEntity
  8
0
100
AcDbLine
 62
7
  6
CONTINUOUS
 10
29.1765634974
 20
193.6974305092
 11
28.7708962197
 21
194.3999524453
  0
LINE
  5
2CE
100
AcDbEntity
  8
0
100
AcDbLine
 62
7
  6
CONTINUOUS
 10
29.9863503277
 20
193.6978448682
 11
29.581284128
 21
194.3993451772
  0
LINE
  5
2CF
100
AcDbEntity
  8
0
100
AcDbLine
 62
7
  6
CONTINUOUS
 10
30.796497452
 20
193.6994653427
 11
30.3919838548
 21
194.4000839667
  0
LINE
  5
2D0
100
AcDbEntity
  8
0
100
AcDbLine
 62
7
  6
CONTINUOUS
 10
31.6065336125
 20
193.6971668745
 11
31.2007728052
 21
194.3998384852
  0
LINE
  5
2D1
100
AcDbEntity
  8
0
100
AcDbLine
 62
7
  6
CONTINUOUS
 10
32.4163320151
 20
193.6982863634
 11
32.0114846614
 21
194.3994282195
  0
LINE
  5
2D2
100
AcDbEntity
  8
0
100
AcDbLine
 62
7
  6
CONTINUOUS
 10
33.2265492003
 20
193.6991455209
 11
32.8218452004
 21
194.4000790564
  0
LINE
  5
2D3
100
AcDbEntity
  8
0
100
AcDbLine
 62
7
  6
CONTINUOUS
 10
34.0364970068
 20
193.6970310853
 11
33.6307455721
 21
194.3996801315
  0
LINE
  5
2D4
100
AcDbEntity
  8
0
100
AcDbLine
 62
7
  6
CONTINUOUS
 10
34.846327267
 20
193.6987446709
 11
34.4416750785
 21
194.3995698451
  0
LINE
  5
2D5
100
AcDbEntity
  8
0
100
AcDbLine
 62
7
  6
CONTINUOUS
 10
35.6565791481
 20
193.6987227165
 11
35.2516288979
 21
194.4000630744
  0
LINE
  5
2D6
100
AcDbEntity
  8
0
100
AcDbLine
 62
7
  6
CONTINUOUS
 10
36.4664570859
 20
193.6970348666
 11
36.0607993618
 21
194.3995218091
  0
LINE
  5
2D7
100
AcDbEntity
  8
0
100
AcDbLine
 62
7
  6
CONTINUOUS
 10
37.2763390342
 20
193.6991623761
 11
36.8718376758
 21
194.3997457435
  0
LINE
  5
2D8
100
AcDbEntity
  8
0
100
AcDbLine
 62
7
  6
CONTINUOUS
 10
38.0865898629
 20
193.6982630094
 11
37.6813734396
 21
194.400042947
  0
LINE
  5
2D9
100
AcDbEntity
  8
0
100
AcDbLine
 62
7
  6
CONTINUOUS
 10
38.8964172949
 20
193.6971778565
 11
38.4909170473
 21
194.3993987604
  0
LINE
  5
2DA
100
AcDbEntity
  8
0
100
AcDbLine
 62
7
  6
CONTINUOUS
 10
68.1646742878
 20
247.1512508399
 11
68.1861482511
 21
245.7610060558
  0
LINE
  5
2DB
100
AcDbEntity
  8
0
100
AcDbLine
 62
7
  6
CONTINUOUS
 10
68.2380261154
 20
242.402383845
 11
68.2635552345
 21
240.7496044247
  0
LINE
  5
2DC
100
AcDbEntity
  8
0
100
AcDbLine
 62
7
  6
CONTINUOUS
 10
66.6625123795
 20
254.2241602174
 11
66.8590789122
 21
241.6464797397
  0
LINE
  5
2DD
100
AcDbEntity
  8
0
100
AcDbLine
 62
7
  6
CONTINUOUS
 10
67.6194217957
 20
240.342977715
 11
67.5870142399
 21
242.6423674597
  0
LINE
  5
2DE
100
AcDbEntity
  8
0
100
AcDbLine
 62
7
  6
CONTINUOUS
 10
67.4176823248
 20
247.143568724
 11
67.4456467774
 21
245.1369869389
  0
LINE
  5
2DF
100
AcDbEntity
  8
0
100
AcDbLine
 62
7
  6
CONTINUOUS
 10
67.5717660115
 20
243.6946183941
 11
67.5235677334
 21
247.1414282925
  0
LINE
  5
2E0
100
AcDbEntity
  8
0
100
AcDbLine
 62
7
  6
CONTINUOUS
 10
69.9345467807
 20
148.6427766437
 11
69.9345467807
 21
213.6427766437
  0
LINE
  5
2E1
100
AcDbEntity
  8
0
100
AcDbLine
 62
7
  6
CONTINUOUS
 10
70.9345467807
 20
224.8755302373
 11
70.9345467807
 21
103.1427766437
  0
LINE
  5
2E2
100
AcDbEntity
  8
0
100
AcDbLine
 62
7
  6
CONTINUOUS
 10
76.4345467807
 20
114.6427766437
 11
76.4345467807
 21
224.9235280102
  0
LINE
  5
2E3
100
AcDbEntity
  8
0
100
AcDbLine
 62
7
  6
CONTINUOUS
 10
70.9345467807
 20
114.6427766437
 11
98.4345467807
 21
114.6427766437
  0
LINE
  5
2E4
100
AcDbEntity
  8
0
100
AcDbLine
 62
7
  6
CONTINUOUS
 10
173.4345467807
 20
114.6427766437
 11
200.9345467807
 21
114.6427766437
  0
LINE
  5
2E5
100
AcDbEntity
  8
0
100
AcDbLine
 62
7
  6
CONTINUOUS
 10
33.2230914981
 20
162.8858182187
 11
33.2249748859
 21
162.8846333674
  0
LINE
  5
2E6
100
AcDbEntity
  8
0
100
AcDbLine
 62
7
  6
CONTINUOUS
 10
34.8421717056
 20
162.8875735421
 11
34.8407879964
 21
162.888600958
  0
LINE
  5
2E7
100
AcDbEntity
  8
0
100
AcDbLine
 62
7
  6
CONTINUOUS
 10
37.2723688738
 20
162.8876933452
 11
37.2709651907
 21
162.8887666738
  0
LINE
  5
2E8
100
AcDbEntity
  8
0
100
AcDbLine
 62
7
  6
CONTINUOUS
 10
38.8941579021
 20
162.8837290482
 11
38.8923186088
 21
162.8851922517
  0
LINE
  5
2E9
100
AcDbEntity
  8
0
100
AcDbLine
 62
7
  6
CONTINUOUS
 10
39.70432749
 20
162.8847700038
 11
39.7027291404
 21
162.8861661803
  0
LINE
  5
2EA
100
AcDbEntity
  8
0
100
AcDbLine
 62
7
  6
CONTINUOUS
 10
124.9345467807
 20
93.6427766437
 11
123.4345467807
 21
95.1427766437
  0
LINE
  5
2EB
100
AcDbEntity
  8
0
100
AcDbLine
 62
7
  6
CONTINUOUS
 10
39.7063700516
 20
193.6994728767
 11
39.3019555321
 21
194.3999202673
  0
LINE
  5
2EC
100
AcDbEntity
  8
0
100
AcDbLine
 62
7
  6
CONTINUOUS
 10
40.5165841485
 20
193.6978232345
 11
40.1111189858
 21
194.4000134586
  0
LINE
  5
2ED
100
AcDbEntity
  8
0
100
AcDbLine
 62
7
  6
CONTINUOUS
 10
41.2345467807
 20
193.8564831654
 11
40.921080704
 21
194.3993348767
  0
LINE
  5
2EE
100
AcDbEntity
  8
0
100
AcDbLine
 62
7
  6
CONTINUOUS
 10
76.3751526331
 20
254.6385800114
 11
76.4230460236
 21
251.8894143652
  0
LINE
  5
2EF
100
AcDbEntity
  8
0
100
AcDbLine
 62
7
  6
CONTINUOUS
 10
76.5716741211
 20
242.3920545028
 11
76.6042144172
 21
240.3925840785
  0
LINE
  5
2F0
100
AcDbEntity
  8
0
100
AcDbLine
 62
7
  6
CONTINUOUS
 10
76.4733820607
 20
248.7811953297
 11
76.5287253741
 21
245.1251916317
  0
LINE
  5
2F1
100
AcDbEntity
  8
0
100
AcDbLine
 62
7
  6
CONTINUOUS
 10
78.3785467807
 20
228.9927766437
 11
78.3785467807
 21
233.891850207
  0
LINE
  5
2F2
100
AcDbEntity
  8
0
100
AcDbLine
 62
7
  6
CONTINUOUS
 10
78.3785467807
 20
258.3927766437
 11
78.3785467807
 21
263.291850207
  0
LINE
  5
2F3
100
AcDbEntity
  8
0
100
AcDbLine
 62
7
  6
CONTINUOUS
 10
78.6785467807
 20
228.6927766437
 11
78.6785467807
 21
234.1927766437
  0
LINE
  5
2F4
100
AcDbEntity
  8
0
100
AcDbLine
 62
7
  6
CONTINUOUS
 10
78.6785467807
 20
258.0927766437
 11
78.6785467807
 21
263.5927766437
  0
LINE
  5
2F5
100
AcDbEntity
  8
0
100
AcDbLine
 62
7
  6
CONTINUOUS
 10
78.9345467807
 20
103.1427766437
 11
78.9345467807
 21
114.6427766437
  0
LINE
  5
2F6
100
AcDbEntity
  8
0
100
AcDbLine
 62
7
  6
CONTINUOUS
 10
80.9345467807
 20
97.6427766437
 11
80.9345467807
 21
103.1427766437
  0
LINE
  5
2F7
100
AcDbEntity
  8
0
100
AcDbLine
 62
7
  6
CONTINUOUS
 10
81.3785467807
 20
227.0927766437
 11
81.3785467807
 21
265.1927766437
  0
LINE
  5
2F8
100
AcDbEntity
  8
0
100
AcDbLine
 62
7
  6
CONTINUOUS
 10
84.9345467807
 20
265.1927766437
 11
84.9345467807
 21
227.0927766437
  0
LINE
  5
2F9
100
AcDbEntity
  8
0
100
AcDbLine
 62
7
  6
CONTINUOUS
 10
85.4345467807
 20
225.0020698203
 11
85.4345467807
 21
114.6427766437
  0
LINE
  5
2FA
100
AcDbEntity
  8
0
100
AcDbLine
 62
7
  6
CONTINUOUS
 10
85.9345467807
 20
229.8902987748
 11
85.9345467807
 21
264.8927766437
  0
LINE
  5
2FB
100
AcDbEntity
  8
0
100
AcDbLine
 62
7
  6
CONTINUOUS
 10
85.9345467807
 20
226.1427766437
 11
86.2792866148
 21
265.6460488805
  0
LINE
  5
2FC
100
AcDbEntity
  8
0
100
AcDbLine
 62
7
  6
CONTINUOUS
 10
35.6531542217
 20
162.8856347856
 11
35.6551277012
 21
162.8844385475
  0
LINE
  5
2FD
100
AcDbEntity
  8
0
100
AcDbLine
 62
7
  6
CONTINUOUS
 10
40.5131233087
 20
162.8853989792
 11
40.5152220692
 21
162.8839878303
  0
LINE
  5
2FE
100
AcDbEntity
  8
0
100
AcDbLine
 62
7
  6
CONTINUOUS
 10
28.7689008819
 20
194.4016478981
 11
28.7710156031
 21
194.3997456999
  0
LINE
  5
2FF
100
AcDbEntity
  8
0
100
AcDbLine
 62
7
  6
CONTINUOUS
 10
31.1988636642
 20
194.4014447876
 11
31.2009202188
 21
194.3995832022
  0
LINE
  5
300
100
AcDbEntity
  8
0
100
AcDbLine
 62
7
  6
CONTINUOUS
 10
34.4416101702
 20
194.3994574287
 11
34.4400579883
 21
194.4010109635
  0
LINE
  5
301
100
AcDbEntity
  8
0
100
AcDbLine
 62
7
  6
CONTINUOUS
 10
33.6307447726
 20
194.3980495712
 11
33.6329837942
 21
194.3958041327
  0
LINE
  5
302
100
AcDbEntity
  8
0
100
AcDbLine
 62
7
  6
CONTINUOUS
 10
36.8717436328
 20
194.3995828701
 11
36.8701813058
 21
194.4012271935
  0
LINE
  5
303
100
AcDbEntity
  8
0
100
AcDbLine
 62
7
  6
CONTINUOUS
 10
30.3918374954
 20
194.3998304776
 11
30.3900274151
 21
194.4017905655
  0
LINE
  5
304
100
AcDbEntity
  8
0
100
AcDbLine
 62
7
  6
CONTINUOUS
 10
39.3018289977
 20
194.3997011224
 11
39.3002304479
 21
194.4014583869
  0
LINE
  5
305
100
AcDbEntity
  8
0
100
AcDbLine
 62
7
  6
CONTINUOUS
 10
67.0866536693
 20
262.00411529
 11
67.0872463091
 21
261.9996312956
  0
LINE
  5
306
100
AcDbEntity
  8
0
100
AcDbLine
 62
7
  6
CONTINUOUS
 10
89.2791819053
 20
265.6460470589
 11
89.2791819053
 21
266.1427766437
  0
LINE
  5
307
100
AcDbEntity
  8
0
100
AcDbLine
 62
7
  6
CONTINUOUS
 10
92.9345467807
 20
225.0675213287
 11
92.9345467807
 21
114.6427766437
  0
LINE
  5
308
100
AcDbEntity
  8
0
100
AcDbLine
 62
7
  6
CONTINUOUS
 10
95.4345467807
 20
226.1427766437
 11
95.4345467807
 21
225.0893384982
  0
LINE
  5
309
100
AcDbEntity
  8
0
100
AcDbLine
 62
7
  6
CONTINUOUS
 10
89.2791818986
 20
265.6460470093
 11
88.9344325499
 21
226.1427766437
  0
LINE
  5
30A
100
AcDbEntity
  8
0
100
AcDbLine
 62
7
  6
CONTINUOUS
 10
32.819801891
 20
194.4018530728
 11
32.8216965618
 21
194.4003364945
  0
LINE
  5
30B
100
AcDbEntity
  8
0
100
AcDbLine
 62
7
  6
CONTINUOUS
 10
27.9601813508
 20
194.4016676136
 11
27.96186325
 21
194.4003129689
  0
LINE
  5
30C
100
AcDbEntity
  8
0
100
AcDbLine
 62
7
  6
CONTINUOUS
 10
29.5813252399
 20
194.3994163847
 11
29.5796723255
 21
194.400753107
  0
LINE
  5
30D
100
AcDbEntity
  8
0
100
AcDbLine
 62
7
  6
CONTINUOUS
 10
32.009880976
 20
194.4008449603
 11
32.0114471826
 21
194.3994931282
  0
LINE
  5
30E
100
AcDbEntity
  8
0
100
AcDbLine
 62
7
  6
CONTINUOUS
 10
40.1090534172
 20
194.4017850413
 11
40.1111383731
 21
194.3999798832
  0
LINE
  5
30F
100
AcDbEntity
  8
0
100
AcDbLine
 62
7
  6
CONTINUOUS
 10
36.0590455576
 20
194.4009992378
 11
36.0609653553
 21
194.3992343529
  0
LINE
  5
310
100
AcDbEntity
  8
0
100
AcDbLine
 62
7
  6
CONTINUOUS
 10
98.4345467807
 20
114.6427766437
 11
98.4345467807
 21
226.1427766438
  0
LINE
  5
311
100
AcDbEntity
  8
0
100
AcDbLine
 62
7
  6
CONTINUOUS
 10
99.9345467807
 20
96.8427766437
 11
99.9345467807
 21
97.1427766437
  0
LINE
  5
312
100
AcDbEntity
  8
0
100
AcDbLine
 62
7
  6
CONTINUOUS
 10
100.9345467807
 20
95.1427766437
 11
100.9345467807
 21
95.8427766437
  0
LINE
  5
313
100
AcDbEntity
  8
0
100
AcDbLine
 62
7
  6
CONTINUOUS
 10
103.2795245977
 20
266.1427766437
 11
103.2795245977
 21
265.6471401879
  0
LINE
  5
314
100
AcDbEntity
  8
0
100
AcDbLine
 62
7
  6
CONTINUOUS
 10
102.9345467807
 20
225.1547900066
 11
102.9346610115
 21
226.1427766437
  0
LINE
  5
315
100
AcDbEntity
  8
0
100
AcDbLine
 62
7
  6
CONTINUOUS
 10
102.9346610115
 20
226.1427766437
 11
103.2795245977
 21
265.6471401879
  0
LINE
  5
316
100
AcDbEntity
  8
0
100
AcDbLine
 62
7
  6
CONTINUOUS
 10
69.9345467807
 20
148.6427766437
 11
48.9258202483
 21
148.8261170226
  0
LINE
  5
317
100
AcDbEntity
  8
0
100
AcDbLine
 62
7
  6
CONTINUOUS
 10
37.6776357187
 20
194.3935681646
 11
37.6753482011
 21
194.3950448954
  0
LINE
  5
318
100
AcDbEntity
  8
0
100
AcDbLine
 62
7
  6
CONTINUOUS
 10
38.4910570536
 20
194.3996412791
 11
38.4892245615
 21
194.400837121
  0
LINE
  5
319
100
AcDbEntity
  8
0
100
AcDbLine
 62
7
  6
CONTINUOUS
 10
35.25150781
 20
194.3984607638
 11
35.253303005
 21
194.3971636458
  0
LINE
  5
31A
100
AcDbEntity
  8
0
100
AcDbLine
 62
7
  6
CONTINUOUS
 10
40.9211675901
 20
194.3994853736
 11
40.9194344083
 21
194.4007501743
  0
LINE
  5
31B
100
AcDbEntity
  8
0
100
AcDbLine
 62
7
  6
CONTINUOUS
 10
108.9345467807
 20
225.2071512133
 11
108.9345467807
 21
226.1427766437
  0
LINE
  5
31C
100
AcDbEntity
  8
0
100
AcDbLine
 62
7
  6
CONTINUOUS
 10
110.5333657502
 20
265.6427767737
 11
110.5333657502
 21
266.1427766437
  0
LINE
  5
31D
100
AcDbEntity
  8
0
100
AcDbLine
 62
7
  6
CONTINUOUS
 10
111.1845467807
 20
265.3427766437
 11
111.1845467807
 21
262.6427766437
  0
LINE
  5
31E
100
AcDbEntity
  8
0
100
AcDbLine
 62
7
  6
CONTINUOUS
 10
111.9344896653
 20
226.1427766437
 11
111.9345467807
 21
225.2333318167
  0
LINE
  5
31F
100
AcDbEntity
  8
0
100
AcDbLine
 62
7
  6
CONTINUOUS
 10
113.9345467807
 20
266.1427766437
 11
113.9345467807
 21
265.6427767737
  0
LINE
  5
320
100
AcDbEntity
  8
0
100
AcDbLine
 62
7
  6
CONTINUOUS
 10
108.9345467807
 20
226.1427766437
 11
109.2530774551
 21
262.6427766437
  0
LINE
  5
321
100
AcDbEntity
  8
0
100
AcDbLine
 62
7
  6
CONTINUOUS
 10
112.2529632243
 20
262.6427766437
 11
111.9344896653
 21
226.1427766437
  0
LINE
  5
322
100
AcDbEntity
  8
0
100
AcDbLine
 62
7
  6
CONTINUOUS
 10
109.0507492751
 20
262.6427766277
 11
109.0825254843
 21
265.6481055592
  0
LINE
  5
323
100
AcDbEntity
  8
0
100
AcDbLine
 62
7
  6
CONTINUOUS
 10
110.5333657841
 20
265.6427769037
 11
110.5002691029
 21
262.6427766438
  0
LINE
  5
324
100
AcDbEntity
  8
0
100
AcDbLine
 62
7
  6
CONTINUOUS
 10
69.9345467807
 20
149.1427766437
 11
70.9345467807
 21
149.1427766437
  0
LINE
  5
325
100
AcDbEntity
  8
0
100
AcDbLine
 62
7
  6
CONTINUOUS
 10
63.7345467807
 20
149.3927766437
 11
66.4345467807
 21
149.3927766437
  0
LINE
  5
326
100
AcDbEntity
  8
0
100
AcDbLine
 62
7
  6
CONTINUOUS
 10
70.9345467807
 20
151.1427766437
 11
69.9345467807
 21
151.1427766437
  0
LINE
  5
327
100
AcDbEntity
  8
0
100
AcDbLine
 62
7
  6
CONTINUOUS
 10
48.925820237
 20
151.8260027919
 11
47.9345467807
 21
151.8260027919
  0
LINE
  5
328
100
AcDbEntity
  8
0
100
AcDbLine
 62
7
  6
CONTINUOUS
 10
47.9345467807
 20
152.2956872162
 11
48.925820237
 21
152.2956872162
  0
LINE
  5
329
100
AcDbEntity
  8
0
100
AcDbLine
 62
7
  6
CONTINUOUS
 10
63.7345467807
 20
154.8927766437
 11
66.4345467807
 21
154.8927766437
  0
LINE
  5
32A
100
AcDbEntity
  8
0
100
AcDbLine
 62
7
  6
CONTINUOUS
 10
48.9258202467
 20
158.2954587546
 11
47.9345467807
 21
158.2954587546
  0
LINE
  5
32B
100
AcDbEntity
  8
0
100
AcDbLine
 62
7
  6
CONTINUOUS
 10
48.9258202483
 20
151.8260027919
 11
63.4345467807
 21
151.6993870536
  0
LINE
  5
32C
100
AcDbEntity
  8
0
100
AcDbLine
 62
7
  6
CONTINUOUS
 10
66.4345467807
 20
151.6732064502
 11
69.9345467807
 21
151.6426624129
  0
LINE
  5
32D
100
AcDbEntity
  8
0
100
AcDbLine
 62
7
  6
CONTINUOUS
 10
63.4345467807
 20
152.1690714779
 11
48.9258202257
 21
152.2956872162
  0
LINE
  5
32E
100
AcDbEntity
  8
0
100
AcDbLine
 62
7
  6
CONTINUOUS
 10
66.4345467807
 20
155.1427766437
 11
48.9258202483
 21
155.2955729854
  0
LINE
  5
32F
100
AcDbEntity
  8
0
100
AcDbLine
 62
7
  6
CONTINUOUS
 10
48.9258202483
 20
158.2954587546
 11
66.4345467807
 21
158.1426624129
  0
LINE
  5
330
100
AcDbEntity
  8
0
100
AcDbLine
 62
7
  6
CONTINUOUS
 10
64.3531921813
 20
231.3849522047
 11
64.6218236114
 21
230.9198509705
  0
LINE
  5
331
100
AcDbEntity
  8
0
100
AcDbLine
 62
7
  6
CONTINUOUS
 10
65.7425208356
 20
231.38956034
 11
66.3879725503
 21
230.2723759869
  0
LINE
  5
332
100
AcDbEntity
  8
0
100
AcDbLine
 62
7
  6
CONTINUOUS
 10
67.1318541566
 20
231.3840569703
 11
67.774144314
 21
230.2719310771
  0
LINE
  5
333
100
AcDbEntity
  8
0
100
AcDbLine
 62
7
  6
CONTINUOUS
 10
68.5205395236
 20
231.3846599166
 11
69.1628301169
 21
230.272578245
  0
LINE
  5
334
100
AcDbEntity
  8
0
100
AcDbLine
 62
7
  6
CONTINUOUS
 10
69.9096515507
 20
231.3849213026
 11
70.5521572819
 21
230.2724867168
  0
LINE
  5
335
100
AcDbEntity
  8
0
100
AcDbLine
 62
7
  6
CONTINUOUS
 10
71.2987973166
 20
231.3848370731
 11
71.9413358864
 21
230.2723392636
  0
LINE
  5
336
100
AcDbEntity
  8
0
100
AcDbLine
 62
7
  6
CONTINUOUS
 10
116.6845467807
 20
265.3427766437
 11
116.6845467807
 21
262.6427766437
  0
LINE
  5
337
100
AcDbEntity
  8
0
100
AcDbLine
 62
7
  6
CONTINUOUS
 10
117.1845467807
 20
262.6427766437
 11
117.1845467807
 21
265.6427768134
  0
LINE
  5
338
100
AcDbEntity
  8
0
100
AcDbLine
 62
7
  6
CONTINUOUS
 10
118.6845467807
 20
262.6427766437
 11
118.6845467807
 21
266.1427766437
  0
LINE
  5
339
100
AcDbEntity
  8
0
100
AcDbLine
 62
7
  6
CONTINUOUS
 10
121.9345467807
 20
48.3927766437
 11
121.9345467807
 21
83.8927766437
  0
LINE
  5
33A
100
AcDbEntity
  8
0
100
AcDbLine
 62
7
  6
CONTINUOUS
 10
122.1845467807
 20
48.1427766437
 11
122.1845467807
 21
84.1427766437
  0
LINE
  5
33B
100
AcDbEntity
  8
0
100
AcDbLine
 62
7
  6
CONTINUOUS
 10
44.2345467807
 20
159.6427766437
 11
46.9345467807
 21
159.6427766437
  0
LINE
  5
33C
100
AcDbEntity
  8
0
100
AcDbLine
 62
7
  6
CONTINUOUS
 10
46.9345467807
 20
159.8927766437
 11
47.9345467807
 21
159.8927766437
  0
LINE
  5
33D
100
AcDbEntity
  8
0
100
AcDbLine
 62
7
  6
CONTINUOUS
 10
44.2345467807
 20
161.1927766437
 11
41.5345467807
 21
161.1927766437
  0
LINE
  5
33E
100
AcDbEntity
  8
0
100
AcDbLine
 62
7
  6
CONTINUOUS
 10
26.7345467803
 20
163.7427766437
 11
25.6345467807
 21
163.7427766437
  0
LINE
  5
33F
100
AcDbEntity
  8
0
100
AcDbLine
 62
7
  6
CONTINUOUS
 10
46.9345467807
 20
163.9427766437
 11
44.2345467807
 21
163.9427766437
  0
LINE
  5
340
100
AcDbEntity
  8
0
100
AcDbLine
 62
7
  6
CONTINUOUS
 10
47.9345467807
 20
164.8927766437
 11
46.9345467807
 21
164.8927766437
  0
LINE
  5
341
100
AcDbEntity
  8
0
100
AcDbLine
 62
7
  6
CONTINUOUS
 10
44.2345467807
 20
166.6927766437
 11
41.5345467807
 21
166.6927766437
  0
LINE
  5
342
100
AcDbEntity
  8
0
100
AcDbLine
 62
7
  6
CONTINUOUS
 10
64.6357758998
 20
230.9005975247
 11
64.6220623442
 21
230.9196127511
  0
LINE
  5
343
100
AcDbEntity
  8
0
100
AcDbLine
 62
7
  6
CONTINUOUS
 10
72.6879267124
 20
231.3844590186
 11
73.3302963268
 21
230.2722253355
  0
LINE
  5
344
100
AcDbEntity
  8
0
100
AcDbLine
 62
7
  6
CONTINUOUS
 10
74.0768069551
 20
231.3848292119
 11
74.7192217399
 21
230.272545198
  0
LINE
  5
345
100
AcDbEntity
  8
0
100
AcDbLine
 62
7
  6
CONTINUOUS
 10
75.4659420959
 20
231.3849239322
 11
76.1084912878
 21
230.272414275
  0
LINE
  5
346
100
AcDbEntity
  8
0
100
AcDbLine
 62
7
  6
CONTINUOUS
 10
76.8550859252
 20
231.3846735921
 11
77.497561388
 21
230.2722727547
  0
LINE
  5
347
100
AcDbEntity
  8
0
100
AcDbLine
 62
7
  6
CONTINUOUS
 10
78.2441886352
 20
231.3842310944
 11
78.3785467807
 21
231.1515962152
  0
LINE
  5
348
100
AcDbEntity
  8
0
100
AcDbLine
 62
7
  6
CONTINUOUS
 10
65.0592008517
 20
260.8971070456
 11
64.7271036119
 21
261.4719566746
  0
LINE
  5
349
100
AcDbEntity
  8
0
100
AcDbLine
 62
7
  6
CONTINUOUS
 10
124.9345467807
 20
93.6427766437
 11
124.9345467807
 21
84.1427766437
  0
LINE
  5
34A
100
AcDbEntity
  8
0
100
AcDbLine
 62
7
  6
CONTINUOUS
 10
125.6875960148
 20
80.1427766437
 11
125.6875960148
 21
48.6427766437
  0
LINE
  5
34B
100
AcDbEntity
  8
0
100
AcDbLine
 62
7
  6
CONTINUOUS
 10
27.3127139723
 20
194.1194724985
 11
27.3115543251
 21
194.1197841878
  0
LINE
  5
34C
100
AcDbEntity
  8
0
100
AcDbLine
 62
7
  6
CONTINUOUS
 10
64.1573467807
 20
231.3790266437
 11
64.2579588638
 21
231.2784145606
  0
LINE
  5
34D
100
AcDbEntity
  8
0
100
AcDbLine
 62
7
  6
CONTINUOUS
 10
64.6357758998
 20
230.9005975247
 11
65.1640003036
 21
230.3723731209
  0
LINE
  5
34E
100
AcDbEntity
  8
0
100
AcDbLine
 62
7
  6
CONTINUOUS
 10
66.4489275426
 20
260.8984429146
 11
65.8054502109
 21
262.0123943485
  0
LINE
  5
34F
100
AcDbEntity
  8
0
100
AcDbLine
 62
7
  6
CONTINUOUS
 10
67.8371687227
 20
260.8999822875
 11
67.1937971436
 21
262.0138668147
  0
LINE
  5
350
100
AcDbEntity
  8
0
100
AcDbLine
 62
7
  6
CONTINUOUS
 10
69.2266134677
 20
260.9007162151
 11
68.5840748987
 21
262.0132140232
  0
LINE
  5
351
100
AcDbEntity
  8
0
100
AcDbLine
 62
7
  6
CONTINUOUS
 10
70.6157592336
 20
260.9006319856
 11
69.9732535032
 21
262.0130665699
  0
LINE
  5
352
100
AcDbEntity
  8
0
100
AcDbLine
 62
7
  6
CONTINUOUS
 10
72.0048713039
 20
260.900892724
 11
71.3625803507
 21
262.0129749699
  0
LINE
  5
353
100
AcDbEntity
  8
0
100
AcDbLine
 62
7
  6
CONTINUOUS
 10
73.3939016109
 20
260.9013435226
 11
72.7518603772
 21
262.0130271396
  0
LINE
  5
354
100
AcDbEntity
  8
0
100
AcDbLine
 62
7
  6
CONTINUOUS
 10
74.7829061883
 20
260.900629356
 11
74.1403569974
 21
262.0131390118
  0
LINE
  5
355
100
AcDbEntity
  8
0
100
AcDbLine
 62
7
  6
CONTINUOUS
 10
67.7738589889
 20
230.2719309862
 11
67.7789192333
 21
230.2677766437
  0
LINE
  5
356
100
AcDbEntity
  8
0
100
AcDbLine
 62
7
  6
CONTINUOUS
 10
71.9408890987
 20
230.2723391138
 11
71.946209524
 21
230.2677766437
  0
LINE
  5
357
100
AcDbEntity
  8
0
100
AcDbLine
 62
7
  6
CONTINUOUS
 10
70.5517520612
 20
230.2724865788
 11
70.5571604817
 21
230.2677766437
  0
LINE
  5
358
100
AcDbEntity
  8
0
100
AcDbLine
 62
7
  6
CONTINUOUS
 10
69.1626042964
 20
230.2725781674
 11
69.1680608158
 21
230.2677766437
  0
LINE
  5
359
100
AcDbEntity
  8
0
100
AcDbLine
 62
7
  6
CONTINUOUS
 10
66.3855839202
 20
230.2723752182
 11
66.3906849301
 21
230.2677766437
  0
LINE
  5
35A
100
AcDbEntity
  8
0
100
AcDbLine
 62
7
  6
CONTINUOUS
 10
76.1720413291
 20
260.9007240797
 11
75.5296265474
 21
262.0130080885
  0
LINE
  5
35B
100
AcDbEntity
  8
0
100
AcDbLine
 62
7
  6
CONTINUOUS
 10
77.561118178
 20
260.9011123433
 11
76.9189617063
 21
262.0129781937
  0
LINE
  5
35C
100
AcDbEntity
  8
0
100
AcDbLine
 62
7
  6
CONTINUOUS
 10
146.9345467807
 20
93.6427766437
 11
146.9345467807
 21
48.6427766437
  0
LINE
  5
35D
100
AcDbEntity
  8
0
100
AcDbLine
 62
7
  6
CONTINUOUS
 10
44.2345467807
 20
190.5927766437
 11
41.5345467807
 21
190.5927766437
  0
LINE
  5
35E
100
AcDbEntity
  8
0
100
AcDbLine
 62
7
  6
CONTINUOUS
 10
46.9345467807
 20
192.3927766437
 11
47.9345467807
 21
192.3927766437
  0
LINE
  5
35F
100
AcDbEntity
  8
0
100
AcDbLine
 62
7
  6
CONTINUOUS
 10
44.2345467807
 20
193.3427766437
 11
46.9345467807
 21
193.3427766437
  0
LINE
  5
360
100
AcDbEntity
  8
0
100
AcDbLine
 62
7
  6
CONTINUOUS
 10
26.7345467803
 20
193.5427766437
 11
25.6345467807
 21
193.5427766437
  0
LINE
  5
361
100
AcDbEntity
  8
0
100
AcDbLine
 62
7
  6
CONTINUOUS
 10
73.3299718024
 20
230.2722252283
 11
73.3352161054
 21
230.2677766437
  0
LINE
  5
362
100
AcDbEntity
  8
0
100
AcDbLine
 62
7
  6
CONTINUOUS
 10
77.4971577775
 20
230.2722726206
 11
77.5024351556
 21
230.2677766437
  0
LINE
  5
363
100
AcDbEntity
  8
0
100
AcDbLine
 62
7
  6
CONTINUOUS
 10
76.1080438989
 20
230.2724141238
 11
76.1134102935
 21
230.2677766437
  0
LINE
  5
364
100
AcDbEntity
  8
0
100
AcDbLine
 62
7
  6
CONTINUOUS
 10
74.7188954753
 20
230.2725450863
 11
74.7243350512
 21
230.2677766437
  0
LINE
  5
365
100
AcDbEntity
  8
0
100
AcDbLine
 62
7
  6
CONTINUOUS
 10
72.9116585645
 20
257.7798794052
 11
73.5533056116
 21
256.9652173859
  0
LINE
  5
366
100
AcDbEntity
  8
0
100
AcDbLine
 62
7
  6
CONTINUOUS
 10
159.9346038961
 20
226.1427766437
 11
159.6161303372
 21
262.6427766437
  0
LINE
  5
367
100
AcDbEntity
  8
0
100
AcDbLine
 62
7
  6
CONTINUOUS
 10
153.1845467807
 20
266.1427766437
 11
153.1845467807
 21
262.6427766437
  0
LINE
  5
368
100
AcDbEntity
  8
0
100
AcDbLine
 62
7
  6
CONTINUOUS
 10
154.6845467807
 20
265.6427768134
 11
154.6845467807
 21
262.6427766437
  0
LINE
  5
369
100
AcDbEntity
  8
0
100
AcDbLine
 62
7
  6
CONTINUOUS
 10
155.1845467807
 20
265.3427766437
 11
155.1845467807
 21
262.6427766437
  0
LINE
  5
36A
100
AcDbEntity
  8
0
100
AcDbLine
 62
7
  6
CONTINUOUS
 10
157.9345467807
 20
265.6427767432
 11
157.9345467807
 21
266.1427766437
  0
LINE
  5
36B
100
AcDbEntity
  8
0
100
AcDbLine
 62
7
  6
CONTINUOUS
 10
160.6845467807
 20
265.3427766437
 11
160.6845467807
 21
262.6427766437
  0
LINE
  5
36C
100
AcDbEntity
  8
0
100
AcDbLine
 62
7
  6
CONTINUOUS
 10
159.9345467807
 20
225.2333318168
 11
159.9346038961
 21
226.1427766437
  0
LINE
  5
36D
100
AcDbEntity
  8
0
100
AcDbLine
 62
7
  6
CONTINUOUS
 10
66.4345467807
 20
204.1428908746
 11
53.9914462376
 21
204.0343015812
  0
LINE
  5
36E
100
AcDbEntity
  8
0
100
AcDbLine
 62
7
  6
CONTINUOUS
 10
44.2345467807
 20
196.0927766437
 11
41.5345467807
 21
196.0927766437
  0
LINE
  5
36F
100
AcDbEntity
  8
0
100
AcDbLine
 62
7
  6
CONTINUOUS
 10
47.9345467807
 20
197.3927766437
 11
46.9345467807
 21
197.3927766437
  0
LINE
  5
370
100
AcDbEntity
  8
0
100
AcDbLine
 62
7
  6
CONTINUOUS
 10
46.9345467807
 20
197.6427766437
 11
44.2345467807
 21
197.6427766437
  0
LINE
  5
371
100
AcDbEntity
  8
0
100
AcDbLine
 62
7
  6
CONTINUOUS
 10
47.9345467807
 20
200.6115813161
 11
48.9258202467
 21
200.6115813161
  0
LINE
  5
372
100
AcDbEntity
  8
0
100
AcDbLine
 62
7
  6
CONTINUOUS
 10
68.2635552345
 20
240.7496044247
 11
68.9055638958
 21
240.3434796395
  0
LINE
  5
373
100
AcDbEntity
  8
0
100
AcDbLine
 62
7
  6
CONTINUOUS
 10
65.806017382
 20
262.0123945555
 11
65.800222784
 21
262.0177766437
  0
LINE
  5
374
100
AcDbEntity
  8
0
100
AcDbLine
 62
7
  6
CONTINUOUS
 10
161.3514579658
 20
262.6427766436
 11
161.3225102218
 21
265.6427768427
  0
LINE
  5
375
100
AcDbEntity
  8
0
100
AcDbLine
 62
7
  6
CONTINUOUS
 10
162.7789206043
 20
265.6463109976
 11
162.8069952343
 21
262.6428017569
  0
LINE
  5
376
100
AcDbEntity
  8
0
100
AcDbLine
 62
7
  6
CONTINUOUS
 10
162.6160161064
 20
262.6427766438
 11
162.9345467807
 21
226.1427766437
  0
LINE
  5
377
100
AcDbEntity
  8
0
100
AcDbLine
 62
7
  6
CONTINUOUS
 10
161.322512262
 20
266.1427766437
 11
161.322512262
 21
265.6427767432
  0
LINE
  5
378
100
AcDbEntity
  8
0
100
AcDbLine
 62
7
  6
CONTINUOUS
 10
162.9345467807
 20
226.1427766437
 11
162.9345467807
 21
225.2071512133
  0
LINE
  5
379
100
AcDbEntity
  8
0
100
AcDbLine
 62
7
  6
CONTINUOUS
 10
164.6764822646
 20
225.1919495727
 11
164.6795428718
 21
226.1427766437
  0
LINE
  5
37A
100
AcDbEntity
  8
0
100
AcDbLine
 62
7
  6
CONTINUOUS
 10
56.9900629567
 20
207.0603558821
 11
66.4345467807
 21
207.1427766437
  0
LINE
  5
37B
100
AcDbEntity
  8
0
100
AcDbLine
 62
7
  6
CONTINUOUS
 10
62.9872963942
 20
210.1125787158
 11
63.4345467807
 21
210.1164818107
  0
LINE
  5
37C
100
AcDbEntity
  8
0
100
AcDbLine
 62
7
  6
CONTINUOUS
 10
69.9345467807
 20
210.6428908746
 11
66.4345467807
 21
210.6123468373
  0
LINE
  5
37D
100
AcDbEntity
  8
0
100
AcDbLine
 62
7
  6
CONTINUOUS
 10
66.4345467807
 20
213.6122326065
 11
69.9345467807
 21
213.6427766437
  0
LINE
  5
37E
100
AcDbEntity
  8
0
100
AcDbLine
 62
7
  6
CONTINUOUS
 10
63.7345467807
 20
207.3927766437
 11
66.4345467807
 21
207.3927766437
  0
LINE
  5
37F
100
AcDbEntity
  8
0
100
AcDbLine
 62
7
  6
CONTINUOUS
 10
69.9345467807
 20
211.1427766437
 11
70.9345467807
 21
211.1427766437
  0
LINE
  5
380
100
AcDbEntity
  8
0
100
AcDbLine
 62
7
  6
CONTINUOUS
 10
63.7345467807
 20
212.8927766437
 11
66.4345467807
 21
212.8927766437
  0
LINE
  5
381
100
AcDbEntity
  8
0
100
AcDbLine
 62
7
  6
CONTINUOUS
 10
70.9345467807
 20
213.1427766437
 11
69.9345467807
 21
213.1427766437
  0
LINE
  5
382
100
AcDbEntity
  8
0
100
AcDbLine
 62
7
  6
CONTINUOUS
 10
67.0865277629
 20
262.0172390397
 11
67.0870830177
 21
262.0168278696
  0
LINE
  5
383
100
AcDbEntity
  8
0
100
AcDbLine
 62
7
  6
CONTINUOUS
 10
67.1949569377
 20
262.0138671755
 11
67.1900173541
 21
262.0177766437
  0
LINE
  5
384
100
AcDbEntity
  8
0
100
AcDbLine
 62
7
  6
CONTINUOUS
 10
68.5845216864
 20
262.0132141729
 11
68.5792012557
 21
262.0177766437
  0
LINE
  5
385
100
AcDbEntity
  8
0
100
AcDbLine
 62
7
  6
CONTINUOUS
 10
74.1408043863
 20
262.013139163
 11
74.1354379878
 21
262.0177766437
  0
LINE
  5
386
100
AcDbEntity
  8
0
100
AcDbLine
 62
7
  6
CONTINUOUS
 10
69.9736587239
 20
262.0130667079
 11
69.9682503018
 21
262.0177766437
  0
LINE
  5
387
100
AcDbEntity
  8
0
100
AcDbLine
 62
7
  6
CONTINUOUS
 10
75.529953195
 20
262.0130082004
 11
75.5245132351
 21
262.0177766437
  0
LINE
  5
388
100
AcDbEntity
  8
0
100
AcDbLine
 62
7
  6
CONTINUOUS
 10
71.3628048203
 20
262.012975047
 11
71.3573498749
 21
262.0177766437
  0
LINE
  5
389
100
AcDbEntity
  8
0
100
AcDbLine
 62
7
  6
CONTINUOUS
 10
76.9190792907
 20
262.012978234
 11
76.9136313686
 21
262.0177766437
  0
LINE
  5
38A
100
AcDbEntity
  8
0
100
AcDbLine
 62
7
  6
CONTINUOUS
 10
72.7516955373
 20
262.0130270851
 11
72.7464569285
 21
262.0177766437
  0
LINE
  5
38B
100
AcDbEntity
  8
0
100
AcDbLine
 62
7
  6
CONTINUOUS
 10
176.0797974253
 20
265.6471399114
 11
176.4245475422
 21
226.1426893817
  0
LINE
  5
38C
100
AcDbEntity
  8
0
100
AcDbLine
 62
7
  6
CONTINUOUS
 10
170.9345467807
 20
95.1427766437
 11
170.9345467807
 21
95.8427766437
  0
LINE
  5
38D
100
AcDbEntity
  8
0
100
AcDbLine
 62
7
  6
CONTINUOUS
 10
171.9345467807
 20
96.8427766437
 11
171.9345467807
 21
97.1427766437
  0
LINE
  5
38E
100
AcDbEntity
  8
0
100
AcDbLine
 62
7
  6
CONTINUOUS
 10
173.4345467807
 20
225.1155191015
 11
173.4345467807
 21
114.6427766437
  0
LINE
  5
38F
100
AcDbEntity
  8
0
100
AcDbLine
 62
7
  6
CONTINUOUS
 10
176.4345467807
 20
226.1427766437
 11
176.4345467807
 21
225.0893384982
  0
LINE
  5
390
100
AcDbEntity
  8
0
100
AcDbLine
 62
7
  6
CONTINUOUS
 10
178.9345467807
 20
114.6427766437
 11
178.9345467807
 21
225.0675213287
  0
LINE
  5
391
100
AcDbEntity
  8
0
100
AcDbLine
 62
7
  6
CONTINUOUS
 10
121.9345467807
 20
83.8927766437
 11
122.1845467807
 21
84.1427766437
  0
LINE
  5
392
100
AcDbEntity
  8
0
100
AcDbLine
 62
7
  6
CONTINUOUS
 10
186.4345467807
 20
114.6427766437
 11
186.4345467807
 21
225.0020698203
  0
LINE
  5
393
100
AcDbEntity
  8
0
100
AcDbLine
 62
7
  6
CONTINUOUS
 10
146.9345467807
 20
93.6427766437
 11
148.4345467807
 21
95.1427766437
  0
LINE
  5
394
100
AcDbEntity
  8
0
100
AcDbLine
 62
7
  6
CONTINUOUS
 10
70.9345467807
 20
224.8755302373
 11
135.9345467781
 21
225.4427766437
  0
LINE
  5
395
100
AcDbEntity
  8
0
100
AcDbLine
 62
7
  6
CONTINUOUS
 10
85.9345467807
 20
226.1427766437
 11
176.4345467807
 21
226.1427766437
  0
LINE
  5
396
100
AcDbEntity
  8
0
100
AcDbLine
 62
7
  6
CONTINUOUS
 10
81.3785467807
 20
227.0927766437
 11
84.9345467807
 21
227.0927766437
  0
LINE
  5
397
100
AcDbEntity
  8
0
100
AcDbLine
 62
7
  6
CONTINUOUS
 10
84.9345467807
 20
227.3927766437
 11
85.9345467807
 21
227.3927766437
  0
LINE
  5
398
100
AcDbEntity
  8
0
100
AcDbLine
 62
7
  6
CONTINUOUS
 10
81.3785467807
 20
228.6927766437
 11
78.6785467807
 21
228.6927766437
  0
LINE
  5
399
100
AcDbEntity
  8
0
100
AcDbLine
 62
7
  6
CONTINUOUS
 10
66.3906849301
 20
230.2677766437
 11
66.4957079584
 21
230.2677766437
  0
LINE
  5
39A
100
AcDbEntity
  8
0
100
AcDbLine
 62
7
  6
CONTINUOUS
 10
67.7789192333
 20
230.2677766437
 11
67.8846944786
 21
230.2677766437
  0
LINE
  5
39B
100
AcDbEntity
  8
0
100
AcDbLine
 62
7
  6
CONTINUOUS
 10
69.1680608158
 20
230.2677766437
 11
69.2737192413
 21
230.2677766437
  0
LINE
  5
39C
100
AcDbEntity
  8
0
100
AcDbLine
 62
7
  6
CONTINUOUS
 10
70.5571604817
 20
230.2677766437
 11
70.6627944841
 21
230.2677766437
  0
LINE
  5
39D
100
AcDbEntity
  8
0
100
AcDbLine
 62
7
  6
CONTINUOUS
 10
71.946209524
 20
230.2677766437
 11
72.0519126136
 21
230.2677766437
  0
LINE
  5
39E
100
AcDbEntity
  8
0
100
AcDbLine
 62
7
  6
CONTINUOUS
 10
73.3352161054
 20
230.2677766437
 11
73.4409200106
 21
230.2677766437
  0
LINE
  5
39F
100
AcDbEntity
  8
0
100
AcDbLine
 62
7
  6
CONTINUOUS
 10
74.7243350512
 20
230.2677766437
 11
74.8299690532
 21
230.2677766437
  0
LINE
  5
3A0
100
AcDbEntity
  8
0
100
AcDbLine
 62
7
  6
CONTINUOUS
 10
76.1134102935
 20
230.2677766437
 11
76.2190686216
 21
230.2677766437
  0
LINE
  5
3A1
100
AcDbEntity
  8
0
100
AcDbLine
 62
7
  6
CONTINUOUS
 10
77.5024351556
 20
230.2677766437
 11
77.6081956948
 21
230.2677766437
  0
LINE
  5
3A2
100
AcDbEntity
  8
0
100
AcDbLine
 62
7
  6
CONTINUOUS
 10
84.9345467807
 20
230.5181632405
 11
81.3785467807
 21
230.5181632405
  0
LINE
  5
3A3
100
AcDbEntity
  8
0
100
AcDbLine
 62
7
  6
CONTINUOUS
 10
64.1573467807
 20
231.3790266437
 11
62.3285467807
 21
231.3790266437
  0
LINE
  5
3A4
100
AcDbEntity
  8
0
100
AcDbLine
 62
7
  6
CONTINUOUS
 10
85.9345467807
 20
232.3927766437
 11
84.9345467807
 21
232.3927766437
  0
LINE
  5
3A5
100
AcDbEntity
  8
0
100
AcDbLine
 62
7
  6
CONTINUOUS
 10
135.9345467781
 20
225.4427766437
 11
200.9345467807
 21
224.8755302373
  0
LINE
  5
3A6
100
AcDbEntity
  8
0
100
AcDbLine
 62
7
  6
CONTINUOUS
 10
190.9345467807
 20
97.6427766437
 11
190.9345467807
 21
103.1427766437
  0
LINE
  5
3A7
100
AcDbEntity
  8
0
100
AcDbLine
 62
7
  6
CONTINUOUS
 10
192.9345467807
 20
114.6427766437
 11
192.9345467807
 21
103.1427766437
  0
LINE
  5
3A8
100
AcDbEntity
  8
0
100
AcDbLine
 62
7
  6
CONTINUOUS
 10
195.4345467807
 20
224.9235280101
 11
195.4345467807
 21
114.6427766437
  0
LINE
  5
3A9
100
AcDbEntity
  8
0
100
AcDbLine
 62
7
  6
CONTINUOUS
 10
81.3785467807
 20
234.1927766437
 11
78.6785467807
 21
234.1927766437
  0
LINE
  5
3AA
100
AcDbEntity
  8
0
100
AcDbLine
 62
7
  6
CONTINUOUS
 10
64.7251057442
 20
261.4742856073
 11
64.7282337249
 21
261.4730869315
  0
LINE
  5
3AB
100
AcDbEntity
  8
0
100
AcDbLine
 62
7
  6
CONTINUOUS
 10
200.9345467807
 20
103.1427766437
 11
200.9345467807
 21
224.8755302373
  0
LINE
  5
3AC
100
AcDbEntity
  8
0
100
AcDbLine
 62
7
  6
CONTINUOUS
 10
190.4345467807
 20
97.1427766437
 11
190.9345467807
 21
97.6427766437
  0
LINE
  5
3AD
100
AcDbEntity
  8
0
100
AcDbLine
 62
7
  6
CONTINUOUS
 10
146.4345467807
 20
48.1427766437
 11
146.9345467807
 21
48.6427766437
  0
LINE
  5
3AE
100
AcDbEntity
  8
0
100
AcDbLine
 62
7
  6
CONTINUOUS
 10
81.3785467807
 20
258.0927766437
 11
78.6785467807
 21
258.0927766437
  0
LINE
  5
3AF
100
AcDbEntity
  8
0
100
AcDbLine
 62
7
  6
CONTINUOUS
 10
86.2242787914
 20
259.3427766437
 11
85.9345467807
 21
259.3427766437
  0
LINE
  5
3B0
100
AcDbEntity
  8
0
100
AcDbLine
 62
7
  6
CONTINUOUS
 10
84.9345467807
 20
259.8927766437
 11
85.9345467807
 21
259.8927766437
  0
LINE
  5
3B1
100
AcDbEntity
  8
0
100
AcDbLine
 62
7
  6
CONTINUOUS
 10
64.1573467807
 20
260.9065266437
 11
62.3285467807
 21
260.9065266437
  0
LINE
  5
3B2
100
AcDbEntity
  8
0
100
AcDbLine
 62
7
  6
CONTINUOUS
 10
81.3785467807
 20
261.7676303731
 11
84.9345467807
 21
261.7676303731
  0
LINE
  5
3B3
100
AcDbEntity
  8
0
100
AcDbLine
 62
7
  6
CONTINUOUS
 10
65.6968122432
 20
262.0177766437
 11
65.8002228307
 21
262.0177766437
  0
LINE
  5
3B4
100
AcDbEntity
  8
0
100
AcDbLine
 62
7
  6
CONTINUOUS
 10
67.0848481653
 20
262.0177766437
 11
67.1900173988
 21
262.0177766437
  0
LINE
  5
3B5
100
AcDbEntity
  8
0
100
AcDbLine
 62
7
  6
CONTINUOUS
 10
68.4736813381
 20
262.0177766437
 11
68.57920128
 21
262.0177766437
  0
LINE
  5
3B6
100
AcDbEntity
  8
0
100
AcDbLine
 62
7
  6
CONTINUOUS
 10
69.8626162996
 20
262.0177766437
 11
69.9682503292
 21
262.0177766437
  0
LINE
  5
3B7
100
AcDbEntity
  8
0
100
AcDbLine
 62
7
  6
CONTINUOUS
 10
71.2516915469
 20
262.0177766437
 11
71.3573498953
 21
262.0177766437
  0
LINE
  5
3B8
100
AcDbEntity
  8
0
100
AcDbLine
 62
7
  6
CONTINUOUS
 10
72.6407164115
 20
262.0177766437
 11
72.7464767149
 21
262.0177766437
  0
LINE
  5
3B9
100
AcDbEntity
  8
0
100
AcDbLine
 62
7
  6
CONTINUOUS
 10
74.0297146253
 20
262.0177766437
 11
74.1354380149
 21
262.0177766437
  0
LINE
  5
3BA
100
AcDbEntity
  8
0
100
AcDbLine
 62
7
  6
CONTINUOUS
 10
75.4188792329
 20
262.0177766437
 11
75.5245132601
 21
262.0177766437
  0
LINE
  5
3BB
100
AcDbEntity
  8
0
100
AcDbLine
 62
7
  6
CONTINUOUS
 10
76.807928279
 20
262.0177766437
 11
76.9136313828
 21
262.0177766437
  0
LINE
  5
3BC
100
AcDbEntity
  8
0
100
AcDbLine
 62
7
  6
CONTINUOUS
 10
78.19693485
 20
262.0177766437
 11
78.3785467807
 21
262.0177766437
  0
LINE
  5
3BD
100
AcDbEntity
  8
0
100
AcDbLine
 62
7
  6
CONTINUOUS
 10
86.25045901
 20
262.3427766437
 11
85.9345467807
 21
262.3427766437
  0
LINE
  5
3BE
100
AcDbEntity
  8
0
100
AcDbLine
 62
7
  6
CONTINUOUS
 10
109.0507489272
 20
262.6427766437
 11
118.6845467807
 21
262.6427766437
  0
LINE
  5
3BF
100
AcDbEntity
  8
0
100
AcDbLine
 62
7
  6
CONTINUOUS
 10
153.1845467807
 20
262.6427766437
 11
162.6160161064
 21
262.6427766437
  0
LINE
  5
3C0
100
AcDbEntity
  8
0
100
AcDbLine
 62
7
  6
CONTINUOUS
 10
81.3785467807
 20
263.5927766437
 11
78.6785467807
 21
263.5927766437
  0
LINE
  5
3C1
100
AcDbEntity
  8
0
100
AcDbLine
 62
7
  6
CONTINUOUS
 10
85.9345467807
 20
264.8927766437
 11
84.9345467807
 21
264.8927766437
  0
LINE
  5
3C2
100
AcDbEntity
  8
0
100
AcDbLine
 62
7
  6
CONTINUOUS
 10
84.9345467807
 20
265.1927766437
 11
81.3785467807
 21
265.1927766437
  0
LINE
  5
3C3
100
AcDbEntity
  8
0
100
AcDbLine
 62
7
  6
CONTINUOUS
 10
111.1845467807
 20
265.3427766437
 11
116.6845467807
 21
265.3427766437
  0
LINE
  5
3C4
100
AcDbEntity
  8
0
100
AcDbLine
 62
7
  6
CONTINUOUS
 10
155.1845467807
 20
265.3427766437
 11
160.6845467807
 21
265.3427766437
  0
LINE
  5
3C5
100
AcDbEntity
  8
0
100
AcDbLine
 62
7
  6
CONTINUOUS
 10
154.6845467807
 20
265.6427766437
 11
162.7759979769
 21
265.6462824728
  0
LINE
  5
3C6
100
AcDbEntity
  8
0
100
AcDbLine
 62
7
  6
CONTINUOUS
 10
118.6845467807
 20
265.6471400767
 11
153.1845467807
 21
265.6471400767
  0
LINE
  5
3C7
100
AcDbEntity
  8
0
100
AcDbLine
 62
7
  6
CONTINUOUS
 10
164.3437637021
 20
265.6471399114
 11
176.0797974253
 21
265.6471399114
  0
LINE
  5
3C8
100
AcDbEntity
  8
0
100
AcDbLine
 62
7
  6
CONTINUOUS
 10
86.7792770773
 20
266.1427766437
 11
175.5789593722
 21
266.1427766437
  0
LINE
  5
3C9
100
AcDbEntity
  8
0
100
AcDbLine
 62
7
  6
CONTINUOUS
 10
117.1845467807
 20
265.6427766437
 11
89.2791818986
 21
265.6460470093
  0
ARC
  5
3CA
100
AcDbEntity
  8
0
100
AcDbCircle
 62
7
  6
CONTINUOUS
 10
-486.7197512634
 20
244.8114195367
 40
554.8505221734
100
AcDbArc
 50
1.1146347111
 51
1.2479904563
  0
ARC
  5
3CB
100
AcDbEntity
  8
0
100
AcDbCircle
 62
7
  6
CONTINUOUS
 10
-450.7446866708
 20
245.3946152605
 40
527.2033287029
100
AcDbArc
 50
1.0961559633
 51
1.2342249518
  0
ARC
  5
3CC
100
AcDbEntity
  8
0
100
AcDbCircle
 62
7
  6
CONTINUOUS
 10
-165.7308868192
 20
251.7917458045
 40
242.1179975096
100
AcDbArc
 50
1.1735123697
 51
1.6983406252
  0
ARC
  5
3CD
100
AcDbEntity
  8
0
100
AcDbCircle
 62
7
  6
CONTINUOUS
 10
-63.7965851235
 20
190.9131873825
 40
104.7919802102
100
AcDbArc
 50
1.035211038
 51
1.4984190601
  0
ARC
  5
3CE
100
AcDbEntity
  8
0
100
AcDbCircle
 62
7
  6
CONTINUOUS
 10
69.5936991607
 20
164.2546651049
 40
42.0536451307
100
AcDbArc
 50
181.0942777075
 51
181.3413324915
  0
ARC
  5
3CF
100
AcDbEntity
  8
0
100
AcDbCircle
 62
7
  6
CONTINUOUS
 10
48.9345467807
 20
149.8260789457
 40
1.0
100
AcDbArc
 50
180.0
 51
269.5000001741
  0
ARC
  5
3D0
100
AcDbEntity
  8
0
100
AcDbCircle
 62
7
  6
CONTINUOUS
 10
48.9345467807
 20
156.2955349085
 40
1.0
100
AcDbArc
 50
180.0
 51
269.4999995279
  0
ARC
  5
3D1
100
AcDbEntity
  8
0
100
AcDbCircle
 62
7
  6
CONTINUOUS
 10
99.9345467807
 20
95.8427766437
 40
1.0
100
AcDbArc
 50
0.0
 51
90.0
  0
ARC
  5
3D2
100
AcDbEntity
  8
0
100
AcDbCircle
 62
7
  6
CONTINUOUS
 10
171.9345467807
 20
95.8427766437
 40
1.0
100
AcDbArc
 50
90.0
 51
180.0
  0
ARC
  5
3D3
100
AcDbEntity
  8
0
100
AcDbCircle
 62
7
  6
CONTINUOUS
 10
25.6345467807
 20
164.2427766437
 40
0.5
100
AcDbArc
 50
180.0
 51
270.0
  0
ARC
  5
3D4
100
AcDbEntity
  8
0
100
AcDbCircle
 62
7
  6
CONTINUOUS
 10
41.5345467807
 20
161.4927766437
 40
0.3
100
AcDbArc
 50
180.0
 51
270.0
  0
ARC
  5
3D5
100
AcDbEntity
  8
0
100
AcDbCircle
 62
7
  6
CONTINUOUS
 10
41.5345467807
 20
166.3927766437
 40
0.3
100
AcDbArc
 50
90.0
 51
180.0
  0
ARC
  5
3D6
100
AcDbEntity
  8
0
100
AcDbCircle
 62
7
  6
CONTINUOUS
 10
63.7345467807
 20
154.5927766437
 40
0.3
100
AcDbArc
 50
90.0
 51
180.0
  0
ARC
  5
3D7
100
AcDbEntity
  8
0
100
AcDbCircle
 62
7
  6
CONTINUOUS
 10
63.7345467807
 20
149.6927766437
 40
0.3
100
AcDbArc
 50
180.0
 51
270.0
  0
ARC
  5
3D8
100
AcDbEntity
  8
0
100
AcDbCircle
 62
7
  6
CONTINUOUS
 10
372.6136608225
 20
241.7908327521
 40
295.9889785382
100
AcDbArc
 50
181.2423340655
 51
181.6028421945
  0
ARC
  5
3D9
100
AcDbEntity
  8
0
100
AcDbCircle
 62
7
  6
CONTINUOUS
 10
48.9345467807
 20
200.6115813161
 40
1.0
100
AcDbArc
 50
124.0459373567
 51
180.0
  0
ARC
  5
3DA
100
AcDbEntity
  8
0
100
AcDbCircle
 62
7
  6
CONTINUOUS
 10
56.9987894922
 20
206.060393959
 40
1.0
100
AcDbArc
 50
90.4999999999
 51
124.0459373558
  0
ARC
  5
3DB
100
AcDbEntity
  8
0
100
AcDbCircle
 62
7
  6
CONTINUOUS
 10
175.5798164638
 20
265.6427766437
 40
0.5
100
AcDbArc
 50
0.5
 51
90.0
  0
ARC
  5
3DC
100
AcDbEntity
  8
0
100
AcDbCircle
 62
7
  6
CONTINUOUS
 10
25.6345467807
 20
193.0427766437
 40
0.5
100
AcDbArc
 50
90.0
 51
180.0
  0
ARC
  5
3DD
100
AcDbEntity
  8
0
100
AcDbCircle
 62
7
  6
CONTINUOUS
 10
86.7792770976
 20
265.6427766437
 40
0.5
100
AcDbArc
 50
90.0
 51
179.625128152
  0
ARC
  5
3DE
100
AcDbEntity
  8
0
100
AcDbCircle
 62
7
  6
CONTINUOUS
 10
154.1845467807
 20
265.6427766437
 40
0.5
100
AcDbArc
 50
0.0000097252
 51
90.0
  0
ARC
  5
3DF
100
AcDbEntity
  8
0
100
AcDbCircle
 62
7
  6
CONTINUOUS
 10
117.6845467807
 20
265.6427766437
 40
0.5
100
AcDbArc
 50
90.0
 51
179.999990279
  0
ARC
  5
3E0
100
AcDbEntity
  8
0
100
AcDbCircle
 62
7
  6
CONTINUOUS
 10
41.5345467807
 20
190.8927766437
 40
0.3
100
AcDbArc
 50
180.0
 51
270.0
  0
ARC
  5
3E1
100
AcDbEntity
  8
0
100
AcDbCircle
 62
7
  6
CONTINUOUS
 10
41.5345467807
 20
195.7927766437
 40
0.3
100
AcDbArc
 50
90.0
 51
180.0
  0
ARC
  5
3E2
100
AcDbEntity
  8
0
100
AcDbCircle
 62
7
  6
CONTINUOUS
 10
78.6785467807
 20
258.3927766437
 40
0.3
100
AcDbArc
 50
180.0
 51
270.0
  0
ARC
  5
3E3
100
AcDbEntity
  8
0
100
AcDbCircle
 62
7
  6
CONTINUOUS
 10
78.6785467807
 20
263.2927766437
 40
0.3
100
AcDbArc
 50
90.0
 51
180.0
  0
ARC
  5
3E4
100
AcDbEntity
  8
0
100
AcDbCircle
 62
7
  6
CONTINUOUS
 10
78.6785467807
 20
228.9927766437
 40
0.3
100
AcDbArc
 50
180.0
 51
270.0
  0
ARC
  5
3E5
100
AcDbEntity
  8
0
100
AcDbCircle
 62
7
  6
CONTINUOUS
 10
78.6785467807
 20
233.8927766437
 40
0.3
100
AcDbArc
 50
90.0
 51
180.0
  0
ARC
  5
3E6
100
AcDbEntity
  8
0
100
AcDbCircle
 62
7
  6
CONTINUOUS
 10
63.7345467807
 20
212.5927766437
 40
0.3
100
AcDbArc
 50
90.0
 51
180.0
  0
ARC
  5
3E7
100
AcDbEntity
  8
0
100
AcDbCircle
 62
7
  6
CONTINUOUS
 10
63.7345467807
 20
207.6927766437
 40
0.3
100
AcDbArc
 50
180.0
 51
270.0
  0
ARC
  5
3E8
100
AcDbEntity
  8
0
100
AcDbCircle
 62
7
  6
CONTINUOUS
 10
160.3845467807
 20
265.3427766437
 40
0.3
100
AcDbArc
 50
0.0
 51
90.0
  0
ARC
  5
3E9
100
AcDbEntity
  8
0
100
AcDbCircle
 62
7
  6
CONTINUOUS
 10
155.4845467807
 20
265.3427766437
 40
0.3
100
AcDbArc
 50
90.0
 51
180.0
  0
ARC
  5
3EA
100
AcDbEntity
  8
0
100
AcDbCircle
 62
7
  6
CONTINUOUS
 10
111.4845467807
 20
265.3427766437
 40
0.3
100
AcDbArc
 50
90.0
 51
180.0
  0
ARC
  5
3EB
100
AcDbEntity
  8
0
100
AcDbCircle
 62
7
  6
CONTINUOUS
 10
116.3845467807
 20
265.3427766437
 40
0.3
100
AcDbArc
 50
0.0
 51
90.0
  0
ARC
  5
3EC
100
AcDbEntity
  8
0
100
AcDbCircle
 62
7
  6
CONTINUOUS
 10
1045.5123218555
 20
-774.7131633239
 40
1393.2193833665
100
AcDbArc
 50
135.2181469691
 51
135.3714480183
  0
ARC
  5
3ED
100
AcDbEntity
  8
0
100
AcDbCircle
 62
7
  6
CONTINUOUS
 10
1627.9022966128
 20
265.8826854721
 40
1561.2314732233
100
AcDbArc
 50
180.9012525731
 51
181.0336632612
  0
ARC
  5
3EE
100
AcDbEntity
  8
0
100
AcDbCircle
 62
7
  6
CONTINUOUS
 10
885.877439674
 20
246.7899800918
 40
821.7772553655
100
AcDbArc
 50
180.6758006277
 51
180.9270129836
  0
ARC
  5
3EF
100
AcDbEntity
  8
0
100
AcDbCircle
 62
7
  6
CONTINUOUS
 10
659.4032762785
 20
248.0578579914
 40
582.8470584081
100
AcDbArc
 50
181.1088227734
 51
181.2470164251
  0
LINE
  5
3F0
100
AcDbEntity
  8
0
100
AcDbLine
 62
7
  6
CONTINUOUS
 10
126.2263028612
 20
48.1427766437
 11
125.9564454791
 21
48.3927766801
  0
SPLINE
  5
3F1
100
AcDbEntity
  8
0
100
AcDbSpline
 62
7
  6
CONTINUOUS
 70
0
 71
3
 72
21
 73
17
 74
0
 42
0.0000001
 43
0.0000001
 44
0.0000000001
 40
0.0
 40
0.0
 40
0.0
 40
0.0
 40
0.0020753366
 40
0.006216458
 40
0.0124322609
 40
0.020712932
 40
0.0434134137
 40
0.0741993151
 40
0.1129461149
 40
0.1595277597
 40
0.2138175753
 40
0.275660443
 40
0.4206965463
 40
0.5917417619
 40
0.7858455562
 40
1.0
 40
1.0
 40
1.0
 40
1.0
 10
29.5777031509
 20
163.5859968122
 30
0.0
 10
29.5750256638
 20
163.5906342322
 30
0.0
 10
29.5726862804
 20
163.6070146674
 30
0.0
 10
29.5682505214
 20
163.6384156534
 30
0.0
 10
29.5645330188
 20
163.6865659792
 30
0.0
 10
29.5582362448
 20
163.7822258139
 30
0.0
 10
29.5511882294
 20
163.9415369602
 30
0.0
 10
29.5429294686
 20
164.1793382701
 30
0.0
 10
29.5346900972
 20
164.478845314
 30
0.0
 10
29.526351445
 20
164.8389925643
 30
0.0
 10
29.5179950717
 20
165.258753905
 30
0.0
 10
29.5061978233
 20
165.9325285119
 30
0.0
 10
29.4918314647
 20
166.9075599066
 30
0.0
 10
29.4752286578
 20
168.2238556333
 30
0.0
 10
29.4585561953
 20
169.7185052182
 30
0.0
 10
29.447883554
 20
170.7718556023
 30
0.0
 10
29.4424729595
 20
171.3243990282
 30
0.0
  0
SPLINE
  5
3F2
100
AcDbEntity
  8
0
100
AcDbSpline
 62
7
  6
CONTINUOUS
 70
0
 71
3
 72
9
 73
5
 74
0
 42
0.0000001
 43
0.0000001
 44
0.0000000001
 40
0.0
 40
0.0
 40
0.0
 40
0.0
 40
0.2423686487
 40
1.0
 40
1.0
 40
1.0
 40
1.0
 10
29.4424729595
 20
171.3243990282
 30
0.0
 10
29.4405443293
 20
171.5213555591
 30
0.0
 10
29.4326870074
 20
172.3339885857
 30
0.0
 10
29.4251761596
 20
173.1466249335
 30
0.0
 10
29.4196049019
 20
173.7623047589
 30
0.0
  0
SPLINE
  5
3F3
100
AcDbEntity
  8
0
100
AcDbSpline
 62
7
  6
CONTINUOUS
 70
0
 71
3
 72
9
 73
5
 74
0
 42
0.0000001
 43
0.0000001
 44
0.0000000001
 40
0.0
 40
0.0
 40
0.0
 40
0.0
 40
0.2446971582
 40
1.0
 40
1.0
 40
1.0
 40
1.0
 10
29.4196049019
 20
173.7623047589
 30
0.0
 10
29.4169049683
 20
174.060674487
 30
0.0
 10
29.4059887772
 20
175.280018394
 30
0.0
 10
29.3954360371
 20
176.4993655196
 30
0.0
 10
29.387522929
 20
177.4203423441
 30
0.0
  0
SPLINE
  5
3F4
100
AcDbEntity
  8
0
100
AcDbSpline
 62
7
  6
CONTINUOUS
 70
0
 71
3
 72
9
 73
5
 74
0
 42
0.0000001
 43
0.0000001
 44
0.0000000001
 40
0.0
 40
0.0
 40
0.0
 40
0.0
 40
0.2542560148
 40
1.0
 40
1.0
 40
1.0
 40
1.0
 10
29.366517054
 20
179.870912733
 30
0.0
 10
29.3638976343
 20
180.175865466
 30
0.0
 10
29.3535695969
 20
181.3752576451
 30
0.0
 10
29.3430703034
 20
182.5746483849
 30
0.0
 10
29.3349873663
 20
183.4690845309
 30
0.0
  0
SPLINE
  5
3F5
100
AcDbEntity
  8
0
100
AcDbSpline
 62
7
  6
CONTINUOUS
 70
0
 71
3
 72
12
 73
8
 74
0
 42
0.0000001
 43
0.0000001
 44
0.0000000001
 40
0.0
 40
0.0
 40
0.0
 40
0.0
 40
0.2243523331
 40
0.3594013381
 40
0.5011808781
 40
0.7773268804
 40
1.0
 40
1.0
 40
1.0
 40
1.0
 10
42.0050808251
 20
166.5882542132
 30
0.0
 10
41.98269393
 20
168.4038021522
 30
0.0
 10
41.9622153306
 20
171.3123878414
 30
0.0
 10
41.9281907455
 20
175.3683039965
 30
0.0
 10
41.8994557279
 20
179.8434448018
 30
0.0
 10
41.8574453033
 20
185.0276418263
 30
0.0
 10
41.8266691013
 20
189.0644865465
 30
0.0
 10
41.8060137526
 20
190.8664642312
 30
0.0
  0
SPLINE
  5
3F6
100
AcDbEntity
  8
0
100
AcDbSpline
 62
7
  6
CONTINUOUS
 70
0
 71
3
 72
22
 73
18
 74
0
 42
0.0000001
 43
0.0000001
 44
0.0000000001
 40
0.0
 40
0.0
 40
0.0
 40
0.0
 40
0.0012174701
 40
0.004842483
 40
0.0108589835
 40
0.0192486437
 40
0.0299928829
 40
0.0430730511
 40
0.0761426808
 40
0.1181087859
 40
0.1685439748
 40
0.2270111811
 40
0.292935188
 40
0.4444244618
 40
0.6172768104
 40
0.8050767126
 40
1.0
 40
1.0
 40
1.0
 40
1.0
 10
86.2792873441
 20
265.6461324488
 30
0.0
 10
86.2792971117
 20
265.6473498472
 30
0.0
 10
86.2870317371
 20
265.645159357
 30
0.0
 10
86.2951037524
 20
265.6477550582
 30
0.0
 10
86.3147112625
 20
265.6467214698
 30
0.0
 10
86.3391651444
 20
265.6475825135
 30
0.0
 10
86.3716447987
 20
265.6476267163
 30
0.0
 10
86.4284095799
 20
265.6480930537
 30
0.0
 10
86.5166046766
 20
265.6483829316
 30
0.0
 10
86.6420365423
 20
265.6487289102
 30
0.0
 10
86.7929133448
 20
265.6489410677
 30
0.0
 10
86.9677308865
 20
265.6490746012
 30
0.0
 10
87.2436057039
 20
265.6491238297
 30
0.0
 10
87.6338599086
 20
265.6489262618
 30
0.0
 10
88.1459878046
 20
265.6483350147
 30
0.0
 10
88.7015475159
 20
265.6473406632
 30
0.0
 10
89.0842595654
 20
265.6464922579
 30
0.0
 10
89.2791771335
 20
265.646047051
 30
0.0
  0
SPLINE
  5
3F7
100
AcDbEntity
  8
0
100
AcDbSpline
 62
7
  6
CONTINUOUS
 70
0
 71
3
 72
39
 73
35
 74
0
 42
0.0000001
 43
0.0000001
 44
0.0000000001
 40
0.0
 40
0.0
 40
0.0
 40
0.0
 40
0.0009383078
 40
0.0030438247
 40
0.0063213669
 40
0.0107697858
 40
0.0163839368
 40
0.0231461851
 40
0.04003146
 40
0.061253422
 40
0.0866100541
 40
0.1158821899
 40
0.1487931469
 40
0.1850308691
 40
0.2242477274
 40
0.3100930464
 40
0.4031100036
 40
0.4997882856
 40
0.596465663
 40
0.6895040146
 40
0.7753997951
 40
0.8146384145
 40
0.8508907669
 40
0.8838195256
 40
0.913131916
 40
0.9385496108
 40
0.9598130018
 40
0.976702773
 40
0.9834674252
 40
0.9890933487
 40
0.9935675467
 40
0.9968805569
 40
0.9990248879
 40
1.0
 40
1.0
 40
1.0
 40
1.0
 10
30.7931013682
 20
162.8862021534
 30
0.0
 10
30.7881659344
 20
162.8947358343
 30
0.0
 10
30.7866337948
 20
162.9281771419
 30
0.0
 10
30.7785468482
 20
162.9929531894
 30
0.0
 10
30.7737183218
 20
163.0967991437
 30
0.0
 10
30.766885392
 20
163.2365072954
 30
0.0
 10
30.7607314159
 20
163.4132763734
 30
0.0
 10
30.7514781131
 20
163.720518128
 30
0.0
 10
30.7407945558
 20
164.1918453855
 30
0.0
 10
30.7291509006
 20
164.858498364
 30
0.0
 10
30.7173931754
 20
165.6553243639
 30
0.0
 10
30.7044829679
 20
166.574946996
 30
0.0
 10
30.6911375337
 20
167.6088964333
 30
0.0
 10
30.6788264609
 20
168.7473468074
 30
0.0
 10
30.6630993498
 20
170.4419323677
 30
0.0
 10
30.6411113534
 20
172.7330225631
 30
0.0
 10
30.6161422489
 20
175.6278157064
 30
0.0
 10
30.5928591537
 20
178.6364303755
 30
0.0
 10
30.5670148792
 20
181.645249162
 30
0.0
 10
30.5425823881
 20
184.5407910397
 30
0.0
 10
30.5229253633
 20
186.8328878939
 30
0.0
 10
30.5042362027
 20
188.5283563236
 30
0.0
 10
30.4916158446
 20
189.6673718235
 30
0.0
 10
30.4800393311
 20
190.702105814
 30
0.0
 10
30.4681670064
 20
191.622995047
 30
0.0
 10
30.4554682296
 20
192.4213074072
 30
0.0
 10
30.4426561075
 20
193.0890637084
 30
0.0
 10
30.4318313297
 20
193.5608918443
 30
0.0
 10
30.4229430313
 20
193.8683427597
 30
0.0
 10
30.4171662915
 20
194.0455391055
 30
0.0
 10
30.4108837324
 20
194.1860506056
 30
0.0
 10
30.4064387132
 20
194.2909466465
 30
0.0
 10
30.3987365303
 20
194.3569561931
 30
0.0
 10
30.397054363
 20
194.3911749266
 30
0.0
 10
30.3919772545
 20
194.4000731551
 30
0.0
  0
SPLINE
  5
3F8
100
AcDbEntity
  8
0
100
AcDbSpline
 62
7
  6
CONTINUOUS
 70
0
 71
3
 72
14
 73
10
 74
0
 42
0.0000001
 43
0.0000001
 44
0.0000000001
 40
0.0
 40
0.0
 40
0.0
 40
0.0
 40
0.0187098908
 40
0.0668432577
 40
0.1457282922
 40
0.2554653376
 40
0.3959969344
 40
0.5671703879
 40
1.0
 40
1.0
 40
1.0
 40
1.0
 10
78.1969348365
 20
262.0177766437
 30
0.0
 10
78.2025745974
 20
262.0177766437
 30
0.0
 10
78.2093532969
 20
261.9910002771
 30
0.0
 10
78.2174824688
 20
261.9545390791
 30
0.0
 10
78.2262337166
 20
261.8799623875
 30
0.0
 10
78.2353007875
 20
261.7827840944
 30
0.0
 10
78.2444793078
 20
261.6554452365
 30
0.0
 10
78.2578341192
 20
261.4317166457
 30
0.0
 10
78.2661541635
 20
261.2496950607
 30
0.0
 10
78.2716219753
 20
261.1193409665
 30
0.0
  0
SPLINE
  5
3F9
100
AcDbEntity
  8
0
100
AcDbSpline
 62
7
  6
CONTINUOUS
 70
0
 71
3
 72
9
 73
5
 74
0
 42
0.0000001
 43
0.0000001
 44
0.0000000001
 40
0.0
 40
0.0
 40
0.0
 40
0.0
 40
0.197356096
 40
1.0
 40
1.0
 40
1.0
 40
1.0
 10
78.2716219753
 20
261.1193409665
 30
0.0
 10
78.2775217523
 20
260.9786887082
 30
0.0
 10
78.3040587235
 20
260.26586652
 30
0.0
 10
78.3223459876
 20
259.5527683035
 30
0.0
 10
78.335900368
 20
258.9803954073
 30
0.0
  0
LINE
  5
3FA
100
AcDbEntity
  8
0
100
AcDbLine
 62
7
  6
CONTINUOUS
 10
78.335900368
 20
258.9803954073
 11
78.3413436454
 21
258.7466495814
  0
LINE
  5
3FB
100
AcDbEntity
  8
0
100
AcDbLine
 62
7
  6
CONTINUOUS
 10
78.3413436454
 20
258.7466495814
 11
78.346778461
 21
258.505615641
  0
LINE
  5
3FC
100
AcDbEntity
  8
0
100
AcDbLine
 62
7
  6
CONTINUOUS
 10
78.346778461
 20
258.505615641
 11
78.3525270125
 21
258.2425234956
  0
SPLINE
  5
3FD
100
AcDbEntity
  8
0
100
AcDbSpline
 62
7
  6
CONTINUOUS
 70
0
 71
3
 72
11
 73
7
 74
0
 42
0.0000001
 43
0.0000001
 44
0.0000000001
 40
0.0
 40
0.0
 40
0.0
 40
0.0
 40
0.2245510571
 40
0.6410452146
 40
0.8382324781
 40
1.0
 40
1.0
 40
1.0
 40
1.0
 10
78.3525270125
 20
258.2425234956
 30
0.0
 10
78.3914922897
 20
256.431250451
 30
0.0
 10
78.4752354409
 20
251.2598940418
 30
0.0
 10
78.5652817315
 20
244.4975929877
 30
0.0
 10
78.6573957927
 20
238.2419014748
 30
0.0
 10
78.707690064
 20
235.346251844
 30
0.0
 10
78.7357666308
 20
234.041403283
 30
0.0
  0
LINE
  5
3FE
100
AcDbEntity
  8
0
100
AcDbLine
 62
7
  6
CONTINUOUS
 10
78.7357666308
 20
234.041403283
 11
78.7412701518
 21
233.7894124687
  0
LINE
  5
3FF
100
AcDbEntity
  8
0
100
AcDbLine
 62
7
  6
CONTINUOUS
 10
78.7412701518
 20
233.7894124687
 11
78.7468729355
 21
233.5407643801
  0
SPLINE
  5
400
100
AcDbEntity
  8
0
100
AcDbSpline
 62
7
  6
CONTINUOUS
 70
0
 71
3
 72
37
 73
33
 74
0
 42
0.0000001
 43
0.0000001
 44
0.0000000001
 40
0.0
 40
0.0
 40
0.0
 40
0.0
 40
0.0009685434
 40
0.0030930242
 40
0.0063789273
 40
0.0108248423
 40
0.0164281761
 40
0.0231859656
 40
0.0401149985
 40
0.061403589
 40
0.0868074961
 40
0.1160822981
 40
0.1489834897
 40
0.2663517143
 40
0.4033937817
 40
0.5486677807
 40
0.6205092046
 40
0.6897684746
 40
0.7550291957
 40
0.8148941322
 40
0.8679981036
 40
0.9132821172
 40
0.9327137976
 40
0.9498574775
 40
0.9646023744
 40
0.9768416671
 40
0.9865192396
 40
0.9936148029
 40
0.9961885902
 40
0.9981104029
 40
0.9993793756
 40
1.0
 40
1.0
 40
1.0
 40
1.0
 10
30.3876928448
 20
163.5882713046
 30
0.0
 10
30.3828309538
 20
163.59669085
 30
0.0
 10
30.3808571356
 20
163.6290509494
 30
0.0
 10
30.3731492272
 20
163.691571141
 30
0.0
 10
30.3683080965
 20
163.7909952142
 30
0.0
 10
30.3617778611
 20
163.9244458229
 30
0.0
 10
30.3558057267
 20
164.093152472
 30
0.0
 10
30.3468049196
 20
164.3869921413
 30
0.0
 10
30.3361673981
 20
164.8383750856
 30
0.0
 10
30.3238899009
 20
165.4768941796
 30
0.0
 10
30.311570253
 20
166.2393792997
 30
0.0
 10
30.2991714496
 20
167.1184401615
 30
0.0
 10
30.2765449283
 20
168.9206101884
 30
0.0
 10
30.2470212736
 20
171.8045678433
 30
0.0
 10
30.2110320894
 20
175.8165392978
 30
0.0
 10
30.1809107306
 20
179.3715351739
 30
0.0
 10
30.1560075449
 20
182.2461296183
 30
0.0
 10
30.1374062137
 20
184.3175547689
 30
0.0
 10
30.1188377295
 20
186.2687520644
 30
0.0
 10
30.1003386724
 20
188.0577714098
 30
0.0
 10
30.0818727033
 20
189.6462475303
 30
0.0
 10
30.0658834837
 20
190.82884544
 30
0.0
 10
30.0527773739
 20
191.6504655774
 30
0.0
 10
30.0434896135
 20
192.1655507744
 30
0.0
 10
30.0342281693
 20
192.6084138895
 30
0.0
 10
30.0250792177
 20
192.9763433487
 30
0.0
 10
30.0158706672
 20
193.2673787613
 30
0.0
 10
30.0080618949
 20
193.4615537986
 30
0.0
 10
30.0009935964
 20
193.5775451536
 30
0.0
 10
29.9969463315
 20
193.6355402463
 30
0.0
 10
29.9918627521
 20
193.6729760709
 30
0.0
 10
29.9894656499
 20
193.692449734
 30
0.0
 10
29.9863503292
 20
193.6978448707
 30
0.0
  0
SPLINE
  5
401
100
AcDbEntity
  8
0
100
AcDbSpline
 62
7
  6
CONTINUOUS
 70
0
 71
3
 72
25
 73
21
 74
0
 42
0.0000001
 43
0.0000001
 44
0.0000000001
 40
0.0
 40
0.0
 40
0.0
 40
0.0
 40
0.1328512413
 40
0.2908961108
 40
0.4604232559
 40
0.5449006889
 40
0.6267125564
 40
0.7040666987
 40
0.7752759556
 40
0.8388047115
 40
0.8932557232
 40
0.9166829593
 40
0.9374030805
 40
0.955318927
 40
0.9703351395
 40
0.9823704923
 40
0.9913569582
 40
0.9972325696
 40
0.9989989312
 40
1.0
 40
1.0
 40
1.0
 40
1.0
 10
73.5536155906
 20
256.9652206033
 30
0.0
 10
73.5785444219
 20
255.8323069259
 30
0.0
 10
73.6241583369
 20
253.3514436052
 30
0.0
 10
73.686581565
 20
249.4246459322
 30
0.0
 10
73.738793358
 20
245.9103540078
 30
0.0
 10
73.7819479377
 20
243.0462487665
 30
0.0
 10
73.814264895
 20
240.9682821465
 30
0.0
 10
73.8465808373
 20
239.0035040185
 30
0.0
 10
73.8787719436
 20
237.1946965113
 30
0.0
 10
73.9108492314
 20
235.5812785074
 30
0.0
 10
73.9386244872
 20
234.375429031
 30
0.0
 10
73.9613918464
 20
233.5347144196
 30
0.0
 10
73.9775747368
 20
233.0055819574
 30
0.0
 10
73.9936518908
 20
232.5482071332
 30
0.0
 10
74.0097360746
 20
232.1650234545
 30
0.0
 10
74.0253670149
 20
231.8579035522
 30
0.0
 10
74.0413259685
 20
231.62928378
 30
0.0
 10
74.0541679266
 20
231.4875127024
 30
0.0
 10
74.0668866453
 20
231.4152822024
 30
0.0
 10
74.0725933106
 20
231.3919087699
 30
0.0
 10
74.076856502
 20
231.3845102939
 30
0.0
  0
SPLINE
  5
402
100
AcDbEntity
  8
0
100
AcDbSpline
 62
7
  6
CONTINUOUS
 70
0
 71
3
 72
26
 73
22
 74
0
 42
0.0000001
 43
0.0000001
 44
0.0000000001
 40
0.0
 40
0.0
 40
0.0
 40
0.0
 40
0.1329570888
 40
0.291138879
 40
0.4608056349
 40
0.5453313979
 40
0.6271793816
 40
0.7045615755
 40
0.7757824602
 40
0.8392834102
 40
0.8936806196
 40
0.9170813057
 40
0.9377806615
 40
0.9556589086
 40
0.9706199416
 40
0.9825888587
 40
0.9914944411
 40
0.994784389
 40
0.997296578
 40
0.9990317149
 40
1.0
 40
1.0
 40
1.0
 40
1.0
 10
74.1951784094
 20
257.7799764395
 30
0.0
 10
74.2206522343
 20
256.5607839942
 30
0.0
 10
74.2653380495
 20
253.8908706003
 30
0.0
 10
74.3283581792
 20
249.6649178562
 30
0.0
 10
74.3804183168
 20
245.8830514202
 30
0.0
 10
74.4236609139
 20
242.801251831
 30
0.0
 10
74.4560022517
 20
240.5657998616
 30
0.0
 10
74.4883080841
 20
238.4523907201
 30
0.0
 10
74.5205307785
 20
236.5072765477
 30
0.0
 10
74.5526513156
 20
234.7730071157
 30
0.0
 10
74.5804276364
 20
233.4773328731
 30
0.0
 10
74.603218781
 20
232.5742208502
 30
0.0
 10
74.6193944697
 20
232.0059943255
 30
0.0
 10
74.6355267208
 20
231.5152155378
 30
0.0
 10
74.6515216176
 20
231.1045363676
 30
0.0
 10
74.6674447921
 20
230.7762753348
 30
0.0
 10
74.6812644137
 20
230.5549834723
 30
0.0
 10
74.6932175997
 20
230.4207012905
 30
0.0
 10
74.7008670557
 20
230.3518172076
 30
0.0
 10
74.7088486121
 20
230.3049625367
 30
0.0
 10
74.7144651221
 20
230.2802912984
 30
0.0
 10
74.7188622422
 20
230.2725753162
 30
0.0
  0
SPLINE
  5
403
100
AcDbEntity
  8
0
100
AcDbSpline
 62
7
  6
CONTINUOUS
 70
0
 71
3
 72
20
 73
16
 74
0
 42
0.0000001
 43
0.0000001
 44
0.0000000001
 40
0.0
 40
0.0
 40
0.0
 40
0.0
 40
0.0018237192
 40
0.0054308161
 40
0.0185071524
 40
0.039533992
 40
0.0685230294
 40
0.1054410746
 40
0.1501970776
 40
0.2026869423
 40
0.2628051863
 40
0.40543086
 40
0.5768872042
 40
0.7757592852
 40
1.0
 40
1.0
 40
1.0
 40
1.0
 10
74.0306485184
 20
262.0176285643
 30
0.0
 10
74.0331079938
 20
262.016848419
 30
0.0
 10
74.0372636867
 20
262.0091312322
 30
0.0
 10
74.0445504395
 20
261.9850534124
 30
0.0
 10
74.0527867357
 20
261.9311593412
 30
0.0
 10
74.0623397641
 20
261.8430354652
 30
0.0
 10
74.0721410105
 20
261.7201433194
 30
0.0
 10
74.0822686835
 20
261.5640063128
 30
0.0
 10
74.0925573607
 20
261.3744261249
 30
0.0
 10
74.1029717254
 20
261.152038842
 30
0.0
 10
74.1177927826
 20
260.7912252553
 30
0.0
 10
74.1358282162
 20
260.2621027583
 30
0.0
 10
74.1562916338
 20
259.5366477927
 30
0.0
 10
74.1762855105
 20
258.6956732739
 30
0.0
 10
74.1888168741
 20
258.0971737684
 30
0.0
 10
74.1951784094
 20
257.7799764395
 30
0.0
  0
SPLINE
  5
404
100
AcDbEntity
  8
0
100
AcDbSpline
 62
7
  6
CONTINUOUS
 70
0
 71
3
 72
11
 73
7
 74
0
 42
0.0000001
 43
0.0000001
 44
0.0000000001
 40
0.0
 40
0.0
 40
0.0
 40
0.0
 40
0.0874263566
 40
0.2823555943
 40
0.5865751426
 40
1.0
 40
1.0
 40
1.0
 40
1.0
 10
74.827409005
 20
230.2688411578
 30
0.0
 10
74.8195879088
 20
230.2753476858
 30
0.0
 10
74.8147591288
 20
230.3117233772
 30
0.0
 10
74.8024580827
 20
230.375797436
 30
0.0
 10
74.7935925078
 20
230.4833816588
 30
0.0
 10
74.7870570743
 20
230.5660809096
 30
0.0
 10
74.7838487319
 20
230.6140836304
 30
0.0
  0
SPLINE
  5
405
100
AcDbEntity
  8
0
100
AcDbSpline
 62
7
  6
CONTINUOUS
 70
0
 71
3
 72
9
 73
5
 74
0
 42
0.0000001
 43
0.0000001
 44
0.0000000001
 40
0.0
 40
0.0
 40
0.0
 40
0.0
 40
0.2085145266
 40
1.0
 40
1.0
 40
1.0
 40
1.0
 10
74.7838487319
 20
230.6140836304
 30
0.0
 10
74.7814314638
 20
230.6502504208
 30
0.0
 10
74.7707249215
 20
230.8237593067
 30
0.0
 10
74.7626047626
 20
230.9974171796
 30
0.0
 10
74.756726251
 20
231.1348807815
 30
0.0
  0
SPLINE
  5
406
100
AcDbEntity
  8
0
100
AcDbSpline
 62
7
  6
CONTINUOUS
 70
0
 71
3
 72
17
 73
13
 74
0
 42
0.0000001
 43
0.0000001
 44
0.0000000001
 40
0.0
 40
0.0
 40
0.0
 40
0.0
 40
0.0798517624
 40
0.2027773189
 40
0.3559201099
 40
0.5232523904
 40
0.6872586173
 40
0.8307770042
 40
0.8900273194
 40
0.9387836373
 40
0.9757652651
 40
1.0
 40
1.0
 40
1.0
 40
1.0
 10
74.756726251
 20
231.1348807815
 30
0.0
 10
74.7219941036
 20
231.9470601936
 30
0.0
 10
74.6727300326
 20
234.0110112495
 30
0.0
 10
74.6051277975
 20
237.6336949048
 30
0.0
 10
74.5383328366
 20
242.1472329258
 30
0.0
 10
74.4699863914
 20
247.0789539122
 30
0.0
 10
74.4019203003
 20
251.9127002468
 30
0.0
 10
74.343051361
 20
255.6461611275
 30
0.0
 10
74.2930517922
 20
258.2062869569
 30
0.0
 10
74.2586583885
 20
259.6819523933
 30
0.0
 10
74.2243207819
 20
260.8009486068
 30
0.0
 10
74.1984746189
 20
261.4237310628
 30
0.0
 10
74.181942288
 20
261.6698954759
 30
0.0
  0
SPLINE
  5
407
100
AcDbEntity
  8
0
100
AcDbSpline
 62
7
  6
CONTINUOUS
 70
0
 71
3
 72
11
 73
7
 74
0
 42
0.0000001
 43
0.0000001
 44
0.0000000001
 40
0.0
 40
0.0
 40
0.0
 40
0.0
 40
0.3952447728
 40
0.6935816618
 40
0.8948820262
 40
1.0
 40
1.0
 40
1.0
 40
1.0
 10
74.181942288
 20
261.6698954759
 30
0.0
 10
74.1788845189
 20
261.7154252881
 30
0.0
 10
74.1728728985
 20
261.795166276
 30
0.0
 10
74.1635370136
 20
261.8984333177
 30
0.0
 10
74.1531435813
 20
261.9668253436
 30
0.0
 10
74.1467973154
 20
262.0025797766
 30
0.0
 10
74.1407674905
 20
262.0131120782
 30
0.0
  0
SPLINE
  5
408
100
AcDbEntity
  8
0
100
AcDbSpline
 62
7
  6
CONTINUOUS
 70
0
 71
3
 72
13
 73
9
 74
0
 42
0.0000001
 43
0.0000001
 44
0.0000000001
 40
0.0
 40
0.0
 40
0.0
 40
0.0
 40
0.0220125036
 40
0.0732237936
 40
0.1539612746
 40
0.2642421449
 40
0.5732924648
 40
1.0
 40
1.0
 40
1.0
 40
1.0
 10
27.5685659714
 20
162.9087574539
 30
0.0
 10
27.5666866944
 20
162.9106367667
 30
0.0
 10
27.5662317657
 20
162.9204600951
 30
0.0
 10
27.5633365141
 20
162.9380366914
 30
0.0
 10
27.5618269238
 20
162.9676950963
 30
0.0
 10
27.5584536114
 20
163.0277155785
 30
0.0
 10
27.5551699603
 20
163.1300169191
 30
0.0
 10
27.5527897532
 20
163.2187459566
 30
0.0
 10
27.5515774514
 20
163.2702510916
 30
0.0
  0
SPLINE
  5
409
100
AcDbEntity
  8
0
100
AcDbSpline
 62
7
  6
CONTINUOUS
 70
0
 71
3
 72
13
 73
9
 74
0
 42
0.0000001
 43
0.0000001
 44
0.0000000001
 40
0.0
 40
0.0
 40
0.0
 40
0.0
 40
0.0613511243
 40
0.1595886193
 40
0.2874693523
 40
0.4353856981
 40
0.7462545239
 40
1.0
 40
1.0
 40
1.0
 40
1.0
 10
27.5477235872
 20
163.451541922
 30
0.0
 10
27.5369002939
 20
164.0090114134
 30
0.0
 10
27.5204250266
 20
165.4593262237
 30
0.0
 10
27.500800764
 20
168.0718360811
 30
0.0
 10
27.4778593851
 20
171.4710848245
 30
0.0
 10
27.4504302781
 20
176.8027826107
 30
0.0
 10
27.4158361892
 20
183.2783429018
 30
0.0
 10
27.388104034
 20
188.4096415334
 30
0.0
 10
27.3673323229
 20
190.715651107
 30
0.0
  0
LINE
  5
40A
100
AcDbEntity
  8
0
100
AcDbLine
 62
7
  6
CONTINUOUS
 10
27.3673323229
 20
190.715651107
 11
27.3650833534
 21
190.9628096157
  0
SPLINE
  5
40B
100
AcDbEntity
  8
0
100
AcDbSpline
 62
7
  6
CONTINUOUS
 70
0
 71
3
 72
9
 73
5
 74
0
 42
0.0000001
 43
0.0000001
 44
0.0000000001
 40
0.0
 40
0.0
 40
0.0
 40
0.0
 40
0.6159507805
 40
1.0
 40
1.0
 40
1.0
 40
1.0
 10
27.3650833534
 20
190.9628096157
 30
0.0
 10
27.3598345427
 20
191.53435292
 30
0.0
 10
27.3510651264
 20
192.4622401351
 30
0.0
 10
27.3393398122
 20
193.3901463338
 30
0.0
 10
27.3304060637
 20
193.7464102426
 30
0.0
  0
SPLINE
  5
40C
100
AcDbEntity
  8
0
100
AcDbSpline
 62
7
  6
CONTINUOUS
 70
0
 71
3
 72
12
 73
8
 74
0
 42
0.0000001
 43
0.0000001
 44
0.0000000001
 40
0.0
 40
0.0
 40
0.0
 40
0.0
 40
0.4218888353
 40
0.7293403525
 40
0.9220169155
 40
0.9752757477
 40
1.0
 40
1.0
 40
1.0
 40
1.0
 10
27.3304060637
 20
193.7464102426
 30
0.0
 10
27.3290889032
 20
193.79893654
 30
0.0
 10
27.326761386
 20
193.8898379301
 30
0.0
 10
27.3219011295
 20
194.0042740994
 30
0.0
 10
27.3191724076
 20
194.0736515728
 30
0.0
 10
27.3150164328
 20
194.1066468705
 30
0.0
 10
27.3141758893
 20
194.116716881
 30
0.0
 10
27.3126316461
 20
194.1193808646
 30
0.0
  0
SPLINE
  5
40D
100
AcDbEntity
  8
0
100
AcDbSpline
 62
7
  6
CONTINUOUS
 70
0
 71
3
 72
17
 73
13
 74
0
 42
0.0000001
 43
0.0000001
 44
0.0000000001
 40
0.0
 40
0.0
 40
0.0
 40
0.0
 40
0.0085807876
 40
0.0245845496
 40
0.048035175
 40
0.0788890257
 40
0.1626565787
 40
0.2755584657
 40
0.4170058572
 40
0.5858513768
 40
0.7808047493
 40
1.0
 40
1.0
 40
1.0
 40
1.0
 10
67.8377091545
 20
260.900982359
 30
0.0
 10
67.8434373231
 20
260.8910438806
 30
0.0
 10
67.8499425701
 20
260.8580060996
 30
0.0
 10
67.8599522655
 20
260.7951147744
 30
0.0
 10
67.8692078271
 20
260.7012815695
 30
0.0
 10
67.8839962221
 20
260.5174466024
 30
0.0
 10
67.900957547
 20
260.2136160239
 30
0.0
 10
67.9205966898
 20
259.7620912478
 30
0.0
 10
67.9403021004
 20
259.1966673205
 30
0.0
 10
67.9602241652
 20
258.5215383039
 30
0.0
 10
67.9801426118
 20
257.7424240847
 30
0.0
 10
67.9927587607
 20
257.1889213118
 30
0.0
 10
67.9991556953
 20
256.8959641548
 30
0.0
  0
SPLINE
  5
40E
100
AcDbEntity
  8
0
100
AcDbSpline
 62
7
  6
CONTINUOUS
 70
0
 71
3
 72
9
 73
5
 74
0
 42
0.0000001
 43
0.0000001
 44
0.0000000001
 40
0.0
 40
0.0
 40
0.0
 40
0.0
 40
0.245030338
 40
1.0
 40
1.0
 40
1.0
 40
1.0
 10
68.0257798867
 20
255.6048260912
 30
0.0
 10
68.0270505243
 20
255.5399299609
 30
0.0
 10
68.03219976
 20
255.2750798802
 30
0.0
 10
68.0372081043
 20
255.0102270653
 30
0.0
 10
68.0409196516
 20
254.810269947
 30
0.0
  0
SPLINE
  5
40F
100
AcDbEntity
  8
0
100
AcDbSpline
 62
7
  6
CONTINUOUS
 70
0
 71
3
 72
9
 73
5
 74
0
 42
0.0000001
 43
0.0000001
 44
0.0000000001
 40
0.0
 40
0.0
 40
0.0
 40
0.0
 40
0.2433898573
 40
1.0
 40
1.0
 40
1.0
 40
1.0
 10
68.0409196516
 20
254.810269947
 30
0.0
 10
68.0429033343
 20
254.7034003721
 30
0.0
 10
68.0509715019
 20
254.2643108125
 30
0.0
 10
68.0587267503
 20
253.8252155222
 30
0.0
 10
68.0644467513
 20
253.4929890708
 30
0.0
  0
LINE
  5
410
100
AcDbEntity
  8
0
100
AcDbLine
 62
7
  6
CONTINUOUS
 10
68.0644467513
 20
253.4929890708
 11
68.0662130553
 21
253.3901269674
  0
SPLINE
  5
411
100
AcDbEntity
  8
0
100
AcDbSpline
 62
7
  6
CONTINUOUS
 70
0
 71
3
 72
9
 73
5
 74
0
 42
0.0000001
 43
0.0000001
 44
0.0000000001
 40
0.0
 40
0.0
 40
0.0
 40
0.0
 40
0.244951891
 40
1.0
 40
1.0
 40
1.0
 40
1.0
 10
68.0662130553
 20
253.3901269674
 30
0.0
 10
68.0681429875
 20
253.2774405468
 30
0.0
 10
68.0759546066
 20
252.8174044877
 30
0.0
 10
68.0835282215
 20
252.3573644096
 30
0.0
 10
68.0891607553
 20
252.0100106484
 30
0.0
  0
LINE
  5
412
100
AcDbEntity
  8
0
100
AcDbLine
 62
7
  6
CONTINUOUS
 10
68.0891607553
 20
252.0100106484
 11
68.1068161745
 21
250.9060965224
  0
LINE
  5
413
100
AcDbEntity
  8
0
100
AcDbLine
 62
7
  6
CONTINUOUS
 10
68.1068161745
 20
250.9060965224
 11
68.1211645018
 21
249.9930860912
  0
LINE
  5
414
100
AcDbEntity
  8
0
100
AcDbLine
 62
7
  6
CONTINUOUS
 10
68.1211645018
 20
249.9930860912
 11
68.139028679
 21
248.8407430602
  0
LINE
  5
415
100
AcDbEntity
  8
0
100
AcDbLine
 62
7
  6
CONTINUOUS
 10
68.139028679
 20
248.8407430602
 11
68.1631247089
 21
247.2515720517
  0
LINE
  5
416
100
AcDbEntity
  8
0
100
AcDbLine
 62
7
  6
CONTINUOUS
 10
68.1631247089
 20
247.2515720517
 11
68.1645986914
 21
247.152803109
  0
LINE
  5
417
100
AcDbEntity
  8
0
100
AcDbLine
 62
7
  6
CONTINUOUS
 10
68.1852998845
 20
245.7545170986
 11
68.1945683548
 21
245.1298307401
  0
SPLINE
  5
418
100
AcDbEntity
  8
0
100
AcDbSpline
 62
7
  6
CONTINUOUS
 70
0
 71
3
 72
9
 73
5
 74
0
 42
0.0000001
 43
0.0000001
 44
0.0000000001
 40
0.0
 40
0.0
 40
0.0
 40
0.0
 40
0.2509589854
 40
1.0
 40
1.0
 40
1.0
 40
1.0
 10
68.1945683548
 20
245.1298307401
 30
0.0
 10
68.196351082
 20
245.0102152518
 30
0.0
 10
68.2034772332
 20
244.5335819751
 30
0.0
 10
68.2107345034
 20
244.0569506423
 30
0.0
 10
68.216291221
 20
243.6999361082
 30
0.0
  0
LINE
  5
419
100
AcDbEntity
  8
0
100
AcDbLine
 62
7
  6
CONTINUOUS
 10
68.216291221
 20
243.6999361082
 11
68.2340525041
 21
242.5775414554
  0
LINE
  5
41A
100
AcDbEntity
  8
0
100
AcDbLine
 62
7
  6
CONTINUOUS
 10
68.2340525041
 20
242.5775414554
 11
68.2380419645
 21
242.329212292
  0
SPLINE
  5
41B
100
AcDbEntity
  8
0
100
AcDbSpline
 62
7
  6
CONTINUOUS
 70
0
 71
3
 72
11
 73
7
 74
0
 42
0.0000001
 43
0.0000001
 44
0.0000000001
 40
0.0
 40
0.0
 40
0.0
 40
0.0
 40
0.0874263448
 40
0.2823555837
 40
0.5865751372
 40
1.0
 40
1.0
 40
1.0
 40
1.0
 10
75.4214392554
 20
262.016712127
 30
0.0
 10
75.429260368
 20
262.0102055767
 30
0.0
 10
75.4340891495
 20
261.9738297881
 30
0.0
 10
75.446390228
 20
261.9097555482
 30
0.0
 10
75.4552558205
 20
261.8021710262
 30
0.0
 10
75.4617912688
 20
261.7194715436
 30
0.0
 10
75.4649996175
 20
261.6714686887
 30
0.0
  0
SPLINE
  5
41C
100
AcDbEntity
  8
0
100
AcDbSpline
 62
7
  6
CONTINUOUS
 70
0
 71
3
 72
9
 73
5
 74
0
 42
0.0000001
 43
0.0000001
 44
0.0000000001
 40
0.0
 40
0.0
 40
0.0
 40
0.0
 40
0.2085146412
 40
1.0
 40
1.0
 40
1.0
 40
1.0
 10
75.4649996175
 20
261.6714686887
 30
0.0
 10
75.4674168812
 20
261.6353019337
 30
0.0
 10
75.4781233997
 20
261.4617933134
 30
0.0
 10
75.486243544
 20
261.2881357067
 30
0.0
 10
75.4921220443
 20
261.1506723354
 30
0.0
  0
SPLINE
  5
41D
100
AcDbEntity
  8
0
100
AcDbSpline
 62
7
  6
CONTINUOUS
 70
0
 71
3
 72
17
 73
13
 74
0
 42
0.0000001
 43
0.0000001
 44
0.0000000001
 40
0.0
 40
0.0
 40
0.0
 40
0.0
 40
0.0798517675
 40
0.2027773281
 40
0.3559201216
 40
0.5232524029
 40
0.6872586289
 40
0.8307770132
 40
0.8900273265
 40
0.9387836423
 40
0.9757652677
 40
1.0
 40
1.0
 40
1.0
 40
1.0
 10
75.4921220443
 20
261.1506723354
 30
0.0
 10
75.5268541855
 20
260.3384928725
 30
0.0
 10
75.5761182606
 20
258.2745417282
 30
0.0
 10
75.6437204932
 20
254.651857961
 30
0.0
 10
75.7105154553
 20
250.1383198735
 30
0.0
 10
75.7788619001
 20
245.2065988715
 30
0.0
 10
75.8469279914
 20
240.3728525739
 30
0.0
 10
75.9057969303
 20
236.6393917557
 30
0.0
 10
75.9557964998
 20
234.0792659991
 30
0.0
 10
75.9901899028
 20
232.6036006311
 30
0.0
 10
76.0245275089
 20
231.4846044928
 30
0.0
 10
76.0503736751
 20
230.8618220894
 30
0.0
 10
76.066906004
 20
230.6156577032
 30
0.0
  0
SPLINE
  5
41E
100
AcDbEntity
  8
0
100
AcDbSpline
 62
7
  6
CONTINUOUS
 70
0
 71
3
 72
11
 73
7
 74
0
 42
0.0000001
 43
0.0000001
 44
0.0000000001
 40
0.0
 40
0.0
 40
0.0
 40
0.0
 40
0.3952447694
 40
0.6935816565
 40
0.8948820213
 40
1.0
 40
1.0
 40
1.0
 40
1.0
 10
76.066906004
 20
230.6156577032
 30
0.0
 10
76.0699637721
 20
230.5701279056
 30
0.0
 10
76.0759753902
 20
230.4903869431
 30
0.0
 10
76.0853112713
 20
230.3871199336
 30
0.0
 10
76.0957047006
 20
230.3187279292
 30
0.0
 10
76.1020509664
 20
230.2829735061
 30
0.0
 10
76.108080792
 20
230.2724412085
 30
0.0
  0
SPLINE
  5
41F
100
AcDbEntity
  8
0
100
AcDbSpline
 62
7
  6
CONTINUOUS
 70
0
 71
3
 72
11
 73
7
 74
0
 42
0.0000001
 43
0.0000001
 44
0.0000000001
 40
0.0
 40
0.0
 40
0.0
 40
0.0
 40
0.0873898435
 40
0.2822693704
 40
0.586496566
 40
1.0
 40
1.0
 40
1.0
 40
1.0
 10
76.2164940907
 20
230.2688274988
 30
0.0
 10
76.2086198393
 20
230.2752648239
 30
0.0
 10
76.203738168
 20
230.311706932
 30
0.0
 10
76.1914570704
 20
230.3757178339
 30
0.0
 10
76.1826206568
 20
230.483356972
 30
0.0
 10
76.1761098361
 20
230.566066931
 30
0.0
 10
76.1729099154
 20
230.6140852008
 30
0.0
  0
SPLINE
  5
420
100
AcDbEntity
  8
0
100
AcDbSpline
 62
7
  6
CONTINUOUS
 70
0
 71
3
 72
9
 73
5
 74
0
 42
0.0000001
 43
0.0000001
 44
0.0000000001
 40
0.0
 40
0.0
 40
0.0
 40
0.0
 40
0.2085096211
 40
1.0
 40
1.0
 40
1.0
 40
1.0
 10
76.1729099154
 20
230.6140852008
 30
0.0
 10
76.1704994639
 20
230.6502566324
 30
0.0
 10
76.1598139417
 20
230.8237909257
 30
0.0
 10
76.1516877896
 20
230.9974724832
 30
0.0
 10
76.1458042575
 20
231.1349558336
 30
0.0
  0
SPLINE
  5
421
100
AcDbEntity
  8
0
100
AcDbSpline
 62
7
  6
CONTINUOUS
 70
0
 71
3
 72
17
 73
13
 74
0
 42
0.0000001
 43
0.0000001
 44
0.0000000001
 40
0.0
 40
0.0
 40
0.0
 40
0.0
 40
0.0798535318
 40
0.2027800362
 40
0.3559230188
 40
0.5232548972
 40
0.6872603712
 40
0.8307779288
 40
0.8900278849
 40
0.9387839087
 40
0.9757653714
 40
1.0
 40
1.0
 40
1.0
 40
1.0
 10
76.1458042575
 20
231.1349558336
 30
0.0
 10
76.1110468021
 20
231.9471501548
 30
0.0
 10
76.0617967289
 20
234.0111246932
 30
0.0
 10
75.9941852234
 20
237.6338282966
 30
0.0
 10
75.9273943183
 20
242.1473627619
 30
0.0
 10
75.8590477094
 20
247.0790615082
 30
0.0
 10
75.7909798382
 20
251.9127756088
 30
0.0
 10
75.732117354
 20
255.6462072365
 30
0.0
 10
75.6821083351
 20
258.2063117977
 30
0.0
 10
75.6477271539
 20
259.6819645349
 30
0.0
 10
75.6133993275
 20
260.8009548046
 30
0.0
 10
75.5874663197
 20
261.4237263082
 30
0.0
 10
75.5710067841
 20
261.669893896
 30
0.0
  0
SPLINE
  5
422
100
AcDbEntity
  8
0
100
AcDbSpline
 62
7
  6
CONTINUOUS
 70
0
 71
3
 72
11
 73
7
 74
0
 42
0.0000001
 43
0.0000001
 44
0.0000000001
 40
0.0
 40
0.0
 40
0.0
 40
0.0
 40
0.3947648444
 40
0.6929319549
 40
0.8943835353
 40
1.0
 40
1.0
 40
1.0
 40
1.0
 10
75.5710067841
 20
261.669893896
 30
0.0
 10
75.5679674252
 20
261.7153503222
 30
0.0
 10
75.5620023636
 20
261.7949879958
 30
0.0
 10
75.5527297312
 20
261.8981532898
 30
0.0
 10
75.5424020342
 20
261.9665915804
 30
0.0
 10
75.5360225079
 20
262.0023916529
 30
0.0
 10
75.5299858141
 20
262.0129804451
 30
0.0
  0
SPLINE
  5
423
100
AcDbEntity
  8
0
100
AcDbSpline
 62
7
  6
CONTINUOUS
 70
0
 71
3
 72
15
 73
11
 74
0
 42
0.0000001
 43
0.0000001
 44
0.0000000001
 40
0.0
 40
0.0
 40
0.0
 40
0.0
 40
0.3124638634
 40
0.4722645201
 40
0.6232485424
 40
0.7576654114
 40
0.8686964512
 40
0.9507979386
 40
0.9796920269
 40
1.0
 40
1.0
 40
1.0
 40
1.0
 10
26.8917264622
 20
184.9076393273
 30
0.0
 10
26.9423908165
 20
182.6544436855
 30
0.0
 10
27.0100981363
 20
179.2487228363
 30
0.0
 10
27.1004168912
 20
174.754211052
 30
0.0
 10
27.1679733214
 20
171.543738939
 30
0.0
 10
27.2344848813
 20
168.6850757677
 30
0.0
 10
27.3006983203
 20
166.3234552497
 30
0.0
 10
27.3573836594
 20
164.7228973812
 30
0.0
 10
27.4073291808
 20
163.7771551837
 30
0.0
 10
27.4325143476
 20
163.4230695445
 30
0.0
 10
27.4470678921
 20
163.2773153006
 30
0.0
  0
SPLINE
  5
424
100
AcDbEntity
  8
0
100
AcDbSpline
 62
7
  6
CONTINUOUS
 70
0
 71
3
 72
9
 73
5
 74
0
 42
0.0000001
 43
0.0000001
 44
0.0000000001
 40
0.0
 40
0.0
 40
0.0
 40
0.0
 40
0.2712442478
 40
1.0
 40
1.0
 40
1.0
 40
1.0
 10
27.4470678921
 20
163.2773153006
 30
0.0
 10
27.4480906518
 20
163.2670723271
 30
0.0
 10
27.4519561609
 20
163.229319179
 30
0.0
 10
27.456212525
 20
163.1916043362
 30
0.0
 10
27.4596651285
 20
163.1641639012
 30
0.0
  0
SPLINE
  5
425
100
AcDbEntity
  8
0
100
AcDbSpline
 62
7
  6
CONTINUOUS
 70
0
 71
3
 72
9
 73
5
 74
0
 42
0.0000001
 43
0.0000001
 44
0.0000000001
 40
0.0
 40
0.0
 40
0.0
 40
0.0
 40
0.6529197919
 40
1.0
 40
1.0
 40
1.0
 40
1.0
 10
27.4596651285
 20
163.1641639012
 30
0.0
 10
27.4647451575
 20
163.1237890915
 30
0.0
 10
27.4746038628
 20
163.0630116341
 30
0.0
 10
27.4865924853
 20
163.0001861589
 30
0.0
 10
27.4974454627
 20
162.9814740068
 30
0.0
  0
SPLINE
  5
426
100
AcDbEntity
  8
0
100
AcDbSpline
 62
7
  6
CONTINUOUS
 70
0
 71
3
 72
37
 73
33
 74
0
 42
0.0000001
 43
0.0000001
 44
0.0000000001
 40
0.0
 40
0.0
 40
0.0
 40
0.0
 40
0.0009735996
 40
0.0031209986
 40
0.0064565329
 40
0.0109716914
 40
0.0166459646
 40
0.0234582626
 40
0.0404118684
 40
0.0616619028
 40
0.087037277
 40
0.1163555441
 40
0.1493239955
 40
0.2665733681
 40
0.4035692503
 40
0.5486730149
 40
0.6204426344
 40
0.6896851061
 40
0.7549036684
 40
0.81465367
 40
0.8677548714
 40
0.913110796
 40
0.9325416968
 40
0.9496402469
 40
0.9643398993
 40
0.9765869354
 40
0.9863277976
 40
0.9935093283
 40
0.9961240943
 40
0.9980799367
 40
0.9993717657
 40
1.0
 40
1.0
 40
1.0
 40
1.0
 10
31.1975043755
 20
163.5874890359
 30
0.0
 10
31.1926169109
 20
163.5959533081
 30
0.0
 10
31.1906920779
 20
163.6286232705
 30
0.0
 10
31.1829396915
 20
163.6919061753
 30
0.0
 10
31.1781463529
 20
163.7927806548
 30
0.0
 10
31.1716171075
 20
163.9281430105
 30
0.0
 10
31.1656593244
 20
164.0988211192
 30
0.0
 10
31.1566854629
 20
164.3941907388
 30
0.0
 10
31.1460362153
 20
164.8460156741
 30
0.0
 10
31.1337497104
 20
165.4841577722
 30
0.0
 10
31.1214271352
 20
166.2464653923
 30
0.0
 10
31.1090547437
 20
167.1264207144
 30
0.0
 10
31.0865020776
 20
168.9286511977
 30
0.0
 10
31.0569136506
 20
171.8118523217
 30
0.0
 10
31.0210193882
 20
175.8207729918
 30
0.0
 10
30.9908921795
 20
179.3731536178
 30
0.0
 10
30.9660048076
 20
182.2453747688
 30
0.0
 10
30.9474296302
 20
184.3156496122
 30
0.0
 10
30.9288905071
 20
186.2652542297
 30
0.0
 10
30.9103716679
 20
188.0528085342
 30
0.0
 10
30.8919203092
 20
189.6409494368
 30
0.0
 10
30.8759750506
 20
190.8243269238
 30
0.0
 10
30.8628821485
 20
191.6462727031
 30
0.0
 10
30.8535927609
 20
192.160483025
 30
0.0
 10
30.8443187338
 20
192.6025507787
 30
0.0
 10
30.835167067
 20
192.9707682078
 30
0.0
 10
30.8259663097
 20
193.263402173
 30
0.0
 10
30.8181808401
 20
193.45950799
 30
0.0
 10
30.8111172904
 20
193.5771217357
 30
0.0
 10
30.8071003118
 20
193.6361195297
 30
0.0
 10
30.8019789474
 20
193.6741853937
 30
0.0
 10
30.799650966
 20
193.6940034798
 30
0.0
 10
30.7964974535
 20
193.6994653453
 30
0.0
  0
SPLINE
  5
427
100
AcDbEntity
  8
0
100
AcDbSpline
 62
7
  6
CONTINUOUS
 70
0
 71
3
 72
11
 73
7
 74
0
 42
0.0000001
 43
0.0000001
 44
0.0000000001
 40
0.0
 40
0.0
 40
0.0
 40
0.0
 40
0.0873874004
 40
0.282344284
 40
0.5865820534
 40
1.0
 40
1.0
 40
1.0
 40
1.0
 10
76.8104579227
 20
262.0167073358
 30
0.0
 10
76.8182268798
 20
262.0101467154
 30
0.0
 10
76.8229993484
 20
261.9738343031
 30
0.0
 10
76.8353472232
 20
261.9097178917
 30
0.0
 10
76.8442632608
 20
261.8021687748
 30
0.0
 10
76.8508382325
 20
261.7194677656
 30
0.0
 10
76.8540604927
 20
261.67147
 30
0.0
  0
SPLINE
  5
428
100
AcDbEntity
  8
0
100
AcDbSpline
 62
7
  6
CONTINUOUS
 70
0
 71
3
 72
9
 73
5
 74
0
 42
0.0000001
 43
0.0000001
 44
0.0000000001
 40
0.0
 40
0.0
 40
0.0
 40
0.0
 40
0.2085322487
 40
1.0
 40
1.0
 40
1.0
 40
1.0
 10
76.8540604927
 20
261.67147
 30
0.0
 10
76.8564871994
 20
261.6353225476
 30
0.0
 10
76.8672214817
 20
261.4619197663
 30
0.0
 10
76.875330263
 20
261.2883654787
 30
0.0
 10
76.8811994531
 20
261.1509871677
 30
0.0
  0
SPLINE
  5
429
100
AcDbEntity
  8
0
100
AcDbSpline
 62
7
  6
CONTINUOUS
 70
0
 71
3
 72
9
 73
5
 74
0
 42
0.0000001
 43
0.0000001
 44
0.0000000001
 40
0.0
 40
0.0
 40
0.0
 40
0.0
 40
0.1958501313
 40
1.0
 40
1.0
 40
1.0
 40
1.0
 10
76.8811994531
 20
261.1509871677
 30
0.0
 10
76.8872507361
 20
261.0093466663
 30
0.0
 10
76.9145442624
 20
260.2859855465
 30
0.0
 10
76.933060399
 20
259.5623284112
 30
0.0
 10
76.9468382299
 20
258.9803928711
 30
0.0
  0
LINE
  5
42A
100
AcDbEntity
  8
0
100
AcDbLine
 62
7
  6
CONTINUOUS
 10
76.9468382299
 20
258.9803928711
 11
76.9520668933
 21
258.7559683904
  0
SPLINE
  5
42B
100
AcDbEntity
  8
0
100
AcDbSpline
 62
7
  6
CONTINUOUS
 70
0
 71
3
 72
11
 73
7
 74
0
 42
0.0000001
 43
0.0000001
 44
0.0000000001
 40
0.0
 40
0.0
 40
0.0
 40
0.0
 40
0.2210063848
 40
0.6429012283
 40
0.841418271
 40
1.0
 40
1.0
 40
1.0
 40
1.0
 10
76.9520668933
 20
258.7559683904
 30
0.0
 10
76.9946481966
 20
256.8993231206
 30
0.0
 10
77.0830398705
 20
251.4976357433
 30
0.0
 10
77.1768887133
 20
244.4277774814
 30
0.0
 10
77.2738772479
 20
237.882556708
 30
0.0
 10
77.3271207533
 20
234.882276144
 30
0.0
 10
77.3575977468
 20
233.5500503495
 30
0.0
  0
SPLINE
  5
42C
100
AcDbEntity
  8
0
100
AcDbSpline
 62
7
  6
CONTINUOUS
 70
0
 71
3
 72
9
 73
5
 74
0
 42
0.0000001
 43
0.0000001
 44
0.0000000001
 40
0.0
 40
0.0
 40
0.0
 40
0.0
 40
0.6209241082
 40
1.0
 40
1.0
 40
1.0
 40
1.0
 10
77.3575977468
 20
233.5500503495
 30
0.0
 10
77.3714964846
 20
232.9425016757
 30
0.0
 10
77.3976917013
 20
231.9642419194
 30
0.0
 10
77.431037788
 20
230.985825326
 30
0.0
 10
77.4559699801
 20
230.6156568163
 30
0.0
  0
SPLINE
  5
42D
100
AcDbEntity
  8
0
100
AcDbSpline
 62
7
  6
CONTINUOUS
 70
0
 71
3
 72
11
 73
7
 74
0
 42
0.0000001
 43
0.0000001
 44
0.0000000001
 40
0.0
 40
0.0
 40
0.0
 40
0.0
 40
0.3957743433
 40
0.6942954098
 40
0.8954253617
 40
1.0
 40
1.0
 40
1.0
 40
1.0
 10
77.4559699801
 20
230.6156568163
 30
0.0
 10
77.4590419858
 20
230.5700467162
 30
0.0
 10
77.4650900633
 20
230.4901936587
 30
0.0
 10
77.4744651763
 20
230.3868128123
 30
0.0
 10
77.4849121039
 20
230.3184750838
 30
0.0
 10
77.491214217
 20
230.2827642792
 30
0.0
 10
77.4972453091
 20
230.2722989769
 30
0.0
  0
SPLINE
  5
42E
100
AcDbEntity
  8
0
100
AcDbSpline
 62
7
  6
CONTINUOUS
 70
0
 71
3
 72
11
 73
7
 74
0
 42
0.0000001
 43
0.0000001
 44
0.0000000001
 40
0.0
 40
0.0
 40
0.0
 40
0.0
 40
0.0873028303
 40
0.282145484
 40
0.586401015
 40
1.0
 40
1.0
 40
1.0
 40
1.0
 10
77.6056326868
 20
230.2688145491
 30
0.0
 10
77.5977406597
 20
230.2752154616
 30
0.0
 10
77.5928475832
 20
230.3116816963
 30
0.0
 10
77.5805436488
 20
230.3756516446
 30
0.0
 10
77.5716943433
 20
230.4833276845
 30
0.0
 10
77.5651753456
 20
230.5660531956
 30
0.0
 10
77.5619722797
 20
230.6140867641
 30
0.0
  0
SPLINE
  5
42F
100
AcDbEntity
  8
0
100
AcDbSpline
 62
7
  6
CONTINUOUS
 70
0
 71
3
 72
9
 73
5
 74
0
 42
0.0000001
 43
0.0000001
 44
0.0000000001
 40
0.0
 40
0.0
 40
0.0
 40
0.0
 40
0.2085203665
 40
1.0
 40
1.0
 40
1.0
 40
1.0
 10
77.5619722797
 20
230.6140867641
 30
0.0
 10
77.5595610658
 20
230.650245622
 30
0.0
 10
77.5488744806
 20
230.8237108477
 30
0.0
 10
77.5407519105
 20
230.9973236491
 30
0.0
 10
77.5348711674
 20
231.1347506802
 30
0.0
  0
SPLINE
  5
430
100
AcDbEntity
  8
0
100
AcDbSpline
 62
7
  6
CONTINUOUS
 70
0
 71
3
 72
13
 73
9
 74
0
 42
0.0000001
 43
0.0000001
 44
0.0000000001
 40
0.0
 40
0.0
 40
0.0
 40
0.0
 40
0.0695483837
 40
0.1733128424
 40
0.303810175
 40
0.4516130882
 40
0.7559544388
 40
1.0
 40
1.0
 40
1.0
 40
1.0
 10
77.5348711674
 20
231.1347506802
 30
0.0
 10
77.5074932087
 20
231.7745459456
 30
0.0
 10
77.4652728206
 20
233.3699159509
 30
0.0
 10
77.4089367775
 20
236.1666970315
 30
0.0
 10
77.3525505203
 20
239.6842085173
 30
0.0
 10
77.2754032113
 20
245.048439155
 30
0.0
 10
77.1875625153
 20
251.4581206145
 30
0.0
 10
77.1095185766
 20
256.5069746416
 30
0.0
 10
77.0580245522
 20
258.7534832866
 30
0.0
  0
LINE
  5
431
100
AcDbEntity
  8
0
100
AcDbLine
 62
7
  6
CONTINUOUS
 10
77.0580245522
 20
258.7534832866
 11
77.0532244746
 21
258.9599068364
  0
SPLINE
  5
432
100
AcDbEntity
  8
0
100
AcDbSpline
 62
7
  6
CONTINUOUS
 70
0
 71
3
 72
9
 73
5
 74
0
 42
0.0000001
 43
0.0000001
 44
0.0000000001
 40
0.0
 40
0.0
 40
0.0
 40
0.0
 40
0.6181020949
 40
1.0
 40
1.0
 40
1.0
 40
1.0
 10
77.0532244746
 20
258.9599068364
 30
0.0
 10
77.0400444795
 20
259.5184498968
 30
0.0
 10
77.015446588
 20
260.4219295629
 30
0.0
 10
76.9830241132
 20
261.325461374
 30
0.0
 10
76.9600706089
 20
261.6698924721
 30
0.0
  0
SPLINE
  5
433
100
AcDbEntity
  8
0
100
AcDbSpline
 62
7
  6
CONTINUOUS
 70
0
 71
3
 72
11
 73
7
 74
0
 42
0.0000001
 43
0.0000001
 44
0.0000000001
 40
0.0
 40
0.0
 40
0.0
 40
0.0
 40
0.3946565158
 40
0.6927811139
 40
0.8942621224
 40
1.0
 40
1.0
 40
1.0
 40
1.0
 10
76.9600706089
 20
261.6698924721
 30
0.0
 10
76.9570424301
 20
261.7153321116
 30
0.0
 10
76.9511052941
 20
261.7949452102
 30
0.0
 10
76.9418815073
 20
261.8980905165
 30
0.0
 10
76.931589914
 20
261.9665362626
 30
0.0
 10
76.9252083989
 20
262.0023549299
 30
0.0
 10
76.9191577037
 20
262.0129503254
 30
0.0
  0
SPLINE
  5
434
100
AcDbEntity
  8
0
100
AcDbSpline
 62
7
  6
CONTINUOUS
 70
0
 71
3
 72
20
 73
16
 74
0
 42
0.0000001
 43
0.0000001
 44
0.0000000001
 40
0.0
 40
0.0
 40
0.0
 40
0.0
 40
0.2075807709
 40
0.3986247068
 40
0.5686971811
 40
0.7144116426
 40
0.777127276
 40
0.8325648144
 40
0.8804515298
 40
0.9205739317
 40
0.9527243764
 40
0.9767443698
 40
0.9925155085
 40
0.9972847745
 40
1.0
 40
1.0
 40
1.0
 40
1.0
 10
68.2617241031
 20
240.7491907827
 30
0.0
 10
68.2721561411
 20
240.1008460394
 30
0.0
 10
68.2928006635
 20
238.8558163315
 30
0.0
 10
68.3247219251
 20
237.0796393876
 30
0.0
 10
68.3564394874
 20
235.4967468574
 30
0.0
 10
68.3838901517
 20
234.3147184128
 30
0.0
 10
68.4063961305
 20
233.4907682093
 30
0.0
 10
68.4224030126
 20
232.9723529992
 30
0.0
 10
68.4383182951
 20
232.5245287859
 30
0.0
 10
68.4542251914
 20
232.149555588
 30
0.0
 10
68.4696888366
 20
231.8490445563
 30
0.0
 10
68.4854631252
 20
231.6251079774
 30
0.0
 10
68.4982006255
 20
231.486009234
 30
0.0
 10
68.5107208073
 20
231.4148155551
 30
0.0
 10
68.5163823267
 20
231.3916851375
 30
0.0
 10
68.5205778582
 20
231.3843138339
 30
0.0
  0
SPLINE
  5
435
100
AcDbEntity
  8
0
100
AcDbSpline
 62
7
  6
CONTINUOUS
 70
0
 71
3
 72
21
 73
17
 74
0
 42
0.0000001
 43
0.0000001
 44
0.0000000001
 40
0.0
 40
0.0
 40
0.0
 40
0.0
 40
0.2079255946
 40
0.399169461
 40
0.5694432563
 40
0.7152160697
 40
0.7779008018
 40
0.8333292117
 40
0.8812074909
 40
0.9212677294
 40
0.9533160985
 40
0.9771759667
 40
0.9859942307
 40
0.9927313857
 40
0.9973903916
 40
1.0
 40
1.0
 40
1.0
 40
1.0
 10
68.9041780907
 20
240.3429989095
 30
0.0
 10
68.91483926
 20
239.6446986835
 30
0.0
 10
68.9346802031
 20
238.3041129776
 30
0.0
 10
68.9660135065
 20
236.3917187646
 30
0.0
 10
68.9982006338
 20
234.6881317786
 30
0.0
 10
69.0256096859
 20
233.4163382251
 30
0.0
 10
69.0481433162
 20
232.5302825922
 30
0.0
 10
69.0641552854
 20
231.9729767551
 30
0.0
 10
69.0801253561
 20
231.4917027691
 30
0.0
 10
69.0959673973
 20
231.0889842928
 30
0.0
 10
69.1117336985
 20
230.7670596146
 30
0.0
 10
69.1253924006
 20
230.5499970802
 30
0.0
 10
69.1371810411
 20
230.4182154108
 30
0.0
 10
69.1447395609
 20
230.3505686385
 30
0.0
 10
69.1526187031
 20
230.3044915786
 30
0.0
 10
69.1582027234
 20
230.2802171003
 30
0.0
 10
69.1625449408
 20
230.2726030806
 30
0.0
  0
SPLINE
  5
436
100
AcDbEntity
  8
0
100
AcDbSpline
 62
7
  6
CONTINUOUS
 70
0
 71
3
 72
27
 73
23
 74
0
 42
0.0000001
 43
0.0000001
 44
0.0000000001
 40
0.0
 40
0.0
 40
0.0
 40
0.0
 40
0.0005257525
 40
0.0016575333
 40
0.0034428494
 40
0.0058896219
 40
0.0127710926
 40
0.0222961509
 40
0.0344334313
 40
0.0491326427
 40
0.0663422003
 40
0.086005975
 40
0.1323799741
 40
0.1875770045
 40
0.2507806992
 40
0.3210709562
 40
0.3974046693
 40
0.4786681914
 40
0.5636638264
 40
0.6511431021
 40
0.8283710969
 40
1.0
 40
1.0
 40
1.0
 40
1.0
 10
68.4744823472
 20
262.0176856154
 30
0.0
 10
68.4781876184
 20
262.0168418848
 30
0.0
 10
68.4839422171
 20
262.0036796756
 30
0.0
 10
68.48967228
 20
261.9812532129
 30
0.0
 10
68.4961284954
 20
261.9420667983
 30
0.0
 10
68.5055790068
 20
261.8628272206
 30
0.0
 10
68.5165660572
 20
261.7265716309
 30
0.0
 10
68.5292278621
 20
261.5208371278
 30
0.0
 10
68.5422828882
 20
261.2582618274
 30
0.0
 10
68.5555709534
 20
260.9402007308
 30
0.0
 10
68.5689481323
 20
260.5676655381
 30
0.0
 10
68.5877754333
 20
259.9662537009
 30
0.0
 10
68.6105784202
 20
259.0902623776
 30
0.0
 10
68.6368941413
 20
257.8995668837
 30
0.0
 10
68.6633558945
 20
256.5359702619
 30
0.0
 10
68.689870777
 20
255.0195746867
 30
0.0
 10
68.7164304786
 20
253.3726257579
 30
0.0
 10
68.7430185593
 20
251.6193745569
 30
0.0
 10
68.7696354219
 20
249.7855552853
 30
0.0
 10
68.8052882172
 20
247.2581665035
 30
0.0
 10
68.8488734685
 20
244.1046458197
 30
0.0
 10
68.8847969063
 20
241.5833750987
 30
0.0
 10
68.9041780907
 20
240.3429989095
 30
0.0
  0
SPLINE
  5
437
100
AcDbEntity
  8
0
100
AcDbSpline
 62
7
  6
CONTINUOUS
 70
0
 71
3
 72
11
 73
7
 74
0
 42
0.0000001
 43
0.0000001
 44
0.0000000001
 40
0.0
 40
0.0
 40
0.0
 40
0.0
 40
0.0874187282
 40
0.2823670034
 40
0.5865918203
 40
1.0
 40
1.0
 40
1.0
 40
1.0
 10
69.2711729736
 20
230.2688453473
 30
0.0
 10
69.2633804797
 20
230.2753839962
 30
0.0
 10
69.2585812852
 20
230.311724582
 30
0.0
 10
69.2462591413
 20
230.3758253868
 30
0.0
 10
69.2373691886
 20
230.4833868837
 30
0.0
 10
69.2308146188
 20
230.5660848379
 30
0.0
 10
69.2275995617
 20
230.6140829511
 30
0.0
  0
SPLINE
  5
438
100
AcDbEntity
  8
0
100
AcDbSpline
 62
7
  6
CONTINUOUS
 70
0
 71
3
 72
9
 73
5
 74
0
 42
0.0000001
 43
0.0000001
 44
0.0000000001
 40
0.0
 40
0.0
 40
0.0
 40
0.0
 40
0.2085222906
 40
1.0
 40
1.0
 40
1.0
 40
1.0
 10
69.2275995617
 20
230.6140829511
 30
0.0
 10
69.2251775651
 20
230.6502413348
 30
0.0
 10
69.2144569893
 20
230.823704125
 30
0.0
 10
69.2063422244
 20
230.9973171507
 30
0.0
 10
69.2004681458
 20
231.1347437961
 30
0.0
  0
SPLINE
  5
439
100
AcDbEntity
  8
0
100
AcDbSpline
 62
7
  6
CONTINUOUS
 70
0
 71
3
 72
17
 73
13
 74
0
 42
0.0000001
 43
0.0000001
 44
0.0000000001
 40
0.0
 40
0.0
 40
0.0
 40
0.0
 40
0.0798485302
 40
0.2027723186
 40
0.3559147151
 40
0.5232476919
 40
0.6872552761
 40
0.8307751901
 40
0.8900261833
 40
0.9387830577
 40
0.9757650626
 40
1.0
 40
1.0
 40
1.0
 40
1.0
 10
69.2004681458
 20
231.1347437961
 30
0.0
 10
69.1657540751
 20
231.9468947078
 30
0.0
 10
69.1164796441
 20
234.0108034344
 30
0.0
 10
69.0488838507
 20
237.6334488873
 30
0.0
 10
68.9820856032
 20
242.1469921248
 30
0.0
 10
68.9137391241
 20
247.0787522508
 30
0.0
 10
68.845673152
 20
251.9125567583
 30
0.0
 10
68.78680122
 20
255.6460707685
 30
0.0
 10
68.7368050648
 20
258.2062361392
 30
0.0
 10
68.7024064967
 20
259.6819248983
 30
0.0
 10
68.6680646828
 20
260.8009366526
 30
0.0
 10
68.6422532338
 20
261.4237304901
 30
0.0
 10
68.6256914124
 20
261.6698960996
 30
0.0
  0
SPLINE
  5
43A
100
AcDbEntity
  8
0
100
AcDbSpline
 62
7
  6
CONTINUOUS
 70
0
 71
3
 72
11
 73
7
 74
0
 42
0.0000001
 43
0.0000001
 44
0.0000000001
 40
0.0
 40
0.0
 40
0.0
 40
0.0
 40
0.3955240644
 40
0.6939585097
 40
0.8951694718
 40
1.0
 40
1.0
 40
1.0
 40
1.0
 10
68.6256914124
 20
261.6698960996
 30
0.0
 10
68.6226253492
 20
261.7154683401
 30
0.0
 10
68.6165925746
 20
261.7952686818
 30
0.0
 10
68.6072320443
 20
261.8985955195
 30
0.0
 10
68.5968079792
 20
261.9669593573
 30
0.0
 10
68.5904840533
 20
262.0026898698
 30
0.0
 10
68.584454762
 20
262.0131874738
 30
0.0
  0
SPLINE
  5
43B
100
AcDbEntity
  8
0
100
AcDbSpline
 62
7
  6
CONTINUOUS
 70
0
 71
3
 72
11
 73
7
 74
0
 42
0.0000001
 43
0.0000001
 44
0.0000000001
 40
0.0
 40
0.0
 40
0.0
 40
0.0
 40
0.0874154861
 40
0.2823202863
 40
0.5865409114
 40
1.0
 40
1.0
 40
1.0
 40
1.0
 10
69.865186162
 20
262.0167184972
 30
0.0
 10
69.8730360718
 20
262.0102477677
 30
0.0
 10
69.8778938188
 20
261.9738362108
 30
0.0
 10
69.890180512
 20
261.909793827
 30
0.0
 10
69.8990272551
 20
261.8021818314
 30
0.0
 10
69.9055473342
 20
261.7194780417
 30
0.0
 10
69.9087503645
 20
261.6714680126
 30
0.0
  0
SPLINE
  5
43C
100
AcDbEntity
  8
0
100
AcDbSpline
 62
7
  6
CONTINUOUS
 70
0
 71
3
 72
9
 73
5
 74
0
 42
0.0000001
 43
0.0000001
 44
0.0000000001
 40
0.0
 40
0.0
 40
0.0
 40
0.0
 40
0.2085102035
 40
1.0
 40
1.0
 40
1.0
 40
1.0
 10
69.9087503645
 20
261.6714680126
 30
0.0
 10
69.9111635644
 20
261.6352967026
 30
0.0
 10
69.9218577418
 20
261.4617631117
 30
0.0
 10
69.9299818889
 20
261.2880815795
 30
0.0
 10
69.9358637117
 20
261.1505984084
 30
0.0
  0
SPLINE
  5
43D
100
AcDbEntity
  8
0
100
AcDbSpline
 62
7
  6
CONTINUOUS
 70
0
 71
3
 72
17
 73
13
 74
0
 42
0.0000001
 43
0.0000001
 44
0.0000000001
 40
0.0
 40
0.0
 40
0.0
 40
0.0
 40
0.0798535111
 40
0.2027800182
 40
0.3559230156
 40
0.5232549136
 40
0.6872604038
 40
0.8307779666
 40
0.8900279186
 40
0.9387839381
 40
0.9757653749
 40
1.0
 40
1.0
 40
1.0
 40
1.0
 10
69.9358637117
 20
261.1505984084
 30
0.0
 10
69.9706111254
 20
260.3384038199
 30
0.0
 10
70.0198666202
 20
258.2744297322
 30
0.0
 10
70.0874743907
 20
254.651725708
 30
0.0
 10
70.1542667688
 20
250.1381906929
 30
0.0
 10
70.2226132645
 20
245.2064911041
 30
0.0
 10
70.2906800214
 20
240.3727763328
 30
0.0
 10
70.3495456526
 20
236.6393442373
 30
0.0
 10
70.3995497289
 20
234.0792396759
 30
0.0
 10
70.4339370423
 20
232.6035868598
 30
0.0
 10
70.4682697507
 20
231.4845981944
 30
0.0
 10
70.4941584946
 20
230.8618235852
 30
0.0
 10
70.5106549968
 20
230.6156584935
 30
0.0
  0
SPLINE
  5
43E
100
AcDbEntity
  8
0
100
AcDbSpline
 62
7
  6
CONTINUOUS
 70
0
 71
3
 72
11
 73
7
 74
0
 42
0.0000001
 43
0.0000001
 44
0.0000000001
 40
0.0
 40
0.0
 40
0.0
 40
0.0
 40
0.3949780351
 40
0.6932210217
 40
0.8946059468
 40
1.0
 40
1.0
 40
1.0
 40
1.0
 10
70.5106549968
 20
230.6156584935
 30
0.0
 10
70.5137034022
 20
230.5701693963
 30
0.0
 10
70.5196912847
 20
230.4904856036
 30
0.0
 10
70.5289963558
 20
230.3872753756
 30
0.0
 10
70.539355985
 20
230.3188572365
 30
0.0
 10
70.545721719
 20
230.283078394
 30
0.0
 10
70.5517540724
 20
230.272514035
 30
0.0
  0
SPLINE
  5
43F
100
AcDbEntity
  8
0
100
AcDbSpline
 62
7
  6
CONTINUOUS
 70
0
 71
3
 72
11
 73
7
 74
0
 42
0.0000001
 43
0.0000001
 44
0.0000000001
 40
0.0
 40
0.0
 40
0.0
 40
0.0
 40
0.0874155482
 40
0.2823203672
 40
0.5865409707
 40
1.0
 40
1.0
 40
1.0
 40
1.0
 10
70.6602245933
 20
230.2688347945
 30
0.0
 10
70.6523747054
 20
230.2753055209
 30
0.0
 10
70.6475169565
 20
230.3117169775
 30
0.0
 10
70.6352302984
 20
230.3757592169
 30
0.0
 10
70.6263835684
 20
230.4833709205
 30
0.0
 10
70.6198635037
 20
230.5660744905
 30
0.0
 10
70.6166604793
 20
230.6140843893
 30
0.0
  0
SPLINE
  5
440
100
AcDbEntity
  8
0
100
AcDbSpline
 62
7
  6
CONTINUOUS
 70
0
 71
3
 72
9
 73
5
 74
0
 42
0.0000001
 43
0.0000001
 44
0.0000000001
 40
0.0
 40
0.0
 40
0.0
 40
0.0
 40
0.2085100989
 40
1.0
 40
1.0
 40
1.0
 40
1.0
 10
70.6166604793
 20
230.6140843893
 30
0.0
 10
70.6142472751
 20
230.6502557315
 30
0.0
 10
70.6035530752
 20
230.8237895644
 30
0.0
 10
70.595428915
 20
230.9974713393
 30
0.0
 10
70.5895470821
 20
231.1349547206
 30
0.0
  0
SPLINE
  5
441
100
AcDbEntity
  8
0
100
AcDbSpline
 62
7
  6
CONTINUOUS
 70
0
 71
3
 72
17
 73
13
 74
0
 42
0.0000001
 43
0.0000001
 44
0.0000000001
 40
0.0
 40
0.0
 40
0.0
 40
0.0
 40
0.0798535064
 40
0.2027800098
 40
0.3559230048
 40
0.5232549021
 40
0.6872603931
 40
0.8307779584
 40
0.8900279121
 40
0.9387839335
 40
0.9757653725
 40
1.0
 40
1.0
 40
1.0
 40
1.0
 10
70.5895470821
 20
231.1349547206
 30
0.0
 10
70.5547996637
 20
231.9471492622
 30
0.0
 10
70.5055441721
 20
234.0111232682
 30
0.0
 10
70.4379363996
 20
237.6338271895
 30
0.0
 10
70.3711440225
 20
242.1473621438
 30
0.0
 10
70.3027975265
 20
247.079061719
 30
0.0
 10
70.2347307697
 20
251.9127765252
 30
0.0
 10
70.1758651383
 20
255.6462086788
 30
0.0
 10
70.1258610624
 20
258.2063133075
 30
0.0
 10
70.0914737485
 20
259.6819661866
 30
0.0
 10
70.05714104
 20
260.8009549211
 30
0.0
 10
70.031252297
 20
261.4237295784
 30
0.0
 10
70.0147557945
 20
261.6698946948
 30
0.0
  0
SPLINE
  5
442
100
AcDbEntity
  8
0
100
AcDbSpline
 62
7
  6
CONTINUOUS
 70
0
 71
3
 72
11
 73
7
 74
0
 42
0.0000001
 43
0.0000001
 44
0.0000000001
 40
0.0
 40
0.0
 40
0.0
 40
0.0
 40
0.3949780378
 40
0.6932210256
 40
0.8946059502
 40
1.0
 40
1.0
 40
1.0
 40
1.0
 10
70.0147557945
 20
261.6698946948
 30
0.0
 10
70.0117073885
 20
261.7153838054
 30
0.0
 10
70.0057195047
 20
261.7950676211
 30
0.0
 10
69.9964144314
 20
261.8982778788
 30
0.0
 10
69.9860548002
 20
261.9666960374
 30
0.0
 10
69.9796890657
 20
262.0024748895
 30
0.0
 10
69.9736567118
 20
262.0130392518
 30
0.0
  0
SPLINE
  5
443
100
AcDbEntity
  8
0
100
AcDbSpline
 62
7
  6
CONTINUOUS
 70
0
 71
3
 72
16
 73
12
 74
0
 42
0.0000001
 43
0.0000001
 44
0.0000000001
 40
0.0
 40
0.0
 40
0.0
 40
0.0
 40
0.1584696437
 40
0.3246237409
 40
0.4892427791
 40
0.6431913292
 40
0.7778744001
 40
0.8858999358
 40
0.9612826019
 40
0.9853875644
 40
1.0
 40
1.0
 40
1.0
 40
1.0
 10
26.8917264622
 20
184.9076393273
 30
0.0
 10
26.8984852862
 20
183.7781550701
 30
0.0
 10
26.9100582773
 20
181.4644029532
 30
0.0
 10
26.9314645469
 20
177.9773531935
 30
0.0
 10
26.9482771953
 20
174.5225016521
 30
0.0
 10
26.9687360879
 20
171.2919898887
 30
0.0
 10
26.9855099096
 20
168.4648275841
 30
0.0
 10
27.0051336242
 20
166.1977074545
 30
0.0
 10
27.020309167
 20
164.7186843495
 30
0.0
 10
27.0339594539
 20
163.9055710981
 30
0.0
 10
27.0409679426
 20
163.6296561125
 30
0.0
 10
27.0461573394
 20
163.5256342254
 30
0.0
  0
SPLINE
  5
444
100
AcDbEntity
  8
0
100
AcDbSpline
 62
7
  6
CONTINUOUS
 70
0
 71
3
 72
9
 73
5
 74
0
 42
0.0000001
 43
0.0000001
 44
0.0000000001
 40
0.0
 40
0.0
 40
0.0
 40
0.0
 40
0.3102456085
 40
1.0
 40
1.0
 40
1.0
 40
1.0
 10
27.0461573394
 20
163.5256342254
 30
0.0
 10
27.0465556608
 20
163.5176498403
 30
0.0
 10
27.0479281125
 20
163.4919202029
 30
0.0
 10
27.0495182819
 20
163.4661921355
 30
0.0
 10
27.0511962664
 20
163.4484981404
 30
0.0
  0
SPLINE
  5
445
100
AcDbEntity
  8
0
100
AcDbSpline
 62
7
  6
CONTINUOUS
 70
0
 71
3
 72
9
 73
5
 74
0
 42
0.0000001
 43
0.0000001
 44
0.0000000001
 40
0.0
 40
0.0
 40
0.0
 40
0.0
 40
0.7026778062
 40
1.0
 40
1.0
 40
1.0
 40
1.0
 10
27.0511962664
 20
163.4484981404
 30
0.0
 10
27.0518011613
 20
163.4421196504
 30
0.0
 10
27.053501025
 20
163.4337069946
 30
0.0
 10
27.0538131968
 20
163.4235102285
 30
0.0
 10
27.0557301787
 20
163.4215932456
 30
0.0
  0
SPLINE
  5
446
100
AcDbEntity
  8
0
100
AcDbSpline
 62
7
  6
CONTINUOUS
 70
0
 71
3
 72
18
 73
14
 74
0
 42
0.0000001
 43
0.0000001
 44
0.0000000001
 40
0.0
 40
0.0
 40
0.0
 40
0.0
 40
0.0082042314
 40
0.0241708518
 40
0.0479227385
 40
0.0793502842
 40
0.1183279415
 40
0.1647241445
 40
0.2791605079
 40
0.4213567785
 40
0.5899414503
 40
0.783390328
 40
1.0
 40
1.0
 40
1.0
 40
1.0
 10
66.4495548471
 20
260.8998755484
 30
0.0
 10
66.4563600658
 20
260.8878661315
 30
0.0
 10
66.4631460996
 20
260.846636331
 30
0.0
 10
66.4746074024
 20
260.767616087
 30
0.0
 10
66.4847195882
 20
260.6479019046
 30
0.0
 10
66.4959357799
 20
260.4900529864
 30
0.0
 10
66.50698815
 20
260.2937772331
 30
0.0
 10
66.5232493207
 20
259.9580203781
 30
0.0
 10
66.5429857621
 20
259.4485312429
 30
0.0
 10
66.5654965771
 20
258.7334676827
 30
0.0
 10
66.5876531712
 20
257.8853907392
 30
0.0
 10
66.609894968
 20
256.9120849988
 30
0.0
 10
66.6242170786
 20
256.2223145311
 30
0.0
 10
66.631506395
 20
255.8579443493
 30
0.0
  0
SPLINE
  5
447
100
AcDbEntity
  8
0
100
AcDbSpline
 62
7
  6
CONTINUOUS
 70
0
 71
3
 72
9
 73
5
 74
0
 42
0.0000001
 43
0.0000001
 44
0.0000000001
 40
0.0
 40
0.0
 40
0.0
 40
0.0
 40
0.2409283698
 40
1.0
 40
1.0
 40
1.0
 40
1.0
 10
66.631506395
 20
255.8579443493
 30
0.0
 10
66.6338535159
 20
255.7406190976
 30
0.0
 10
66.6434727561
 20
255.2536451355
 30
0.0
 10
66.6526311507
 20
254.7666621152
 30
0.0
 10
66.6593745544
 20
254.3970033998
 30
0.0
  0
LINE
  5
448
100
AcDbEntity
  8
0
100
AcDbLine
 62
7
  6
CONTINUOUS
 10
66.6593745544
 20
254.3970033998
 11
66.6625123795
 21
254.2241602174
  0
LINE
  5
449
100
AcDbEntity
  8
0
100
AcDbLine
 62
7
  6
CONTINUOUS
 10
66.8592580168
 20
241.6253127872
 11
66.8629300539
 21
241.3914307921
  0
LINE
  5
44A
100
AcDbEntity
  8
0
100
AcDbLine
 62
7
  6
CONTINUOUS
 10
66.8629300539
 20
241.3914307921
 11
66.8639651198
 21
241.3258006423
  0
SPLINE
  5
44B
100
AcDbEntity
  8
0
100
AcDbSpline
 62
7
  6
CONTINUOUS
 70
0
 71
3
 72
9
 73
5
 74
0
 42
0.0000001
 43
0.0000001
 44
0.0000000001
 40
0.0
 40
0.0
 40
0.0
 40
0.0
 40
0.2573294309
 40
1.0
 40
1.0
 40
1.0
 40
1.0
 10
66.9248846331
 20
237.7183059844
 30
0.0
 10
66.9267679711
 20
237.6151996366
 30
0.0
 10
66.9341489729
 20
237.2145223675
 30
0.0
 10
66.9417929377
 20
236.8138499083
 30
0.0
 10
66.9476640089
 20
236.5162861199
 30
0.0
  0
SPLINE
  5
44C
100
AcDbEntity
  8
0
100
AcDbSpline
 62
7
  6
CONTINUOUS
 70
0
 71
3
 72
18
 73
14
 74
0
 42
0.0000001
 43
0.0000001
 44
0.0000000001
 40
0.0
 40
0.0
 40
0.0
 40
0.0
 40
0.2170874452
 40
0.4116233085
 40
0.5809953121
 40
0.7230435365
 40
0.8368187351
 40
0.8828618566
 40
0.9215170368
 40
0.9526568874
 40
0.9761593759
 40
0.9919259593
 40
1.0
 40
1.0
 40
1.0
 40
1.0
 10
66.9476640089
 20
236.5162861199
 30
0.0
 10
66.9549979763
 20
236.1445782874
 30
0.0
 10
66.969471061
 20
235.4397871073
 30
0.0
 10
66.9922212677
 20
234.4450449095
 30
0.0
 10
67.0148671597
 20
233.5788431924
 30
0.0
 10
67.0375090806
 20
232.8510197193
 30
0.0
 10
67.0572382987
 20
232.3343931274
 30
0.0
 10
67.073643487
 20
231.9949177907
 30
0.0
 10
67.0848651434
 20
231.7967757107
 30
0.0
 10
67.0963320246
 20
231.6375977045
 30
0.0
 10
67.1066440953
 20
231.5169743233
 30
0.0
 10
67.1184523067
 20
231.437628723
 30
0.0
 10
67.1252919886
 20
231.3961394325
 30
0.0
 10
67.1323029923
 20
231.3842211896
 30
0.0
  0
SPLINE
  5
44D
100
AcDbEntity
  8
0
100
AcDbSpline
 62
7
  6
CONTINUOUS
 70
0
 71
3
 72
11
 73
7
 74
0
 42
0.0000001
 43
0.0000001
 44
0.0000000001
 40
0.0
 40
0.0
 40
0.0
 40
0.0
 40
0.087418554
 40
0.2823667717
 40
0.5865916478
 40
1.0
 40
1.0
 40
1.0
 40
1.0
 10
71.2542377619
 20
262.0167079578
 30
0.0
 10
71.2620302876
 20
262.0101693335
 30
0.0
 10
71.2668294663
 20
261.9738286239
 30
0.0
 10
71.2791516645
 20
261.9097276995
 30
0.0
 10
71.2880416304
 20
261.8021658542
 30
0.0
 10
71.294596222
 20
261.7194676463
 30
0.0
 10
71.2978112872
 20
261.671469377
 30
0.0
  0
SPLINE
  5
44E
100
AcDbEntity
  8
0
100
AcDbSpline
 62
7
  6
CONTINUOUS
 70
0
 71
3
 72
9
 73
5
 74
0
 42
0.0000001
 43
0.0000001
 44
0.0000000001
 40
0.0
 40
0.0
 40
0.0
 40
0.0
 40
0.2085223777
 40
1.0
 40
1.0
 40
1.0
 40
1.0
 10
71.2978112872
 20
261.671469377
 30
0.0
 10
71.3002332818
 20
261.6353109962
 30
0.0
 10
71.3109538451
 20
261.4618482927
 30
0.0
 10
71.3190686012
 20
261.288235354
 30
0.0
 10
71.3249426729
 20
261.1508087926
 30
0.0
  0
SPLINE
  5
44F
100
AcDbEntity
  8
0
100
AcDbSpline
 62
7
  6
CONTINUOUS
 70
0
 71
3
 72
17
 73
13
 74
0
 42
0.0000001
 43
0.0000001
 44
0.0000000001
 40
0.0
 40
0.0
 40
0.0
 40
0.0
 40
0.0798485478
 40
0.202772347
 40
0.3559147476
 40
0.5232477226
 40
0.6872553007
 40
0.8307752062
 40
0.890026195
 40
0.938783065
 40
0.975765066
 40
1.0
 40
1.0
 40
1.0
 40
1.0
 10
71.3249426729
 20
261.1508087926
 30
0.0
 10
71.3596567308
 20
260.3386577173
 30
0.0
 10
71.4089311674
 20
258.2747487421
 30
0.0
 10
71.4765269544
 20
254.6521030279
 30
0.0
 10
71.5433252021
 20
250.1385597438
 30
0.0
 10
71.6116716781
 20
245.2067997519
 30
0.0
 10
71.6797376481
 20
240.3729955054
 30
0.0
 10
71.7386095774
 20
236.6394817625
 30
0.0
 10
71.7886057317
 20
234.0793166175
 30
0.0
 10
71.8230042975
 20
232.6036280165
 30
0.0
 10
71.8573461094
 20
231.4846164019
 30
0.0
 10
71.8831575624
 20
230.8618226511
 30
0.0
 10
71.8997193796
 20
230.6156570805
 30
0.0
  0
SPLINE
  5
450
100
AcDbEntity
  8
0
100
AcDbSpline
 62
7
  6
CONTINUOUS
 70
0
 71
3
 72
11
 73
7
 74
0
 42
0.0000001
 43
0.0000001
 44
0.0000000001
 40
0.0
 40
0.0
 40
0.0
 40
0.0
 40
0.3955240607
 40
0.6939585039
 40
0.8951694662
 40
1.0
 40
1.0
 40
1.0
 40
1.0
 10
71.8997193796
 20
230.6156570805
 30
0.0
 10
71.9027854414
 20
230.5700848545
 30
0.0
 10
71.9088182131
 20
230.490284538
 30
0.0
 10
71.9181787384
 20
230.386957732
 30
0.0
 10
71.9286028001
 20
230.3185939157
 30
0.0
 10
71.9349267261
 20
230.2828634124
 30
0.0
 10
71.9409560191
 20
230.2723658129
 30
0.0
  0
SPLINE
  5
451
100
AcDbEntity
  8
0
100
AcDbSpline
 62
7
  6
CONTINUOUS
 70
0
 71
3
 72
11
 73
7
 74
0
 42
0.0000001
 43
0.0000001
 44
0.0000000001
 40
0.0
 40
0.0
 40
0.0
 40
0.0
 40
0.0873518644
 40
0.2822094444
 40
0.5864482878
 40
1.0
 40
1.0
 40
1.0
 40
1.0
 10
72.049339918
 20
230.2688204224
 30
0.0
 10
72.0414501869
 20
230.2752326366
 30
0.0
 10
72.0365548325
 20
230.3116947551
 30
0.0
 10
72.0242685237
 20
230.3756799981
 30
0.0
 10
72.0154317215
 20
230.4833419712
 30
0.0
 10
72.0089218841
 20
230.5660594943
 30
0.0
 10
72.0057221467
 20
230.6140860328
 30
0.0
  0
SPLINE
  5
452
100
AcDbEntity
  8
0
100
AcDbSpline
 62
7
  6
CONTINUOUS
 70
0
 71
3
 72
9
 73
5
 74
0
 42
0.0000001
 43
0.0000001
 44
0.0000000001
 40
0.0
 40
0.0
 40
0.0
 40
0.0
 40
0.2085131935
 40
1.0
 40
1.0
 40
1.0
 40
1.0
 10
72.0057221467
 20
230.6140860328
 30
0.0
 10
72.0033125398
 20
230.6502530897
 30
0.0
 10
71.99263015
 20
230.8237633429
 30
0.0
 10
71.9845044491
 20
230.9974206959
 30
0.0
 10
71.9786212082
 20
231.13488428
 30
0.0
  0
SPLINE
  5
453
100
AcDbEntity
  8
0
100
AcDbSpline
 62
7
  6
CONTINUOUS
 70
0
 71
3
 72
17
 73
13
 74
0
 42
0.0000001
 43
0.0000001
 44
0.0000000001
 40
0.0
 40
0.0
 40
0.0
 40
0.0
 40
0.0798518416
 40
0.2027774046
 40
0.3559201601
 40
0.5232523845
 40
0.6872585593
 40
0.8307769209
 40
0.8900272421
 40
0.9387835659
 40
0.9757652611
 40
1.0
 40
1.0
 40
1.0
 40
1.0
 10
71.9786212082
 20
231.13488428
 30
0.0
 10
71.9438611368
 20
231.9470631521
 30
0.0
 10
71.8946121283
 20
234.011015776
 30
0.0
 10
71.8269995183
 20
237.6336986007
 30
0.0
 10
71.7602086468
 20
242.147235175
 30
0.0
 10
71.6918619133
 20
247.0789536782
 30
0.0
 10
71.6237926458
 20
251.9126978462
 30
0.0
 10
71.5649326628
 20
255.6461571001
 30
0.0
 10
71.5149190338
 20
258.2062826529
 30
0.0
 10
71.4805430764
 20
259.6819476489
 30
0.0
 10
71.4462193619
 20
260.8009482174
 30
0.0
 10
71.4202472711
 20
261.4237216997
 30
0.0
 10
71.4038201065
 20
261.6698931484
 30
0.0
  0
SPLINE
  5
454
100
AcDbEntity
  8
0
100
AcDbSpline
 62
7
  6
CONTINUOUS
 70
0
 71
3
 72
11
 73
7
 74
0
 42
0.0000001
 43
0.0000001
 44
0.0000000001
 40
0.0
 40
0.0
 40
0.0
 40
0.0
 40
0.3946449718
 40
0.6927681661
 40
0.8942558168
 40
1.0
 40
1.0
 40
1.0
 40
1.0
 10
71.4038201065
 20
261.6698931484
 30
0.0
 10
71.4007880058
 20
261.7153310949
 30
0.0
 10
71.3948411545
 20
261.7949423873
 30
0.0
 10
71.3855974819
 20
261.8980832305
 30
0.0
 10
71.3752944108
 20
261.9665319173
 30
0.0
 10
71.3689090177
 20
262.0023464118
 30
0.0
 10
71.3628662221
 20
262.0129471224
 30
0.0
  0
SPLINE
  5
455
100
AcDbEntity
  8
0
100
AcDbSpline
 62
7
  6
CONTINUOUS
 70
0
 71
3
 72
39
 73
35
 74
0
 42
0.0000001
 43
0.0000001
 44
0.0000000001
 40
0.0
 40
0.0
 40
0.0
 40
0.0
 40
0.0009767077
 40
0.0031247512
 40
0.0064442535
 40
0.0109288137
 40
0.0165693905
 40
0.0233499848
 40
0.0402590617
 40
0.0615041107
 40
0.0868881223
 40
0.1161903782
 40
0.1491247851
 40
0.185362487
 40
0.2245610079
 40
0.3103887797
 40
0.4033682713
 40
0.4999828149
 40
0.5965954612
 40
0.6895741036
 40
0.7754076514
 40
0.814605292
 40
0.8508425955
 40
0.8837791732
 40
0.9130873196
 40
0.9384764159
 40
0.9597246884
 40
0.9766345569
 40
0.9834155423
 40
0.9890574007
 40
0.9935442449
 40
0.9968667065
 40
0.9990184939
 40
1.0
 40
1.0
 40
1.0
 40
1.0
 10
28.7708948438
 20
194.3999403053
 30
0.0
 10
28.7759959143
 20
194.3910361962
 30
0.0
 10
28.7780860182
 20
194.3568435286
 30
0.0
 10
28.7863237866
 20
194.2907282821
 30
0.0
 10
28.7914414669
 20
194.1856620546
 30
0.0
 10
28.79813898
 20
194.0448266989
 30
0.0
 10
28.8038889887
 20
193.8671958147
 30
0.0
 10
28.8123108108
 20
193.5591992218
 30
0.0
 10
28.8222158193
 20
193.0871633815
 30
0.0
 10
28.8348760553
 20
192.4197335776
 30
0.0
 10
28.847987717
 20
191.6220631593
 30
0.0
 10
28.8604895279
 20
190.7015622349
 30
0.0
 10
28.872453218
 20
189.6670098769
 30
0.0
 10
28.8844978722
 20
188.5284778611
 30
0.0
 10
28.9013895742
 20
186.8342422526
 30
0.0
 10
28.923799343
 20
184.5438738903
 30
0.0
 10
28.9468984395
 20
181.6502467167
 30
0.0
 10
28.9719072272
 20
178.643320989
 30
0.0
 10
28.9974156362
 20
175.6364083295
 30
0.0
 10
29.0202831376
 20
172.7427474336
 30
0.0
 10
29.0426806453
 20
170.4523363469
 30
0.0
 10
29.059657293
 20
168.7580543451
 30
0.0
 10
29.0717078598
 20
167.6195130291
 30
0.0
 10
29.0835953105
 20
166.5848793347
 30
0.0
 10
29.0959939343
 20
165.6642388255
 30
0.0
 10
29.1091256443
 20
164.8664194503
 30
0.0
 10
29.1219188562
 20
164.1988963278
 30
0.0
 10
29.1319009798
 20
163.7268162893
 30
0.0
 10
29.1402986071
 20
163.418792788
 30
0.0
 10
29.1459960882
 20
163.2411196222
 30
0.0
 10
29.1526004956
 20
163.1002094908
 30
0.0
 10
29.1576617979
 20
162.9950500216
 30
0.0
 10
29.1658356763
 20
162.9288008328
 30
0.0
 10
29.1679603885
 20
162.8945255159
 30
0.0
 10
29.1730785889
 20
162.8855731236
 30
0.0
  0
SPLINE
  5
456
100
AcDbEntity
  8
0
100
AcDbSpline
 62
7
  6
CONTINUOUS
 70
0
 71
3
 72
39
 73
35
 74
0
 42
0.0000001
 43
0.0000001
 44
0.0000000001
 40
0.0
 40
0.0
 40
0.0
 40
0.0
 40
0.0009767122
 40
0.0031207917
 40
0.0064292489
 40
0.0108922329
 40
0.0164987233
 40
0.0232373349
 40
0.0400646835
 40
0.0612770582
 40
0.0866783103
 40
0.1159735599
 40
0.1488635436
 40
0.185048951
 40
0.2242291141
 40
0.3100806934
 40
0.4030502474
 40
0.4996671767
 40
0.5963324255
 40
0.6893584435
 40
0.7751978265
 40
0.8144453877
 40
0.8507405312
 40
0.8837050389
 40
0.9129959705
 40
0.9383859115
 40
0.9596711407
 40
0.9766481084
 40
0.9834575098
 40
0.9891137648
 40
0.9935953355
 40
0.9968995047
 40
0.9990306382
 40
1.0
 40
1.0
 40
1.0
 40
1.0
 10
32.0077434331
 20
163.586236981
 30
0.0
 10
32.0028408212
 20
163.5947281919
 30
0.0
 10
32.0009519253
 20
163.6274032793
 30
0.0
 10
31.9931914333
 20
163.6904095332
 30
0.0
 10
31.9883817445
 20
163.7904441157
 30
0.0
 10
31.9818446449
 20
163.924327139
 30
0.0
 10
31.975878079
 20
164.0930524315
 30
0.0
 10
31.9668852938
 20
164.385722794
 30
0.0
 10
31.956212864
 20
164.8351454151
 30
0.0
 10
31.9439408301
 20
165.4718794601
 30
0.0
 10
31.9316418389
 20
166.2338113335
 30
0.0
 10
31.9192612422
 20
167.1129765341
 30
0.0
 10
31.9068489681
 20
168.1004116006
 30
0.0
 10
31.8944074294
 20
169.1870842686
 30
0.0
 10
31.8772855463
 20
170.8054027832
 30
0.0
 10
31.856319342
 20
172.9937500287
 30
0.0
 10
31.8317393328
 20
175.7586779667
 30
0.0
 10
31.8071318208
 20
178.6321648156
 30
0.0
 10
31.7825345657
 20
181.5062185902
 30
0.0
 10
31.7579738609
 20
184.2720762039
 30
0.0
 10
31.7369717491
 20
186.4615441259
 30
0.0
 10
31.719860422
 20
188.0815185942
 30
0.0
 10
31.7074321406
 20
189.1707178925
 30
0.0
 10
31.6950324406
 20
190.1599596523
 30
0.0
 10
31.6826392227
 20
191.0397159919
 30
0.0
 10
31.6703134966
 20
191.8022219448
 30
0.0
 10
31.6580277702
 20
192.4410758319
 30
0.0
 10
31.6473818309
 20
192.8934439073
 30
0.0
 10
31.6384028642
 20
193.1888277274
 30
0.0
 10
31.6324460535
 20
193.3589516971
 30
0.0
 10
31.6259155898
 20
193.4934788531
 30
0.0
 10
31.6210852111
 20
193.5935220147
 30
0.0
 10
31.6133663305
 20
193.6562976213
 30
0.0
 10
31.6113998513
 20
193.6887398689
 30
0.0
 10
31.606533614
 20
193.697166877
 30
0.0
  0
SPLINE
  5
457
100
AcDbEntity
  8
0
100
AcDbSpline
 62
7
  6
CONTINUOUS
 70
0
 71
3
 72
11
 73
7
 74
0
 42
0.0000001
 43
0.0000001
 44
0.0000000001
 40
0.0
 40
0.0
 40
0.0
 40
0.0
 40
0.0873057908
 40
0.2822480489
 40
0.5865149004
 40
1.0
 40
1.0
 40
1.0
 40
1.0
 10
72.6432246552
 20
262.016714362
 30
0.0
 10
72.6509822443
 20
262.0101547157
 30
0.0
 10
72.6557314356
 20
261.9738535593
 30
0.0
 10
72.6681101024
 20
261.9097473923
 30
0.0
 10
72.6770485454
 20
261.8021885806
 30
0.0
 10
72.6836432353
 20
261.7194764171
 30
0.0
 10
72.6868723615
 20
261.6714704054
 30
0.0
  0
SPLINE
  5
458
100
AcDbEntity
  8
0
100
AcDbSpline
 62
7
  6
CONTINUOUS
 70
0
 71
3
 72
9
 73
5
 74
0
 42
0.0000001
 43
0.0000001
 44
0.0000000001
 40
0.0
 40
0.0
 40
0.0
 40
0.0
 40
0.2085425203
 40
1.0
 40
1.0
 40
1.0
 40
1.0
 10
72.6868723615
 20
261.6714704054
 30
0.0
 10
72.6893030454
 20
261.6353344879
 30
0.0
 10
72.7000486668
 20
261.4619949577
 30
0.0
 10
72.7081518619
 20
261.2885028236
 30
0.0
 10
72.7140165108
 20
261.151175589
 30
0.0
  0
SPLINE
  5
459
100
AcDbEntity
  8
0
100
AcDbSpline
 62
7
  6
CONTINUOUS
 70
0
 71
3
 72
17
 73
13
 74
0
 42
0.0000001
 43
0.0000001
 44
0.0000000001
 40
0.0
 40
0.0
 40
0.0
 40
0.0
 40
0.0798398854
 40
0.202758921
 40
0.3559002323
 40
0.5232350444
 40
0.6872462449
 40
0.8307702506
 40
0.8900230719
 40
0.9387814492
 40
0.9757645095
 40
1.0
 40
1.0
 40
1.0
 40
1.0
 10
72.7140165108
 20
261.151175589
 30
0.0
 10
72.74869666
 20
260.3391015723
 30
0.0
 10
72.7979909145
 20
258.2753058619
 30
0.0
 10
72.8655749024
 20
254.6527636972
 30
0.0
 10
72.9323798143
 20
250.1392074629
 30
0.0
 10
73.0007265209
 20
245.2073437226
 30
0.0
 10
73.0687939023
 20
240.3733842031
 30
0.0
 10
73.1276690039
 20
236.6397283432
 30
0.0
 10
73.1776636278
 20
234.0794568119
 30
0.0
 10
73.2120665861
 20
232.6037055168
 30
0.0
 10
73.2464121582
 20
231.4846494658
 30
0.0
 10
73.2721987755
 20
230.861829826
 30
0.0
 10
73.2887826718
 20
230.6156570964
 30
0.0
  0
SPLINE
  5
45A
100
AcDbEntity
  8
0
100
AcDbSpline
 62
7
  6
CONTINUOUS
 70
0
 71
3
 72
11
 73
7
 74
0
 42
0.0000001
 43
0.0000001
 44
0.0000000001
 40
0.0
 40
0.0
 40
0.0
 40
0.0
 40
0.3959542346
 40
0.6945364583
 40
0.8956069571
 40
1.0
 40
1.0
 40
1.0
 40
1.0
 10
73.2887826718
 20
230.6156570964
 30
0.0
 10
73.2918571123
 20
230.5700198465
 30
0.0
 10
73.2979116615
 20
230.490129263
 30
0.0
 10
73.3072881178
 20
230.3867087394
 30
0.0
 10
73.3177460367
 20
230.3183907198
 30
0.0
 10
73.3240307917
 20
230.2826917411
 30
0.0
 10
73.3300664814
 20
230.2722513399
 30
0.0
  0
SPLINE
  5
45B
100
AcDbEntity
  8
0
100
AcDbSpline
 62
7
  6
CONTINUOUS
 70
0
 71
3
 72
18
 73
14
 74
0
 42
0.0000001
 43
0.0000001
 44
0.0000000001
 40
0.0
 40
0.0
 40
0.0
 40
0.0
 40
0.2188104598
 40
0.4136288779
 40
0.5825471153
 40
0.7242345358
 40
0.8375777045
 40
0.8833422089
 40
0.9217057837
 40
0.9525759796
 40
0.975903251
 40
0.9916848567
 40
1.0
 40
1.0
 40
1.0
 40
1.0
 10
72.9117363708
 20
257.7798303962
 30
0.0
 10
72.9052755428
 20
258.0888872647
 30
0.0
 10
72.8929873546
 20
258.6731122901
 30
0.0
 10
72.8740800549
 20
259.4958888503
 30
0.0
 10
72.8543860837
 20
260.2096610804
 30
0.0
 10
72.834226109
 20
260.8082520909
 30
0.0
 10
72.8165557815
 20
261.2328571313
 30
0.0
 10
72.8020439536
 20
261.5114359878
 30
0.0
 10
72.7922214829
 20
261.6736564658
 30
0.0
 10
72.7824428512
 20
261.8039248227
 30
0.0
 10
72.773611601
 20
261.9027305657
 30
0.0
 10
72.7638350323
 20
261.9684023519
 30
0.0
 10
72.7577200589
 20
262.0027919336
 30
0.0
 10
72.7519182901
 20
262.0130064601
 30
0.0
  0
SPLINE
  5
45C
100
AcDbEntity
  8
0
100
AcDbSpline
 62
7
  6
CONTINUOUS
 70
0
 71
3
 72
12
 73
8
 74
0
 42
0.0000001
 43
0.0000001
 44
0.0000000001
 40
0.0
 40
0.0
 40
0.0
 40
0.0
 40
0.0297422017
 40
0.0856290133
 40
0.2797360662
 40
0.584586448
 40
1.0
 40
1.0
 40
1.0
 40
1.0
 10
73.4386016153
 20
230.2686754941
 30
0.0
 10
73.4356416834
 20
230.2709682814
 30
0.0
 10
73.4314972265
 20
230.2817253253
 30
0.0
 10
73.42274467
 20
230.3151113942
 30
0.0
 10
73.4137492913
 20
230.3852282424
 30
0.0
 10
73.4026120404
 20
230.4993406131
 30
0.0
 10
73.3963140919
 20
230.5899492015
 30
0.0
 10
73.3929426188
 20
230.6421343834
 30
0.0
  0
SPLINE
  5
45D
100
AcDbEntity
  8
0
100
AcDbSpline
 62
7
  6
CONTINUOUS
 70
0
 71
3
 72
9
 73
5
 74
0
 42
0.0000001
 43
0.0000001
 44
0.0000000001
 40
0.0
 40
0.0
 40
0.0
 40
0.0
 40
0.2120815902
 40
1.0
 40
1.0
 40
1.0
 40
1.0
 10
73.3929426188
 20
230.6421343834
 30
0.0
 10
73.3907058698
 20
230.6767557936
 30
0.0
 10
73.3808859989
 20
230.8400484349
 30
0.0
 10
73.373255452
 20
231.0034649787
 30
0.0
 10
73.367746809
 20
231.1322396668
 30
0.0
  0
SPLINE
  5
45E
100
AcDbEntity
  8
0
100
AcDbSpline
 62
7
  6
CONTINUOUS
 70
0
 71
3
 72
13
 73
9
 74
0
 42
0.0000001
 43
0.0000001
 44
0.0000000001
 40
0.0
 40
0.0
 40
0.0
 40
0.0
 40
0.068058165
 40
0.1688232544
 40
0.2956467785
 40
0.4401522885
 40
0.7434881013
 40
1.0
 40
1.0
 40
1.0
 40
1.0
 10
73.367746809
 20
231.1322396668
 30
0.0
 10
73.3419062558
 20
231.7363102474
 30
0.0
 10
73.301323478
 20
233.2356750932
 30
0.0
 10
73.2473742201
 20
235.8615847007
 30
0.0
 10
73.1933151551
 20
239.1668184969
 30
0.0
 10
73.1187507545
 20
244.271542439
 30
0.0
 10
73.0343068474
 20
250.5283814637
 30
0.0
 10
72.9574551605
 20
255.501458885
 30
0.0
 10
72.9117363708
 20
257.7798303962
 30
0.0
  0
SPLINE
  5
45F
100
AcDbEntity
  8
0
100
AcDbSpline
 62
7
  6
CONTINUOUS
 70
0
 71
3
 72
11
 73
7
 74
0
 42
0.0000001
 43
0.0000001
 44
0.0000000001
 40
0.0
 40
0.0
 40
0.0
 40
0.0
 40
0.0934760735
 40
0.2912126077
 40
0.5935196743
 40
1.0
 40
1.0
 40
1.0
 40
1.0
 10
64.7282383392
 20
261.4730633732
 30
0.0
 10
64.7322561907
 20
261.4659311455
 30
0.0
 10
64.7346630136
 20
261.4395870694
 30
0.0
 10
64.741191618
 20
261.3887423005
 30
0.0
 10
64.7459857295
 20
261.3090828702
 30
0.0
 10
64.7495652766
 20
261.2472445844
 30
0.0
 10
64.7513429261
 20
261.2116918902
 30
0.0
  0
SPLINE
  5
460
100
AcDbEntity
  8
0
100
AcDbSpline
 62
7
  6
CONTINUOUS
 70
0
 71
3
 72
32
 73
28
 74
0
 42
0.0000001
 43
0.0000001
 44
0.0000000001
 40
0.0
 40
0.0
 40
0.0
 40
0.0
 40
0.0254933833
 40
0.067134814
 40
0.1234058331
 40
0.1922904367
 40
0.2715024862
 40
0.3582814063
 40
0.4496295964
 40
0.5424518754
 40
0.6336081841
 40
0.7200356344
 40
0.7988397048
 40
0.8345139439
 40
0.8673116436
 40
0.8969806903
 40
0.9232813442
 40
0.945989913
 40
0.9648961069
 40
0.9728754427
 40
0.9798504944
 40
0.9858049739
 40
0.9907244852
 40
0.9946039061
 40
0.9974414156
 40
0.9992367689
 40
1.0
 40
1.0
 40
1.0
 40
1.0
 10
64.7513429261
 20
261.2116918902
 30
0.0
 10
64.764431929
 20
260.9499140022
 30
0.0
 10
64.7847328022
 20
260.2598941694
 30
0.0
 10
64.8072754386
 20
258.9913494945
 30
0.0
 10
64.8311965923
 20
257.2766129533
 30
0.0
 10
64.8591461876
 20
255.1756386308
 30
0.0
 10
64.8836093922
 20
252.7609334383
 30
0.0
 10
64.9068031016
 20
250.1152568896
 30
0.0
 10
64.9349285066
 20
247.3296883464
 30
0.0
 10
64.9604941978
 20
244.4990885284
 30
0.0
 10
64.9834065283
 20
241.7190592915
 30
0.0
 10
65.0093894413
 20
239.0831876898
 30
0.0
 10
65.0330961361
 20
237.0177527231
 30
0.0
 10
65.0498373125
 20
235.5036577438
 30
0.0
 10
65.0613521426
 20
234.494707101
 30
0.0
 10
65.0734811224
 20
233.5821434871
 30
0.0
 10
65.0866404547
 20
232.7733339713
 30
0.0
 10
65.100047027
 20
232.0752066554
 30
0.0
 10
65.1113917422
 20
231.5654326939
 30
0.0
 10
65.1204459989
 20
231.217431581
 30
0.0
 10
65.1266699004
 20
231.0025226027
 30
0.0
 10
65.132875523
 20
230.8191995656
 30
0.0
 10
65.1385509404
 20
230.6673861076
 30
0.0
 10
65.1450657448
 20
230.5485269853
 30
0.0
 10
65.149095358
 20
230.4596888999
 30
0.0
 10
65.157595978
 20
230.4072971794
 30
0.0
 10
65.1584516354
 20
230.3779217891
 30
0.0
 10
65.1640003036
 20
230.3723731209
 30
0.0
  0
SPLINE
  5
461
100
AcDbEntity
  8
0
100
AcDbSpline
 62
7
  6
CONTINUOUS
 70
0
 71
3
 72
38
 73
34
 74
0
 42
0.0000001
 43
0.0000001
 44
0.0000000001
 40
0.0
 40
0.0
 40
0.0
 40
0.0
 40
0.0012446744
 40
0.003609102
 40
0.0071081941
 40
0.0117442791
 40
0.0175168253
 40
0.0244182202
 40
0.0415428465
 40
0.0629828893
 40
0.0885304155
 40
0.1178831085
 40
0.150740151
 40
0.1868279922
 40
0.225869945
 40
0.3113047904
 40
0.4037390563
 40
0.499728516
 40
0.5957127742
 40
0.6881446557
 40
0.7736368982
 40
0.8488947899
 40
0.8817638694
 40
0.9111151008
 40
0.9366936514
 40
0.9582205065
 40
0.9754375918
 40
0.9823812255
 40
0.9881955055
 40
0.9928663057
 40
0.9963848531
 40
0.9987563674
 40
1.0
 40
1.0
 40
1.0
 40
1.0
 10
65.059737041
 20
260.8980417355
 30
0.0
 10
65.0659756436
 20
260.887500193
 30
0.0
 10
65.0727525413
 20
260.8516513287
 30
0.0
 10
65.0834842767
 20
260.7831873119
 30
0.0
 10
65.0932047748
 20
260.6799437109
 30
0.0
 10
65.1037263776
 20
260.5436204601
 30
0.0
 10
65.11403475
 20
260.3735186776
 30
0.0
 10
65.129011325
 20
260.0806665104
 30
0.0
 10
65.1469936303
 20
259.63355478
 30
0.0
 10
65.167908787
 20
259.0029575583
 30
0.0
 10
65.1892184913
 20
258.2519646372
 30
0.0
 10
65.2105603711
 20
257.3885792986
 30
0.0
 10
65.2316177589
 20
256.4214279004
 30
0.0
 10
65.2526183158
 20
255.3589005351
 30
0.0
 10
65.2817038007
 20
253.7789975988
 30
0.0
 10
65.3176598618
 20
251.6446050401
 30
0.0
 10
65.3595781661
 20
248.9497970055
 30
0.0
 10
65.4011226924
 20
246.1511512922
 30
0.0
 10
65.4434131169
 20
243.3525402702
 30
0.0
 10
65.4851857736
 20
240.6572398293
 30
0.0
 10
65.5266084055
 20
238.1659345035
 30
0.0
 10
65.5628093527
 20
236.2608034772
 30
0.0
 10
65.5925885982
 20
234.9081609139
 30
0.0
 10
65.6136034314
 20
234.0443586371
 30
0.0
 10
65.6342187688
 20
233.292201
 30
0.0
 10
65.6548002011
 20
232.6595207736
 30
0.0
 10
65.6731987002
 20
232.2102422687
 30
0.0
 10
65.6886505621
 20
231.9156756425
 30
0.0
 10
65.6992364193
 20
231.7444213668
 30
0.0
 10
65.709928804
 20
231.6071636445
 30
0.0
 10
65.719687602
 20
231.5033232968
 30
0.0
 10
65.7303787804
 20
231.4345896334
 30
0.0
 10
65.7370415639
 20
231.3986785879
 30
0.0
 10
65.7432042245
 20
231.3881043342
 30
0.0
  0
SPLINE
  5
462
100
AcDbEntity
  8
0
100
AcDbSpline
 62
7
  6
CONTINUOUS
 70
0
 71
3
 72
37
 73
33
 74
0
 42
0.0000001
 43
0.0000001
 44
0.0000000001
 40
0.0
 40
0.0
 40
0.0
 40
0.0
 40
0.0009682327
 40
0.0030929367
 40
0.0063812806
 40
0.0108335356
 40
0.0164487891
 40
0.0232246742
 40
0.04017673
 40
0.0614696372
 40
0.0868707284
 40
0.1161471585
 40
0.1490657733
 40
0.2664512345
 40
0.403498393
 40
0.5487652922
 40
0.6205924808
 40
0.6898482626
 40
0.7551078225
 40
0.8149540442
 40
0.8680341559
 40
0.9133212087
 40
0.9327536261
 40
0.9498913679
 40
0.9646190382
 40
0.9768378245
 40
0.9865086749
 40
0.9936063983
 40
0.9961828351
 40
0.9981074034
 40
0.9993785308
 40
1.0
 40
1.0
 40
1.0
 40
1.0
 10
32.8176542008
 20
163.5884722556
 30
0.0
 10
32.8127937825
 20
163.5968891385
 30
0.0
 10
32.8108165545
 20
163.6292477752
 30
0.0
 10
32.8031094371
 20
163.691792185
 30
0.0
 10
32.798268716
 20
163.7913081278
 30
0.0
 10
32.7917381721
 20
163.9249673549
 30
0.0
 10
32.7857669305
 20
164.0940408302
 30
0.0
 10
32.7767770561
 20
164.3884156754
 30
0.0
 10
32.7661370914
 20
164.8402583208
 30
0.0
 10
32.7538562187
 20
165.4790286292
 30
0.0
 10
32.7415342984
 20
166.241551136
 30
0.0
 10
32.7291338389
 20
167.1207819153
 30
0.0
 10
32.7065203057
 20
168.9233306314
 30
0.0
 10
32.6769890252
 20
171.8077100049
 30
0.0
 10
32.6410043
 20
175.8198660546
 30
0.0
 10
32.6108853948
 20
179.3747269445
 30
0.0
 10
32.585978982
 20
182.2490948613
 30
0.0
 10
32.5673797338
 20
184.3203468044
 30
0.0
 10
32.5488155472
 20
186.2713249956
 30
0.0
 10
32.5303169166
 20
188.0599194178
 30
0.0
 10
32.5118434962
 20
189.6480110912
 30
0.0
 10
32.4958612225
 20
190.8304168036
 30
0.0
 10
32.4827573099
 20
191.6520217608
 30
0.0
 10
32.4734721833
 20
192.1668859038
 30
0.0
 10
32.4642109192
 20
192.6093140585
 30
0.0
 10
32.4550540193
 20
192.9767998186
 30
0.0
 10
32.4458463715
 20
193.2675857313
 30
0.0
 10
32.4380399855
 20
193.4617433679
 30
0.0
 10
32.4309729164
 20
193.577811312
 30
0.0
 10
32.4269286371
 20
193.6358841707
 30
0.0
 10
32.4218407583
 20
193.6733759409
 30
0.0
 10
32.4194515339
 20
193.692883803
 30
0.0
 10
32.4163320165
 20
193.698286366
 30
0.0
  0
SPLINE
  5
463
100
AcDbEntity
  8
0
100
AcDbSpline
 62
7
  6
CONTINUOUS
 70
0
 71
3
 72
9
 73
5
 74
0
 42
0.0000001
 43
0.0000001
 44
0.0000000001
 40
0.0
 40
0.0
 40
0.0
 40
0.0
 40
0.290935057
 40
1.0
 40
1.0
 40
1.0
 40
1.0
 10
64.1591478175
 20
237.1175514135
 30
0.0
 10
64.1660547235
 20
236.7521509265
 30
0.0
 10
64.1899711989
 20
235.4962077087
 30
0.0
 10
64.2170223414
 20
234.2402865045
 30
0.0
 10
64.2442120522
 20
233.3499909319
 30
0.0
  0
SPLINE
  5
464
100
AcDbEntity
  8
0
100
AcDbSpline
 62
7
  6
CONTINUOUS
 70
0
 71
3
 72
14
 73
10
 74
0
 42
0.0000001
 43
0.0000001
 44
0.0000000001
 40
0.0
 40
0.0
 40
0.0
 40
0.0
 40
0.4112723669
 40
0.5781093477
 40
0.7181973262
 40
0.8308841975
 40
0.9156111652
 40
0.9720194449
 40
1.0
 40
1.0
 40
1.0
 40
1.0
 10
64.2442120522
 20
233.3499909319
 30
0.0
 10
64.2524573558
 20
233.080008023
 30
0.0
 10
64.2649328385
 20
232.7005029975
 30
0.0
 10
64.2842122062
 20
232.2292602035
 30
0.0
 10
64.2973059081
 20
231.9538718196
 30
0.0
 10
64.3109308165
 20
231.7329172861
 30
0.0
 10
64.322806806
 20
231.5659272071
 30
0.0
 10
64.337493521
 20
231.4571089424
 30
0.0
 10
64.3447407234
 20
231.4004095141
 30
0.0
 10
64.3536961417
 20
231.3843626936
 30
0.0
  0
SPLINE
  5
465
100
AcDbEntity
  8
0
100
AcDbSpline
 62
7
  6
CONTINUOUS
 70
0
 71
3
 72
26
 73
22
 74
0
 42
0.0000001
 43
0.0000001
 44
0.0000000001
 40
0.0
 40
0.0
 40
0.0
 40
0.0
 40
0.0010519709
 40
0.0029370043
 40
0.0056671293
 40
0.0092442638
 40
0.0189275414
 40
0.0319263354
 40
0.0481646322
 40
0.0675485439
 40
0.0899398518
 40
0.1151928083
 40
0.1736346704
 40
0.2414425663
 40
0.316876641
 40
0.3980009166
 40
0.4827840844
 40
0.5690681151
 40
0.7374121564
 40
0.8860343911
 40
1.0
 40
1.0
 40
1.0
 40
1.0
 10
77.5611553207
 20
260.9006109982
 30
0.0
 10
77.5658545933
 20
260.8922939953
 30
0.0
 10
77.5718742749
 20
260.8657630366
 30
0.0
 10
77.5804415317
 20
260.8153469422
 30
0.0
 10
77.5886700012
 20
260.7412224101
 30
0.0
 10
77.6015369993
 20
260.5966743182
 30
0.0
 10
77.6164180699
 20
260.3585866681
 30
0.0
 10
77.6335739559
 20
260.0056051917
 30
0.0
 10
77.6507889207
 20
259.5644022193
 30
0.0
 10
77.6681409115
 20
259.0378793863
 30
0.0
 10
77.6855573568
 20
258.4294530201
 30
0.0
 10
77.7100644232
 20
257.4664126665
 30
0.0
 10
77.7399845723
 20
256.0909609771
 30
0.0
 10
77.7745066548
 20
254.2598257452
 30
0.0
 10
77.8091444674
 20
252.2226842058
 30
0.0
 10
77.8439311024
 20
250.0313751836
 30
0.0
 10
77.8787042559
 20
247.7415272775
 30
0.0
 10
77.9247310166
 20
244.6597307072
 30
0.0
 10
77.9799001383
 20
240.998288361
 30
0.0
 10
78.0462877678
 20
237.0856347761
 30
0.0
 10
78.0961754308
 20
234.7015996893
 30
0.0
 10
78.1251419814
 20
233.6671011112
 30
0.0
  0
SPLINE
  5
466
100
AcDbEntity
  8
0
100
AcDbSpline
 62
7
  6
CONTINUOUS
 70
0
 71
3
 72
14
 73
10
 74
0
 42
0.0000001
 43
0.0000001
 44
0.0000000001
 40
0.0
 40
0.0
 40
0.0
 40
0.0
 40
0.4060084356
 40
0.5715487729
 40
0.7111828323
 40
0.8242586387
 40
0.9102173282
 40
0.9688119349
 40
1.0
 40
1.0
 40
1.0
 40
1.0
 10
78.1251419814
 20
233.6671011112
 30
0.0
 10
78.1337817244
 20
233.3585451508
 30
0.0
 10
78.1469152165
 20
232.9241947049
 30
0.0
 10
78.1674825442
 20
232.3839134764
 30
0.0
 10
78.1816275085
 20
232.0661921493
 30
0.0
 10
78.1959959936
 20
231.8092370913
 30
0.0
 10
78.2091530765
 20
231.6134845807
 30
0.0
 10
78.2238111353
 20
231.4812599199
 30
0.0
 10
78.2327149252
 20
231.4127190379
 30
0.0
 10
78.2411975681
 20
231.39057686
 30
0.0
  0
SPLINE
  5
467
100
AcDbEntity
  8
0
100
AcDbSpline
 62
7
  6
CONTINUOUS
 70
0
 71
3
 72
9
 73
5
 74
0
 42
0.0000001
 43
0.0000001
 44
0.0000000001
 40
0.0
 40
0.0
 40
0.0
 40
0.0
 40
0.128973546
 40
1.0
 40
1.0
 40
1.0
 40
1.0
 10
64.2847104008
 20
231.2516630236
 30
0.0
 10
64.2840408294
 20
231.252332595
 30
0.0
 10
64.2807463287
 20
231.2590992205
 30
0.0
 10
64.2797796473
 20
231.2664283618
 30
0.0
 10
64.2787212105
 20
231.2727351931
 30
0.0
  0
SPLINE
  5
468
100
AcDbEntity
  8
0
100
AcDbSpline
 62
7
  6
CONTINUOUS
 70
0
 71
3
 72
12
 73
8
 74
0
 42
0.0000001
 43
0.0000001
 44
0.0000000001
 40
0.0
 40
0.0
 40
0.0
 40
0.0
 40
0.0360857735
 40
0.0983587183
 40
0.3005790924
 40
0.6027464633
 40
1.0
 40
1.0
 40
1.0
 40
1.0
 10
64.2787212105
 20
231.2727351931
 30
0.0
 10
64.2742945864
 20
231.2991117989
 30
0.0
 10
64.2682805035
 20
231.3718869682
 30
0.0
 10
64.254191759
 20
231.5941189751
 30
0.0
 10
64.2387239587
 20
232.0139670328
 30
0.0
 10
64.2215352704
 20
232.6819503649
 30
0.0
 10
64.2126337414
 20
233.2002842548
 30
0.0
 10
64.207741887
 20
233.4946736007
 30
0.0
  0
SPLINE
  5
469
100
AcDbEntity
  8
0
100
AcDbSpline
 62
7
  6
CONTINUOUS
 70
0
 71
3
 72
37
 73
33
 74
0
 42
0.0000001
 43
0.0000001
 44
0.0000000001
 40
0.0
 40
0.0
 40
0.0
 40
0.0
 40
0.0009762138
 40
0.0031327188
 40
0.0064779251
 40
0.0109959245
 40
0.0166675664
 40
0.0234733316
 40
0.0404084603
 40
0.0616432956
 40
0.087019343
 40
0.1163455668
 40
0.1493052262
 40
0.2665121007
 40
0.403493274
 40
0.5485694493
 40
0.6203396333
 40
0.6895831682
 40
0.7547912789
 40
0.8145433381
 40
0.8676677198
 40
0.91303654
 40
0.9324612118
 40
0.9495610689
 40
0.9642742544
 40
0.976541653
 40
0.9863043105
 40
0.993503672
 40
0.9961241808
 40
0.9980827543
 40
0.9993736595
 40
1.0
 40
1.0
 40
1.0
 40
1.0
 10
33.6275075105
 20
163.5870316698
 30
0.0
 10
33.6226070128
 20
163.5955187711
 30
0.0
 10
33.6207064792
 20
163.6283185601
 30
0.0
 10
33.6129436577
 20
163.6918089584
 30
0.0
 10
33.6081604527
 20
163.7929048326
 30
0.0
 10
33.6016256728
 20
163.9283661509
 30
0.0
 10
33.5956679316
 20
164.0989815842
 30
0.0
 10
33.5866938346
 20
164.3940748776
 30
0.0
 10
33.5760430289
 20
164.8454980113
 30
0.0
 10
33.5637556119
 20
165.4833115396
 30
0.0
 10
33.5514381297
 20
166.2455566734
 30
0.0
 10
33.5390727129
 20
167.1255143531
 30
0.0
 10
33.5165180527
 20
168.9273177223
 30
0.0
 10
33.4869280113
 20
171.8098689959
 30
0.0
 10
33.4510473881
 20
175.8179562184
 30
0.0
 10
33.4209168513
 20
179.3699335527
 30
0.0
 10
33.396035818
 20
182.2419068289
 30
0.0
 10
33.3774652249
 20
184.3121022883
 30
0.0
 10
33.3589244125
 20
186.2616419206
 30
0.0
 10
33.3404054617
 20
188.0493525822
 30
0.0
 10
33.3219607809
 20
189.6378834345
 30
0.0
 10
33.3060230984
 20
190.8215659347
 30
0.0
 10
33.2929240497
 20
191.6435953212
 30
0.0
 10
33.2836334881
 20
192.1578943385
 30
0.0
 10
33.2743613294
 20
192.6003175918
 30
0.0
 10
33.2652112224
 20
192.9690958675
 30
0.0
 10
33.2560134986
 20
193.2623338618
 30
0.0
 10
33.2482297472
 20
193.458896197
 30
0.0
 10
33.24117006
 20
193.576775529
 30
0.0
 10
33.2371510345
 20
193.6358485775
 30
0.0
 10
33.2320440321
 20
193.6739180667
 30
0.0
 10
33.2296932718
 20
193.6937001281
 30
0.0
 10
33.2265492018
 20
193.6991455235
 30
0.0
  0
SPLINE
  5
46A
100
AcDbEntity
  8
0
100
AcDbSpline
 62
7
  6
CONTINUOUS
 70
0
 71
3
 72
11
 73
7
 74
0
 42
0.0000001
 43
0.0000001
 44
0.0000000001
 40
0.0
 40
0.0
 40
0.0
 40
0.0
 40
0.0860249469
 40
0.2806592849
 40
0.5853727231
 40
1.0
 40
1.0
 40
1.0
 40
1.0
 10
67.0870830177
 20
262.0168278696
 30
0.0
 10
67.0947342289
 20
262.0103728091
 30
0.0
 10
67.0990637016
 20
261.9741210704
 30
0.0
 10
67.1116648561
 20
261.9102677511
 30
0.0
 10
67.1206161317
 20
261.8024980489
 30
0.0
 10
67.1273468755
 20
261.7196285805
 30
0.0
 10
67.1306159444
 20
261.6714906599
 30
0.0
  0
SPLINE
  5
46B
100
AcDbEntity
  8
0
100
AcDbSpline
 62
7
  6
CONTINUOUS
 70
0
 71
3
 72
9
 73
5
 74
0
 42
0.0000001
 43
0.0000001
 44
0.0000000001
 40
0.0
 40
0.0
 40
0.0
 40
0.0
 40
0.2084900789
 40
1.0
 40
1.0
 40
1.0
 40
1.0
 10
67.1306159444
 20
261.6714906599
 30
0.0
 10
67.1330744718
 20
261.6352881806
 30
0.0
 10
67.1439149408
 20
261.4615824047
 30
0.0
 10
67.1520138526
 20
261.2877177688
 30
0.0
 10
67.1578735606
 20
261.1500871175
 30
0.0
  0
SPLINE
  5
46C
100
AcDbEntity
  8
0
100
AcDbSpline
 62
7
  6
CONTINUOUS
 70
0
 71
3
 72
9
 73
5
 74
0
 42
0.0000001
 43
0.0000001
 44
0.0000000001
 40
0.0
 40
0.0
 40
0.0
 40
0.0
 40
0.4049018635
 40
1.0
 40
1.0
 40
1.0
 40
1.0
 10
67.1578735606
 20
261.1500871175
 30
0.0
 10
67.1824671051
 20
260.5724430561
 30
0.0
 10
67.2216955045
 20
259.1449695413
 30
0.0
 10
67.2516002703
 20
257.717387746
 30
0.0
 10
67.2676445247
 20
256.8677868449
 30
0.0
  0
SPLINE
  5
46D
100
AcDbEntity
  8
0
100
AcDbSpline
 62
7
  6
CONTINUOUS
 70
0
 71
3
 72
9
 73
5
 74
0
 42
0.0000001
 43
0.0000001
 44
0.0000000001
 40
0.0
 40
0.0
 40
0.0
 40
0.0
 40
0.2414480754
 40
1.0
 40
1.0
 40
1.0
 40
1.0
 10
67.2676445247
 20
256.8677868449
 30
0.0
 10
67.2696945312
 20
256.7592316389
 30
0.0
 10
67.2780764281
 20
256.3096289629
 30
0.0
 10
67.2860580536
 20
255.8600188711
 30
0.0
 10
67.2919435607
 20
255.5189634221
 30
0.0
  0
LINE
  5
46E
100
AcDbEntity
  8
0
100
AcDbLine
 62
7
  6
CONTINUOUS
 10
67.2919435607
 20
255.5189634221
 11
67.3056254931
 21
254.7087338022
  0
LINE
  5
46F
100
AcDbEntity
  8
0
100
AcDbLine
 62
7
  6
CONTINUOUS
 10
67.3056254931
 20
254.7087338022
 11
67.3155194988
 21
254.1022446066
  0
LINE
  5
470
100
AcDbEntity
  8
0
100
AcDbLine
 62
7
  6
CONTINUOUS
 10
67.3155194988
 20
254.1022446066
 11
67.3261734151
 21
253.4313704172
  0
SPLINE
  5
471
100
AcDbEntity
  8
0
100
AcDbSpline
 62
7
  6
CONTINUOUS
 70
0
 71
3
 72
9
 73
5
 74
0
 42
0.0000001
 43
0.0000001
 44
0.0000000001
 40
0.0
 40
0.0
 40
0.0
 40
0.0
 40
0.2457118743
 40
1.0
 40
1.0
 40
1.0
 40
1.0
 10
67.3261734151
 20
253.4313704172
 30
0.0
 10
67.3280036563
 20
253.3146214374
 30
0.0
 10
67.3354045726
 20
252.8394748282
 30
0.0
 10
67.3426280326
 20
252.3643254629
 30
0.0
 10
67.3479993254
 20
252.0059247929
 30
0.0
  0
LINE
  5
472
100
AcDbEntity
  8
0
100
AcDbLine
 62
7
  6
CONTINUOUS
 10
67.3479993254
 20
252.0059247929
 11
67.364594237
 21
250.8831089673
  0
LINE
  5
473
100
AcDbEntity
  8
0
100
AcDbLine
 62
7
  6
CONTINUOUS
 10
67.364594237
 20
250.8831089673
 11
67.3779009803
 21
249.9630729185
  0
LINE
  5
474
100
AcDbEntity
  8
0
100
AcDbLine
 62
7
  6
CONTINUOUS
 10
67.3779009803
 20
249.9630729185
 11
67.3943050877
 21
248.8101862951
  0
LINE
  5
475
100
AcDbEntity
  8
0
100
AcDbLine
 62
7
  6
CONTINUOUS
 10
67.3943050877
 20
248.8101862951
 11
67.4176823248
 21
247.143568724
  0
LINE
  5
476
100
AcDbEntity
  8
0
100
AcDbLine
 62
7
  6
CONTINUOUS
 10
67.4456467774
 20
245.1369869389
 11
67.4653919812
 21
243.7278713961
  0
LINE
  5
477
100
AcDbEntity
  8
0
100
AcDbLine
 62
7
  6
CONTINUOUS
 10
67.4653919812
 20
243.7278713961
 11
67.4817290259
 21
242.5759532149
  0
LINE
  5
478
100
AcDbEntity
  8
0
100
AcDbLine
 62
7
  6
CONTINUOUS
 10
67.4817290259
 20
242.5759532149
 11
67.4854459243
 21
242.3163663231
  0
SPLINE
  5
479
100
AcDbEntity
  8
0
100
AcDbSpline
 62
7
  6
CONTINUOUS
 70
0
 71
3
 72
9
 73
5
 74
0
 42
0.0000001
 43
0.0000001
 44
0.0000000001
 40
0.0
 40
0.0
 40
0.0
 40
0.0
 40
0.253357187
 40
1.0
 40
1.0
 40
1.0
 40
1.0
 10
67.4854459243
 20
242.3163663231
 30
0.0
 10
67.4876164322
 20
242.1650877318
 30
0.0
 10
67.496214812
 20
241.5679920717
 30
0.0
 10
67.5049548614
 20
240.9708984425
 30
0.0
 10
67.5115933482
 20
240.5250844597
 30
0.0
  0
LINE
  5
47A
100
AcDbEntity
  8
0
100
AcDbLine
 62
7
  6
CONTINUOUS
 10
67.5115933482
 20
240.5250844597
 11
67.5153212488
 21
240.2755452186
  0
SPLINE
  5
47B
100
AcDbEntity
  8
0
100
AcDbSpline
 62
7
  6
CONTINUOUS
 70
0
 71
3
 72
9
 73
5
 74
0
 42
0.0000001
 43
0.0000001
 44
0.0000000001
 40
0.0
 40
0.0
 40
0.0
 40
0.0
 40
0.2541308656
 40
1.0
 40
1.0
 40
1.0
 40
1.0
 10
67.5153212488
 20
240.2755452186
 30
0.0
 10
67.517128171
 20
240.1549918653
 30
0.0
 10
67.5242731167
 20
239.6806172937
 30
0.0
 10
67.5315664555
 20
239.2062449489
 30
0.0
 10
67.5371134828
 20
238.8524269456
 30
0.0
  0
LINE
  5
47C
100
AcDbEntity
  8
0
100
AcDbLine
 62
7
  6
CONTINUOUS
 10
67.5371134828
 20
238.8524269456
 11
67.5470975037
 21
238.2232436628
  0
LINE
  5
47D
100
AcDbEntity
  8
0
100
AcDbLine
 62
7
  6
CONTINUOUS
 10
67.5470975037
 20
238.2232436628
 11
67.557841121
 21
237.5642753065
  0
LINE
  5
47E
100
AcDbEntity
  8
0
100
AcDbLine
 62
7
  6
CONTINUOUS
 10
67.557841121
 20
237.5642753065
 11
67.5715048167
 21
236.7556025989
  0
SPLINE
  5
47F
100
AcDbEntity
  8
0
100
AcDbSpline
 62
7
  6
CONTINUOUS
 70
0
 71
3
 72
9
 73
5
 74
0
 42
0.0000001
 43
0.0000001
 44
0.0000000001
 40
0.0
 40
0.0
 40
0.0
 40
0.0
 40
0.2583526066
 40
1.0
 40
1.0
 40
1.0
 40
1.0
 10
67.5715048167
 20
236.7556025989
 30
0.0
 10
67.5735054982
 20
236.6397370045
 30
0.0
 10
67.5813265877
 20
236.1912598261
 30
0.0
 10
67.5894727081
 20
235.742788266
 30
0.0
 10
67.5957579541
 20
235.4101851405
 30
0.0
  0
SPLINE
  5
480
100
AcDbEntity
  8
0
100
AcDbSpline
 62
7
  6
CONTINUOUS
 70
0
 71
3
 72
11
 73
7
 74
0
 42
0.0000001
 43
0.0000001
 44
0.0000000001
 40
0.0
 40
0.0
 40
0.0
 40
0.0
 40
0.3490100695
 40
0.6362958354
 40
0.8550279037
 40
1.0
 40
1.0
 40
1.0
 40
1.0
 10
67.5957579541
 20
235.4101851405
 30
0.0
 10
67.6063012802
 20
234.8522526062
 30
0.0
 10
67.6267697397
 20
233.8350895234
 30
0.0
 10
67.6596007844
 20
232.4683526021
 30
0.0
 10
67.6922876702
 20
231.428034156
 30
0.0
 10
67.7169208852
 20
230.8469278308
 30
0.0
 10
67.7325337017
 20
230.6156583744
 30
0.0
  0
SPLINE
  5
481
100
AcDbEntity
  8
0
100
AcDbSpline
 62
7
  6
CONTINUOUS
 70
0
 71
3
 72
11
 73
7
 74
0
 42
0.0000001
 43
0.0000001
 44
0.0000000001
 40
0.0
 40
0.0
 40
0.0
 40
0.0
 40
0.3970749062
 40
0.6960329964
 40
0.8967273402
 40
1.0
 40
1.0
 40
1.0
 40
1.0
 10
67.7325337017
 20
230.6156583744
 30
0.0
 10
67.7356262393
 20
230.5698492479
 30
0.0
 10
67.7417288687
 20
230.4897226648
 30
0.0
 10
67.7511316834
 20
230.3860458126
 30
0.0
 10
67.761691309
 20
230.3178613578
 30
0.0
 10
67.7678958044
 20
230.282224661
 30
0.0
 10
67.7739901295
 20
230.2719555656
 30
0.0
  0
LINE
  5
482
100
AcDbEntity
  8
0
100
AcDbLine
 62
7
  6
CONTINUOUS
 10
67.5877022069
 20
242.5676231173
 11
67.5717660115
 21
243.6946183941
  0
LINE
  5
483
100
AcDbEntity
  8
0
100
AcDbLine
 62
7
  6
CONTINUOUS
 10
67.5236002155
 20
247.1424806006
 11
67.4999271622
 21
248.8298195733
  0
LINE
  5
484
100
AcDbEntity
  8
0
100
AcDbLine
 62
7
  6
CONTINUOUS
 10
67.4999271622
 20
248.8298195733
 11
67.4835828094
 21
249.9782915615
  0
LINE
  5
485
100
AcDbEntity
  8
0
100
AcDbLine
 62
7
  6
CONTINUOUS
 10
67.4835828094
 20
249.9782915615
 11
67.4703995253
 21
250.8896401279
  0
LINE
  5
486
100
AcDbEntity
  8
0
100
AcDbLine
 62
7
  6
CONTINUOUS
 10
67.4703995253
 20
250.8896401279
 11
67.4540518298
 21
251.9958478995
  0
SPLINE
  5
487
100
AcDbEntity
  8
0
100
AcDbSpline
 62
7
  6
CONTINUOUS
 70
0
 71
3
 72
9
 73
5
 74
0
 42
0.0000001
 43
0.0000001
 44
0.0000000001
 40
0.0
 40
0.0
 40
0.0
 40
0.0
 40
0.2540332745
 40
1.0
 40
1.0
 40
1.0
 40
1.0
 10
67.4540518298
 20
251.9958478995
 30
0.0
 10
67.4522806737
 20
252.1140701914
 30
0.0
 10
67.4452752282
 20
252.5794508195
 30
0.0
 10
67.4381275018
 20
253.0448293136
 30
0.0
 10
67.4326929412
 20
253.3919845723
 30
0.0
  0
LINE
  5
488
100
AcDbEntity
  8
0
100
AcDbLine
 62
7
  6
CONTINUOUS
 10
67.4326929412
 20
253.3919845723
 11
67.4291260715
 21
253.6188760205
  0
LINE
  5
489
100
AcDbEntity
  8
0
100
AcDbLine
 62
7
  6
CONTINUOUS
 10
67.4291260715
 20
253.6188760205
 11
67.4119153144
 21
254.6852265516
  0
LINE
  5
48A
100
AcDbEntity
  8
0
100
AcDbLine
 62
7
  6
CONTINUOUS
 10
67.4119153144
 20
254.6852265516
 11
67.3995927209
 21
255.4173844863
  0
SPLINE
  5
48B
100
AcDbEntity
  8
0
100
AcDbSpline
 62
7
  6
CONTINUOUS
 70
0
 71
3
 72
9
 73
5
 74
0
 42
0.0000001
 43
0.0000001
 44
0.0000000001
 40
0.0
 40
0.0
 40
0.0
 40
0.0
 40
0.2560147855
 40
1.0
 40
1.0
 40
1.0
 40
1.0
 10
67.3995927209
 20
255.4173844863
 30
0.0
 10
67.3980840063
 20
255.5053168244
 30
0.0
 10
67.3921476672
 20
255.8487819379
 30
0.0
 10
67.3860307035
 20
256.1922439434
 30
0.0
 10
67.3813541991
 20
256.4477722846
 30
0.0
  0
LINE
  5
48C
100
AcDbEntity
  8
0
100
AcDbLine
 62
7
  6
CONTINUOUS
 10
67.3813541991
 20
256.4477722846
 11
67.3770702929
 21
256.6799007121
  0
SPLINE
  5
48D
100
AcDbEntity
  8
0
100
AcDbSpline
 62
7
  6
CONTINUOUS
 70
0
 71
3
 72
18
 73
14
 74
0
 42
0.0000001
 43
0.0000001
 44
0.0000000001
 40
0.0
 40
0.0
 40
0.0
 40
0.0
 40
0.2179014875
 40
0.4126727887
 40
0.5822120164
 40
0.7247845646
 40
0.8388305372
 40
0.8847967281
 40
0.9232241736
 40
0.9539967559
 40
0.9770542521
 40
0.9923740396
 40
1.0
 40
1.0
 40
1.0
 40
1.0
 10
67.3770702929
 20
256.6799007121
 30
0.0
 10
67.3698533241
 20
257.0676531469
 30
0.0
 10
67.3556061463
 20
257.8019880939
 30
0.0
 10
67.3331476032
 20
258.8379613562
 30
0.0
 10
67.3107417679
 20
259.7398367115
 30
0.0
 10
67.288502132
 20
260.4979739018
 30
0.0
 10
67.2693450065
 20
261.0362065079
 30
0.0
 10
67.2531959207
 20
261.3889824735
 30
0.0
 10
67.2420739162
 20
261.5937417958
 30
0.0
 10
67.2303959221
 20
261.7573098935
 30
0.0
 10
67.2199906707
 20
261.880485178
 30
0.0
 10
67.2078746579
 20
261.9604994201
 30
0.0
 10
67.2015507565
 20
262.0021718121
 30
0.0
 10
67.1946212699
 20
262.0138422266
 30
0.0
  0
SPLINE
  5
48E
100
AcDbEntity
  8
0
100
AcDbSpline
 62
7
  6
CONTINUOUS
 70
0
 71
3
 72
21
 73
17
 74
0
 42
0.0000001
 43
0.0000001
 44
0.0000000001
 40
0.0
 40
0.0
 40
0.0
 40
0.0
 40
0.001703283
 40
0.0052455247
 40
0.0107732844
 40
0.0183139413
 40
0.0394533327
 40
0.0686629552
 40
0.1058860134
 40
0.1510075772
 40
0.203904037
 40
0.2644491745
 40
0.4077994036
 40
0.5794746025
 40
0.7776158887
 40
1.0
 40
1.0
 40
1.0
 40
1.0
 10
67.8838861198
 20
230.2678871551
 30
0.0
 10
67.8809827373
 20
230.2686805521
 30
0.0
 10
67.8763046609
 20
230.2784656615
 30
0.0
 10
67.8713694273
 20
230.2957118007
 30
0.0
 10
67.8657979553
 20
230.3251404863
 30
0.0
 10
67.8574249802
 20
230.3846770159
 30
0.0
 10
67.847536017
 20
230.4867727691
 30
0.0
 10
67.8363037794
 20
230.6409949547
 30
0.0
 10
67.8249982888
 20
230.8378485098
 30
0.0
 10
67.8136087304
 20
231.0765438085
 30
0.0
 10
67.8021824215
 20
231.3565117718
 30
0.0
 10
67.785980788
 20
231.8099927743
 30
0.0
 10
67.7662316856
 20
232.4733680431
 30
0.0
 10
67.7434496479
 20
233.3798887999
 30
0.0
 10
67.7205812201
 20
234.4261057486
 30
0.0
 10
67.7061703844
 20
235.1690680296
 30
0.0
 10
67.698880141
 20
235.5619706434
 30
0.0
  0
SPLINE
  5
48F
100
AcDbEntity
  8
0
100
AcDbSpline
 62
7
  6
CONTINUOUS
 70
0
 71
3
 72
9
 73
5
 74
0
 42
0.0000001
 43
0.0000001
 44
0.0000000001
 40
0.0
 40
0.0
 40
0.0
 40
0.0
 40
0.2426056124
 40
1.0
 40
1.0
 40
1.0
 40
1.0
 10
67.698880141
 20
235.5619706434
 30
0.0
 10
67.6971022793
 20
235.6577872714
 30
0.0
 10
67.689852958
 20
236.0527368452
 30
0.0
 10
67.6828794207
 20
236.4476914428
 30
0.0
 10
67.6776913533
 20
236.7468294267
 30
0.0
  0
LINE
  5
490
100
AcDbEntity
  8
0
100
AcDbLine
 62
7
  6
CONTINUOUS
 10
67.6776913533
 20
236.7468294267
 11
67.665279028
 21
237.4717872546
  0
SPLINE
  5
491
100
AcDbEntity
  8
0
100
AcDbSpline
 62
7
  6
CONTINUOUS
 70
0
 71
3
 72
9
 73
5
 74
0
 42
0.0000001
 43
0.0000001
 44
0.0000000001
 40
0.0
 40
0.0
 40
0.0
 40
0.0
 40
0.2445939945
 40
1.0
 40
1.0
 40
1.0
 40
1.0
 10
67.665279028
 20
237.4717872546
 30
0.0
 10
67.6634431189
 20
237.5802038154
 30
0.0
 10
67.6559658891
 20
238.0234554138
 30
0.0
 10
67.648635353
 20
238.4667095068
 30
0.0
 10
67.6432298882
 20
238.8015484367
 30
0.0
  0
SPLINE
  5
492
100
AcDbEntity
  8
0
100
AcDbSpline
 62
7
  6
CONTINUOUS
 70
0
 71
3
 72
9
 73
5
 74
0
 42
0.0000001
 43
0.0000001
 44
0.0000000001
 40
0.0
 40
0.0
 40
0.0
 40
0.0
 40
0.2455301548
 40
1.0
 40
1.0
 40
1.0
 40
1.0
 10
67.6432298882
 20
238.8015484367
 30
0.0
 10
67.6411933174
 20
238.9277028421
 30
0.0
 10
67.6329744982
 20
239.4415081775
 30
0.0
 10
67.6251027443
 20
239.9553191131
 30
0.0
 10
67.6194217957
 20
240.342977715
 30
0.0
  0
SPLINE
  5
493
100
AcDbEntity
  8
0
100
AcDbSpline
 62
7
  6
CONTINUOUS
 70
0
 71
3
 72
11
 73
7
 74
0
 42
0.0000001
 43
0.0000001
 44
0.0000000001
 40
0.0
 40
0.0
 40
0.0
 40
0.0
 40
0.2095375998
 40
0.4448861019
 40
0.7124257668
 40
1.0
 40
1.0
 40
1.0
 40
1.0
 10
163.9899394143
 20
266.1427766437
 30
0.0
 10
164.0365130044
 20
266.1427766437
 30
0.0
 10
164.1364410355
 20
266.1124771546
 30
0.0
 10
164.2518725163
 20
265.9975531028
 30
0.0
 10
164.3257568805
 20
265.8350215525
 30
0.0
 10
164.3434014989
 20
265.7110573028
 30
0.0
 10
164.3438056176
 20
265.6471399114
 30
0.0
  0
SPLINE
  5
494
100
AcDbEntity
  8
0
100
AcDbSpline
 62
7
  6
CONTINUOUS
 70
0
 71
3
 72
39
 73
35
 74
0
 42
0.0000001
 43
0.0000001
 44
0.0000000001
 40
0.0
 40
0.0
 40
0.0
 40
0.0
 40
0.0009224657
 40
0.0029971942
 40
0.0062369748
 40
0.0106482162
 40
0.0162345785
 40
0.0229820791
 40
0.0398641346
 40
0.0611003956
 40
0.0864780401
 40
0.1157667177
 40
0.1487039622
 40
0.1849640558
 40
0.2242063513
 40
0.3101184362
 40
0.4032075638
 40
0.4999542267
 40
0.5967000649
 40
0.6897777838
 40
0.7757027099
 40
0.8149476051
 40
0.8511972397
 40
0.8841239091
 40
0.9134153942
 40
0.9388027063
 40
0.9600353405
 40
0.9769089344
 40
0.9836595991
 40
0.9892591717
 40
0.9936948903
 40
0.9969635958
 40
0.9990637481
 40
1.0
 40
1.0
 40
1.0
 40
1.0
 10
34.8405552709
 20
162.889007762
 30
0.0
 10
34.8357180124
 20
162.8974046651
 30
0.0
 10
34.8347368052
 20
162.9304385281
 30
0.0
 10
34.8274794868
 20
162.9943622798
 30
0.0
 10
34.8236830176
 20
163.09715112
 30
0.0
 10
34.8176399848
 20
163.2357880989
 30
0.0
 10
34.8117535004
 20
163.4117106483
 30
0.0
 10
34.8022011057
 20
163.7184252136
 30
0.0
 10
34.7904274039
 20
164.1896353609
 30
0.0
 10
34.7782967848
 20
164.8565434962
 30
0.0
 10
34.7672448484
 20
165.653834471
 30
0.0
 10
34.7552449064
 20
166.5740357852
 30
0.0
 10
34.7416477509
 20
167.6085492977
 30
0.0
 10
34.7282072462
 20
168.7476363695
 30
0.0
 10
34.7120719657
 20
170.4432304564
 30
0.0
 10
34.6924547615
 20
172.7358091416
 30
0.0
 10
34.6656455326
 20
175.6324358798
 30
0.0
 10
34.6423069407
 20
178.6429053162
 30
0.0
 10
34.6181015386
 20
181.6532478314
 30
0.0
 10
34.5917263442
 20
184.5498845686
 30
0.0
 10
34.5720911971
 20
186.8425057126
 30
0.0
 10
34.5555206522
 20
188.5381478496
 30
0.0
 10
34.5421356948
 20
189.6770416653
 30
0.0
 10
34.528822326
 20
190.7113673788
 30
0.0
 10
34.5169607637
 20
191.6315904633
 30
0.0
 10
34.5057794452
 20
192.4289727623
 30
0.0
 10
34.4936333182
 20
193.0958546207
 30
0.0
 10
34.4821396722
 20
193.5669772543
 30
0.0
 10
34.4725661168
 20
193.873775872
 30
0.0
 10
34.4664578705
 20
194.0501181834
 30
0.0
 10
34.4599498681
 20
194.1894419549
 30
0.0
 10
34.455579091
 20
194.2930227523
 30
0.0
 10
34.4478572186
 20
194.3576401835
 30
0.0
 10
34.4465842486
 20
194.3910437671
 30
0.0
 10
34.4416750461
 20
194.3995663616
 30
0.0
  0
SPLINE
  5
495
100
AcDbEntity
  8
0
100
AcDbSpline
 62
7
  6
CONTINUOUS
 70
0
 71
3
 72
11
 73
7
 74
0
 42
0.0000001
 43
0.0000001
 44
0.0000000001
 40
0.0
 40
0.0
 40
0.0
 40
0.0
 40
0.0880566178
 40
0.2830617328
 40
0.5870525684
 40
1.0
 40
1.0
 40
1.0
 40
1.0
 10
65.6995575381
 20
262.0166697626
 30
0.0
 10
65.7075122435
 20
262.0102209304
 30
0.0
 10
65.7126104377
 20
261.9737346104
 30
0.0
 10
65.7246829007
 20
261.9096710126
 30
0.0
 10
65.7334031091
 20
261.802194134
 30
0.0
 10
65.7397864878
 20
261.719627831
 30
0.0
 10
65.7429452536
 20
261.6717090184
 30
0.0
  0
SPLINE
  5
496
100
AcDbEntity
  8
0
100
AcDbSpline
 62
7
  6
CONTINUOUS
 70
0
 71
3
 72
9
 73
5
 74
0
 42
0.0000001
 43
0.0000001
 44
0.0000000001
 40
0.0
 40
0.0
 40
0.0
 40
0.0
 40
0.2083850222
 40
1.0
 40
1.0
 40
1.0
 40
1.0
 10
65.7429452536
 20
261.6717090184
 30
0.0
 10
65.745337535
 20
261.6354178546
 30
0.0
 10
65.7559863023
 20
261.4612087561
 30
0.0
 10
65.7641769754
 20
261.2868586666
 30
0.0
 10
65.7701107517
 20
261.1488237272
 30
0.0
  0
SPLINE
  5
497
100
AcDbEntity
  8
0
100
AcDbSpline
 62
7
  6
CONTINUOUS
 70
0
 71
3
 72
17
 73
13
 74
0
 42
0.0000001
 43
0.0000001
 44
0.0000000001
 40
0.0
 40
0.0
 40
0.0
 40
0.0
 40
0.0798977226
 40
0.2028513241
 40
0.3560044089
 40
0.5233311444
 40
0.6873208393
 40
0.8308170848
 40
0.8900559921
 40
0.9388015722
 40
0.9757736927
 40
1.0
 40
1.0
 40
1.0
 40
1.0
 10
65.7701107517
 20
261.1488237272
 30
0.0
 10
65.8050422494
 20
260.3362270027
 30
0.0
 10
65.8543224194
 20
258.27162642
 30
0.0
 10
65.9220746982
 20
254.6482787842
 30
0.0
 10
65.988965028
 20
250.1346427343
 30
0.0
 10
66.0574445723
 20
245.2033012699
 30
0.0
 10
66.1256006016
 20
240.3702580162
 30
0.0
 10
66.1845909075
 20
236.6375048473
 30
0.0
 10
66.234686619
 20
234.077963462
 30
0.0
 10
66.2690966591
 20
232.6027019928
 30
0.0
 10
66.3034474683
 20
231.4840461213
 30
0.0
 10
66.3295866418
 20
230.8615060481
 30
0.0
 10
66.3457102981
 20
230.6154134004
 30
0.0
  0
SPLINE
  5
498
100
AcDbEntity
  8
0
100
AcDbSpline
 62
7
  6
CONTINUOUS
 70
0
 71
3
 72
11
 73
7
 74
0
 42
0.0000001
 43
0.0000001
 44
0.0000000001
 40
0.0
 40
0.0
 40
0.0
 40
0.0
 40
0.3955360946
 40
0.6939786111
 40
0.8951903083
 40
1.0
 40
1.0
 40
1.0
 40
1.0
 10
66.3457102981
 20
230.6154134004
 30
0.0
 10
66.3486923773
 20
230.5698984275
 30
0.0
 10
66.3545256199
 20
230.4901921573
 30
0.0
 10
66.3634689937
 20
230.3869796893
 30
0.0
 10
66.3735044239
 20
230.3186483552
 30
0.0
 10
66.3795600733
 20
230.2829407848
 30
0.0
 10
66.3854777606
 20
230.2724020977
 30
0.0
  0
SPLINE
  5
499
100
AcDbEntity
  8
0
100
AcDbSpline
 62
7
  6
CONTINUOUS
 70
0
 71
3
 72
11
 73
7
 74
0
 42
0.0000001
 43
0.0000001
 44
0.0000000001
 40
0.0
 40
0.0
 40
0.0
 40
0.0
 40
0.0873914558
 40
0.2822302087
 40
0.5864516796
 40
1.0
 40
1.0
 40
1.0
 40
1.0
 10
66.493111361
 20
230.2688159861
 30
0.0
 10
66.4851718825
 20
230.2751860765
 30
0.0
 10
66.4801930725
 20
230.3117165559
 30
0.0
 10
66.4678958928
 20
230.3757094046
 30
0.0
 10
66.4590368291
 20
230.4834673406
 30
0.0
 10
66.452530387
 20
230.5662384329
 30
0.0
 10
66.4493296571
 20
230.6143007025
 30
0.0
  0
SPLINE
  5
49A
100
AcDbEntity
  8
0
100
AcDbSpline
 62
7
  6
CONTINUOUS
 70
0
 71
3
 72
9
 73
5
 74
0
 42
0.0000001
 43
0.0000001
 44
0.0000000001
 40
0.0
 40
0.0
 40
0.0
 40
0.0
 40
0.208352291
 40
1.0
 40
1.0
 40
1.0
 40
1.0
 10
66.4493296571
 20
230.6143007025
 30
0.0
 10
66.4469065149
 20
230.650686689
 30
0.0
 10
66.4361588896
 20
230.8253822067
 30
0.0
 10
66.4279891641
 20
231.0002258951
 30
0.0
 10
66.4220720923
 20
231.1386565801
 30
0.0
  0
SPLINE
  5
49B
100
AcDbEntity
  8
0
100
AcDbSpline
 62
7
  6
CONTINUOUS
 70
0
 71
3
 72
9
 73
5
 74
0
 42
0.0000001
 43
0.0000001
 44
0.0000000001
 40
0.0
 40
0.0
 40
0.0
 40
0.0
 40
0.3982645795
 40
1.0
 40
1.0
 40
1.0
 40
1.0
 10
66.4220720923
 20
231.1386565801
 30
0.0
 10
66.391921331
 20
231.8440376617
 30
0.0
 10
66.3468300573
 20
233.6163611906
 30
0.0
 10
66.312041882
 20
235.3887274804
 30
0.0
 10
66.2932851097
 20
236.4552915007
 30
0.0
  0
SPLINE
  5
49C
100
AcDbEntity
  8
0
100
AcDbSpline
 62
7
  6
CONTINUOUS
 70
0
 71
3
 72
15
 73
11
 74
0
 42
0.0000001
 43
0.0000001
 44
0.0000000001
 40
0.0
 40
0.0
 40
0.0
 40
0.0
 40
0.2888545078
 40
0.4471396344
 40
0.601441683
 40
0.7420026802
 40
0.8599320849
 40
0.9477796088
 40
0.9786020178
 40
1.0
 40
1.0
 40
1.0
 40
1.0
 10
66.2932851097
 20
236.4552915007
 30
0.0
 10
66.250588397
 20
238.8831493865
 30
0.0
 10
66.1966324007
 20
242.6416186193
 30
0.0
 10
66.1265480589
 20
247.6971044624
 30
0.0
 10
66.072471424
 20
251.5060741191
 30
0.0
 10
66.0190631322
 20
254.9757813523
 30
0.0
 10
65.9656422478
 20
257.8867383372
 30
0.0
 10
65.9200315998
 20
259.8752296323
 30
0.0
 10
65.8792137956
 20
261.0519840251
 30
0.0
 10
65.8586161981
 20
261.4905365972
 30
0.0
 10
65.8468023787
 20
261.6700287346
 30
0.0
  0
SPLINE
  5
49D
100
AcDbEntity
  8
0
100
AcDbSpline
 62
7
  6
CONTINUOUS
 70
0
 71
3
 72
11
 73
7
 74
0
 42
0.0000001
 43
0.0000001
 44
0.0000000001
 40
0.0
 40
0.0
 40
0.0
 40
0.0
 40
0.3926037725
 40
0.6900122478
 40
0.8921509266
 40
1.0
 40
1.0
 40
1.0
 40
1.0
 10
65.8468023787
 20
261.6700287346
 30
0.0
 10
65.8438336032
 20
261.7151345423
 30
0.0
 10
65.8380477116
 20
261.7942714414
 30
0.0
 10
65.8290069071
 20
261.8969292965
 30
0.0
 10
65.8189322199
 20
261.9655405336
 30
0.0
 10
65.8123973496
 20
262.0015220364
 30
0.0
 10
65.8063433083
 20
262.0123637203
 30
0.0
  0
SPLINE
  5
49E
100
AcDbEntity
  8
0
100
AcDbSpline
 62
7
  6
CONTINUOUS
 70
0
 71
3
 72
39
 73
35
 74
0
 42
0.0000001
 43
0.0000001
 44
0.0000000001
 40
0.0
 40
0.0
 40
0.0
 40
0.0
 40
0.0009742598
 40
0.0031118228
 40
0.0064113609
 40
0.0108646751
 40
0.0164623932
 40
0.023194777
 40
0.0400238866
 40
0.0612547074
 40
0.0866582866
 40
0.1159460171
 40
0.1488289071
 40
0.1850179185
 40
0.2242164526
 40
0.3100822355
 40
0.4030571271
 40
0.4996966445
 40
0.5963798063
 40
0.6894057627
 40
0.7752613966
 40
0.8145180964
 40
0.8508126357
 40
0.8837603645
 40
0.9130433601
 40
0.9384385161
 40
0.9597300307
 40
0.9767022757
 40
0.9835014153
 40
0.9891407725
 40
0.9936079519
 40
0.9969039395
 40
0.999031426
 40
1.0
 40
1.0
 40
1.0
 40
1.0
 10
34.4377633387
 20
163.5866162753
 30
0.0
 10
34.4328730264
 20
163.5950859702
 30
0.0
 10
34.4309586748
 20
163.6276596756
 30
0.0
 10
34.4232148358
 20
163.6904923514
 30
0.0
 10
34.4183946294
 20
163.7902689592
 30
0.0
 10
34.4118599748
 20
163.9238761292
 30
0.0
 10
34.4058912409
 20
164.0923503047
 30
0.0
 10
34.3968940501
 20
164.3848827715
 30
0.0
 10
34.3862209332
 20
164.8344381628
 30
0.0
 10
34.3739582076
 20
165.4713879066
 30
0.0
 10
34.3616523884
 20
166.2334398792
 30
0.0
 10
34.349268488
 20
167.1124668828
 30
0.0
 10
34.3368525778
 20
168.0997747429
 30
0.0
 10
34.3244087523
 20
169.1865784737
 30
0.0
 10
34.3072913557
 20
170.8052329689
 30
0.0
 10
34.2863186759
 20
172.9939238751
 30
0.0
 10
34.2617318477
 20
175.7592281016
 30
0.0
 10
34.2371240717
 20
178.6331267011
 30
0.0
 10
34.2125258388
 20
181.5075380113
 30
0.0
 10
34.1879555549
 20
184.273691288
 30
0.0
 10
34.1669529355
 20
186.4633765808
 30
0.0
 10
34.1498410689
 20
188.0835725695
 30
0.0
 10
34.1374135244
 20
189.1726707586
 30
0.0
 10
34.1250066924
 20
190.1616415743
 30
0.0
 10
34.1126101027
 20
191.0411872673
 30
0.0
 10
34.10028508
 20
191.8037161635
 30
0.0
 10
34.0880012748
 20
192.4426273697
 30
0.0
 10
34.0773564067
 20
192.8949004904
 30
0.0
 10
34.0683761047
 20
193.1899592234
 30
0.0
 10
34.0624133689
 20
193.3596623284
 30
0.0
 10
34.0558812428
 20
193.4937917279
 30
0.0
 10
34.051045114
 20
193.5935667988
 30
0.0
 10
34.0433334021
 20
193.6562180905
 30
0.0
 10
34.0413592419
 20
193.688611089
 30
0.0
 10
34.0364970083
 20
193.6970310878
 30
0.0
  0
SPLINE
  5
49F
100
AcDbEntity
  8
0
100
AcDbSpline
 62
7
  6
CONTINUOUS
 70
0
 71
3
 72
39
 73
35
 74
0
 42
0.0000001
 43
0.0000001
 44
0.0000000001
 40
0.0
 40
0.0
 40
0.0
 40
0.0
 40
0.000968371
 40
0.0030946998
 40
0.0063878367
 40
0.0108497343
 40
0.0164811125
 40
0.0232741536
 40
0.0402418991
 40
0.0615348071
 40
0.0869320014
 40
0.1162124309
 40
0.1491514111
 40
0.1854433966
 40
0.2247024809
 40
0.3105644131
 40
0.4035885661
 40
0.5002774531
 40
0.5969265923
 40
0.68990408
 40
0.7757750416
 40
0.8149822814
 40
0.8511751564
 40
0.8840562935
 40
0.9133412596
 40
0.9387456675
 40
0.9599852326
 40
0.9768190252
 40
0.9835501909
 40
0.9891452873
 40
0.9935953034
 40
0.9968915949
 40
0.999026692
 40
1.0
 40
1.0
 40
1.0
 40
1.0
 10
35.2476139119
 20
163.5885379869
 30
0.0
 10
35.2427527267
 20
163.5969561613
 30
0.0
 10
35.2407766292
 20
163.6293340921
 30
0.0
 10
35.2330670398
 20
163.6919437173
 30
0.0
 10
35.2282290153
 20
163.7916237664
 30
0.0
 10
35.221697348
 20
163.9255908176
 30
0.0
 10
35.2157311058
 20
164.0950979887
 30
0.0
 10
35.206749476
 20
164.3899681688
 30
0.0
 10
35.1961053993
 20
164.8421457938
 30
0.0
 10
35.1838226251
 20
165.4810419399
 30
0.0
 10
35.1714980778
 20
166.2435743339
 30
0.0
 10
35.1591010435
 20
167.123020891
 30
0.0
 10
35.146690699
 20
168.1118456902
 30
0.0
 10
35.1342634041
 20
169.2008469293
 30
0.0
 10
35.1171512948
 20
170.8210933964
 30
0.0
 10
35.0961492446
 20
173.0108328251
 30
0.0
 10
35.0715748454
 20
175.7770698007
 30
0.0
 10
35.0469761628
 20
178.6515974691
 30
0.0
 10
35.0223687095
 20
181.525656603
 30
0.0
 10
34.9977795439
 20
184.2911165958
 30
0.0
 10
34.9768037497
 20
186.4799579919
 30
0.0
 10
34.9596883803
 20
188.0987796419
 30
0.0
 10
34.9472442283
 20
189.1856845465
 30
0.0
 10
34.9348268265
 20
190.1729790928
 30
0.0
 10
34.9224416053
 20
191.0519630547
 30
0.0
 10
34.9101328235
 20
191.8140781329
 30
0.0
 10
34.8978727103
 20
192.4511667092
 30
0.0
 10
34.8872011012
 20
192.90084167
 30
0.0
 10
34.878201957
 20
193.1933805919
 30
0.0
 10
34.8722324441
 20
193.3617817609
 30
0.0
 10
34.865698695
 20
193.4952963935
 30
0.0
 10
34.8608745177
 20
193.5949802884
 30
0.0
 10
34.853137045
 20
193.6577483182
 30
0.0
 10
34.8512128162
 20
193.6902833381
 30
0.0
 10
34.8463272685
 20
193.6987446735
 30
0.0
  0
SPLINE
  5
4A0
100
AcDbEntity
  8
0
100
AcDbSpline
 62
7
  6
CONTINUOUS
 70
0
 71
3
 72
39
 73
35
 74
0
 42
0.0000001
 43
0.0000001
 44
0.0000000001
 40
0.0
 40
0.0
 40
0.0
 40
0.0
 40
0.0009661781
 40
0.0031038167
 40
0.006414011
 40
0.0108915487
 40
0.0165294085
 40
0.0233118605
 40
0.0402256569
 40
0.0614608661
 40
0.0868238458
 40
0.1161013482
 40
0.1490375045
 40
0.1852865116
 40
0.2244895366
 40
0.3102894366
 40
0.4032744396
 40
0.4998925144
 40
0.5965152647
 40
0.689508954
 40
0.7753376008
 40
0.8145512103
 40
0.8508018452
 40
0.8837466135
 40
0.9130549494
 40
0.938454186
 40
0.9597067948
 40
0.9766160458
 40
0.9833971054
 40
0.9890394706
 40
0.9935285521
 40
0.9968553128
 40
0.9990125669
 40
1.0
 40
1.0
 40
1.0
 40
1.0
 10
31.2007755789
 20
194.3998227067
 30
0.0
 10
31.2058280915
 20
194.3910183233
 30
0.0
 10
31.2077841471
 20
194.3570245979
 30
0.0
 10
31.2160351842
 20
194.2912423542
 30
0.0
 10
31.2211587909
 20
194.1864500805
 30
0.0
 10
31.2280060238
 20
194.0458267885
 30
0.0
 10
31.2339669642
 20
193.8682847131
 30
0.0
 10
31.242656074
 20
193.560256705
 30
0.0
 10
31.2526650464
 20
193.088257668
 30
0.0
 10
31.2648118576
 20
192.4210957928
 30
0.0
 10
31.2775627078
 20
191.6240073409
 30
0.0
 10
31.2902330892
 20
190.7039751743
 30
0.0
 10
31.3024648015
 20
189.6695526225
 30
0.0
 10
31.3146779673
 20
188.5308421741
 30
0.0
 10
31.3318783659
 20
186.8367425895
 30
0.0
 10
31.3530370718
 20
184.546558674
 30
0.0
 10
31.3771541685
 20
181.6531490776
 30
0.0
 10
31.4018919924
 20
178.6460309926
 30
0.0
 10
31.4275284908
 20
175.6388291965
 30
0.0
 10
31.4499716473
 20
172.744963026
 30
0.0
 10
31.4723258812
 20
170.4542850529
 30
0.0
 10
31.4905420721
 20
168.7597657747
 30
0.0
 10
31.5019915673
 20
167.6208287498
 30
0.0
 10
31.5130778657
 20
166.5859615995
 30
0.0
 10
31.5256466532
 20
165.6651313887
 30
0.0
 10
31.5392266365
 20
164.8671685847
 30
0.0
 10
31.5520645384
 20
164.1995031998
 30
0.0
 10
31.5620293929
 20
163.7273850831
 30
0.0
 10
31.5704126056
 20
163.4193621271
 30
0.0
 10
31.5760948875
 20
163.2416608102
 30
0.0
 10
31.5826105073
 20
163.100670701
 30
0.0
 10
31.5875563316
 20
162.9953852326
 30
0.0
 10
31.5956055425
 20
162.9289506069
 30
0.0
 10
31.5977139382
 20
162.8945586761
 30
0.0
 10
31.6028411095
 20
162.885539762
 30
0.0
  0
SPLINE
  5
4A1
100
AcDbEntity
  8
0
100
AcDbSpline
 62
7
  6
CONTINUOUS
 70
0
 71
3
 72
39
 73
35
 74
0
 42
0.0000001
 43
0.0000001
 44
0.0000000001
 40
0.0
 40
0.0
 40
0.0
 40
0.0
 40
0.000932262
 40
0.0030282393
 40
0.006294019
 40
0.0107296007
 40
0.0163309738
 40
0.0230818645
 40
0.0399548758
 40
0.0611859995
 40
0.0865605425
 40
0.1158397638
 40
0.1487522051
 40
0.1850037467
 40
0.2242484138
 40
0.3101450965
 40
0.4032114386
 40
0.499942968
 40
0.5966771387
 40
0.6897505283
 40
0.7756618549
 40
0.8149116131
 40
0.8511645193
 40
0.8840813279
 40
0.9133740608
 40
0.9387689119
 40
0.9600094613
 40
0.9768755214
 40
0.9836231241
 40
0.9892252582
 40
0.9936679866
 40
0.9969456044
 40
0.999055125
 40
1.0
 40
1.0
 40
1.0
 40
1.0
 10
32.0114852173
 20
194.399425379
 30
0.0
 10
32.016378315
 20
194.3909407038
 30
0.0
 10
32.0176477928
 20
194.3576213485
 30
0.0
 10
32.0254313526
 20
194.2931207656
 30
0.0
 10
32.0298899506
 20
194.1896082092
 30
0.0
 10
32.0365386887
 20
194.0502904377
 30
0.0
 10
32.0427808207
 20
193.8739140698
 30
0.0
 10
32.0524193183
 20
193.5670703348
 30
0.0
 10
32.0637342295
 20
193.0959129198
 30
0.0
 10
32.0753979493
 20
192.4291097806
 30
0.0
 10
32.0867791747
 20
191.6319268786
 30
0.0
 10
32.0992889101
 20
190.7120289965
 30
0.0
 10
32.1124938883
 20
189.6778523356
 30
0.0
 10
32.1252102805
 20
188.5389643058
 30
0.0
 10
32.1419006202
 20
186.8434264416
 30
0.0
 10
32.1620233597
 20
184.5509895744
 30
0.0
 10
32.1882674578
 20
181.6546168149
 30
0.0
 10
32.2116350351
 20
178.644355447
 30
0.0
 10
32.2363963011
 20
175.6340313248
 30
0.0
 10
32.2621134493
 20
172.7373988419
 30
0.0
 10
32.2815031641
 20
170.4446731813
 30
0.0
 10
32.2994305207
 20
168.7489260599
 30
0.0
 10
32.3122312048
 20
167.6099257209
 30
0.0
 10
32.3246473357
 20
166.57553724
 30
0.0
 10
32.3366928379
 20
165.6552316966
 30
0.0
 10
32.3484942065
 20
164.8576000547
 30
0.0
 10
32.360685904
 20
164.1905670276
 30
0.0
 10
32.3720171173
 20
163.7194201749
 30
0.0
 10
32.3814616585
 20
163.412669545
 30
0.0
 10
32.3875229131
 20
163.2362397029
 30
0.0
 10
32.3939518129
 20
163.0967018536
 30
0.0
 10
32.3982682816
 20
162.9928446145
 30
0.0
 10
32.4059276464
 20
162.9279291813
 30
0.0
 10
32.4072480058
 20
162.8943331241
 30
0.0
 10
32.4121997824
 20
162.8857293226
 30
0.0
  0
SPLINE
  5
4A2
100
AcDbEntity
  8
0
100
AcDbSpline
 62
7
  6
CONTINUOUS
 70
0
 71
3
 72
14
 73
10
 74
0
 42
0.0000001
 43
0.0000001
 44
0.0000000001
 40
0.0
 40
0.0
 40
0.0
 40
0.0
 40
0.0274339595
 40
0.0831514364
 40
0.1673950772
 40
0.2797876714
 40
0.4198230436
 40
0.5869773863
 40
1.0
 40
1.0
 40
1.0
 40
1.0
 10
76.1720398291
 20
260.9008846371
 30
0.0
 10
76.1809056838
 20
260.8855379907
 30
0.0
 10
76.1880960623
 20
260.8304953447
 30
0.0
 10
76.2026458667
 20
260.7246593175
 30
0.0
 10
76.21442331
 20
260.5613106294
 30
0.0
 10
76.2280755643
 20
260.3445348071
 30
0.0
 10
76.2412217998
 20
260.0736658772
 30
0.0
 10
76.2605122573
 20
259.6088293316
 30
0.0
 10
76.2727049163
 20
259.2341773005
 30
0.0
 10
76.2807528255
 20
258.9674683861
 30
0.0
  0
LINE
  5
4A3
100
AcDbEntity
  8
0
100
AcDbLine
 62
7
  6
CONTINUOUS
 10
76.3621626889
 20
255.4802066421
 11
76.3747636296
 21
254.8109676082
  0
LINE
  5
4A4
100
AcDbEntity
  8
0
100
AcDbLine
 62
7
  6
CONTINUOUS
 10
76.4232852829
 20
252.0014938266
 11
76.4425214462
 21
250.8064439913
  0
LINE
  5
4A5
100
AcDbEntity
  8
0
100
AcDbLine
 62
7
  6
CONTINUOUS
 10
76.4425214462
 20
250.8064439913
 11
76.4564032633
 21
249.9194714743
  0
LINE
  5
4A6
100
AcDbEntity
  8
0
100
AcDbLine
 62
7
  6
CONTINUOUS
 10
76.4564032633
 20
249.9194714743
 11
76.4730671434
 21
248.8324007283
  0
LINE
  5
4A7
100
AcDbEntity
  8
0
100
AcDbLine
 62
7
  6
CONTINUOUS
 10
76.5287253741
 20
245.1251916317
 11
76.548216072
 21
243.8334573492
  0
LINE
  5
4A8
100
AcDbEntity
  8
0
100
AcDbLine
 62
7
  6
CONTINUOUS
 10
76.548216072
 20
243.8334573492
 11
76.5495152298
 21
243.7479357034
  0
LINE
  5
4A9
100
AcDbEntity
  8
0
100
AcDbLine
 62
7
  6
CONTINUOUS
 10
76.5495152298
 20
243.7479357034
 11
76.5673201544
 21
242.5857213758
  0
LINE
  5
4AA
100
AcDbEntity
  8
0
100
AcDbLine
 62
7
  6
CONTINUOUS
 10
76.5673201544
 20
242.5857213758
 11
76.571396534
 21
242.3225850378
  0
SPLINE
  5
4AB
100
AcDbEntity
  8
0
100
AcDbSpline
 62
7
  6
CONTINUOUS
 70
0
 71
3
 72
9
 73
5
 74
0
 42
0.0000001
 43
0.0000001
 44
0.0000000001
 40
0.0
 40
0.0
 40
0.0
 40
0.0
 40
0.2550663212
 40
1.0
 40
1.0
 40
1.0
 40
1.0
 10
76.6043868869
 20
240.2454649776
 30
0.0
 10
76.6063934966
 20
240.1224312704
 30
0.0
 10
76.6143049052
 20
239.6400723252
 30
0.0
 10
76.6224099938
 20
239.1577165376
 30
0.0
 10
76.6285978184
 20
238.7983960614
 30
0.0
  0
SPLINE
  5
4AC
100
AcDbEntity
  8
0
100
AcDbSpline
 62
7
  6
CONTINUOUS
 70
0
 71
3
 72
9
 73
5
 74
0
 42
0.0000001
 43
0.0000001
 44
0.0000000001
 40
0.0
 40
0.0
 40
0.0
 40
0.0
 40
0.2551422564
 40
1.0
 40
1.0
 40
1.0
 40
1.0
 10
76.6285978184
 20
238.7983960614
 30
0.0
 10
76.6301996695
 20
238.705378254
 30
0.0
 10
76.6365177815
 20
238.3408066113
 30
0.0
 10
76.6430049652
 20
237.976237885
 30
0.0
 10
76.6479584628
 20
237.7046882737
 30
0.0
  0
LINE
  5
4AD
100
AcDbEntity
  8
0
100
AcDbLine
 62
7
  6
CONTINUOUS
 10
76.6479584628
 20
237.7046882737
 11
76.6492882604
 21
237.6319504325
  0
SPLINE
  5
4AE
100
AcDbEntity
  8
0
100
AcDbSpline
 62
7
  6
CONTINUOUS
 70
0
 71
3
 72
9
 73
5
 74
0
 42
0.0000001
 43
0.0000001
 44
0.0000000001
 40
0.0
 40
0.0
 40
0.0
 40
0.0
 40
0.2551442772
 40
1.0
 40
1.0
 40
1.0
 40
1.0
 10
76.6492882604
 20
237.6319504325
 30
0.0
 10
76.6506175163
 20
237.5594037824
 30
0.0
 10
76.655862212
 20
237.2750686313
 30
0.0
 10
76.6612507597
 20
236.990736126
 30
0.0
 10
76.6653594081
 20
236.7789512861
 30
0.0
  0
SPLINE
  5
4AF
100
AcDbEntity
  8
0
100
AcDbSpline
 62
7
  6
CONTINUOUS
 70
0
 71
3
 72
14
 73
10
 74
0
 42
0.0000001
 43
0.0000001
 44
0.0000000001
 40
0.0
 40
0.0
 40
0.0
 40
0.0
 40
0.4140282745
 40
0.581625569
 40
0.7218642468
 40
0.8340420305
 40
0.9178589713
 40
0.973152972
 40
1.0
 40
1.0
 40
1.0
 40
1.0
 10
76.740494265
 20
233.5116584358
 30
0.0
 10
76.7489955854
 20
233.2175810968
 30
0.0
 10
76.7618953118
 20
232.8044548079
 30
0.0
 10
76.7822912901
 20
232.2919804529
 30
0.0
 10
76.7961185929
 20
231.9937050876
 30
0.0
 10
76.8105846558
 20
231.7555805229
 30
0.0
 10
76.8228086608
 20
231.5765587615
 30
0.0
 10
76.8384382554
 20
231.4612402773
 30
0.0
 10
76.8455095863
 20
231.4011887948
 30
0.0
 10
76.8551249192
 20
231.384712273
 30
0.0
  0
SPLINE
  5
4B0
100
AcDbEntity
  8
0
100
AcDbSpline
 62
7
  6
CONTINUOUS
 70
0
 71
3
 72
37
 73
33
 74
0
 42
0.0000001
 43
0.0000001
 44
0.0000000001
 40
0.0
 40
0.0
 40
0.0
 40
0.0
 40
0.0009794495
 40
0.0031442635
 40
0.006492381
 40
0.011007425
 40
0.0166718219
 40
0.023467635
 40
0.0403810728
 40
0.0616023963
 40
0.08698487
 40
0.1163139729
 40
0.1492622601
 40
0.2664399041
 40
0.4034147681
 40
0.548480985
 40
0.6202588717
 40
0.6895070708
 40
0.7547072681
 40
0.8144703881
 40
0.8676182102
 40
0.9129920269
 40
0.9324088271
 40
0.9495129969
 40
0.9642398944
 40
0.9765250425
 40
0.9863041251
 40
0.9935132277
 40
0.9961344285
 40
0.9980900231
 40
0.9993755791
 40
1.0
 40
1.0
 40
1.0
 40
1.0
 10
36.0575286736
 20
163.5865850297
 30
0.0
 10
36.0526120385
 20
163.5951003319
 30
0.0
 10
36.050743313
 20
163.6280297662
 30
0.0
 10
36.0429699071
 20
163.6916579137
 30
0.0
 10
36.0381864353
 20
163.7928389101
 30
0.0
 10
36.0316490782
 20
163.9282266615
 30
0.0
 10
36.0256902529
 20
164.0986397566
 30
0.0
 10
36.0167147411
 20
164.3933426656
 30
0.0
 10
36.0060612292
 20
164.8443126622
 30
0.0
 10
35.993772072
 20
165.4818377079
 30
0.0
 10
35.9814628801
 20
166.2440413429
 30
0.0
 10
35.9690986984
 20
167.1239789552
 30
0.0
 10
35.9465387279
 20
168.9254049053
 30
0.0
 10
35.916948537
 20
171.807487427
 30
0.0
 10
35.8810739936
 20
175.815121005
 30
0.0
 10
35.8509394621
 20
179.3670150496
 30
0.0
 10
35.8260622748
 20
182.2390147471
 30
0.0
 10
35.80749436
 20
184.3092565356
 30
0.0
 10
35.7889481945
 20
186.2588760409
 30
0.0
 10
35.7704302284
 20
188.0468550178
 30
0.0
 10
35.7519908285
 20
189.6357836933
 30
0.0
 10
35.7360569996
 20
190.8196736489
 30
0.0
 10
35.72294915
 20
191.6417179653
 30
0.0
 10
35.7136590389
 20
192.1561193192
 30
0.0
 10
35.7043877335
 20
192.5989021541
 30
0.0
 10
35.6952391856
 20
192.9681616137
 30
0.0
 10
35.6860433974
 20
193.2618410012
 30
0.0
 10
35.6782630055
 20
193.4586733565
 30
0.0
 10
35.6712035906
 20
193.5766281692
 30
0.0
 10
35.667185014
 20
193.6356230293
 30
0.0
 10
35.6620804176
 20
193.6735936682
 30
0.0
 10
35.6597136525
 20
193.6932940459
 30
0.0
 10
35.6565791496
 20
193.698722719
 30
0.0
  0
SPLINE
  5
4B1
100
AcDbEntity
  8
0
100
AcDbSpline
 62
7
  6
CONTINUOUS
 70
0
 71
3
 72
39
 73
35
 74
0
 42
0.0000001
 43
0.0000001
 44
0.0000000001
 40
0.0
 40
0.0
 40
0.0
 40
0.0
 40
0.0009946707
 40
0.0031493551
 40
0.0064640267
 40
0.0109326771
 40
0.0165482539
 40
0.0233033759
 40
0.0402016388
 40
0.0615014866
 40
0.0869453754
 40
0.1162597609
 40
0.1491710198
 40
0.1854054371
 40
0.2246545853
 40
0.3105666643
 40
0.4035655688
 40
0.5002321764
 40
0.5969098695
 40
0.6898930192
 40
0.7757206196
 40
0.8149542902
 40
0.8512058316
 40
0.8840929739
 40
0.9133369404
 40
0.938704678
 40
0.9599634106
 40
0.9768805251
 40
0.9836386885
 40
0.9892363467
 40
0.9936711806
 40
0.9969422234
 40
0.9990496106
 40
1.0
 40
1.0
 40
1.0
 40
1.0
 10
32.8214441656
 20
194.3993844697
 30
0.0
 10
32.826225873
 20
194.3900929134
 30
0.0
 10
32.828329645
 20
194.3558998121
 30
0.0
 10
32.8359245091
 20
194.2893041216
 30
0.0
 10
32.8408372171
 20
194.1845046714
 30
0.0
 10
32.8473367676
 20
194.044100448
 30
0.0
 10
32.8533208378
 20
193.86720844
 30
0.0
 10
32.862315449
 20
193.5598844075
 30
0.0
 10
32.8729810829
 20
193.0877084289
 30
0.0
 10
32.8852387779
 20
192.4192231054
 30
0.0
 10
32.8975525989
 20
191.6202648522
 30
0.0
 10
32.9099395
 20
190.6993138981
 30
0.0
 10
32.9223587859
 20
189.6649898997
 30
0.0
 10
32.9347999737
 20
188.526287711
 30
0.0
 10
32.9519086641
 20
186.8307897758
 30
0.0
 10
32.9728880193
 20
184.5389472301
 30
0.0
 10
32.9974780114
 20
181.6438993006
 30
0.0
 10
33.0220809943
 20
178.6357466351
 30
0.0
 10
33.0466776902
 20
175.6277594438
 30
0.0
 10
33.0712573996
 20
172.7336480188
 30
0.0
 10
33.0922546896
 20
170.4430213244
 30
0.0
 10
33.1093656039
 20
168.7483936628
 30
0.0
 10
33.1217916133
 20
167.6099274263
 30
0.0
 10
33.1342075585
 20
166.5764165805
 30
0.0
 10
33.1466025308
 20
165.657259455
 30
0.0
 10
33.1589223093
 20
164.8602721843
 30
0.0
 10
33.1712030604
 20
164.1928245797
 30
0.0
 10
33.1818357366
 20
163.7208424675
 30
0.0
 10
33.1908343739
 20
163.4134882524
 30
0.0
 10
33.1967858552
 20
163.2370828086
 30
0.0
 10
33.2033621082
 20
163.0977465428
 30
0.0
 10
33.2080873857
 20
162.9941085335
 30
0.0
 10
33.2159922285
 20
162.929215771
 30
0.0
 10
33.2177209873
 20
162.8956644898
 30
0.0
 10
33.2227142526
 20
162.8870181716
 30
0.0
  0
SPLINE
  5
4B2
100
AcDbEntity
  8
0
100
AcDbSpline
 62
7
  6
CONTINUOUS
 70
0
 71
3
 72
22
 73
18
 74
0
 42
0.0000001
 43
0.0000001
 44
0.0000000001
 40
0.0
 40
0.0
 40
0.0
 40
0.0
 40
0.1950875697
 40
0.3826765474
 40
0.5555587643
 40
0.7070911907
 40
0.7729932506
 40
0.8314512342
 40
0.8819022523
 40
0.9238605417
 40
0.9569221674
 40
0.9700136372
 40
0.9807690032
 40
0.9891615124
 40
0.99517212
 40
0.9987860344
 40
1.0
 40
1.0
 40
1.0
 40
1.0
 10
48.9258202662
 20
151.8260027918
 30
0.0
 10
48.9252528523
 20
151.6309204599
 30
0.0
 10
48.9242474038
 20
151.2482538379
 30
0.0
 10
48.9231115693
 20
150.6927088804
 30
0.0
 10
48.9223998014
 20
150.1807169279
 30
0.0
 10
48.9221667467
 20
149.7904100336
 30
0.0
 10
48.9222383648
 20
149.5145221083
 30
0.0
 10
48.9224099217
 20
149.3397191877
 30
0.0
 10
48.9226801419
 20
149.1888431357
 30
0.0
 10
48.9230965132
 20
149.0634107112
 30
0.0
 10
48.9234615283
 20
148.9752205953
 30
0.0
 10
48.9239829005
 20
148.9184408483
 30
0.0
 10
48.9240869489
 20
148.8859375825
 30
0.0
 10
48.9249639726
 20
148.8614718871
 30
0.0
 10
48.9240719583
 20
148.8418917507
 30
0.0
 10
48.926577948
 20
148.8338145216
 30
0.0
 10
48.9246063742
 20
148.826127616
 30
0.0
 10
48.9258202662
 20
148.8261170225
 30
0.0
  0
SPLINE
  5
4B3
100
AcDbEntity
  8
0
100
AcDbSpline
 62
7
  6
CONTINUOUS
 70
0
 71
3
 72
39
 73
35
 74
0
 42
0.0000001
 43
0.0000001
 44
0.0000000001
 40
0.0
 40
0.0
 40
0.0
 40
0.0
 40
0.0009791245
 40
0.0031449863
 40
0.0064884774
 40
0.0109946074
 40
0.0166475963
 40
0.0234317387
 40
0.0403294361
 40
0.0615496715
 40
0.0869003184
 40
0.1161633832
 40
0.149063613
 40
0.1852897865
 40
0.2244905378
 40
0.3102684743
 40
0.4032158465
 40
0.4998252028
 40
0.5964207606
 40
0.6893814693
 40
0.7752252512
 40
0.8144466341
 40
0.850670609
 40
0.8835701799
 40
0.9128836303
 40
0.9383304865
 40
0.9595998561
 40
0.9764588928
 40
0.983219914
 40
0.9888663763
 40
0.9933923678
 40
0.9967739807
 40
0.9989835116
 40
1.0
 40
1.0
 40
1.0
 40
1.0
 10
33.6326058296
 20
194.3964586992
 30
0.0
 10
33.6377505372
 20
194.3875530544
 30
0.0
 10
33.6400511961
 20
194.3531768011
 30
0.0
 10
33.6489695771
 20
194.2866878534
 30
0.0
 10
33.6548763955
 20
194.1810188233
 30
0.0
 10
33.6623880013
 20
194.0396449214
 30
0.0
 10
33.6687277476
 20
193.8616781766
 30
0.0
 10
33.6777249931
 20
193.5537181781
 30
0.0
 10
33.6877732409
 20
193.0821321734
 30
0.0
 10
33.6999491321
 20
192.4155736294
 30
0.0
 10
33.7124308912
 20
191.6190946101
 30
0.0
 10
33.7248982719
 20
190.6999209384
 30
0.0
 10
33.7372866512
 20
189.6664968267
 30
0.0
 10
33.7496694292
 20
188.528679743
 30
0.0
 10
33.7667155682
 20
186.835445653
 30
0.0
 10
33.7878827011
 20
184.5464155876
 30
0.0
 10
33.8123367492
 20
181.6543627732
 30
0.0
 10
33.8368657413
 20
178.6486769176
 30
0.0
 10
33.8616042835
 20
175.642852658
 30
0.0
 10
33.8861164176
 20
172.7501136107
 30
0.0
 10
33.9070727588
 20
170.4600330443
 30
0.0
 10
33.9242316874
 20
168.765914754
 30
0.0
 10
33.9366861676
 20
167.6279117147
 30
0.0
 10
33.9490909204
 20
166.5939886749
 30
0.0
 10
33.9613773109
 20
165.6732793409
 30
0.0
 10
33.973551544
 20
164.8747403057
 30
0.0
 10
33.9859425926
 20
164.2070610258
 30
0.0
 10
33.9971782148
 20
163.7356392461
 30
0.0
 10
34.0061677873
 20
163.4283924207
 30
0.0
 10
34.0118042991
 20
163.2505184318
 30
0.0
 10
34.0175269805
 20
163.108501641
 30
0.0
 10
34.0212870042
 20
163.0017099947
 30
0.0
 10
34.0283142076
 20
162.9337030742
 30
0.0
 10
34.0296276054
 20
162.8984509944
 30
0.0
 10
34.0345924939
 20
162.8889981867
 30
0.0
  0
SPLINE
  5
4B4
100
AcDbEntity
  8
0
100
AcDbSpline
 62
7
  6
CONTINUOUS
 70
0
 71
3
 72
22
 73
18
 74
0
 42
0.0000001
 43
0.0000001
 44
0.0000000001
 40
0.0
 40
0.0
 40
0.0
 40
0.0
 40
0.0012115519
 40
0.0048231661
 40
0.0108316061
 40
0.0192220863
 40
0.029975567
 40
0.0430652997
 40
0.0761239126
 40
0.1180798277
 40
0.168529133
 40
0.2269860818
 40
0.2928877948
 40
0.4444215979
 40
0.617307897
 40
0.8049035055
 40
1.0
 40
1.0
 40
1.0
 40
1.0
 10
48.9258201775
 20
155.295572986
 30
0.0
 10
48.9246086991
 20
155.2955835586
 30
0.0
 10
48.9265759452
 20
155.2878536488
 30
0.0
 10
48.9240725348
 20
155.2798313965
 30
0.0
 10
48.9249636246
 20
155.2602297893
 30
0.0
 10
48.924086929
 20
155.2357826182
 30
0.0
 10
48.9239827815
 20
155.203280178
 30
0.0
 10
48.9234614469
 20
155.1465093577
 30
0.0
 10
48.9230964114
 20
155.0583248733
 30
0.0
 10
48.9226800519
 20
154.9329001885
 30
0.0
 10
48.9224098308
 20
154.7820290281
 30
0.0
 10
48.9222382758
 20
154.6072292744
 30
0.0
 10
48.9221666581
 20
154.331341318
 30
0.0
 10
48.9223997167
 20
153.9410293225
 30
0.0
 10
48.9231114862
 20
153.4290252642
 30
0.0
 10
48.9242473222
 20
152.8734606611
 30
0.0
 10
48.9252527665
 20
152.4907784761
 30
0.0
 10
48.9258201775
 20
152.295687216
 30
0.0
  0
SPLINE
  5
4B5
100
AcDbEntity
  8
0
100
AcDbSpline
 62
7
  6
CONTINUOUS
 70
0
 71
3
 72
12
 73
8
 74
0
 42
0.0000001
 43
0.0000001
 44
0.0000000001
 40
0.0
 40
0.0
 40
0.0
 40
0.0
 40
0.2239883914
 40
0.4999695415
 40
0.6413331282
 40
0.7759655495
 40
1.0
 40
1.0
 40
1.0
 40
1.0
 10
42.4657239582
 20
190.732024223
 30
0.0
 10
42.4476086959
 20
188.9270260166
 30
0.0
 10
42.4265868937
 20
184.8978815612
 30
0.0
 10
42.3867234861
 20
179.7296300213
 30
0.0
 10
42.3638133741
 20
175.2813824784
 30
0.0
 10
42.3337034011
 20
171.251826511
 30
0.0
 10
42.3182532416
 20
168.3614064923
 30
0.0
 10
42.2989130489
 20
166.5560497909
 30
0.0
  0
SPLINE
  5
4B6
100
AcDbEntity
  8
0
100
AcDbSpline
 62
7
  6
CONTINUOUS
 70
0
 71
3
 72
8
 73
4
 74
0
 42
0.0000001
 43
0.0000001
 44
0.0000000001
 40
0.0
 40
0.0
 40
0.0
 40
0.0
 40
1.0
 40
1.0
 40
1.0
 40
1.0
 10
164.3437755407
 20
265.6460491173
 30
0.0
 10
164.4520410716
 20
252.4782663972
 30
0.0
 10
164.5641562489
 20
239.3105155182
 30
0.0
 10
164.6724407188
 20
226.1427329538
 30
0.0
  0
SPLINE
  5
4B7
100
AcDbEntity
  8
0
100
AcDbSpline
 62
7
  6
CONTINUOUS
 70
0
 71
3
 72
22
 73
18
 74
0
 42
0.0000001
 43
0.0000001
 44
0.0000000001
 40
0.0
 40
0.0
 40
0.0
 40
0.0
 40
0.1950875697
 40
0.3826765474
 40
0.5555587643
 40
0.7070911907
 40
0.7729932506
 40
0.8314512342
 40
0.8819022523
 40
0.9238605417
 40
0.9569221674
 40
0.9700136372
 40
0.9807690032
 40
0.9891615124
 40
0.99517212
 40
0.9987860344
 40
1.0
 40
1.0
 40
1.0
 40
1.0
 10
48.9258202662
 20
158.2954587545
 30
0.0
 10
48.9252528523
 20
158.1003764226
 30
0.0
 10
48.9242474038
 20
157.7177098006
 30
0.0
 10
48.9231115693
 20
157.1621648431
 30
0.0
 10
48.9223998014
 20
156.6501728906
 30
0.0
 10
48.9221667467
 20
156.2598659963
 30
0.0
 10
48.9222383648
 20
155.9839780711
 30
0.0
 10
48.9224099217
 20
155.8091751505
 30
0.0
 10
48.9226801419
 20
155.6582990984
 30
0.0
 10
48.9230965132
 20
155.5328666739
 30
0.0
 10
48.9234615283
 20
155.444676558
 30
0.0
 10
48.9239829005
 20
155.387896811
 30
0.0
 10
48.9240869489
 20
155.3553935452
 30
0.0
 10
48.9249639726
 20
155.3309278499
 30
0.0
 10
48.9240719583
 20
155.3113477135
 30
0.0
 10
48.926577948
 20
155.3032704844
 30
0.0
 10
48.9246063742
 20
155.2955835787
 30
0.0
 10
48.9258202662
 20
155.2955729852
 30
0.0
  0
SPLINE
  5
4B8
100
AcDbEntity
  8
0
100
AcDbSpline
 62
7
  6
CONTINUOUS
 70
0
 71
3
 72
39
 73
35
 74
0
 42
0.0000001
 43
0.0000001
 44
0.0000000001
 40
0.0
 40
0.0
 40
0.0
 40
0.0
 40
0.0009732866
 40
0.0031058414
 40
0.0064040465
 40
0.0108671319
 40
0.0164922663
 40
0.0232663853
 40
0.0401832634
 40
0.0614582233
 40
0.0868831047
 40
0.1162021701
 40
0.1491413185
 40
0.1853894673
 40
0.2246203207
 40
0.3104947965
 40
0.4035070548
 40
0.5001558672
 40
0.5967950689
 40
0.6897962545
 40
0.7756142724
 40
0.8148191692
 40
0.8510605241
 40
0.8839873824
 40
0.913262142
 40
0.9386255232
 40
0.9598566061
 40
0.9767580854
 40
0.9835315562
 40
0.9891587237
 40
0.9936240679
 40
0.996921322
 40
0.9990460787
 40
1.0
 40
1.0
 40
1.0
 40
1.0
 10
35.2535683506
 20
194.3966628438
 30
0.0
 10
35.25859797
 20
194.3877608992
 30
0.0
 10
35.2602600686
 20
194.3537157634
 30
0.0
 10
35.2676575943
 20
194.2879591051
 30
0.0
 10
35.271808367
 20
194.1834704752
 30
0.0
 10
35.2777234023
 20
194.0432337321
 30
0.0
 10
35.2832106348
 20
193.8660736885
 30
0.0
 10
35.2918164806
 20
193.5582693582
 30
0.0
 10
35.3024864217
 20
193.085980674
 30
0.0
 10
35.3152313053
 20
192.4178087776
 30
0.0
 10
35.3281000493
 20
191.6193134145
 30
0.0
 10
35.3404781279
 20
190.6982693601
 30
0.0
 10
35.3520857308
 20
189.663505242
 30
0.0
 10
35.3639825785
 20
188.5246140271
 30
0.0
 10
35.3821719088
 20
186.8296621898
 30
0.0
 10
35.4039531226
 20
184.5383969198
 30
0.0
 10
35.425972596
 20
181.6439259361
 30
0.0
 10
35.4535827299
 20
178.6364121744
 30
0.0
 10
35.4758196773
 20
175.628970241
 30
0.0
 10
35.5014617687
 20
172.7353397045
 30
0.0
 10
35.5226723429
 20
170.4450527931
 30
0.0
 10
35.5393050794
 20
168.7510220408
 30
0.0
 10
35.5515452527
 20
167.6126074113
 30
0.0
 10
35.5639391523
 20
166.5785183463
 30
0.0
 10
35.5766525415
 20
165.6587200855
 30
0.0
 10
35.5893502832
 20
164.8617947105
 30
0.0
 10
35.6014839603
 20
164.1948818663
 30
0.0
 10
35.6115434479
 20
163.7232070483
 30
0.0
 10
35.6202858992
 20
163.4155550545
 30
0.0
 10
35.6262688585
 20
163.2383677081
 30
0.0
 10
35.6331513906
 20
163.0981456547
 30
0.0
 10
35.6382332868
 20
162.9937513564
 30
0.0
 10
35.6465003661
 20
162.9283992614
 30
0.0
 10
35.6483164148
 20
162.8946448433
 30
0.0
 10
35.6533234281
 20
162.885964244
 30
0.0
  0
SPLINE
  5
4B9
100
AcDbEntity
  8
0
100
AcDbSpline
 62
7
  6
CONTINUOUS
 70
0
 71
3
 72
37
 73
33
 74
0
 42
0.0000001
 43
0.0000001
 44
0.0000000001
 40
0.0
 40
0.0
 40
0.0
 40
0.0
 40
0.0012638256
 40
0.0036660012
 40
0.007218654
 40
0.011913544
 40
0.0177387552
 40
0.0246814743
 40
0.0418611513
 40
0.063298176
 40
0.0888148539
 40
0.1181766838
 40
0.1510859246
 40
0.2262838108
 40
0.3116735443
 40
0.4040629008
 40
0.5000127366
 40
0.5959559936
 40
0.6883351043
 40
0.7737272961
 40
0.8489165649
 40
0.8818187262
 40
0.9111777182
 40
0.9367025292
 40
0.9581512248
 40
0.9753353215
 40
0.9822742414
 40
0.9880930929
 40
0.9927815889
 40
0.9963303476
 40
0.998732917
 40
1.0
 40
1.0
 40
1.0
 40
1.0
 10
74.7829879162
 20
260.9012656701
 30
0.0
 10
74.7891860506
 20
260.8904790967
 30
0.0
 10
74.7958902191
 20
260.8540698626
 30
0.0
 10
74.8065659212
 20
260.7844605829
 30
0.0
 10
74.816237281
 20
260.679717045
 30
0.0
 10
74.8267617786
 20
260.5417290881
 30
0.0
 10
74.8371398704
 20
260.3700887827
 30
0.0
 10
74.8522917332
 20
260.0757093129
 30
0.0
 10
74.8705690586
 20
259.627589399
 30
0.0
 10
74.8915832151
 20
258.9966429532
 30
0.0
 10
74.9125933265
 20
258.2457151547
 30
0.0
 10
74.9335954522
 20
257.3818263131
 30
0.0
 10
74.9629793431
 20
256.0289603429
 30
0.0
 10
74.9988886691
 20
254.1245985861
 30
0.0
 10
75.0408664885
 20
251.6347582189
 30
0.0
 10
75.082539143
 20
248.9406135578
 30
0.0
 10
75.1244264552
 20
246.1425764725
 30
0.0
 10
75.1664288417
 20
243.344641975
 30
0.0
 10
75.2081302443
 20
240.6506392177
 30
0.0
 10
75.250002049
 20
238.1609586857
 30
0.0
 10
75.2858143159
 20
236.2567252598
 30
0.0
 10
75.315282851
 20
234.9040435356
 30
0.0
 10
75.3363804632
 20
234.0401745894
 30
0.0
 10
75.3574239167
 20
233.289080795
 30
0.0
 10
75.3784010784
 20
232.6578945934
 30
0.0
 10
75.3966257539
 20
232.2096516495
 30
0.0
 10
75.4117415439
 20
231.9153265552
 30
0.0
 10
75.4220980068
 20
231.7438489017
 30
0.0
 10
75.4326059233
 20
231.6060219258
 30
0.0
 10
75.4422878119
 20
231.5013818402
 30
0.0
 10
75.4529663584
 20
231.4317670552
 30
0.0
 10
75.4597156615
 20
231.3953384333
 30
0.0
 10
75.465919533
 20
231.3845181822
 30
0.0
  0
SPLINE
  5
4BA
100
AcDbEntity
  8
0
100
AcDbSpline
 62
7
  6
CONTINUOUS
 70
0
 71
3
 72
14
 73
10
 74
0
 42
0.0000001
 43
0.0000001
 44
0.0000000001
 40
0.0
 40
0.0
 40
0.0
 40
0.0
 40
0.016614425
 40
0.0648802495
 40
0.1446153989
 40
0.2555080034
 40
0.3971126658
 40
0.5688706393
 40
1.0
 40
1.0
 40
1.0
 40
1.0
 10
56.9900624561
 20
207.0603558777
 30
0.0
 10
56.9871138644
 20
207.0603301447
 30
0.0
 10
56.9804980374
 20
207.0478268738
 30
0.0
 10
56.9606425211
 20
207.0340726889
 30
0.0
 10
56.9314814128
 20
207.0017599864
 30
0.0
 10
56.8893897464
 20
206.9611266522
 30
0.0
 10
56.8363600177
 20
206.9074168322
 30
0.0
 10
56.7430517066
 20
206.8139855492
 30
0.0
 10
56.6676576813
 20
206.7380050483
 30
0.0
 10
56.6137359485
 20
206.6837171375
 30
0.0
  0
SPLINE
  5
4BB
100
AcDbEntity
  8
0
100
AcDbSpline
 62
7
  6
CONTINUOUS
 70
0
 71
3
 72
9
 73
5
 74
0
 42
0.0000001
 43
0.0000001
 44
0.0000000001
 40
0.0
 40
0.0
 40
0.0
 40
0.0
 40
0.1821121223
 40
1.0
 40
1.0
 40
1.0
 40
1.0
 10
64.6212736751
 20
230.9204385958
 30
0.0
 10
64.6167262614
 20
230.9283722847
 30
0.0
 10
64.5955722964
 20
230.9740728724
 30
0.0
 10
64.5835394933
 20
231.0232501531
 30
0.0
 10
64.5744353874
 20
231.0632975523
 30
0.0
  0
SPLINE
  5
4BC
100
AcDbEntity
  8
0
100
AcDbSpline
 62
7
  6
CONTINUOUS
 70
0
 71
3
 72
9
 73
5
 74
0
 42
0.0000001
 43
0.0000001
 44
0.0000000001
 40
0.0
 40
0.0
 40
0.0
 40
0.0
 40
0.2315713963
 40
1.0
 40
1.0
 40
1.0
 40
1.0
 10
64.5744353874
 20
231.0632975523
 30
0.0
 10
64.5729064451
 20
231.0700231067
 30
0.0
 10
64.5664959831
 20
231.0991098699
 30
0.0
 10
64.5607732272
 20
231.1283452859
 30
0.0
 10
64.5566296906
 20
231.1508540665
 30
0.0
  0
SPLINE
  5
4BD
100
AcDbEntity
  8
0
100
AcDbSpline
 62
7
  6
CONTINUOUS
 70
0
 71
3
 72
10
 73
6
 74
0
 42
0.0000001
 43
0.0000001
 44
0.0000000001
 40
0.0
 40
0.0
 40
0.0
 40
0.0
 40
0.1574178604
 40
0.378326176
 40
1.0
 40
1.0
 40
1.0
 40
1.0
 10
64.5566296906
 20
231.1508540665
 30
0.0
 10
64.5359037182
 20
231.2634430006
 30
0.0
 10
64.4989379117
 20
231.5362793953
 30
0.0
 10
64.4229263247
 20
232.2595084376
 30
0.0
 10
64.3811515363
 20
232.8710703875
 30
0.0
 10
64.353104235
 20
233.3223062282
 30
0.0
  0
SPLINE
  5
4BE
100
AcDbEntity
  8
0
100
AcDbSpline
 62
7
  6
CONTINUOUS
 70
0
 71
3
 72
9
 73
5
 74
0
 42
0.0000001
 43
0.0000001
 44
0.0000000001
 40
0.0
 40
0.0
 40
0.0
 40
0.0
 40
0.4511500924
 40
1.0
 40
1.0
 40
1.0
 40
1.0
 10
64.353104235
 20
233.3223062282
 30
0.0
 10
64.3177066473
 20
233.8917963221
 30
0.0
 10
64.248597985
 20
235.1546658674
 30
0.0
 10
64.1858581796
 20
236.4178793769
 30
0.0
 10
64.1573467807
 20
237.1114479308
 30
0.0
  0
SPLINE
  5
4BF
100
AcDbEntity
  8
0
100
AcDbSpline
 62
7
  6
CONTINUOUS
 70
0
 71
3
 72
18
 73
14
 74
0
 42
0.0000001
 43
0.0000001
 44
0.0000000001
 40
0.0
 40
0.0
 40
0.0
 40
0.0
 40
0.0041508202
 40
0.0168455256
 40
0.0386832864
 40
0.0702404097
 40
0.1118938504
 40
0.1632437946
 40
0.2926673228
 40
0.4524805176
 40
0.6314846415
 40
0.817554487
 40
1.0
 40
1.0
 40
1.0
 40
1.0
 10
53.4403153757
 20
204.8628905546
 30
0.0
 10
53.4391758943
 20
204.8621174504
 30
0.0
 10
53.445672647
 20
204.8558272105
 30
0.0
 10
53.4486537553
 20
204.8462765902
 30
0.0
 10
53.462603146
 20
204.8269417676
 30
0.0
 10
53.4787065856
 20
204.8008395801
 30
0.0
 10
53.5017170926
 20
204.7660971765
 30
0.0
 10
53.5420854805
 20
204.7045325573
 30
0.0
 10
53.6046680443
 20
204.610330642
 30
0.0
 10
53.6908492792
 20
204.4811504331
 30
0.0
 10
53.7878144491
 20
204.3365036461
 30
0.0
 10
53.8891891427
 20
204.1857967436
 30
0.0
 10
53.9575629653
 20
204.0844526724
 30
0.0
 10
53.9914462511
 20
204.0343015903
 30
0.0
  0
SPLINE
  5
4C0
100
AcDbEntity
  8
0
100
AcDbSpline
 62
7
  6
CONTINUOUS
 70
0
 71
3
 72
37
 73
33
 74
0
 42
0.0000001
 43
0.0000001
 44
0.0000000001
 40
0.0
 40
0.0
 40
0.0
 40
0.0
 40
0.0009186039
 40
0.0029895531
 40
0.0062262538
 40
0.0106358661
 40
0.0162226942
 40
0.0229723164
 40
0.0398595727
 40
0.0610958321
 40
0.0864666419
 40
0.1157460193
 40
0.1486743927
 40
0.2660248065
 40
0.4031598106
 40
0.5485076104
 40
0.6204066485
 40
0.6897420635
 40
0.7550296627
 40
0.8148949927
 40
0.8680688388
 40
0.9133974105
 40
0.9328117258
 40
0.9499237631
 40
0.9646387459
 40
0.9768820019
 40
0.9865832702
 40
0.993680288
 40
0.9962446554
 40
0.9981517897
 40
0.9994018459
 40
1.0
 40
1.0
 40
1.0
 40
1.0
 10
37.2707749594
 20
162.8890980034
 30
0.0
 10
37.2659531638
 20
162.8974570402
 30
0.0
 10
37.264963592
 20
162.9304068587
 30
0.0
 10
37.2576270182
 20
162.9942109364
 30
0.0
 10
37.2537427782
 20
163.0969082767
 30
0.0
 10
37.2476060483
 20
163.2354966612
 30
0.0
 10
37.2416771432
 20
163.4114290796
 30
0.0
 10
37.2321217232
 20
163.7182265471
 30
0.0
 10
37.22042032
 20
164.1895176589
 30
0.0
 10
37.2083324392
 20
164.8564119092
 30
0.0
 10
37.1972285389
 20
165.6535360407
 30
0.0
 10
37.1852382591
 20
166.5734785683
 30
0.0
 10
37.1604039415
 20
168.4595957162
 30
0.0
 10
37.1333037135
 20
171.4787959693
 30
0.0
 10
37.0951286607
 20
175.6789127478
 30
0.0
 10
37.066316262
 20
179.4016238571
 30
0.0
 10
37.0407577702
 20
182.4120940142
 30
0.0
 10
37.0224958416
 20
184.5815545784
 30
0.0
 10
37.0040136381
 20
186.6245930096
 30
0.0
 10
36.985290553
 20
188.4978428976
 30
0.0
 10
36.9663436001
 20
190.1614059589
 30
0.0
 10
36.950787981
 20
191.4000383909
 30
0.0
 10
36.9382089828
 20
192.2598407352
 30
0.0
 10
36.9290370809
 20
192.7980624165
 30
0.0
 10
36.9193611078
 20
193.2609171144
 30
0.0
 10
36.909659617
 20
193.6459331444
 30
0.0
 10
36.9000591866
 20
193.9508053468
 30
0.0
 10
36.8924411864
 20
194.1542059743
 30
0.0
 10
36.8856774979
 20
194.2753738836
 30
0.0
 10
36.8819830115
 20
194.3356739472
 30
0.0
 10
36.8770088141
 20
194.374258684
 30
0.0
 10
36.8749777698
 20
194.3943028988
 30
0.0
 10
36.8718372347
 20
194.3997454736
 30
0.0
  0
SPLINE
  5
4C1
100
AcDbEntity
  8
0
100
AcDbSpline
 62
7
  6
CONTINUOUS
 70
0
 71
3
 72
39
 73
35
 74
0
 42
0.0000001
 43
0.0000001
 44
0.0000000001
 40
0.0
 40
0.0
 40
0.0
 40
0.0
 40
0.0009722084
 40
0.0031045217
 40
0.0063972821
 40
0.0108439523
 40
0.0164368189
 40
0.0231678007
 40
0.0400110537
 40
0.0612612705
 40
0.0866665097
 40
0.1159484209
 40
0.1488285656
 40
0.1850284599
 40
0.2242465862
 40
0.3101230565
 40
0.4031041671
 40
0.4997649257
 40
0.5964591396
 40
0.6894798383
 40
0.7753488643
 40
0.8146095306
 40
0.8508962778
 40
0.8838237558
 40
0.9131016576
 40
0.9385011822
 40
0.9597946425
 40
0.9767545278
 40
0.9835384198
 40
0.9891602622
 40
0.9936163516
 40
0.9969065145
 40
0.9990317613
 40
1.0
 40
1.0
 40
1.0
 40
1.0
 10
36.8677654985
 20
163.5870643733
 30
0.0
 10
36.8628854457
 20
163.5955160479
 30
0.0
 10
36.8609498072
 20
163.6280070688
 30
0.0
 10
36.8532195951
 20
163.6907032271
 30
0.0
 10
36.8483909429
 20
163.7902876245
 30
0.0
 10
36.8418581971
 20
163.9237102332
 30
0.0
 10
36.8358878503
 20
164.0920520827
 30
0.0
 10
36.8268861993
 20
164.3846594675
 30
0.0
 10
36.8162185446
 20
164.8345311525
 30
0.0
 10
36.8039595764
 20
165.4718250777
 30
0.0
 10
36.7916475935
 20
166.2340188135
 30
0.0
 10
36.7792606904
 20
167.1129636592
 30
0.0
 10
36.7668415042
 20
168.1002803735
 30
0.0
 10
36.75439773
 20
169.1873466609
 30
0.0
 10
36.7372845562
 20
170.8063908546
 30
0.0
 10
36.7163048553
 20
172.9954162191
 30
0.0
 10
36.6917133373
 20
175.761063092
 30
0.0
 10
36.6671065908
 20
178.6353064644
 30
0.0
 10
36.6425072703
 20
181.5099473124
 30
0.0
 10
36.6179279362
 20
184.2762528343
 30
0.0
 10
36.5969271411
 20
186.4660277346
 30
0.0
 10
36.5798148064
 20
188.0862961602
 30
0.0
 10
36.5673875011
 20
189.175136791
 30
0.0
 10
36.5549728335
 20
190.1637604413
 30
0.0
 10
36.542575851
 20
191.0430827278
 30
0.0
 10
36.5302521844
 20
191.8056127958
 30
0.0
 10
36.517970606
 20
192.4444540351
 30
0.0
 10
36.507328482
 20
192.8964629597
 30
0.0
 10
36.4983431499
 20
193.1910642427
 30
0.0
 10
36.4923734094
 20
193.3603237203
 30
0.0
 10
36.4858424782
 20
193.494106173
 30
0.0
 10
36.481002658
 20
193.593685337
 30
0.0
 10
36.4732948578
 20
193.6562533526
 30
0.0
 10
36.4713175661
 20
193.6886179071
 30
0.0
 10
36.4664570874
 20
193.6970348692
 30
0.0
  0
SPLINE
  5
4C2
100
AcDbEntity
  8
0
100
AcDbSpline
 62
7
  6
CONTINUOUS
 70
0
 71
3
 72
18
 73
14
 74
0
 42
0.0000001
 43
0.0000001
 44
0.0000000001
 40
0.0
 40
0.0
 40
0.0
 40
0.0
 40
0.1824456895
 40
0.3685146396
 40
0.5475203453
 40
0.7073319327
 40
0.836756251
 40
0.8881075483
 40
0.9297601568
 40
0.9613159352
 40
0.9831540493
 40
0.9958494611
 40
1.0
 40
1.0
 40
1.0
 40
1.0
 10
62.9872963872
 20
210.1125787102
 30
0.0
 10
62.9534130735
 20
210.1627298445
 30
0.0
 10
62.8850393678
 20
210.2640737099
 30
0.0
 10
62.7836645399
 20
210.414780858
 30
0.0
 10
62.6866995077
 20
210.5594274054
 30
0.0
 10
62.6005181771
 20
210.6886077486
 30
0.0
 10
62.5379354252
 20
210.7828100154
 30
0.0
 10
62.497566948
 20
210.8443746884
 30
0.0
 10
62.474556215
 20
210.8791174461
 30
0.0
 10
62.4584540546
 20
210.9052176991
 30
0.0
 10
62.4445026217
 20
210.9245556352
 30
0.0
 10
62.4415250381
 20
210.9341010131
 30
0.0
 10
62.4350246278
 20
210.9403968107
 30
0.0
 10
62.4361655112
 20
210.9411676779
 30
0.0
  0
SPLINE
  5
4C3
100
AcDbEntity
  8
0
100
AcDbSpline
 62
7
  6
CONTINUOUS
 70
0
 71
3
 72
9
 73
5
 74
0
 42
0.0000001
 43
0.0000001
 44
0.0000000001
 40
0.0
 40
0.0
 40
0.0
 40
0.0
 40
0.1591815974
 40
1.0
 40
1.0
 40
1.0
 40
1.0
 10
162.7789206043
 20
265.6463109976
 30
0.0
 10
162.8619507393
 20
265.6468937449
 30
0.0
 10
163.3835697197
 20
265.6484967411
 30
0.0
 10
163.9051900122
 20
265.6471989496
 30
0.0
 10
164.3437755407
 20
265.6460491173
 30
0.0
  0
SPLINE
  5
4C4
100
AcDbEntity
  8
0
100
AcDbSpline
 62
7
  6
CONTINUOUS
 70
0
 71
3
 72
9
 73
5
 74
0
 42
0.0000001
 43
0.0000001
 44
0.0000000001
 40
0.0
 40
0.0
 40
0.0
 40
0.0
 40
0.4945682933
 40
1.0
 40
1.0
 40
1.0
 40
1.0
 10
162.2915255198
 20
266.1427766437
 30
0.0
 10
162.4152153553
 20
266.1427769533
 30
0.0
 10
162.6747025353
 20
266.0332517759
 30
0.0
 10
162.7751105596
 20
265.7726860688
 30
0.0
 10
162.7759977397
 20
265.6462824442
 30
0.0
  0
SPLINE
  5
4C5
100
AcDbEntity
  8
0
100
AcDbSpline
 62
7
  6
CONTINUOUS
 70
0
 71
3
 72
39
 73
35
 74
0
 42
0.0000001
 43
0.0000001
 44
0.0000000001
 40
0.0
 40
0.0
 40
0.0
 40
0.0
 40
0.0009375054
 40
0.0030599427
 40
0.0063715964
 40
0.0108557608
 40
0.0164938915
 40
0.023267099
 40
0.0401425354
 40
0.0613292147
 40
0.0866737701
 40
0.1159774161
 40
0.1489172059
 40
0.185149074
 40
0.2243289291
 40
0.310137187
 40
0.4031534382
 40
0.4997831402
 40
0.5964170431
 40
0.6894557455
 40
0.7753122775
 40
0.8145135959
 40
0.850767785
 40
0.8837358607
 40
0.9130788643
 40
0.9384687341
 40
0.9596908044
 40
0.9765980064
 40
0.983387963
 40
0.9890446061
 40
0.9935499322
 40
0.9968862739
 40
0.9990370847
 40
1.0
 40
1.0
 40
1.0
 40
1.0
 10
36.0613689161
 20
194.4005084168
 30
0.0
 10
36.0665626025
 20
194.3921387108
 30
0.0
 10
36.0679229735
 20
194.35827146
 30
0.0
 10
36.0761278988
 20
194.2931711205
 30
0.0
 10
36.0806602395
 20
194.1882816434
 30
0.0
 10
36.0873036486
 20
194.0476163495
 30
0.0
 10
36.0932241248
 20
193.870070143
 30
0.0
 10
36.1022265857
 20
193.5625485796
 30
0.0
 10
36.112873595
 20
193.09155113
 30
0.0
 10
36.1251740832
 20
192.4254779215
 30
0.0
 10
36.13749532
 20
191.628783432
 30
0.0
 10
36.1498651566
 20
190.7085972647
 30
0.0
 10
36.1622707133
 20
189.6740089189
 30
0.0
 10
36.1747056924
 20
188.535647535
 30
0.0
 10
36.1918343526
 20
186.8418253643
 30
0.0
 10
36.2128228493
 20
184.5513895623
 30
0.0
 10
36.2373811735
 20
181.6573471752
 30
0.0
 10
36.261991822
 20
178.6495582822
 30
0.0
 10
36.2866037144
 20
175.6415335007
 30
0.0
 10
36.3111646342
 20
172.7467038749
 30
0.0
 10
36.3321478894
 20
170.4552993708
 30
0.0
 10
36.3492774041
 20
168.7605099275
 30
0.0
 10
36.3617133688
 20
167.6213912556
 30
0.0
 10
36.3741205571
 20
166.58585771
 30
0.0
 10
36.3864904758
 20
165.6644843465
 30
0.0
 10
36.3988081628
 20
164.8665289785
 30
0.0
 10
36.4111079534
 20
164.1992715543
 30
0.0
 10
36.4217633745
 20
163.7273978507
 30
0.0
 10
36.4307553464
 20
163.4191631888
 30
0.0
 10
36.4366988122
 20
163.2410422389
 30
0.0
 10
36.4432897639
 20
163.0996519552
 30
0.0
 10
36.4479560506
 20
162.994093641
 30
0.0
 10
36.455944795
 20
162.9279618789
 30
0.0
 10
36.4575551153
 20
162.8937613791
 30
0.0
 10
36.462613774
 20
162.8849996911
 30
0.0
  0
SPLINE
  5
4C6
100
AcDbEntity
  8
0
100
AcDbSpline
 62
7
  6
CONTINUOUS
 70
0
 71
3
 72
17
 73
13
 74
0
 42
0.0000001
 43
0.0000001
 44
0.0000000001
 40
0.0
 40
0.0
 40
0.0
 40
0.0
 40
0.0085941621
 40
0.0246712984
 40
0.04828374
 40
0.0793807503
 40
0.1637435916
 40
0.2771086588
 40
0.4186259127
 40
0.5873707422
 40
0.7818516029
 40
1.0
 40
1.0
 40
1.0
 40
1.0
 10
73.3939539059
 20
260.9013954476
 30
0.0
 10
73.3996000187
 20
260.8916168343
 30
0.0
 10
73.4060576575
 20
260.8590417078
 30
0.0
 10
73.4159316952
 20
260.79690698
 30
0.0
 10
73.425090189
 20
260.7040589519
 30
0.0
 10
73.4397161964
 20
260.5220715765
 30
0.0
 10
73.4564941607
 20
260.2217531306
 30
0.0
 10
73.4758955685
 20
259.7765051092
 30
0.0
 10
73.4953687602
 20
259.220229584
 30
0.0
 10
73.5150526572
 20
258.5573626655
 30
0.0
 10
73.5348004182
 20
257.7937658723
 30
0.0
 10
73.5473005776
 20
257.2517702128
 30
0.0
 10
73.5536125581
 20
256.9652217963
 30
0.0
  0
SPLINE
  5
4C7
100
AcDbEntity
  8
0
100
AcDbSpline
 62
7
  6
CONTINUOUS
 70
0
 71
3
 72
11
 73
7
 74
0
 42
0.0000001
 43
0.0000001
 44
0.0000000001
 40
0.0
 40
0.0
 40
0.0
 40
0.0
 40
0.092926344
 40
0.2908486648
 40
0.5935263408
 40
1.0
 40
1.0
 40
1.0
 40
1.0
 10
27.1476414298
 20
163.5859438312
 30
0.0
 10
27.1436741077
 20
163.5928152754
 30
0.0
 10
27.141488841
 20
163.6185559834
 30
0.0
 10
27.1351541256
 20
163.6680786758
 30
0.0
 10
27.1307379489
 20
163.7458417103
 30
0.0
 10
27.1274258085
 20
163.8061652621
 30
0.0
 10
27.1258113536
 20
163.8408344034
 30
0.0
  0
SPLINE
  5
4C8
100
AcDbEntity
  8
0
100
AcDbSpline
 62
7
  6
CONTINUOUS
 70
0
 71
3
 72
14
 73
10
 74
0
 42
0.0000001
 43
0.0000001
 44
0.0000000001
 40
0.0
 40
0.0
 40
0.0
 40
0.0
 40
0.0474483625
 40
0.1285291731
 40
0.2390797523
 40
0.3733389549
 40
0.5245916963
 40
0.6848765102
 40
1.0
 40
1.0
 40
1.0
 40
1.0
 10
27.1258113536
 20
163.8408344034
 30
0.0
 10
27.1103109608
 20
164.1736930725
 30
0.0
 10
27.0909004023
 20
165.0762512757
 30
0.0
 10
27.062590027
 20
166.7549393117
 30
0.0
 10
27.0354989756
 20
169.0434784341
 30
0.0
 10
27.0070147423
 20
171.8247786167
 30
0.0
 10
26.9787103363
 20
174.9553880025
 30
0.0
 10
26.9408383735
 20
179.3561253981
 30
0.0
 10
26.9125622418
 20
182.6946946787
 30
0.0
 10
26.891726468
 20
184.9076393313
 30
0.0
  0
SPLINE
  5
4C9
100
AcDbEntity
  8
0
100
AcDbSpline
 62
7
  6
CONTINUOUS
 70
0
 71
3
 72
21
 73
17
 74
0
 42
0.0000001
 43
0.0000001
 44
0.0000000001
 40
0.0
 40
0.0
 40
0.0
 40
0.0
 40
0.0012151135
 40
0.0048302839
 40
0.0108383719
 40
0.0192284077
 40
0.04307823
 40
0.0761357358
 40
0.1180974193
 40
0.1685452258
 40
0.2270067024
 40
0.2929064001
 40
0.4444404002
 40
0.6173240105
 40
0.8049135056
 40
1.0
 40
1.0
 40
1.0
 40
1.0
 10
154.6845461334
 20
265.642777198
 30
0.0
 10
154.6845461345
 20
265.6433847664
 30
0.0
 10
154.6806890512
 20
265.6424091021
 30
0.0
 10
154.6766614804
 20
265.6436736051
 30
0.0
 10
154.6668732847
 20
265.6432610548
 30
0.0
 10
154.6482255232
 20
265.6439383344
 30
0.0
 10
154.6152275543
 20
265.6440133735
 30
0.0
 10
154.5659606155
 20
265.6445323753
 30
0.0
 10
154.5031630311
 20
265.6448577205
 30
0.0
 10
154.4277495484
 20
265.6452354334
 30
0.0
 10
154.3403365081
 20
265.6455677191
 30
0.0
 10
154.2023900303
 20
265.6460080303
 30
0.0
 10
154.0072263262
 20
265.646457312
 30
0.0
 10
153.7512187998
 20
265.6468467743
 30
0.0
 10
153.4734335344
 20
265.6470865977
 30
0.0
 10
153.2820919041
 20
265.647140443
 30
0.0
 10
153.1845467807
 20
265.647140443
 30
0.0
  0
SPLINE
  5
4CA
100
AcDbEntity
  8
0
100
AcDbSpline
 62
7
  6
CONTINUOUS
 70
0
 71
3
 72
39
 73
35
 74
0
 42
0.0000001
 43
0.0000001
 44
0.0000000001
 40
0.0
 40
0.0
 40
0.0
 40
0.0
 40
0.0009714183
 40
0.0031201197
 40
0.0064422365
 40
0.010927786
 40
0.0165650703
 40
0.0233387512
 40
0.0402288517
 40
0.0614568562
 40
0.0868297079
 40
0.1161266414
 40
0.1490580791
 40
0.185288182
 40
0.2244758628
 40
0.3103025699
 40
0.4032906876
 40
0.4999118117
 40
0.5965395036
 40
0.6895391161
 40
0.7753908453
 40
0.8145954815
 40
0.8508452909
 40
0.8837985062
 40
0.9131160193
 40
0.9385055026
 40
0.9597619691
 40
0.9766934886
 40
0.9834807473
 40
0.9891194123
 40
0.9935907554
 40
0.996891655
 40
0.9990248325
 40
1.0
 40
1.0
 40
1.0
 40
1.0
 10
38.0814711629
 20
162.8890277513
 30
0.0
 10
38.076374569
 20
162.8978666263
 30
0.0
 10
38.07425696
 20
162.9320042998
 30
0.0
 10
38.0657211677
 20
162.9980349139
 30
0.0
 10
38.0603024651
 20
163.1031043013
 30
0.0
 10
38.0532909223
 20
163.2438810635
 30
0.0
 10
38.0473857182
 20
163.4213558046
 30
0.0
 10
38.0389121455
 20
163.7289468594
 30
0.0
 10
38.0292479724
 20
164.2003889299
 30
0.0
 10
38.0170593162
 20
164.8671211267
 30
0.0
 10
38.0042175774
 20
165.66419206
 30
0.0
 10
37.9912599591
 20
166.5841917988
 30
0.0
 10
37.9786149739
 20
167.6182434577
 30
0.0
 10
37.9667602176
 20
168.7561942697
 30
0.0
 10
37.9512123501
 20
170.4497041611
 30
0.0
 10
37.927455137
 20
172.7393033574
 30
0.0
 10
37.9044581972
 20
175.6321689281
 30
0.0
 10
37.880362516
 20
178.6384723623
 30
0.0
 10
37.8536204573
 20
181.6448748967
 30
0.0
 10
37.8314363841
 20
184.5381985272
 30
0.0
 10
37.8096275332
 20
186.8283789888
 30
0.0
 10
37.7915708574
 20
188.5225118524
 30
0.0
 10
37.7794188392
 20
189.661072861
 30
0.0
 10
37.7683053367
 20
190.6957934181
 30
0.0
 10
37.7562950805
 20
191.6164271177
 30
0.0
 10
37.7425490881
 20
192.4141741625
 30
0.0
 10
37.729179175
 20
193.0817924376
 30
0.0
 10
37.7195178068
 20
193.5541103747
 30
0.0
 10
37.7113941729
 20
193.8623021788
 30
0.0
 10
37.7057717514
 20
194.0397951883
 30
0.0
 10
37.6990152878
 20
194.1802240534
 30
0.0
 10
37.693607643
 20
194.2847622102
 30
0.0
 10
37.6851476159
 20
194.3504432806
 30
0.0
 10
37.682673243
 20
194.3844396577
 30
0.0
 10
37.6774593831
 20
194.3932556516
 30
0.0
  0
SPLINE
  5
4CB
100
AcDbEntity
  8
0
100
AcDbSpline
 62
7
  6
CONTINUOUS
 70
0
 71
3
 72
39
 73
35
 74
0
 42
0.0000001
 43
0.0000001
 44
0.0000000001
 40
0.0
 40
0.0
 40
0.0
 40
0.0
 40
0.0009689597
 40
0.0030983168
 40
0.0063985997
 40
0.0108734398
 40
0.0165227321
 40
0.0233282458
 40
0.0403040845
 40
0.0615926055
 40
0.0869849267
 40
0.1162719939
 40
0.1492298569
 40
0.1855256327
 40
0.2247778409
 40
0.3106246501
 40
0.4036514293
 40
0.5003253675
 40
0.5969522685
 40
0.6899240869
 40
0.7757822864
 40
0.8149701176
 40
0.8511562372
 40
0.8840425777
 40
0.9133343088
 40
0.9387366465
 40
0.9599566479
 40
0.9767832618
 40
0.9835185499
 40
0.9891207086
 40
0.9935790752
 40
0.9968833525
 40
0.9990244142
 40
1.0
 40
1.0
 40
1.0
 40
1.0
 10
37.6775754262
 20
163.5884628137
 30
0.0
 10
37.6727112254
 20
163.596886252
 30
0.0
 10
37.6707408107
 20
163.629304294
 30
0.0
 10
37.6630254799
 20
163.6920202143
 30
0.0
 10
37.658192341
 20
163.7919366815
 30
0.0
 10
37.6516604859
 20
163.9262866744
 30
0.0
 10
37.6457018132
 20
164.0962325225
 30
0.0
 10
37.6367222468
 20
164.391493838
 30
0.0
 10
37.626076801
 20
164.8438411972
 30
0.0
 10
37.6137917833
 20
165.4827358985
 30
0.0
 10
37.6014663302
 20
166.2452542602
 30
0.0
 10
37.5890711588
 20
167.1249223348
 30
0.0
 10
37.5766685821
 20
168.1140574538
 30
0.0
 10
37.5642405936
 20
169.2032348483
 30
0.0
 10
37.5471290519
 20
170.8233246703
 30
0.0
 10
37.5261263687
 20
173.0129049483
 30
0.0
 10
37.5015614707
 20
175.7789111265
 30
0.0
 10
37.4769637789
 20
178.6531382402
 30
0.0
 10
37.452355964
 20
181.5268135221
 30
0.0
 10
37.4277727094
 20
184.2919099141
 30
0.0
 10
37.4068038249
 20
186.4804068292
 30
0.0
 10
37.389683802
 20
188.0988637714
 30
0.0
 10
37.3772410342
 20
189.1855758024
 30
0.0
 10
37.364827126
 20
190.172938663
 30
0.0
 10
37.3524450005
 20
191.0520362241
 30
0.0
 10
37.3401431136
 20
191.8140144495
 30
0.0
 10
37.3278755489
 20
192.4508238866
 30
0.0
 10
37.317202214
 20
192.9002789265
 30
0.0
 10
37.3082074961
 20
193.1928628293
 30
0.0
 10
37.3022399109
 20
193.3614633503
 30
0.0
 10
37.2957039515
 20
193.4952140692
 30
0.0
 10
37.2908893882
 20
193.5951273019
 30
0.0
 10
37.2831365847
 20
193.6580527803
 30
0.0
 10
37.281235994
 20
193.6906810459
 30
0.0
 10
37.2763390357
 20
193.6991623786
 30
0.0
  0
SPLINE
  5
4CC
100
AcDbEntity
  8
0
100
AcDbSpline
 62
7
  6
CONTINUOUS
 70
0
 71
3
 72
37
 73
33
 74
0
 42
0.0000001
 43
0.0000001
 44
0.0000000001
 40
0.0
 40
0.0
 40
0.0
 40
0.0
 40
0.0012775893
 40
0.0036924526
 40
0.0072514798
 40
0.0119497013
 40
0.0177795646
 40
0.024729809
 40
0.0419233073
 40
0.0633893859
 40
0.0889407949
 40
0.118313202
 40
0.1512285373
 40
0.2264537042
 40
0.3118693861
 40
0.404262928
 40
0.5002160484
 40
0.5961567969
 40
0.688537972
 40
0.7739008218
 40
0.8490779493
 40
0.881970745
 40
0.9113072897
 40
0.93680205
 40
0.9582309243
 40
0.9753886721
 40
0.98231998
 40
0.988133291
 40
0.9928143556
 40
0.9963517272
 40
0.9987431412
 40
1.0
 40
1.0
 40
1.0
 40
1.0
 10
72.0049045544
 20
260.9009761739
 30
0.0
 10
72.0110741602
 20
260.8900174174
 30
0.0
 10
72.0177812392
 20
260.8533786761
 30
0.0
 10
72.0284458313
 20
260.7834131949
 30
0.0
 10
72.038152179
 20
260.6784666701
 30
0.0
 10
72.0486999408
 20
260.5403311854
 30
0.0
 10
72.0591128835
 20
260.3685414348
 30
0.0
 10
72.0743081855
 20
260.0739048787
 30
0.0
 10
72.0925984259
 20
259.6252865081
 30
0.0
 10
72.113530335
 20
258.9935686044
 30
0.0
 10
72.134472177
 20
258.2419021055
 30
0.0
 10
72.1555219546
 20
257.3775028516
 30
0.0
 10
72.1850296118
 20
256.0241982232
 30
0.0
 10
72.2210140321
 20
254.1192414183
 30
0.0
 10
72.2626974384
 20
251.6288150492
 30
0.0
 10
72.3045215064
 20
248.9343267251
 30
0.0
 10
72.3464316115
 20
246.1362232969
 30
0.0
 10
72.3883104349
 20
243.3382411516
 30
0.0
 10
72.4301802077
 20
240.6445171652
 30
0.0
 10
72.4719118931
 20
238.1552065188
 30
0.0
 10
72.5078207521
 20
236.2514633003
 30
0.0
 10
72.5373431135
 20
234.8992069439
 30
0.0
 10
72.5584325675
 20
234.0359415035
 30
0.0
 10
72.5794272457
 20
233.2855537201
 30
0.0
 10
72.6003088236
 20
232.6551113473
 30
0.0
 10
72.6185237962
 20
232.2073939545
 30
0.0
 10
72.6336893158
 20
231.9134598119
 30
0.0
 10
72.6440893842
 20
231.7421844337
 30
0.0
 10
72.6546462281
 20
231.604606448
 30
0.0
 10
72.6643487461
 20
231.5002506384
 30
0.0
 10
72.6750619645
 20
231.4309910883
 30
0.0
 10
72.6817465078
 20
231.3947348868
 30
0.0
 10
72.68796412
 20
231.3840386873
 30
0.0
  0
SPLINE
  5
4CD
100
AcDbEntity
  8
0
100
AcDbSpline
 62
7
  6
CONTINUOUS
 70
0
 71
3
 72
39
 73
35
 74
0
 42
0.0000001
 43
0.0000001
 44
0.0000000001
 40
0.0
 40
0.0
 40
0.0
 40
0.0
 40
0.000979488
 40
0.0031286474
 40
0.0064469435
 40
0.0109268518
 40
0.0165592359
 40
0.0233304827
 40
0.040225336
 40
0.0614791992
 40
0.0868941686
 40
0.1162130236
 40
0.1491578375
 40
0.1854118846
 40
0.2246445672
 40
0.3105249592
 40
0.4035577921
 40
0.5002270195
 40
0.5968886353
 40
0.6898999723
 40
0.7757264287
 40
0.8149375526
 40
0.8511849485
 40
0.8841116439
 40
0.9133742619
 40
0.938719234
 40
0.9599375016
 40
0.9768313803
 40
0.9835988164
 40
0.9892160901
 40
0.9936674992
 40
0.9969489822
 40
0.9990585068
 40
1.0
 40
1.0
 40
1.0
 40
1.0
 10
38.8921682375
 20
162.8854835983
 30
0.0
 10
38.8870863808
 20
162.8944320464
 30
0.0
 10
38.8853505129
 20
162.9287285442
 30
0.0
 10
38.8776465999
 20
162.9949041101
 30
0.0
 10
38.8731566671
 20
163.0999567147
 30
0.0
 10
38.8668443455
 20
163.2406542126
 30
0.0
 10
38.8610014799
 20
163.4180445367
 30
0.0
 10
38.8519932533
 20
163.7256838441
 30
0.0
 10
38.8411104019
 20
164.1975342117
 30
0.0
 10
38.8287210777
 20
164.8652249345
 30
0.0
 10
38.8164931855
 20
165.6634846381
 30
0.0
 10
38.8042345153
 20
166.5845779204
 30
0.0
 10
38.7919013476
 20
167.6195596065
 30
0.0
 10
38.7794082128
 20
168.7587028683
 30
0.0
 10
38.7618193613
 20
170.4539795223
 30
0.0
 10
38.7410285704
 20
172.7457874462
 30
0.0
 10
38.7176334959
 20
175.6410384964
 30
0.0
 10
38.6900977059
 20
178.6495296555
 30
0.0
 10
38.669076107
 20
181.6578484747
 30
0.0
 10
38.6420506453
 20
184.5521966783
 30
0.0
 10
38.6211784513
 20
186.8429835428
 30
0.0
 10
38.6051025572
 20
188.5374122734
 30
0.0
 10
38.5926291011
 20
189.6760693257
 30
0.0
 10
38.5798903165
 20
190.710195057
 30
0.0
 10
38.5672830918
 20
191.6297667092
 30
0.0
 10
38.5549425942
 20
192.4263244016
 30
0.0
 10
38.5428345228
 20
193.0928987765
 30
0.0
 10
38.5324265626
 20
193.5643379378
 30
0.0
 10
38.5234530982
 20
193.8717665177
 30
0.0
 10
38.5174107091
 20
194.0486583549
 30
0.0
 10
38.5105733953
 20
194.1884741134
 30
0.0
 10
38.5056620121
 20
194.2924279807
 30
0.0
 10
38.4975014244
 20
194.3573196506
 30
0.0
 10
38.4958821358
 20
194.3908233369
 30
0.0
 10
38.490927254
 20
194.3993844504
 30
0.0
  0
LINE
  5
4CE
100
AcDbEntity
  8
0
100
AcDbLine
 62
7
  6
CONTINUOUS
 10
125.9564454791
 20
48.3927766801
 11
125.6875960148
 21
48.6427766437
  0
SPLINE
  5
4CF
100
AcDbEntity
  8
0
100
AcDbSpline
 62
7
  6
CONTINUOUS
 70
0
 71
3
 72
10
 73
6
 74
0
 42
0.0000001
 43
0.0000001
 44
0.0000000001
 40
0.0
 40
0.0
 40
0.0
 40
0.0
 40
0.3773520369
 40
0.6993739351
 40
1.0
 40
1.0
 40
1.0
 40
1.0
 10
125.6875960148
 20
80.1427766437
 30
0.0
 10
125.6875960148
 20
80.6570936584
 30
0.0
 10
125.6146507852
 20
81.6118624835
 30
0.0
 10
125.3326446363
 20
82.9477950919
 30
0.0
 10
125.0747359053
 20
83.7579004401
 30
0.0
 10
124.9345467966
 20
84.1427766437
 30
0.0
  0
SPLINE
  5
4D0
100
AcDbEntity
  8
0
100
AcDbSpline
 62
7
  6
CONTINUOUS
 70
0
 71
3
 72
37
 73
33
 74
0
 42
0.0000001
 43
0.0000001
 44
0.0000000001
 40
0.0
 40
0.0
 40
0.0
 40
0.0
 40
0.0009829401
 40
0.0031499854
 40
0.0064940949
 40
0.0110004479
 40
0.0166530627
 40
0.0234355962
 40
0.04032436
 40
0.0615341535
 40
0.0869248568
 40
0.1162507771
 40
0.1491850746
 40
0.2663461254
 40
0.4033213416
 40
0.5483957319
 40
0.6201879693
 40
0.6894446458
 40
0.7546426984
 40
0.8144251903
 40
0.867596472
 40
0.912967744
 40
0.9323797757
 40
0.9494910199
 40
0.9642315942
 40
0.9765316934
 40
0.9863216745
 40
0.9935322999
 40
0.9961490883
 40
0.9980969127
 40
0.9993771475
 40
1.0
 40
1.0
 40
1.0
 40
1.0
 10
38.4875705395
 20
163.586211251
 30
0.0
 10
38.4826364881
 20
163.5947569292
 30
0.0
 10
38.4808083262
 20
163.6277563101
 30
0.0
 10
38.4730095512
 20
163.6913949939
 30
0.0
 10
38.4682307466
 20
163.7924717444
 30
0.0
 10
38.4616885088
 20
163.9276127093
 30
0.0
 10
38.4557294674
 20
164.0976863104
 30
0.0
 10
38.4467504419
 20
164.391888736
 30
0.0
 10
38.4360935427
 20
164.8423605681
 30
0.0
 10
38.4238030823
 20
165.4796029134
 30
0.0
 10
38.411502883
 20
166.2417395094
 30
0.0
 10
38.3991353372
 20
167.1215848365
 30
0.0
 10
38.3765666914
 20
168.9226666934
 30
0.0
 10
38.3469781102
 20
171.8044377531
 30
0.0
 10
38.3111013882
 20
175.8119792092
 30
0.0
 10
38.2809628069
 20
179.3640930455
 30
0.0
 10
38.2560867753
 20
182.236396034
 30
0.0
 10
38.2375189817
 20
184.3068397396
 30
0.0
 10
38.2189653177
 20
186.2567118344
 30
0.0
 10
38.2004481343
 20
188.0450943415
 30
0.0
 10
38.1820138287
 20
189.6344231444
 30
0.0
 10
38.1660765609
 20
190.8184718937
 30
0.0
 10
38.1529616192
 20
191.6405114216
 30
0.0
 10
38.1436717977
 20
192.1550718197
 30
0.0
 10
38.1344007241
 20
192.5982119369
 30
0.0
 10
38.125253044
 20
192.9678672922
 30
0.0
 10
38.1160598234
 20
193.2618209568
 30
0.0
 10
38.1082807309
 20
193.4587330046
 30
0.0
 10
38.1012226479
 20
193.5765811994
 30
0.0
 10
38.0971939234
 20
193.6353969027
 30
0.0
 10
38.0920955956
 20
193.6732243279
 30
0.0
 10
38.089716557
 20
193.6928480309
 30
0.0
 10
38.0865898644
 20
193.6982630119
 30
0.0
  0
SPLINE
  5
4D1
100
AcDbEntity
  8
0
100
AcDbSpline
 62
7
  6
CONTINUOUS
 70
0
 71
3
 72
39
 73
35
 74
0
 42
0.0000001
 43
0.0000001
 44
0.0000000001
 40
0.0
 40
0.0
 40
0.0
 40
0.0
 40
0.000932231
 40
0.003028768
 40
0.0062954984
 40
0.0107322732
 40
0.0163348541
 40
0.0230867675
 40
0.03996081
 40
0.0611904832
 40
0.0865619803
 40
0.1158390983
 40
0.1487499335
 40
0.184999385
 40
0.2242401978
 40
0.3101300119
 40
0.4031904314
 40
0.4999136898
 40
0.5966376912
 40
0.6897068352
 40
0.7756174412
 40
0.8148640788
 40
0.8511160261
 40
0.8840368257
 40
0.9133346504
 40
0.9387336756
 40
0.9599767869
 40
0.9768463426
 40
0.9835969501
 40
0.9892032081
 40
0.9936512623
 40
0.9969348159
 40
0.9990501254
 40
1.0
 40
1.0
 40
1.0
 40
1.0
 10
39.7027190835
 20
162.8861845918
 30
0.0
 10
39.6978238099
 20
162.8946676558
 30
0.0
 10
39.696516761
 20
162.9279859982
 30
0.0
 10
39.6886714106
 20
162.9924986442
 30
0.0
 10
39.6841404513
 20
163.0960353668
 30
0.0
 10
39.6774443437
 20
163.2353869759
 30
0.0
 10
39.6712060771
 20
163.4117997809
 30
0.0
 10
39.6616240967
 20
163.7186802006
 30
0.0
 10
39.6504328406
 20
164.1898476705
 30
0.0
 10
39.6388182039
 20
164.8566161754
 30
0.0
 10
39.6273709458
 20
165.6537301816
 30
0.0
 10
39.6147292961
 20
166.5735569088
 30
0.0
 10
39.6014643257
 20
167.6076737666
 30
0.0
 10
39.5888617669
 20
168.7464858344
 30
0.0
 10
39.5724238278
 20
170.4418944755
 30
0.0
 10
39.5519045781
 20
172.7341568351
 30
0.0
 10
39.5257394732
 20
175.6303142671
 30
0.0
 10
39.5027306043
 20
178.6403278455
 30
0.0
 10
39.4775005417
 20
181.6504151177
 30
0.0
 10
39.4520128444
 20
184.5468955318
 30
0.0
 10
39.4327708091
 20
186.8395419219
 30
0.0
 10
39.4145122253
 20
188.5352381366
 30
0.0
 10
39.4017476109
 20
189.6742398906
 30
0.0
 10
39.3895618513
 20
190.7087182854
 30
0.0
 10
39.3775913309
 20
191.6291658548
 30
0.0
 10
39.3656017039
 20
192.4269205513
 30
0.0
 10
39.3532427447
 20
193.0940590294
 30
0.0
 10
39.3419868801
 20
193.565303141
 30
0.0
 10
39.3326533814
 20
193.8721695941
 30
0.0
 10
39.3266600872
 20
194.0487325481
 30
0.0
 10
39.3202780074
 20
194.1884356364
 30
0.0
 10
39.3159614009
 20
194.2924704306
 30
0.0
 10
39.3083043735
 20
194.3575646636
 30
0.0
 10
39.306931573
 20
194.391270191
 30
0.0
 10
39.3019532508
 20
194.3999193402
 30
0.0
  0
SPLINE
  5
4D2
100
AcDbEntity
  8
0
100
AcDbSpline
 62
7
  6
CONTINUOUS
 70
0
 71
3
 72
37
 73
33
 74
0
 42
0.0000001
 43
0.0000001
 44
0.0000000001
 40
0.0
 40
0.0
 40
0.0
 40
0.0
 40
0.0012639325
 40
0.0036604313
 40
0.0072023378
 40
0.0118904996
 40
0.0177192178
 40
0.0246719383
 40
0.0418752396
 40
0.0633452292
 40
0.0888735319
 40
0.1182227758
 40
0.1511262173
 40
0.2263544271
 40
0.3117546144
 40
0.4041335738
 40
0.50008942
 40
0.5960391492
 40
0.6884188592
 40
0.7737872464
 40
0.8490002748
 40
0.8819055343
 40
0.9112363213
 40
0.9367318675
 40
0.9581747036
 40
0.9753669676
 40
0.9823166134
 40
0.9881413704
 40
0.992823783
 40
0.9963586008
 40
0.9987463891
 40
1.0
 40
1.0
 40
1.0
 40
1.0
 10
70.6157856679
 20
260.9006245496
 30
0.0
 10
70.6219494652
 20
260.889817413
 30
0.0
 10
70.6286440103
 20
260.8534821911
 30
0.0
 10
70.639302556
 20
260.7840198388
 30
0.0
 10
70.6490076424
 20
260.6795184064
 30
0.0
 10
70.6595750706
 20
260.541671571
 30
0.0
 10
70.6700178638
 20
260.3699729433
 30
0.0
 10
70.6852619165
 20
260.0752380424
 30
0.0
 10
70.7035668945
 20
259.6264724202
 30
0.0
 10
70.7243780959
 20
258.9948607017
 30
0.0
 10
70.7452214057
 20
258.2436295751
 30
0.0
 10
70.7662824034
 20
257.379827454
 30
0.0
 10
70.7959859347
 20
256.0268799008
 30
0.0
 10
70.8319495875
 20
254.122214929
 30
0.0
 10
70.8734805638
 20
251.6321215101
 30
0.0
 10
70.9154657752
 20
248.9379798314
 30
0.0
 10
70.9573817974
 20
246.1399825163
 30
0.0
 10
70.9990389263
 20
243.3419739214
 30
0.0
 10
71.041131856
 20
240.6481997349
 30
0.0
 10
71.0827295672
 20
238.1585626454
 30
0.0
 10
71.1186084762
 20
236.2543408073
 30
0.0
 10
71.1482626074
 20
234.9017053881
 30
0.0
 10
71.1693732944
 20
234.0383907928
 30
0.0
 10
71.1903164647
 20
233.2879339372
 30
0.0
 10
71.2111580008
 20
232.6570226632
 30
0.0
 10
71.229355804
 20
232.208658592
 30
0.0
 10
71.2445209939
 20
231.9140991997
 30
0.0
 10
71.2549254032
 20
231.7425210771
 30
0.0
 10
71.2655041934
 20
231.6048489108
 30
0.0
 10
71.2752225794
 20
231.5005420826
 30
0.0
 10
71.2859511835
 20
231.4313858152
 30
0.0
 10
71.2926393727
 20
231.3951938436
 30
0.0
 10
71.2988611285
 20
231.3845374549
 30
0.0
  0
SPLINE
  5
4D3
100
AcDbEntity
  8
0
100
AcDbSpline
 62
7
  6
CONTINUOUS
 70
0
 71
3
 72
39
 73
35
 74
0
 42
0.0000001
 43
0.0000001
 44
0.0000000001
 40
0.0
 40
0.0
 40
0.0
 40
0.0
 40
0.0009847576
 40
0.0031399768
 40
0.0064655293
 40
0.0109545055
 40
0.0165983226
 40
0.0233823267
 40
0.040297057
 40
0.0615478356
 40
0.086940094
 40
0.1162394286
 40
0.1491794539
 40
0.1854289285
 40
0.2246430259
 40
0.3104692911
 40
0.4034561191
 40
0.5000726921
 40
0.5966848986
 40
0.6896723505
 40
0.7754775144
 40
0.8146768279
 40
0.8509183296
 40
0.8838532115
 40
0.9131437532
 40
0.9385226443
 40
0.9597630553
 40
0.9766695813
 40
0.9834487728
 40
0.9890865653
 40
0.9935675137
 40
0.9968832842
 40
0.9990274505
 40
1.0
 40
1.0
 40
1.0
 40
1.0
 10
40.1111110395
 20
194.3999963143
 30
0.0
 10
40.1162211667
 20
194.3910000212
 30
0.0
 10
40.118297074
 20
194.3566557899
 30
0.0
 10
40.1263676441
 20
194.2902862742
 30
0.0
 10
40.1313527169
 20
194.185037207
 30
0.0
 10
40.1379665213
 20
194.0440503039
 30
0.0
 10
40.1437929335
 20
193.8663080304
 30
0.0
 10
40.1523829411
 20
193.558186295
 30
0.0
 10
40.1624711399
 20
193.0859998313
 30
0.0
 10
40.1748864587
 20
192.4183598498
 30
0.0
 10
40.1879075117
 20
191.6205734644
 30
0.0
 10
40.2005046768
 20
190.6999602172
 30
0.0
 10
40.2122428712
 20
189.6652547784
 30
0.0
 10
40.2241810203
 20
188.5263772383
 30
0.0
 10
40.2421906478
 20
186.8318843009
 30
0.0
 10
40.2639323875
 20
184.541287644
 30
0.0
 10
40.2862356283
 20
181.6475765038
 30
0.0
 10
40.3127508048
 20
178.6405743034
 30
0.0
 10
40.3368755185
 20
175.6335457453
 30
0.0
 10
40.3604774347
 20
172.7401061037
 30
0.0
 10
40.3824580265
 20
170.4498828069
 30
0.0
 10
40.4000407427
 20
168.7558462095
 30
0.0
 10
40.4117898425
 20
167.6172598656
 30
0.0
 10
40.4234088346
 20
166.582783194
 30
0.0
 10
40.4361039352
 20
165.6624579872
 30
0.0
 10
40.449389901
 20
164.8650175874
 30
0.0
 10
40.461874282
 20
164.1977151784
 30
0.0
 10
40.4717008599
 20
163.725768284
 30
0.0
 10
40.4801637145
 20
163.417844286
 30
0.0
 10
40.4859855078
 20
163.2402973626
 30
0.0
 10
40.4927551351
 20
163.0995734273
 30
0.0
 10
40.4978882985
 20
162.9946236382
 30
0.0
 10
40.5061433143
 20
162.9286382956
 30
0.0
 10
40.508182805
 20
162.8945232884
 30
0.0
 10
40.5132633051
 20
162.8856577639
 30
0.0
  0
SPLINE
  5
4D4
100
AcDbEntity
  8
0
100
AcDbSpline
 62
7
  6
CONTINUOUS
 70
0
 71
3
 72
37
 73
33
 74
0
 42
0.0000001
 43
0.0000001
 44
0.0000000001
 40
0.0
 40
0.0
 40
0.0
 40
0.0
 40
0.0009705692
 40
0.0030989347
 40
0.0063871152
 40
0.0108302432
 40
0.0164222723
 40
0.0231567876
 40
0.0400247683
 40
0.0612913988
 40
0.0866973454
 40
0.1159750813
 40
0.1488569929
 40
0.2661548299
 40
0.4031814438
 40
0.5484388314
 40
0.6202996986
 40
0.6895701422
 40
0.7548239119
 40
0.8147081023
 40
0.8678734041
 40
0.9131636097
 40
0.9325918548
 40
0.9497408668
 40
0.9645097023
 40
0.9767975019
 40
0.9865118249
 40
0.9936192691
 40
0.9961932782
 40
0.9981134455
 40
0.9993803676
 40
1.0
 40
1.0
 40
1.0
 40
1.0
 10
39.2977527722
 20
163.5875197029
 30
0.0
 10
39.2928808809
 20
163.5959569877
 30
0.0
 10
39.2909282349
 20
163.6283846404
 30
0.0
 10
39.2832085627
 20
163.6909825486
 30
0.0
 10
39.2783735895
 20
163.7904425206
 30
0.0
 10
39.2718422123
 20
163.9237745516
 30
0.0
 10
39.2658708046
 20
164.092106211
 30
0.0
 10
39.256865435
 20
164.384986273
 30
0.0
 10
39.2462090761
 20
164.8353027713
 30
0.0
 10
39.2339463937
 20
165.4730109973
 30
0.0
 10
39.2216311927
 20
166.235327761
 30
0.0
 10
39.2092380865
 20
167.1142475159
 30
0.0
 10
39.1866043453
 20
168.9155517209
 30
0.0
 10
39.1570732013
 20
171.7984620407
 30
0.0
 10
39.1210981627
 20
175.8094162712
 30
0.0
 10
39.0909672069
 20
179.3642952322
 30
0.0
 10
39.0660727141
 20
182.2390383306
 30
0.0
 10
39.0474735452
 20
184.310706823
 30
0.0
 10
39.0288992449
 20
186.2621451564
 30
0.0
 10
39.0103926725
 20
188.0519085659
 30
0.0
 10
38.9919495679
 20
189.6412605072
 30
0.0
 10
38.9759521137
 20
190.8245049933
 30
0.0
 10
38.9628408993
 20
191.6462085376
 30
0.0
 10
38.9535505619
 20
192.1615545023
 30
0.0
 10
38.9442817281
 20
192.6051995851
 30
0.0
 10
38.9351453699
 20
192.9742268759
 30
0.0
 10
38.9259467438
 20
193.2662388481
 30
0.0
 10
38.9181346924
 20
193.4609052719
 30
0.0
 10
38.9110630793
 20
193.5770021565
 30
0.0
 10
38.9070130111
 20
193.6349614173
 30
0.0
 10
38.9019341839
 20
193.6723525593
 30
0.0
 10
38.8995277498
 20
193.6917913902
 30
0.0
 10
38.8964172964
 20
193.697177859
 30
0.0
  0
SPLINE
  5
4D5
100
AcDbEntity
  8
0
100
AcDbSpline
 62
7
  6
CONTINUOUS
 70
0
 71
3
 72
9
 73
5
 74
0
 42
0.0000001
 43
0.0000001
 44
0.0000000001
 40
0.0
 40
0.0
 40
0.0
 40
0.0
 40
0.494138631
 40
1.0
 40
1.0
 40
1.0
 40
1.0
 10
109.5660989788
 20
266.1427766437
 30
0.0
 10
109.4429056417
 20
266.1427764497
 30
0.0
 10
109.1843289548
 20
266.0336102581
 30
0.0
 10
109.083867669
 20
265.7742145797
 30
0.0
 10
109.0825261396
 20
265.6481057906
 30
0.0
  0
SPLINE
  5
4D6
100
AcDbEntity
  8
0
100
AcDbSpline
 62
7
  6
CONTINUOUS
 70
0
 71
3
 72
18
 73
14
 74
0
 42
0.0000001
 43
0.0000001
 44
0.0000000001
 40
0.0
 40
0.0
 40
0.0
 40
0.0
 40
0.1949282081
 40
0.3830128997
 40
0.5559498538
 40
0.7073338663
 40
0.8315065105
 40
0.8819432563
 40
0.9238973073
 40
0.9568913183
 40
0.9806868069
 40
0.9951074163
 40
1.0
 40
1.0
 40
1.0
 40
1.0
 10
48.9258202452
 20
200.6115813161
 30
0.0
 10
48.8896187865
 20
200.6651635554
 30
0.0
 10
48.8185603687
 20
200.7704977517
 30
0.0
 10
48.7156415857
 20
200.9235362078
 30
0.0
 10
48.6209957253
 20
201.0647508785
 30
0.0
 10
48.538460758
 20
201.188494271
 30
0.0
 10
48.4785578601
 20
201.2786506006
 30
0.0
 10
48.4392285663
 20
201.3385862752
 30
0.0
 10
48.4160622766
 20
201.3735379483
 30
0.0
 10
48.3992976088
 20
201.4006604535
 30
0.0
 10
48.3842219882
 20
201.4214412982
 30
0.0
 10
48.380949488
 20
201.4320947295
 30
0.0
 10
48.3733445188
 20
201.4392616018
 30
0.0
 10
48.3746893694
 20
201.4401702848
 30
0.0
  0
SPLINE
  5
4D7
100
AcDbEntity
  8
0
100
AcDbSpline
 62
7
  6
CONTINUOUS
 70
0
 71
3
 72
39
 73
35
 74
0
 42
0.0000001
 43
0.0000001
 44
0.0000000001
 40
0.0
 40
0.0
 40
0.0
 40
0.0
 40
0.0009700015
 40
0.0031037935
 40
0.0064135764
 40
0.0109043145
 40
0.0165678287
 40
0.0233807582
 40
0.0403570076
 40
0.0616368575
 40
0.0870236074
 40
0.1163203564
 40
0.149290992
 40
0.1855832734
 40
0.2248235056
 40
0.3106529571
 40
0.4036758463
 40
0.5003282577
 40
0.5969326138
 40
0.6898994312
 40
0.7757418641
 40
0.8149137075
 40
0.8511001401
 40
0.8839959458
 40
0.9132961836
 40
0.9386959598
 40
0.9599005036
 40
0.9767321723
 40
0.9834763347
 40
0.9890894134
 40
0.9935591058
 40
0.996873473
 40
0.9990217432
 40
1.0
 40
1.0
 40
1.0
 40
1.0
 10
40.1075421721
 20
163.5882531604
 30
0.0
 10
40.1026727097
 20
163.596685828
 30
0.0
 10
40.1007125196
 20
163.6291647368
 30
0.0
 10
40.0929881894
 20
163.6920278686
 30
0.0
 10
40.0881621251
 20
163.7922492787
 30
0.0
 10
40.0816347424
 20
163.9269985513
 30
0.0
 10
40.0756781873
 20
164.0973247815
 30
0.0
 10
40.0667005281
 20
164.3928125156
 30
0.0
 10
40.0560536772
 20
164.8451590397
 30
0.0
 10
40.0437674544
 20
165.483925702
 30
0.0
 10
40.0314414139
 20
166.2464112232
 30
0.0
 10
40.0190519633
 20
167.1262638267
 30
0.0
 10
40.0066549675
 20
168.1156061637
 30
0.0
 10
39.9942265913
 20
169.2047749676
 30
0.0
 10
39.9771154156
 20
170.8245627396
 30
0.0
 10
39.9561149722
 20
173.0138466896
 30
0.0
 10
39.9315593635
 20
175.7794705095
 30
0.0
 10
39.9069627528
 20
178.6532649535
 30
0.0
 10
39.8823560893
 20
181.5264964049
 30
0.0
 10
39.857780755
 20
184.2912050075
 30
0.0
 10
39.8368173918
 20
186.4793701555
 30
0.0
 10
39.8196936845
 20
188.0975388986
 30
0.0
 10
39.8072540884
 20
189.1842070795
 30
0.0
 10
39.7948439591
 20
190.1717703332
 30
0.0
 10
39.7824655733
 20
191.0510375879
 30
0.0
 10
39.770169622
 20
191.8129333702
 30
0.0
 10
39.7578917103
 20
192.4496232469
 30
0.0
 10
39.7472214552
 20
192.8990706728
 30
0.0
 10
39.7382311349
 20
193.1919090846
 30
0.0
 10
39.7322660145
 20
193.3608256233
 30
0.0
 10
39.7257273136
 20
193.4949020193
 30
0.0
 10
39.7209244024
 20
193.5951090828
 30
0.0
 10
39.7131532794
 20
193.6582283149
 30
0.0
 10
39.7112804262
 20
193.6909681372
 30
0.0
 10
39.7063700531
 20
193.6994728792
 30
0.0
  0
SPLINE
  5
4D8
100
AcDbEntity
  8
0
100
AcDbSpline
 62
7
  6
CONTINUOUS
 70
0
 71
3
 72
37
 73
33
 74
0
 42
0.0000001
 43
0.0000001
 44
0.0000000001
 40
0.0
 40
0.0
 40
0.0
 40
0.0
 40
0.0012546662
 40
0.0036448216
 40
0.0071846836
 40
0.0118745115
 40
0.0177017199
 40
0.0246488938
 40
0.0418315811
 40
0.0632666721
 40
0.0887608642
 40
0.1181048346
 40
0.1510142848
 40
0.2262197343
 40
0.311587612
 40
0.4039701406
 40
0.4999186405
 40
0.5958686082
 40
0.6882481406
 40
0.773651837
 40
0.8488755928
 40
0.8817812452
 40
0.9111304836
 40
0.9366614144
 40
0.9581276873
 40
0.9753307921
 40
0.9822812464
 40
0.9881041569
 40
0.9927890815
 40
0.9963321536
 40
0.998732184
 40
1.0
 40
1.0
 40
1.0
 40
1.0
 10
69.2266515143
 20
260.9012418757
 30
0.0
 10
69.2328778698
 20
260.8905760141
 30
0.0
 10
69.2395712333
 20
260.8543494672
 30
0.0
 10
69.2502951364
 20
260.7851081051
 30
0.0
 10
69.2599985521
 20
260.6806517697
 30
0.0
 10
69.2705471415
 20
260.5428290812
 30
0.0
 10
69.2809337235
 20
260.3711755044
 30
0.0
 10
69.2960768253
 20
260.0767068698
 30
0.0
 10
69.3142833205
 20
259.6285343439
 30
0.0
 10
69.3352131641
 20
258.9978042104
 30
0.0
 10
69.3562408529
 20
258.2473025311
 30
0.0
 10
69.377296691
 20
257.3838208399
 30
0.0
 10
69.4067291293
 20
256.031071888
 30
0.0
 10
69.4426926324
 20
254.1268731696
 30
0.0
 10
69.4845165125
 20
251.6372688116
 30
0.0
 10
69.5262622936
 20
248.943454068
 30
0.0
 10
69.5680460814
 20
246.1454641924
 30
0.0
 10
69.610244054
 20
243.3475100212
 30
0.0
 10
69.6518903615
 20
240.653356321
 30
0.0
 10
69.6934587097
 20
238.1632442344
 30
0.0
 10
69.7295635106
 20
236.2585523817
 30
0.0
 10
69.7591625325
 20
234.9056124185
 30
0.0
 10
69.7802009645
 20
234.0417542249
 30
0.0
 10
69.8010989928
 20
233.2905284228
 30
0.0
 10
69.8219925733
 20
232.6589263931
 30
0.0
 10
69.8402626582
 20
232.2102165653
 30
0.0
 10
69.8554524582
 20
231.915557553
 30
0.0
 10
69.8658597706
 20
231.7439671228
 30
0.0
 10
69.8764044464
 20
231.6061940239
 30
0.0
 10
69.8861076036
 20
231.5016789862
 30
0.0
 10
69.8967729732
 20
231.4321285379
 30
0.0
 10
69.9034906532
 20
231.3957255706
 30
0.0
 10
69.909666396
 20
231.3848811127
 30
0.0
  0
SPLINE
  5
4D9
100
AcDbEntity
  8
0
100
AcDbSpline
 62
7
  6
CONTINUOUS
 70
0
 71
3
 72
26
 73
22
 74
0
 42
0.0000001
 43
0.0000001
 44
0.0000000001
 40
0.0
 40
0.0
 40
0.0
 40
0.0
 40
0.0007610986
 40
0.0023446998
 40
0.0047561775
 40
0.0079945877
 40
0.0169432946
 40
0.0291706329
 40
0.0446392932
 40
0.0632299932
 40
0.0847962344
 40
0.1091914055
 40
0.1658818553
 40
0.2320728183
 40
0.3060957588
 40
0.3860709938
 40
0.4701084411
 40
0.5561822874
 40
0.7259168429
 40
0.8788234454
 40
1.0
 40
1.0
 40
1.0
 40
1.0
 10
27.9577264232
 20
163.5879528307
 30
0.0
 10
27.9542677042
 20
163.5939425699
 30
0.0
 10
27.9518945683
 20
163.615903027
 30
0.0
 10
27.9463056543
 20
163.6581764993
 30
0.0
 10
27.9420540312
 20
163.7241031453
 30
0.0
 10
27.9344299131
 20
163.8563687248
 30
0.0
 10
27.9260986347
 20
164.0782314528
 30
0.0
 10
27.9162214389
 20
164.4110352909
 30
0.0
 10
27.906439687
 20
164.8315883175
 30
0.0
 10
27.896510121
 20
165.3369903173
 30
0.0
 10
27.8865584805
 20
165.9235389378
 30
0.0
 10
27.8725277907
 20
166.8563005885
 30
0.0
 10
27.8554127569
 20
168.1945969185
 30
0.0
 10
27.8356690307
 20
169.9838933363
 30
0.0
 10
27.8158510956
 20
171.9848056837
 30
0.0
 10
27.7959640638
 20
174.147907683
 30
0.0
 10
27.7760616838
 20
176.4205288301
 30
0.0
 10
27.749636246
 20
179.5088285371
 30
0.0
 10
27.7178486145
 20
183.2229675798
 30
0.0
 10
27.6797723231
 20
187.2560629264
 30
0.0
 10
27.6512992151
 20
189.7466906875
 30
0.0
 10
27.6351896784
 20
190.8477875108
 30
0.0
  0
SPLINE
  5
4DA
100
AcDbEntity
  8
0
100
AcDbSpline
 62
7
  6
CONTINUOUS
 70
0
 71
3
 72
17
 73
13
 74
0
 42
0.0000001
 43
0.0000001
 44
0.0000000001
 40
0.0
 40
0.0
 40
0.0
 40
0.0
 40
0.2235598628
 40
0.4210849581
 40
0.5912885319
 40
0.7328847502
 40
0.8448006085
 40
0.9267051541
 40
0.9563540947
 40
0.9784457862
 40
0.9929760896
 40
1.0
 40
1.0
 40
1.0
 40
1.0
 10
27.6351896784
 20
190.8477875108
 30
0.0
 10
27.6320809522
 20
191.0602708752
 30
0.0
 10
27.6259393291
 20
191.4604879098
 30
0.0
 10
27.6162130314
 20
192.0224599303
 30
0.0
 10
27.6065072887
 20
192.506496322
 30
0.0
 10
27.5969442108
 20
192.9091742055
 30
0.0
 10
27.587296057
 20
193.2277993282
 30
0.0
 10
27.5791399306
 20
193.4402020654
 30
0.0
 10
27.5717042543
 20
193.5668508279
 30
0.0
 10
27.5675189506
 20
193.6300137129
 30
0.0
 10
27.5621063919
 20
193.6705969961
 30
0.0
 10
27.5597178149
 20
193.6916850192
 30
0.0
 10
27.5563790915
 20
193.6974669009
 30
0.0
  0
SPLINE
  5
4DB
100
AcDbEntity
  8
0
100
AcDbSpline
 62
7
  6
CONTINUOUS
 70
0
 71
3
 72
13
 73
9
 74
0
 42
0.0000001
 43
0.0000001
 44
0.0000000001
 40
0.0
 40
0.0
 40
0.0
 40
0.0
 40
0.4199494798
 40
0.7271424216
 40
0.8380692025
 40
0.9204902539
 40
0.9744015185
 40
1.0
 40
1.0
 40
1.0
 40
1.0
 10
40.9595611427
 20
193.6534311375
 30
0.0
 10
40.9566927015
 20
193.7580169514
 30
0.0
 10
40.9511366157
 20
193.9390413763
 30
0.0
 10
40.9430346948
 20
194.1478256798
 30
0.0
 10
40.9356737856
 20
194.2721348435
 30
0.0
 10
40.9316519687
 20
194.3339209114
 30
0.0
 10
40.9263682037
 20
194.373355965
 30
0.0
 10
40.9242776472
 20
194.3937994583
 30
0.0
 10
40.9210881107
 20
194.3993221279
 30
0.0
  0
LINE
  5
4DC
100
AcDbEntity
  8
0
100
AcDbLine
 62
7
  6
CONTINUOUS
 10
28.5156666419
 20
184.4862310572
 11
28.513321968
 21
184.7377566761
  0
LINE
  5
4DD
100
AcDbEntity
  8
0
100
AcDbLine
 62
7
  6
CONTINUOUS
 10
28.513321968
 20
184.7377566761
 11
28.5109725765
 21
184.9877715313
  0
SPLINE
  5
4DE
100
AcDbEntity
  8
0
100
AcDbSpline
 62
7
  6
CONTINUOUS
 70
0
 71
3
 72
21
 73
17
 74
0
 42
0.0000001
 43
0.0000001
 44
0.0000000001
 40
0.0
 40
0.0
 40
0.0
 40
0.0
 40
0.2118357163
 40
0.405039635
 40
0.5761308821
 40
0.7218447067
 40
0.7841650432
 40
0.8389492745
 40
0.8859926098
 40
0.9251469738
 40
0.9562648833
 40
0.9792002324
 40
0.9875550308
 40
0.993812286
 40
0.9979590135
 40
1.0
 40
1.0
 40
1.0
 40
1.0
 10
28.5109725765
 20
184.9877715313
 30
0.0
 10
28.5051665037
 20
185.6030691612
 30
0.0
 10
28.4937260582
 20
186.7795433768
 30
0.0
 10
28.4759166952
 20
188.4529522704
 30
0.0
 10
28.4581751367
 20
189.9342833542
 30
0.0
 10
28.4428346962
 20
191.0354345608
 30
0.0
 10
28.430241478
 20
191.7987459709
 30
0.0
 10
28.4213128896
 20
192.2754701423
 30
0.0
 10
28.4123988339
 20
192.6848810886
 30
0.0
 10
28.4035979809
 20
193.0255582016
 30
0.0
 10
28.3947604464
 20
193.29610848
 30
0.0
 10
28.387256288
 20
193.4773439755
 30
0.0
 10
28.3804899251
 20
193.5860624616
 30
0.0
 10
28.3765831947
 20
193.6406611559
 30
0.0
 10
28.371733443
 20
193.6760342849
 30
0.0
 10
28.3693910555
 20
193.6944673736
 30
0.0
 10
28.3664267483
 20
193.6996015831
 30
0.0
  0
SPLINE
  5
4DF
100
AcDbEntity
  8
0
100
AcDbSpline
 62
7
  6
CONTINUOUS
 70
0
 71
3
 72
39
 73
35
 74
0
 42
0.0000001
 43
0.0000001
 44
0.0000000001
 40
0.0
 40
0.0
 40
0.0
 40
0.0
 40
0.0009829688
 40
0.0031442859
 40
0.0064775731
 40
0.0109696148
 40
0.0166060351
 40
0.0233720968
 40
0.0402335056
 40
0.061434095
 40
0.0868299718
 40
0.1161465298
 40
0.1490643063
 40
0.1852637507
 40
0.2244252852
 40
0.3102411438
 40
0.4032014126
 40
0.4997745887
 40
0.5963841176
 40
0.6893845883
 40
0.7751854247
 40
0.8143987135
 40
0.8506720486
 40
0.8836443816
 40
0.9129575179
 40
0.9383353279
 40
0.9595945431
 40
0.976557051
 40
0.9833715013
 40
0.9890452247
 40
0.9935562561
 40
0.9968845223
 40
0.9990275878
 40
1.0
 40
1.0
 40
1.0
 40
1.0
 10
40.9176355285
 20
163.5859811637
 30
0.0
 10
40.912701428
 20
163.594527056
 30
0.0
 10
40.9108775698
 20
163.6274668786
 30
0.0
 10
40.9030735216
 20
163.6909415333
 30
0.0
 10
40.8982917625
 20
163.7917047383
 30
0.0
 10
40.8917479724
 20
163.9264301985
 30
0.0
 10
40.885787479
 20
164.0960301833
 30
0.0
 10
40.8768038337
 20
164.3896274197
 30
0.0
 10
40.8661420861
 20
164.8395630454
 30
0.0
 10
40.8538530466
 20
165.4764852367
 30
0.0
 10
40.8415582982
 20
166.2384814205
 30
0.0
 10
40.8291879617
 20
167.1181117843
 30
0.0
 10
40.8167837267
 20
168.1062100723
 30
0.0
 10
40.8043503955
 20
169.1931479238
 30
0.0
 10
40.7872268777
 20
170.8111095984
 30
0.0
 10
40.7662666626
 20
172.9988828175
 30
0.0
 10
40.7417065027
 20
175.7630016731
 30
0.0
 10
40.7171048186
 20
178.635481748
 30
0.0
 10
40.6925109122
 20
181.5083654857
 30
0.0
 10
40.6679664047
 20
184.27310224
 30
0.0
 10
40.6469759931
 20
186.4616475368
 30
0.0
 10
40.6298645986
 20
188.0807199339
 30
0.0
 10
40.617437641
 20
189.1694670153
 30
0.0
 10
40.6050431737
 20
190.1588206518
 30
0.0
 10
40.5926685685
 20
191.0387830002
 30
0.0
 10
40.5803435616
 20
191.801151505
 30
0.0
 10
40.5680572586
 20
192.4394961189
 30
0.0
 10
40.5574083874
 20
192.8915217697
 30
0.0
 10
40.5484341142
 20
193.1869952773
 30
0.0
 10
40.5424759044
 20
193.3576469676
 30
0.0
 10
40.5359502982
 20
193.4928892962
 30
0.0
 10
40.5311462541
 20
193.5936024428
 30
0.0
 10
40.5234020512
 20
193.6567606721
 30
0.0
 10
40.521465685
 20
193.6893693686
 30
0.0
 10
40.5165841499
 20
193.697823237
 30
0.0
  0
SPLINE
  5
4E0
100
AcDbEntity
  8
0
100
AcDbSpline
 62
7
  6
CONTINUOUS
 70
0
 71
3
 72
21
 73
17
 74
0
 42
0.0000001
 43
0.0000001
 44
0.0000000001
 40
0.0
 40
0.0
 40
0.0
 40
0.0
 40
0.1950864945
 40
0.3826759896
 40
0.5555595999
 40
0.7070936
 40
0.7729932978
 40
0.8314547744
 40
0.8819025808
 40
0.9238642644
 40
0.9569217701
 40
0.9807715924
 40
0.9891616282
 40
0.9951697162
 40
0.9987848865
 40
1.0
 40
1.0
 40
1.0
 40
1.0
 10
118.6845467807
 20
265.6471404481
 30
0.0
 10
118.5870016573
 20
265.6471404481
 30
0.0
 10
118.395660027
 20
265.6470866028
 30
0.0
 10
118.1178747615
 20
265.6468467793
 30
0.0
 10
117.861867235
 20
265.6464573171
 30
0.0
 10
117.6667035309
 20
265.6460080354
 30
0.0
 10
117.5287570531
 20
265.6455677242
 30
0.0
 10
117.4413440129
 20
265.6452354385
 30
0.0
 10
117.3659305301
 20
265.6448577256
 30
0.0
 10
117.3031329458
 20
265.6445323804
 30
0.0
 10
117.253866007
 20
265.6440133786
 30
0.0
 10
117.2208680381
 20
265.6439383395
 30
0.0
 10
117.2022202767
 20
265.6432610599
 30
0.0
 10
117.1924320809
 20
265.6436736102
 30
0.0
 10
117.1884045103
 20
265.6424091072
 30
0.0
 10
117.1845474268
 20
265.6433847715
 30
0.0
 10
117.184547428
 20
265.6427772031
 30
0.0
  0
SPLINE
  5
4E1
100
AcDbEntity
  8
0
100
AcDbSpline
 62
7
  6
CONTINUOUS
 70
0
 71
3
 72
8
 73
4
 74
0
 42
0.0000001
 43
0.0000001
 44
0.0000000001
 40
0.0
 40
0.0
 40
0.0
 40
0.0
 40
1.0
 40
1.0
 40
1.0
 40
1.0
 10
29.7916714979
 20
177.4180234927
 30
0.0
 10
29.7848476274
 20
178.2357315875
 30
0.0
 10
29.7783804561
 20
179.0534426548
 30
0.0
 10
29.772026312
 20
179.8711545347
 30
0.0
  0
SPLINE
  5
4E2
100
AcDbEntity
  8
0
100
AcDbSpline
 62
7
  6
CONTINUOUS
 70
0
 71
3
 72
9
 73
5
 74
0
 42
0.0000001
 43
0.0000001
 44
0.0000000001
 40
0.0
 40
0.0
 40
0.0
 40
0.0
 40
0.2539407145
 40
1.0
 40
1.0
 40
1.0
 40
1.0
 10
29.772026312
 20
179.8711545347
 30
0.0
 10
29.7696427289
 20
180.1778967453
 30
0.0
 10
29.7602984958
 20
181.3858254924
 30
0.0
 10
29.750003438
 20
182.5937469822
 30
0.0
 10
29.741709745
 20
183.4949222538
 30
0.0
  0
ENDSEC
  0
SECTION
  2
OBJECTS
  0
DICTIONARY
  5
C
100
AcDbDictionary
280
0
281
1
  3
ACAD_GROUP
350
D
  3
ACAD_MLINESTYLE
350
17
  3
ACAD_LAYOUT
350
1A
  3
ACAD_PLOTSETTINGS
350
19
  3
ACAD_PLOTSTYLENAME
350
E
  0
DICTIONARY
  5
D
102
{ACAD_REACTORS
330
C
102
}
100
AcDbDictionary
280
0
281
1
  0
ACDBDICTIONARYWDFLT
  5
E
102
{ACAD_REACTORS
330
C
102
}
100
AcDbDictionary
281
1
  3
Normal
350
F
100
AcDbDictionaryWithDefault
340
F
  0
DICTIONARY
  5
17
102
{ACAD_REACTORS
330
C
102
}
100
AcDbDictionary
280
0
281
1
  3
Standard
350
18
  0
DICTIONARY
  5
19
102
{ACAD_REACTORS
330
C
102
}
100
AcDbDictionary
281
1
  0
DICTIONARY
  5
1A
102
{ACAD_REACTORS
330
C
102
}
100
AcDbDictionary
281
1
  3
Model
350
4E3
  3
Layout1
350
4E4
  0
ACDBPLACEHOLDER
  5
F
102
{ACAD_REACTORS
330
E
102
}
  0
MLINESTYLE
  5
18
102
{ACAD_REACTORS
330
17
102
}
100
AcDbMlineStyle
  2
STANDARD
 70
0
  3

 62
256
 51
90.0
 52
90.0
 71
2
 49
0.5
 62
256
  6
BYLAYER
 49
-0.5
 62
256
  6
BYLAYER
  0
LAYOUT
  5
4E3
102
{ACAD_REACTORS
330
1A
102
}
100
AcDbPlotSettings
  1

  2
none_device
  4

  6

 40
0.0
 41
0.0
 42
0.0
 43
0.0
 44
210.0
 45
297.0
 46
0.0
 47
0.0
 48
0.0
 49
0.0
140
0.0
141
0.0
142
1.0
143
1.0
 70
1024
 72
1
 73
0
 74
0
  7

 75
0
147
1.0
148
0.0
149
0.0
100
AcDbLayout
  1
Model
 70
0
 71
0
 10
0.0
 20
0.0
 11
210.0
 21
297.0
 12
0.0
 22
0.0
 32
0.0
 14
0.0
 24
0.0
 34
0.0
 15
0.0
 25
0.0
 35
0.0
146
0.0
 13
0.0
 23
0.0
 33
0.0
 16
1.0
 26
0.0
 36
0.0
 17
0.0
 27
1.0
 37
0.0
 76
0
330
210
345
0
346
0
  0
LAYOUT
  5
4E4
102
{ACAD_REACTORS
330
1A
102
}
100
AcDbPlotSettings
  1

  2
none_device
  4

  6

 40
0.0
 41
0.0
 42
0.0
 43
0.0
 44
210.0
 45
297.0
 46
0.0
 47
0.0
 48
0.0
 49
0.0
140
0.0
141
0.0
142
1.0
143
1.0
 70
0
 72
1
 73
0
 74
0
  7

 75
0
147
1.0
148
0.0
149
0.0
100
AcDbLayout
  1
Layout1
 70
0
 71
1
 10
0.0
 20
0.0
 11
210.0
 21
297.0
 12
0.0
 22
0.0
 32
0.0
 14
0.0
 24
0.0
 34
0.0
 15
0.0
 25
0.0
 35
0.0
146
0.0
 13
0.0
 23
0.0
 33
0.0
 16
1.0
 26
0.0
 36
0.0
 17
0.0
 27
1.0
 37
0.0
 76
0
330
211
345
0
346
0
  0
ENDSEC
  0
EOF
