999
DXF file: C:\Users\sesa63760\Dev\_Creo\CAD\MCADID0001185_3D-CAD\drw0001_4.dxf
999
Pro/ENGINEER 2019471 by Parametric Technology Corporation
  0
SECTION
  2
HEADER
  9
$ACADVER
  1
AC1024
  9
$DWGCODEPAGE
  3
ANSI_1252
  9
$EXTMAX
 10
107.0572214955
 20
151.4094989722
 30
0.0
  9
$EXTMIN
 10
0.0
 20
0.0
 30
0.0
  9
$LIMMIN
 10
0.0
 20
0.0
  9
$LIMMAX
 10
107.0572214955
 20
151.4094989722
  9
$VIEWCTR
 10
53.5286107477
 20
75.7047494861
  9
$VIEWSIZE
 40
151.4094989722
  9
$CLAYER
  8
0
  9
$LTSCALE
 40
9.8696562293
  9
$CELTYPE
  6
BYLAYER
  9
$DIMSCALE
 40
1.0
  9
$DIMASZ
 40
1.2744907321
  9
$DIMEXO
 40
1.0
  9
$DIMDLI
 40
6.819035213
  9
$DIMEXE
 40
1.0
  9
$DIMCEN
 40
1.6150346557
  9
$DIMLFAC
 40
1.0
  9
$DIMBLK
  1
_FILLED
  9
$DIMALT
 70
0
  9
$DIMALTF
 40
0.0393700787
  9
$DIMTXT
 40
1.7842870249
  9
$DIMTOL
 70
1
  9
$DIMLIM
 70
0
  9
$DIMTFAC
 40
1.0
  9
$DIMTP
 40
0.01
  9
$DIMTM
 40
0.01
  9
$DIMGAP
 40
0.625
  9
$DIMDSEP
 70
46
  9
$AUNITS
 70
0
  9
$PDMODE
 70
3
  9
$PDSIZE
 40
0.3125
  9
$HANDSEED
  5
2AD
  9
$TILEMODE
 70
1
  9
$MEASUREMENT
 70
1
  9
$INSUNITS
 70
4
  0
ENDSEC
  0
SECTION
  2
CLASSES
  0
CLASS
  1
ACDBDICTIONARYWDFLT
  2
AcDbDictionaryWithDefault
  3
AutoCAD 2000
 90
0
 91
1
280
0
281
0
  0
CLASS
  1
ACDBPLACEHOLDER
  2
AcDbPlaceHolder
  3
AutoCAD 2000
 90
0
 91
1
280
0
281
0
  0
CLASS
  1
LAYOUT
  2
AcDbLayout
  3
AutoCAD 2000
 90
0
 91
0
280
0
281
0
  0
ENDSEC
  0
SECTION
  2
TABLES
  0
TABLE
  2
VPORT
  5
8
100
AcDbSymbolTable
 70
2
  0
VPORT
  5
1F4
100
AcDbSymbolTableRecord
100
AcDbViewportTableRecord
  2
*ACTIVE
 70
0
 10
0.0
 20
0.0
 11
1.0
 21
1.0
 12
53.5286107477
 22
75.7047494861
 13
0.0
 23
0.0
 14
1.0
 24
1.0
 15
0.0
 25
0.0
 16
0.0
 26
0.0
 36
1.0
 17
0.0
 27
0.0
 37
0.0
 40
151.4094989722
 41
0.7070707071
 42
50.0
 43
0.0
 44
0.0
 50
0.0
 51
0.0
 71
0
 72
100
 73
1
 74
1
 75
0
 76
0
 77
0
 78
0
  0
ENDTAB
  0
TABLE
  2
LTYPE
  5
5
100
AcDbSymbolTable
 70
6
  0
LTYPE
  5
14
100
AcDbSymbolTableRecord
100
AcDbLinetypeTableRecord
  2
BYBLOCK
 70
0
  3

 72
65
 73
0
 40
0.0
  0
LTYPE
  5
15
100
AcDbSymbolTableRecord
100
AcDbLinetypeTableRecord
  2
BYLAYER
 70
0
  3

 72
65
 73
0
 40
0.0
  0
LTYPE
  5
16
100
AcDbSymbolTableRecord
100
AcDbLinetypeTableRecord
  2
CONTINUOUS
 70
64
  3
Solid line
 72
65
 73
0
 40
0.0
  0
LTYPE
  5
1F5
100
AcDbSymbolTableRecord
100
AcDbLinetypeTableRecord
  2
CENTER
 70
64
  3
____ _ ____ _ ____ _ ____ _ ____ _ ____ _ ____
 72
65
 73
4
 40
0.6
 49
0.375
 74
0
 49
-0.075
 74
0
 49
0.075
 74
0
 49
-0.075
 74
0
  0
LTYPE
  5
1F6
100
AcDbSymbolTableRecord
100
AcDbLinetypeTableRecord
  2
HIDDEN
 70
64
  3
- - - - - - - - - - - - - - - - - - - -
 72
65
 73
2
 40
0.2
 49
0.1
 74
0
 49
-0.1
 74
0
  0
LTYPE
  5
1F7
100
AcDbSymbolTableRecord
100
AcDbLinetypeTableRecord
  2
PHANTOM
 70
64
  3
_____ _ _ _____ _ _ _____ _ _ _____
 72
65
 73
6
 40
0.8
 49
0.45
 74
0
 49
-0.05
 74
0
 49
0.1
 74
0
 49
-0.05
 74
0
 49
0.1
 74
0
 49
-0.05
 74
0
  0
LTYPE
  5
1F8
100
AcDbSymbolTableRecord
100
AcDbLinetypeTableRecord
  2
DOT
 70
64
  3
. . . . . . . . . . . . . . . . . . . .
 72
65
 73
2
 40
0.2
 49
0.1
 74
0
 49
-0.1
 74
0
  0
LTYPE
  5
1F9
100
AcDbSymbolTableRecord
100
AcDbLinetypeTableRecord
  2
DASHED
 70
64
  3
- - - - - - - - - - - - - - - - - - - -
 72
65
 73
2
 40
0.2
 49
0.1
 74
0
 49
-0.1
 74
0
  0
ENDTAB
  0
TABLE
  2
LAYER
  5
2
100
AcDbSymbolTable
 70
36
  0
LAYER
  5
10
100
AcDbSymbolTableRecord
100
AcDbLayerTableRecord
  2
0
 70
0
 62
7
  6
CONTINUOUS
370
-3
390
F
  0
LAYER
  5
1FA
100
AcDbSymbolTableRecord
100
AcDbLayerTableRecord
  2
DEFAULT_1
 70
0
 62
7
  6
CENTER
370
-3
390
F
  0
LAYER
  5
1FB
100
AcDbSymbolTableRecord
100
AcDbLayerTableRecord
  2
DEFAULT_2
 70
0
 62
8
  6
HIDDEN
370
-3
390
F
  0
LAYER
  5
1FC
100
AcDbSymbolTableRecord
100
AcDbLayerTableRecord
  2
DEFAULT_3
 70
0
 62
7
  6
PHANTOM
370
-3
390
F
  0
LAYER
  5
1FD
100
AcDbSymbolTableRecord
100
AcDbLayerTableRecord
  2
00_COMPONENTS
 70
0
 62
7
  6
CONTINUOUS
370
-3
390
F
  0
LAYER
  5
1FE
100
AcDbSymbolTableRecord
100
AcDbLayerTableRecord
  2
01_1_DEFAULT_DATUMS
 70
0
 62
7
  6
CONTINUOUS
370
-3
390
F
  0
LAYER
  5
1FF
100
AcDbSymbolTableRecord
100
AcDbLayerTableRecord
  2
01_PLANES
 70
0
 62
7
  6
CONTINUOUS
370
-3
390
F
  0
LAYER
  5
200
100
AcDbSymbolTableRecord
100
AcDbLayerTableRecord
  2
02_COORD_SYS
 70
0
 62
7
  6
CONTINUOUS
370
-3
390
F
  0
LAYER
  5
201
100
AcDbSymbolTableRecord
100
AcDbLayerTableRecord
  2
03_AXES
 70
0
 62
7
  6
CONTINUOUS
370
-3
390
F
  0
LAYER
  5
202
100
AcDbSymbolTableRecord
100
AcDbLayerTableRecord
  2
04_POINTS
 70
0
 62
7
  6
CONTINUOUS
370
-3
390
F
  0
LAYER
  5
203
100
AcDbSymbolTableRecord
100
AcDbLayerTableRecord
  2
05_CURVES
 70
0
 62
7
  6
CONTINUOUS
370
-3
390
F
  0
LAYER
  5
204
100
AcDbSymbolTableRecord
100
AcDbLayerTableRecord
  2
06_SURFS
 70
0
 62
7
  6
CONTINUOUS
370
-3
390
F
  0
LAYER
  5
205
100
AcDbSymbolTableRecord
100
AcDbLayerTableRecord
  2
07_COSMETICS
 70
0
 62
7
  6
CONTINUOUS
370
-3
390
F
  0
LAYER
  5
206
100
AcDbSymbolTableRecord
100
AcDbLayerTableRecord
  2
10_NOTES
 70
0
 62
7
  6
CONTINUOUS
370
-3
390
F
  0
LAYER
  5
207
100
AcDbSymbolTableRecord
100
AcDbLayerTableRecord
  2
11_NOTES_PUB
 70
0
 62
7
  6
CONTINUOUS
370
-3
390
F
  0
LAYER
  5
208
100
AcDbSymbolTableRecord
100
AcDbLayerTableRecord
  2
13_REF_GTOL
 70
0
 62
7
  6
CONTINUOUS
370
-3
390
F
  0
LAYER
  5
209
100
AcDbSymbolTableRecord
100
AcDbLayerTableRecord
  2
16_MISC
 70
0
 62
7
  6
CONTINUOUS
370
-3
390
F
  0
LAYER
  5
20A
100
AcDbSymbolTableRecord
100
AcDbLayerTableRecord
  2
17_NO_PRINT
 70
0
 62
7
  6
CONTINUOUS
370
-3
390
F
  0
LAYER
  5
20B
100
AcDbSymbolTableRecord
100
AcDbLayerTableRecord
  2
18_DATUM_CAMS_JOINTS
 70
0
 62
7
  6
CONTINUOUS
370
-3
390
F
  0
LAYER
  5
20C
100
AcDbSymbolTableRecord
100
AcDbLayerTableRecord
  2
19_DATUM_FUNCTIONAL
 70
0
 62
7
  6
CONTINUOUS
370
-3
390
F
  0
LAYER
  5
20D
100
AcDbSymbolTableRecord
100
AcDbLayerTableRecord
  2
20_DATUM_KINEMATIC_SCHEME
 70
0
 62
7
  6
CONTINUOUS
370
-3
390
F
  0
ENDTAB
  0
TABLE
  2
STYLE
  5
3
100
AcDbSymbolTable
 70
1
  0
STYLE
  5
11
100
AcDbSymbolTableRecord
100
AcDbTextStyleTableRecord
  2
STANDARD
 70
0
 40
0.0
 41
0.8
 50
0.0
 71
0
 42
0.2
  3
txt
  4

  0
STYLE
  5
20E
100
AcDbSymbolTableRecord
100
AcDbTextStyleTableRecord
  2
TEXTSTYLE_1
 70
0
 40
0.0
 41
0.8
 50
0.0
 71
0
 42
0.2
  3
gdt
  4

  0
ENDTAB
  0
TABLE
  2
VIEW
  5
6
100
AcDbSymbolTable
 70
0
  0
ENDTAB
  0
TABLE
  2
UCS
  5
7
100
AcDbSymbolTable
 70
0
  0
ENDTAB
  0
TABLE
  2
APPID
  5
9
100
AcDbSymbolTable
 70
1
  0
APPID
  5
20F
100
AcDbSymbolTableRecord
100
AcDbRegAppTableRecord
  2
ACAD
 70
0
  0
ENDTAB
  0
TABLE
  2
BLOCK_RECORD
  5
1
100
AcDbSymbolTable
 70
0
  0
BLOCK_RECORD
  5
210
100
AcDbSymbolTableRecord
100
AcDbBlockTableRecord
  2
*Model_Space
  0
BLOCK_RECORD
  5
211
100
AcDbSymbolTableRecord
100
AcDbBlockTableRecord
  2
*Paper_Space
  0
BLOCK_RECORD
  5
212
100
AcDbSymbolTableRecord
100
AcDbBlockTableRecord
  2
_FILLED
  0
ENDTAB
  0
TABLE
  2
DIMSTYLE
  5
A
100
AcDbSymbolTable
 70
1
100
AcDbDimStyleTable
 71
0
  0
DIMSTYLE
105
213
100
AcDbSymbolTableRecord
100
AcDbDimStyleTableRecord
  2
STANDARD
 70
0
  3

  4

 40
1.0
 41
1.2744907321
 42
1.0
 43
0.38
 44
1.0
 45
0.0
 46
0.0
 47
0.01
 48
0.01
140
1.7842870249
141
0.09
142
0.0
143
25.4
144
1.0
145
0.0
146
1.0
147
0.625
 71
1
 72
0
 73
0
 74
0
 75
0
 76
0
 77
1
 78
8
 79
2
170
0
171
1
172
0
173
0
174
0
175
0
176
0
177
0
178
0
270
2
179
2
271
2
272
2
273
2
274
2
275
0
280
0
281
0
282
0
283
1
284
8
285
0
286
0
287
3
288
0
340
11
278
46
341
212
342
212
343
212
344
212
  0
ENDTAB
  0
ENDSEC
  0
SECTION
  2
BLOCKS
  0
BLOCK
  5
20
100
AcDbEntity
  8
0
100
AcDbBlockBegin
  2
*Model_Space
 70
0
 10
0.0
 20
0.0
 30
0.0
  3
*Model_Space
  1

  0
ENDBLK
  5
21
100
AcDbEntity
  8
0
100
AcDbBlockEnd
  0
BLOCK
  5
1C
100
AcDbEntity
  8
0
100
AcDbBlockBegin
  2
*Paper_Space
 70
0
 10
0.0
 20
0.0
 30
0.0
  3
*Paper_Space
  1

  0
ENDBLK
  5
1D
100
AcDbEntity
  8
0
100
AcDbBlockEnd
  0
BLOCK
  5
214
100
AcDbEntity
  8
0
100
AcDbBlockBegin
  2
_FILLED
 70
64
 10
0.0
 20
0.0
  3
_FILLED
  1

  0
SOLID
  5
215
100
AcDbEntity
  8
0
  6
BYBLOCK
 62
0
100
AcDbTrace
 10
0.0
 20
0.0
 11
-1.0
 21
0.25
 12
-1.0
 22
-0.25
 13
-1.0
 23
-0.25
  0
ENDBLK
  5
216
100
AcDbEntity
  8
0
  6
BYBLOCK
 62
0
100
AcDbBlockEnd
  0
ENDSEC
  0
SECTION
  2
ENTITIES
  0
LINE
  5
217
100
AcDbEntity
  8
0
100
AcDbLine
 62
7
  6
CONTINUOUS
 10
22.5215222983
 20
10.8414390329
 11
87.3155553537
 21
10.8414390329
  0
LINE
  5
218
100
AcDbEntity
  8
0
100
AcDbLine
 62
7
  6
CONTINUOUS
 10
86.1155553537
 20
12.0414390329
 11
23.2145499329
 21
12.0414390329
  0
LINE
  5
219
100
AcDbEntity
  8
0
100
AcDbLine
 62
7
  6
CONTINUOUS
 10
21.7185379937
 20
13.744423714
 11
22.5215222983
 21
13.7444234751
  0
LINE
  5
21A
100
AcDbEntity
  8
0
100
AcDbLine
 62
7
  6
CONTINUOUS
 10
87.3155553537
 20
13.7444234751
 11
88.1185380838
 21
13.744423714
  0
LINE
  5
21B
100
AcDbEntity
  8
0
100
AcDbLine
 62
7
  6
CONTINUOUS
 10
87.3155553538
 20
14.899305901
 11
86.1155553537
 21
14.899305901
  0
LINE
  5
21C
100
AcDbEntity
  8
0
100
AcDbLine
 62
7
  6
CONTINUOUS
 10
23.2145499329
 20
14.899305901
 11
22.5215222982
 21
14.899305901
  0
LINE
  5
21D
100
AcDbEntity
  8
0
100
AcDbLine
 62
7
  6
CONTINUOUS
 10
15.021525127
 20
20.441443715
 11
14.9185395927
 21
20.4414401479
  0
LINE
  5
21E
100
AcDbEntity
  8
0
100
AcDbLine
 62
7
  6
CONTINUOUS
 10
94.8155529283
 20
20.441443715
 11
94.9185381113
 21
20.4414401479
  0
LINE
  5
21F
100
AcDbEntity
  8
0
100
AcDbLine
 62
7
  6
CONTINUOUS
 10
90.0816279793
 20
26.8324840728
 11
89.4970372789
 21
26.8153574782
  0
LINE
  5
220
100
AcDbEntity
  8
0
100
AcDbLine
 62
7
  6
CONTINUOUS
 10
48.9359992434
 20
29.9414425242
 11
47.9358412419
 21
29.9425647223
  0
LINE
  5
221
100
AcDbEntity
  8
0
100
AcDbLine
 62
7
  6
CONTINUOUS
 10
60.9010784086
 20
29.9414420414
 11
61.9012364101
 21
29.9403198432
  0
LINE
  5
222
100
AcDbEntity
  8
0
100
AcDbLine
 62
7
  6
CONTINUOUS
 10
20.340040373
 20
26.8153612035
 11
19.7554387731
 21
26.8316511612
  0
LINE
  5
223
100
AcDbEntity
  8
0
100
AcDbLine
 62
7
  6
CONTINUOUS
 10
14.9185393108
 20
132.8448342996
 11
14.9185395927
 21
76.774842966
  0
LINE
  5
224
100
AcDbEntity
  8
0
100
AcDbLine
 62
7
  6
CONTINUOUS
 10
14.9185395927
 20
76.4980638679
 11
14.9185395927
 21
20.4414401479
  0
LINE
  5
225
100
AcDbEntity
  8
0
100
AcDbLine
 62
7
  6
CONTINUOUS
 10
19.7554387731
 20
33.8503984567
 11
20.3400403731
 21
33.8675257283
  0
LINE
  5
226
100
AcDbEntity
  8
0
100
AcDbLine
 62
7
  6
CONTINUOUS
 10
89.497037279
 20
33.867522003
 11
90.0816279793
 21
33.851233304
  0
LINE
  5
227
100
AcDbEntity
  8
0
100
AcDbLine
 62
7
  6
CONTINUOUS
 10
42.6419384146
 20
18.280483023
 11
44.0810800283
 21
16.1304963118
  0
LINE
  5
228
100
AcDbEntity
  8
0
100
AcDbLine
 62
7
  6
CONTINUOUS
 10
16.1185395407
 20
20.4441695849
 11
16.1185395407
 21
75.3084757043
  0
LINE
  5
229
100
AcDbEntity
  8
0
100
AcDbLine
 62
7
  6
CONTINUOUS
 10
19.7554387731
 20
26.8316511612
 11
19.7554387731
 21
33.8503984567
  0
LINE
  5
22A
100
AcDbEntity
  8
0
100
AcDbLine
 62
7
  6
CONTINUOUS
 10
53.9801639386
 20
36.8958812431
 11
54.0443741859
 21
36.9042212238
  0
LINE
  5
22B
100
AcDbEntity
  8
0
100
AcDbLine
 62
7
  6
CONTINUOUS
 10
53.8482592359
 20
37.8871453126
 11
53.9181743689
 21
37.8962272021
  0
LINE
  5
22C
100
AcDbEntity
  8
0
100
AcDbLine
 62
7
  6
CONTINUOUS
 10
55.9888127724
 20
38.9597796368
 11
53.8482648442
 21
38.9597785673
  0
LINE
  5
22D
100
AcDbEntity
  8
0
100
AcDbLine
 62
7
  6
CONTINUOUS
 10
55.7926823382
 20
36.9042356691
 11
55.856856338
 21
36.8958889922
  0
LINE
  5
22E
100
AcDbEntity
  8
0
100
AcDbLine
 62
7
  6
CONTINUOUS
 10
55.9189145886
 20
37.8962376341
 11
55.9888184234
 21
37.8871453117
  0
LINE
  5
22F
100
AcDbEntity
  8
0
100
AcDbLine
 62
7
  6
CONTINUOUS
 10
30.4172014291
 20
40.8114938328
 11
42.6419384146
 21
18.280483023
  0
LINE
  5
230
100
AcDbEntity
  8
0
100
AcDbLine
 62
7
  6
CONTINUOUS
 10
32.449184812
 20
41.9050496571
 11
44.6693944979
 21
19.3821508449
  0
LINE
  5
231
100
AcDbEntity
  8
0
100
AcDbLine
 62
7
  6
CONTINUOUS
 10
22.5215222983
 20
10.8414390329
 11
22.5215222983
 21
13.7444234751
  0
LINE
  5
232
100
AcDbEntity
  8
0
100
AcDbLine
 62
7
  6
CONTINUOUS
 10
23.2145499329
 20
12.0414390329
 11
23.2145499329
 21
14.899305901
  0
LINE
  5
233
100
AcDbEntity
  8
0
100
AcDbLine
 62
7
  6
CONTINUOUS
 10
23.2371464841
 20
33.8414412456
 11
23.2371464841
 21
26.8414419609
  0
LINE
  5
234
100
AcDbEntity
  8
0
100
AcDbLine
 62
7
  6
CONTINUOUS
 10
23.9185393326
 20
76.774842966
 11
23.9185393326
 21
76.4992530383
  0
LINE
  5
235
100
AcDbEntity
  8
0
100
AcDbLine
 62
7
  6
CONTINUOUS
 10
61.139722563
 20
41.3268679033
 11
61.4051622883
 21
41.396839477
  0
LWPOLYLINE
  5
236
100
AcDbEntity
  8
0
100
AcDbPolyline
 62
7
  6
CONTINUOUS
 90
3
 70
0
 10
44.3337335293
 20
44.4052410858
 10
48.4375389448
 20
41.3943644695
 10
48.6983372217
 20
41.3256532276
  0
LINE
  5
237
100
AcDbEntity
  8
0
100
AcDbLine
 62
7
  6
CONTINUOUS
 10
46.1401993759
 20
20.1785480094
 11
33.9154687692
 21
42.7095467838
  0
LINE
  5
238
100
AcDbEntity
  8
0
100
AcDbLine
 62
7
  6
CONTINUOUS
 10
58.1004267885
 20
46.5007047438
 11
51.7504265305
 21
46.5007047438
  0
LINE
  5
239
100
AcDbEntity
  8
0
100
AcDbLine
 62
7
  6
CONTINUOUS
 10
58.1005324106
 20
46.8542581093
 11
51.7505321526
 21
46.8542581093
  0
LINE
  5
23A
100
AcDbEntity
  8
0
100
AcDbLine
 62
7
  6
CONTINUOUS
 10
58.1003950309
 20
47.5260087259
 11
51.750394773
 21
47.5260087259
  0
LINE
  5
23B
100
AcDbEntity
  8
0
100
AcDbLine
 62
7
  6
CONTINUOUS
 10
62.3443833705
 20
48.4414411616
 11
58.1001215492
 21
48.4414460066
  0
LINE
  5
23C
100
AcDbEntity
  8
0
100
AcDbLine
 62
7
  6
CONTINUOUS
 10
51.7501212892
 20
48.4414532554
 11
47.5026416342
 21
48.441458104
  0
LINE
  5
23D
100
AcDbEntity
  8
0
100
AcDbLine
 62
7
  6
CONTINUOUS
 10
46.0963042654
 20
49.5294906859
 11
47.5026416342
 21
48.4414478047
  0
LINE
  5
23E
100
AcDbEntity
  8
0
100
AcDbLine
 62
7
  6
CONTINUOUS
 10
34.07028334
 20
76.5005943886
 11
34.07028334
 21
76.774842966
  0
LINE
  5
23F
100
AcDbEntity
  8
0
100
AcDbLine
 62
7
  6
CONTINUOUS
 10
58.0985138961
 20
53.8228120804
 11
51.7485142057
 21
53.8209155955
  0
LINE
  5
240
100
AcDbEntity
  8
0
100
AcDbLine
 62
7
  6
CONTINUOUS
 10
93.7185381113
 20
52.7903166485
 11
82.3146290124
 21
52.7903166485
  0
LINE
  5
241
100
AcDbEntity
  8
0
100
AcDbLine
 62
7
  6
CONTINUOUS
 10
27.5224480615
 20
52.7903166485
 11
16.1185395407
 21
52.7903166485
  0
LINE
  5
242
100
AcDbEntity
  8
0
100
AcDbLine
 62
7
  6
CONTINUOUS
 10
16.1185395407
 20
53.8563611454
 11
27.5706327736
 21
53.8563611454
  0
LINE
  5
243
100
AcDbEntity
  8
0
100
AcDbLine
 62
7
  6
CONTINUOUS
 10
82.2664445081
 20
53.8563611454
 11
93.7185381113
 21
53.8563611454
  0
LWPOLYLINE
  5
244
100
AcDbEntity
  8
0
100
AcDbPolyline
 62
7
  6
CONTINUOUS
 90
3
 70
0
 10
39.9862071047
 20
54.3884337053
 10
40.9712778081
 20
49.3746403617
 10
41.2419914944
 20
48.9480165356
  0
LINE
  5
245
100
AcDbEntity
  8
0
100
AcDbLine
 62
7
  6
CONTINUOUS
 10
42.3449343747
 20
74.3980751183
 11
42.3449343747
 21
75.3084757043
  0
LINE
  5
246
100
AcDbEntity
  8
0
100
AcDbLine
 62
7
  6
CONTINUOUS
 10
48.6445625565
 20
12.0414390329
 11
48.6445625565
 21
12.9873404824
  0
LINE
  5
247
100
AcDbEntity
  8
0
100
AcDbLine
 62
7
  6
CONTINUOUS
 10
53.848259236
 20
37.8871453119
 11
53.9801639386
 21
36.8958812431
  0
LINE
  5
248
100
AcDbEntity
  8
0
100
AcDbLine
 62
7
  6
CONTINUOUS
 10
53.9181743689
 20
37.8962272021
 11
54.0443741859
 21
36.9042212238
  0
LINE
  5
249
100
AcDbEntity
  8
0
100
AcDbLine
 62
7
  6
CONTINUOUS
 10
51.7504265305
 20
46.5007047438
 11
51.7485142057
 21
53.8209155955
  0
LWPOLYLINE
  5
24A
100
AcDbEntity
  8
0
100
AcDbPolyline
 62
7
  6
CONTINUOUS
 90
3
 70
0
 10
43.1476081192
 20
63.9935005935
 10
40.8698222178
 20
60.2478150033
 10
40.7594287936
 20
59.628147224
  0
LINE
  5
24B
100
AcDbEntity
  8
0
100
AcDbLine
 62
7
  6
CONTINUOUS
 10
58.3536959728
 20
72.2286534365
 11
51.4833735815
 21
72.2286534365
  0
LINE
  5
24C
100
AcDbEntity
  8
0
100
AcDbLine
 62
7
  6
CONTINUOUS
 10
51.4848687101
 20
73.9012596284
 11
58.3522094661
 21
73.9012596284
  0
LINE
  5
24D
100
AcDbEntity
  8
0
100
AcDbLine
 62
7
  6
CONTINUOUS
 10
16.1185395407
 20
75.3084757043
 11
93.7185381113
 21
75.3084757043
  0
LWPOLYLINE
  5
24E
100
AcDbEntity
  8
0
100
AcDbPolyline
 62
7
  6
CONTINUOUS
 90
3
 70
0
 10
65.3117685357
 20
65.579295086
 10
61.5992283932
 20
68.3903568513
 10
61.2582457113
 20
68.4865288375
  0
LINE
  5
24F
100
AcDbEntity
  8
0
100
AcDbLine
 62
7
  6
CONTINUOUS
 10
58.0985138961
 20
53.8228120804
 11
58.1004267885
 21
46.5007047438
  0
LINE
  5
250
100
AcDbEntity
  8
0
100
AcDbLine
 62
7
  6
CONTINUOUS
 10
55.9189145886
 20
37.8962376341
 11
55.7926823382
 21
36.9042356691
  0
LINE
  5
251
100
AcDbEntity
  8
0
100
AcDbLine
 62
7
  6
CONTINUOUS
 10
48.1457527958
 20
68.3442330362
 11
44.5301509797
 21
65.575247441
  0
LINE
  5
252
100
AcDbEntity
  8
0
100
AcDbLine
 62
7
  6
CONTINUOUS
 10
48.5658153582
 20
68.466133121
 11
48.1457527958
 21
68.3442330362
  0
LINE
  5
253
100
AcDbEntity
  8
0
100
AcDbLine
 62
7
  6
CONTINUOUS
 10
75.7685397602
 20
76.5061039808
 11
34.07028334
 21
76.5005943886
  0
LINE
  5
254
100
AcDbEntity
  8
0
100
AcDbLine
 62
7
  6
CONTINUOUS
 10
23.9185393326
 20
76.4992530383
 11
14.9185395927
 21
76.4980638679
  0
LINE
  5
255
100
AcDbEntity
  8
0
100
AcDbLine
 62
7
  6
CONTINUOUS
 10
88.3685388268
 20
76.5077688192
 11
94.9185381113
 21
76.5086342709
  0
LINE
  5
256
100
AcDbEntity
  8
0
100
AcDbLine
 62
7
  6
CONTINUOUS
 10
23.9185393326
 20
76.774842966
 11
14.9185395927
 21
76.774842966
  0
LINE
  5
257
100
AcDbEntity
  8
0
100
AcDbLine
 62
7
  6
CONTINUOUS
 10
34.07028334
 20
76.774842966
 11
75.7685397602
 21
76.774842966
  0
LINE
  5
258
100
AcDbEntity
  8
0
100
AcDbLine
 62
7
  6
CONTINUOUS
 10
88.3685388268
 20
76.774842966
 11
94.9185381113
 21
76.774842966
  0
LINE
  5
259
100
AcDbEntity
  8
0
100
AcDbLine
 62
7
  6
CONTINUOUS
 10
68.9616584859
 20
60.259064688
 11
66.6683612879
 21
64.0114193955
  0
LINE
  5
25A
100
AcDbEntity
  8
0
100
AcDbLine
 62
7
  6
CONTINUOUS
 10
61.1925160128
 20
12.9873405151
 11
61.1925160128
 21
12.0414390329
  0
LINE
  5
25B
100
AcDbEntity
  8
0
100
AcDbLine
 62
7
  6
CONTINUOUS
 10
55.9888184233
 20
37.8871453105
 11
55.856856338
 21
36.8958889922
  0
LINE
  5
25C
100
AcDbEntity
  8
0
100
AcDbLine
 62
7
  6
CONTINUOUS
 10
67.4921617416
 20
75.3084757043
 11
67.4921617416
 21
74.3980663928
  0
LINE
  5
25D
100
AcDbEntity
  8
0
100
AcDbLine
 62
7
  6
CONTINUOUS
 10
69.0763689316
 20
59.617550173
 11
68.9616584859
 21
60.259064688
  0
LINE
  5
25E
100
AcDbEntity
  8
0
100
AcDbLine
 62
7
  6
CONTINUOUS
 10
75.7685397602
 20
76.774842966
 11
75.7685397602
 21
76.5061039808
  0
LINE
  5
25F
100
AcDbEntity
  8
0
100
AcDbLine
 62
7
  6
CONTINUOUS
 10
68.8642704235
 20
49.3708169231
 11
69.8493500119
 21
54.3730384795
  0
LINE
  5
260
100
AcDbEntity
  8
0
100
AcDbLine
 62
7
  6
CONTINUOUS
 10
68.5972311699
 20
48.9511122452
 11
68.8642704235
 21
49.3708169231
  0
LINE
  5
261
100
AcDbEntity
  8
0
100
AcDbLine
 62
7
  6
CONTINUOUS
 10
62.3443833705
 20
48.4414411616
 11
63.7409306992
 21
49.5294906859
  0
LINE
  5
262
100
AcDbEntity
  8
0
100
AcDbLine
 62
7
  6
CONTINUOUS
 10
86.1155553537
 20
14.899305901
 11
86.1155553537
 21
12.0414390329
  0
LINE
  5
263
100
AcDbEntity
  8
0
100
AcDbLine
 62
7
  6
CONTINUOUS
 10
86.5999311678
 20
26.8414419609
 11
86.5999311678
 21
33.8414412456
  0
LINE
  5
264
100
AcDbEntity
  8
0
100
AcDbLine
 62
7
  6
CONTINUOUS
 10
87.3155553537
 20
13.7444234751
 11
87.3155553537
 21
10.8414390329
  0
LINE
  5
265
100
AcDbEntity
  8
0
100
AcDbLine
 62
7
  6
CONTINUOUS
 10
88.3685388268
 20
76.5077688192
 11
88.3685388268
 21
76.774842966
  0
LINE
  5
266
100
AcDbEntity
  8
0
100
AcDbLine
 62
7
  6
CONTINUOUS
 10
90.0816279793
 20
33.851233304
 11
90.0816279793
 21
26.8324840728
  0
LINE
  5
267
100
AcDbEntity
  8
0
100
AcDbLine
 62
7
  6
CONTINUOUS
 10
75.9216078028
 20
42.7095467606
 11
63.6968764155
 21
20.1785458219
  0
LINE
  5
268
100
AcDbEntity
  8
0
100
AcDbLine
 62
7
  6
CONTINUOUS
 10
65.167687298
 20
19.3821578276
 11
77.3878899318
 21
41.9050435386
  0
LINE
  5
269
100
AcDbEntity
  8
0
100
AcDbLine
 62
7
  6
CONTINUOUS
 10
61.4051622883
 20
41.396839477
 11
65.4772064939
 21
44.3795576187
  0
LINE
  5
26A
100
AcDbEntity
  8
0
100
AcDbLine
 62
7
  6
CONTINUOUS
 10
93.7185381113
 20
75.3084757043
 11
93.7185381113
 21
20.4414339793
  0
LINE
  5
26B
100
AcDbEntity
  8
0
100
AcDbLine
 62
7
  6
CONTINUOUS
 10
94.9185381113
 20
20.4414401479
 11
94.9185381113
 21
76.5086342709
  0
LINE
  5
26C
100
AcDbEntity
  8
0
100
AcDbLine
 62
7
  6
CONTINUOUS
 10
94.9185381113
 20
76.774842966
 11
94.9185383759
 21
132.841449947
  0
LINE
  5
26D
100
AcDbEntity
  8
0
100
AcDbLine
 62
7
  6
CONTINUOUS
 10
67.1951370542
 20
18.2804789997
 11
79.4198690684
 21
40.8114818597
  0
LINE
  5
26E
100
AcDbEntity
  8
0
100
AcDbLine
 62
7
  6
CONTINUOUS
 10
65.756003665
 20
16.130503799
 11
67.1951370542
 21
18.2804789997
  0
LINE
  5
26F
100
AcDbEntity
  8
0
100
AcDbLine
 62
7
  6
CONTINUOUS
 10
88.1218266143
 20
139.6414407774
 11
21.7219290939
 21
139.6414407774
  0
ARC
  5
270
100
AcDbEntity
  8
0
100
AcDbCircle
 62
7
  6
CONTINUOUS
 10
51.4833845855
 20
52.241442008
 40
23.9672205947
100
AcDbArc
 50
112.4135818406
 51
176.1364644493
  0
ARC
  5
271
100
AcDbEntity
  8
0
100
AcDbCircle
 62
7
  6
CONTINUOUS
 10
51.4833617212
 20
52.2414334372
 40
23.9671995901
100
AcDbArc
 50
178.6877298285
 51
208.4830832012
  0
ARC
  5
272
100
AcDbEntity
  8
0
100
AcDbCircle
 62
7
  6
CONTINUOUS
 10
51.4833840684
 20
52.2414414326
 40
21.6593980666
100
AcDbArc
 50
89.9787891266
 51
208.5038701829
  0
ARC
  5
273
100
AcDbEntity
  8
0
100
AcDbCircle
 62
7
  6
CONTINUOUS
 10
54.8322526335
 20
55.5517923956
 40
15.6324228024
100
AcDbArc
 50
274.1109192792
 51
275.7461347737
  0
ARC
  5
274
100
AcDbEntity
  8
0
100
AcDbCircle
 62
7
  6
CONTINUOUS
 10
54.9177977607
 20
54.936376114
 40
15.0218790119
100
AcDbArc
 50
82.9329276429
 51
95.5501457077
  0
ARC
  5
275
100
AcDbEntity
  8
0
100
AcDbCircle
 62
7
  6
CONTINUOUS
 10
54.9170712903
 20
54.9401200841
 40
15.0153082112
100
AcDbArc
 50
203.6619338625
 51
221.8202685536
  0
ARC
  5
276
100
AcDbEntity
  8
0
100
AcDbCircle
 62
7
  6
CONTINUOUS
 10
54.901956287
 20
54.9256151481
 40
14.9943720861
100
AcDbArc
 50
221.8174751578
 51
224.8699995777
  0
ARC
  5
277
100
AcDbEntity
  8
0
100
AcDbCircle
 62
7
  6
CONTINUOUS
 10
54.8844472479
 20
54.9492045834
 40
14.9826448919
100
AcDbArc
 50
161.6725199133
 51
177.4104742333
  0
ARC
  5
278
100
AcDbEntity
  8
0
100
AcDbCircle
 62
7
  6
CONTINUOUS
 10
54.9147279947
 20
54.9783259372
 40
14.9798289876
100
AcDbArc
 50
95.5539777675
 51
97.1980072318
  0
ARC
  5
279
100
AcDbEntity
  8
0
100
AcDbCircle
 62
7
  6
CONTINUOUS
 10
54.9185224504
 20
54.9412436287
 40
14.9720446824
100
AcDbArc
 50
19.3674721509
 51
160.6200314867
  0
ARC
  5
27A
100
AcDbEntity
  8
0
100
AcDbCircle
 62
7
  6
CONTINUOUS
 10
51.726434404
 20
22.3462366374
 40
9.8532670381
100
AcDbArc
 50
219.1114140879
 51
251.7733558079
  0
ARC
  5
27B
100
AcDbEntity
  8
0
100
AcDbCircle
 62
7
  6
CONTINUOUS
 10
21.7185415608
 20
20.4414401479
 40
6.6970164338
100
AcDbArc
 50
179.9999694814
 51
269.9999694819
  0
ARC
  5
27C
100
AcDbEntity
  8
0
100
AcDbCircle
 62
7
  6
CONTINUOUS
 10
21.7185415608
 20
20.4414401479
 40
5.6000026853
100
AcDbArc
 50
179.9720740796
 51
278.2440210433
  0
ARC
  5
27D
100
AcDbEntity
  8
0
100
AcDbCircle
 62
7
  6
CONTINUOUS
 10
21.7185347812
 20
132.8414452726
 40
6.7999960342
100
AcDbArc
 50
89.9714000139
 51
179.9714445507
  0
ARC
  5
27E
100
AcDbEntity
  8
0
100
AcDbCircle
 62
7
  6
CONTINUOUS
 10
58.3536968248
 20
52.2414439451
 40
23.9672163449
100
AcDbArc
 50
3.8635315956
 51
67.5863759403
  0
ARC
  5
27F
100
AcDbEntity
  8
0
100
AcDbCircle
 62
7
  6
CONTINUOUS
 10
58.3537159307
 20
52.2414334372
 40
23.9671978542
100
AcDbArc
 50
331.5168834842
 51
1.3122702349
  0
ARC
  5
280
100
AcDbEntity
  8
0
100
AcDbCircle
 62
7
  6
CONTINUOUS
 10
58.3536935836
 20
52.2414414326
 40
21.6593982149
100
AcDbArc
 50
331.4961119229
 51
90.0212033715
  0
ARC
  5
281
100
AcDbEntity
  8
0
100
AcDbCircle
 62
7
  6
CONTINUOUS
 10
54.9747853751
 20
55.3240628934
 40
15.4031889084
100
AcDbArc
 50
264.2695515051
 51
265.9365972264
  0
ARC
  5
282
100
AcDbEntity
  8
0
100
AcDbCircle
 62
7
  6
CONTINUOUS
 10
54.939602666
 20
54.9440991398
 40
15.0379748799
100
AcDbArc
 50
177.4005364652
 51
179.9952036484
  0
ARC
  5
283
100
AcDbEntity
  8
0
100
AcDbCircle
 62
7
  6
CONTINUOUS
 10
54.9346315233
 20
54.9443884443
 40
15.0330048512
100
AcDbArc
 50
180.4887831042
 51
182.1299348535
  0
ARC
  5
284
100
AcDbEntity
  8
0
100
AcDbCircle
 62
7
  6
CONTINUOUS
 10
54.9221647092
 20
54.931680961
 40
15.0262852598
100
AcDbArc
 50
134.314825011
 51
142.4178210232
  0
ARC
  5
285
100
AcDbEntity
  8
0
100
AcDbCircle
 62
7
  6
CONTINUOUS
 10
54.9228507261
 20
54.9442065709
 40
15.0212229314
100
AcDbArc
 50
179.9956080763
 51
180.4884727424
  0
ARC
  5
286
100
AcDbEntity
  8
0
100
AcDbCircle
 62
7
  6
CONTINUOUS
 10
54.9238067155
 20
54.9350907862
 40
15.0089270714
100
AcDbArc
 50
314.9942090065
 51
318.1011376311
  0
ARC
  5
287
100
AcDbEntity
  8
0
100
AcDbCircle
 62
7
  6
CONTINUOUS
 10
54.9401474963
 20
54.9395802716
 40
14.9963250197
100
AcDbArc
 50
2.4441137003
 51
18.3103054089
  0
ARC
  5
288
100
AcDbEntity
  8
0
100
AcDbCircle
 62
7
  6
CONTINUOUS
 10
54.9375611618
 20
54.9530181392
 40
14.9952504889
100
AcDbArc
 50
37.6748738356
 51
45.6877271127
  0
ARC
  5
289
100
AcDbEntity
  8
0
100
AcDbCircle
 62
7
  6
CONTINUOUS
 10
55.0191081304
 20
54.9448147723
 40
14.9172131082
100
AcDbArc
 50
0.0012741138
 51
2.436960104
  0
ARC
  5
28A
100
AcDbEntity
  8
0
100
AcDbCircle
 62
7
  6
CONTINUOUS
 10
55.0306167453
 20
54.9455091646
 40
14.9057074608
100
AcDbArc
 50
357.7876783729
 51
359.4854144608
  0
ARC
  5
28B
100
AcDbEntity
  8
0
100
AcDbCircle
 62
7
  6
CONTINUOUS
 10
55.0598850329
 20
54.9450467928
 40
14.8764362023
100
AcDbArc
 50
359.4861827931
 51
0.0003839919
  0
ARC
  5
28C
100
AcDbEntity
  8
0
100
AcDbCircle
 62
7
  6
CONTINUOUS
 10
54.918538826
 20
24.9414448884
 40
11.6597308568
100
AcDbArc
 50
208.4760873691
 51
331.5239525009
  0
ARC
  5
28D
100
AcDbEntity
  8
0
100
AcDbCircle
 62
7
  6
CONTINUOUS
 10
54.9186174823
 20
54.9414422221
 40
10.3499969502
100
AcDbArc
 50
328.4734210929
 51
211.5265789071
  0
ARC
  5
28E
100
AcDbEntity
  8
0
100
AcDbCircle
 62
7
  6
CONTINUOUS
 10
58.1106464586
 20
22.3462310627
 40
9.8532609948
100
AcDbArc
 50
288.2266417245
 51
320.8886552297
  0
ARC
  5
28F
100
AcDbEntity
  8
0
100
AcDbCircle
 62
7
  6
CONTINUOUS
 10
54.918538826
 20
29.9414442069
 40
8.0174599758
100
AcDbArc
 50
97.6715211324
 51
82.3284788287
  0
ARC
  5
290
100
AcDbEntity
  8
0
100
AcDbCircle
 62
7
  6
CONTINUOUS
 10
54.9185893025
 20
29.9418824674
 40
8.0170064927
100
AcDbArc
 50
82.8322150453
 51
97.1684299408
  0
ARC
  5
291
100
AcDbEntity
  8
0
100
AcDbCircle
 62
7
  6
CONTINUOUS
 10
54.918538826
 20
29.9414442069
 40
7.0174599758
100
AcDbArc
 50
97.6727796793
 51
82.3273172235
  0
ARC
  5
292
100
AcDbEntity
  8
0
100
AcDbCircle
 62
7
  6
CONTINUOUS
 10
54.918578767
 20
29.9416487675
 40
7.0172390449
100
AcDbArc
 50
82.8443565762
 51
97.156582236
  0
ARC
  5
293
100
AcDbEntity
  8
0
100
AcDbCircle
 62
7
  6
CONTINUOUS
 10
88.1185360912
 20
20.4414401479
 40
6.6970164338
100
AcDbArc
 50
270.0000170474
 51
0.0000305185
  0
ARC
  5
294
100
AcDbEntity
  8
0
100
AcDbCircle
 62
7
  6
CONTINUOUS
 10
88.1185360912
 20
20.4414401479
 40
5.6000026853
100
AcDbArc
 50
261.7559789568
 51
359.9999368872
  0
ARC
  5
295
100
AcDbEntity
  8
0
100
AcDbCircle
 62
7
  6
CONTINUOUS
 10
88.1185428708
 20
132.8414452726
 40
6.7999960342
100
AcDbArc
 50
0.0000393862
 51
89.9723316542
  0
SPLINE
  5
296
100
AcDbEntity
  8
0
100
AcDbSpline
 62
7
  6
CONTINUOUS
 70
0
 71
3
 72
17
 73
13
 74
0
 42
0.0000001
 43
0.0000001
 44
0.0000000001
 40
0.0
 40
0.0
 40
0.0
 40
0.0
 40
0.0578547288
 40
0.1756072552
 40
0.2933597817
 40
0.4111123082
 40
0.5288648347
 40
0.6466173612
 40
0.7643698876
 40
0.8821224141
 40
0.9998749559
 40
1.0
 40
1.0
 40
1.0
 40
1.0
 10
54.9189639204
 20
39.9696027217
 30
0.0
 10
55.3727825243
 20
39.9696108404
 30
0.0
 10
56.7502485197
 20
40.0321544193
 30
0.0
 10
59.0214135862
 20
40.4537420474
 30
0.0
 10
61.6147664369
 20
41.4544925996
 30
0.0
 10
63.9859146051
 20
42.9205168174
 30
0.0
 10
66.0395240966
 20
44.7888392091
 30
0.0
 10
67.7179733827
 20
47.0111690524
 30
0.0
 10
68.9579208681
 20
49.4976324111
 30
0.0
 10
69.7219652571
 20
52.181217387
 30
0.0
 10
69.887922277
 20
54.0205242029
 30
0.0
 10
69.8906035679
 20
54.9403864326
 30
0.0
 10
69.8906063218
 20
54.9413622189
 30
0.0
  0
SPLINE
  5
297
100
AcDbEntity
  8
0
100
AcDbSpline
 62
7
  6
CONTINUOUS
 70
0
 71
3
 72
17
 73
13
 74
0
 42
0.0000001
 43
0.0000001
 44
0.0000000001
 40
0.0
 40
0.0
 40
0.0
 40
0.0
 40
0.0001269065
 40
0.1176391159
 40
0.2351513072
 40
0.3526634985
 40
0.4701756897
 40
0.587687881
 40
0.7052000723
 40
0.8227122636
 40
0.9402244549
 40
1.0
 40
1.0
 40
1.0
 40
1.0
 10
39.9464713454
 20
54.9415798897
 30
0.0
 10
39.9464738822
 20
54.9406057977
 30
0.0
 10
39.9489075007
 20
54.0376536014
 30
0.0
 10
40.1057504796
 20
52.2447439018
 30
0.0
 10
40.8565942299
 20
49.5515684
 30
0.0
 10
42.0980364849
 20
47.0452317161
 30
0.0
 10
43.7637182141
 20
44.8266233873
 30
0.0
 10
45.8141596249
 20
42.9481951974
 30
0.0
 10
48.1795868312
 20
41.4759179214
 30
0.0
 10
50.7698197666
 20
40.4667207647
 30
0.0
 10
53.0555947438
 20
40.035049153
 30
0.0
 10
54.4491192681
 20
39.9695943163
 30
0.0
 10
54.9189639204
 20
39.9696027217
 30
0.0
  0
SPLINE
  5
298
100
AcDbEntity
  8
0
100
AcDbSpline
 62
7
  6
CONTINUOUS
 70
0
 71
3
 72
24
 73
20
 74
0
 42
0.0000001
 43
0.0000001
 44
0.0000000001
 40
0.0
 40
0.0
 40
0.0
 40
0.0
 40
0.0588785631
 40
0.1176948239
 40
0.1765110847
 40
0.2353273456
 40
0.2941436064
 40
0.3529598673
 40
0.4117761281
 40
0.470592389
 40
0.5294086498
 40
0.5882249107
 40
0.6470411715
 40
0.7058574323
 40
0.7646736932
 40
0.823489954
 40
0.8823062149
 40
0.9411224757
 40
1.0
 40
1.0
 40
1.0
 40
1.0
 10
69.8906061597
 20
54.9413617828
 30
0.0
 10
69.8882514348
 20
55.8443014365
 30
0.0
 10
69.7315922489
 20
57.6371906152
 30
0.0
 10
68.9804834221
 20
60.3313169105
 30
0.0
 10
67.7390411671
 20
62.8376535945
 30
0.0
 10
66.0733594378
 20
65.0562619233
 30
0.0
 10
64.0229180271
 20
66.9346901132
 30
0.0
 10
61.6574908208
 20
68.4069673892
 30
0.0
 10
59.0672578854
 20
69.4161645459
 30
0.0
 10
56.3338132562
 20
69.9323791603
 30
0.0
 10
53.5505524993
 20
69.9368100748
 30
0.0
 10
50.8156640657
 20
69.4291432631
 30
0.0
 10
48.222311215
 20
68.428392711
 30
0.0
 10
45.8511630469
 20
66.9623684932
 30
0.0
 10
43.7975535554
 20
65.0940461014
 30
0.0
 10
42.1191042692
 20
62.8717162581
 30
0.0
 10
40.8791567839
 20
60.3852528995
 30
0.0
 10
40.1148471499
 20
57.7007362926
 30
0.0
 10
39.9490707894
 20
55.8614225976
 30
0.0
 10
39.9464714893
 20
54.9415794538
 30
0.0
  0
SPLINE
  5
299
100
AcDbEntity
  8
0
100
AcDbSpline
 62
7
  6
CONTINUOUS
 70
0
 71
3
 72
20
 73
16
 74
0
 42
0.0000001
 43
0.0000001
 44
0.0000000001
 40
0.0
 40
0.0
 40
0.0
 40
0.0
 40
0.078203688
 40
0.1561686763
 40
0.2336369967
 40
0.3097605361
 40
0.3858882247
 40
0.461938596
 40
0.5380333985
 40
0.6142365636
 40
0.6903258756
 40
0.7663257476
 40
0.8434121059
 40
0.9212375296
 40
1.0
 40
1.0
 40
1.0
 40
1.0
 10
60.9010784079
 20
29.9414420311
 30
0.0
 10
60.8990646461
 20
30.4301784011
 30
0.0
 10
60.781449975
 20
31.4104731026
 30
0.0
 10
60.2488143054
 20
32.7854801929
 30
0.0
 10
59.4094172097
 20
33.9817949254
 30
0.0
 10
58.3170835041
 20
34.934562495
 30
0.0
 10
57.0378883745
 20
35.5967654693
 30
0.0
 10
55.6387338997
 20
35.938125408
 30
0.0
 10
54.1979107084
 20
35.9382313942
 30
0.0
 10
52.7981064541
 20
35.5962782445
 30
0.0
 10
51.5190543872
 20
34.9339701899
 30
0.0
 10
50.4295591672
 20
33.9831809178
 30
0.0
 10
49.5916360081
 20
32.7911051294
 30
0.0
 10
49.056505934
 20
31.4166374652
 30
0.0
 10
48.9391250449
 20
30.4336652856
 30
0.0
 10
48.935999244
 20
29.9414425344
 30
0.0
  0
SPLINE
  5
29A
100
AcDbEntity
  8
0
100
AcDbSpline
 62
7
  6
CONTINUOUS
 70
0
 71
3
 72
20
 73
16
 74
0
 42
0.0000001
 43
0.0000001
 44
0.0000000001
 40
0.0
 40
0.0
 40
0.0
 40
0.0
 40
0.078203688
 40
0.1561686763
 40
0.2336369967
 40
0.3097605361
 40
0.3858882247
 40
0.461938596
 40
0.5380333985
 40
0.6142365636
 40
0.6903258756
 40
0.7663257476
 40
0.8434121059
 40
0.9212375296
 40
1.0
 40
1.0
 40
1.0
 40
1.0
 10
48.9359992441
 20
29.9414425345
 30
0.0
 10
48.9380130059
 20
29.4527061644
 30
0.0
 10
49.055627677
 20
28.4724114629
 30
0.0
 10
49.5882633465
 20
27.0974043726
 30
0.0
 10
50.4276604423
 20
25.9010896401
 30
0.0
 10
51.5199941479
 20
24.9483220705
 30
0.0
 10
52.7991892774
 20
24.2861190962
 30
0.0
 10
54.1983437522
 20
23.9447591575
 30
0.0
 10
55.6391669436
 20
23.9446531713
 30
0.0
 10
57.0389711978
 20
24.286606321
 30
0.0
 10
58.3180232648
 20
24.9489143756
 30
0.0
 10
59.4075184848
 20
25.8997036477
 30
0.0
 10
60.2454416439
 20
27.0917794361
 30
0.0
 10
60.780571718
 20
28.4662471003
 30
0.0
 10
60.8979526071
 20
29.4492192799
 30
0.0
 10
60.901078408
 20
29.9414420311
 30
0.0
  0
SPLINE
  5
29B
100
AcDbEntity
  8
0
100
AcDbSpline
 62
7
  6
CONTINUOUS
 70
0
 71
3
 72
24
 73
20
 74
0
 42
0.0000001
 43
0.0000001
 44
0.0000000001
 40
0.0
 40
0.0
 40
0.0
 40
0.0
 40
0.0619161818
 40
0.1230223971
 40
0.1835048793
 40
0.2435534736
 40
0.3038722703
 40
0.3645490659
 40
0.4250174905
 40
0.4857412684
 40
0.5465796411
 40
0.6064856587
 40
0.6664279039
 40
0.7266884746
 40
0.7874939644
 40
0.8482241457
 40
0.908670141
 40
0.9688901965
 40
1.0
 40
1.0
 40
1.0
 40
1.0
 10
53.848271594
 20
38.9597783393
 30
0.0
 10
52.8049054586
 20
39.0341156825
 30
0.0
 10
50.7386569212
 20
39.3712367827
 30
0.0
 10
47.8201861424
 20
40.4725959474
 30
0.0
 10
45.191980126
 20
42.0925247568
 30
0.0
 10
42.9296856275
 20
44.1734568163
 30
0.0
 10
41.1005499714
 20
46.6480219692
 30
0.0
 10
39.7734281071
 20
49.4325886892
 30
0.0
 10
39.0004609605
 20
52.4257446065
 30
0.0
 10
38.8125793798
 20
55.5141820852
 30
0.0
 10
39.2166606279
 20
58.5725205344
 30
0.0
 10
40.1930127018
 20
61.4839944857
 30
0.0
 10
41.6941403177
 20
64.1518039445
 30
0.0
 10
43.686079698
 20
66.4966125541
 30
0.0
 10
46.0975467993
 20
68.4289716254
 30
0.0
 10
48.8370853431
 20
69.8659250075
 30
0.0
 10
51.7910033268
 20
70.749632538
 30
0.0
 10
54.3578872448
 20
71.0068164045
 30
0.0
 10
55.9034000813
 20
70.9366927039
 30
0.0
 10
56.4274183553
 20
70.8870295958
 30
0.0
  0
SPLINE
  5
29C
100
AcDbEntity
  8
0
100
AcDbSpline
 62
7
  6
CONTINUOUS
 70
0
 71
3
 72
19
 73
15
 74
0
 42
0.0000001
 43
0.0000001
 44
0.0000000001
 40
0.0
 40
0.0
 40
0.0
 40
0.0
 40
0.0825569146
 40
0.1668318606
 40
0.2517394437
 40
0.3361504369
 40
0.4200856605
 40
0.5013374562
 40
0.5826022241
 40
0.6663461527
 40
0.750368739
 40
0.8347175338
 40
0.9182767926
 40
1.0
 40
1.0
 40
1.0
 40
1.0
 10
33.9154687692
 20
42.7095467838
 30
0.0
 10
33.3714800275
 20
43.7068208367
 30
0.0
 10
32.4506221239
 20
45.824443009
 30
0.0
 10
31.6259127344
 20
49.2055990244
 30
0.0
 10
31.3988762743
 20
52.7060761918
 30
0.0
 10
31.7865651168
 20
56.1870475194
 30
0.0
 10
32.7561665865
 20
59.4999002099
 30
0.0
 10
34.2551350794
 20
62.5596068132
 30
0.0
 10
36.2435218226
 20
65.3231278352
 30
0.0
 10
38.7003175628
 20
67.736572904
 30
0.0
 10
41.5715186613
 20
69.7145554247
 30
0.0
 10
44.7409289439
 20
71.1627808439
 30
0.0
 10
48.0798706565
 20
72.0343279385
 30
0.0
 10
50.3588563774
 20
72.2314727169
 30
0.0
 10
51.4833735815
 20
72.2286534365
 30
0.0
  0
SPLINE
  5
29D
100
AcDbEntity
  8
0
100
AcDbSpline
 62
7
  6
CONTINUOUS
 70
0
 71
3
 72
18
 73
14
 74
0
 42
0.0000001
 43
0.0000001
 44
0.0000000001
 40
0.0
 40
0.0
 40
0.0
 40
0.0
 40
0.0901065279
 40
0.1822865711
 40
0.2750286076
 40
0.3671884742
 40
0.4576240775
 40
0.5452773168
 40
0.6356193446
 40
0.7273722508
 40
0.8195080341
 40
0.910866168
 40
1.0
 40
1.0
 40
1.0
 40
1.0
 10
63.6968764155
 20
20.1785458219
 30
0.0
 10
63.3916956799
 20
19.6124583965
 30
0.0
 10
62.6563555107
 20
18.5272028244
 30
0.0
 10
61.2536875071
 20
17.1370008907
 30
0.0
 10
59.5920109556
 20
16.0403010331
 30
0.0
 10
57.7578903755
 20
15.2996251492
 30
0.0
 10
55.8511777399
 20
14.9364825973
 30
0.0
 10
53.9240587158
 20
14.9425310847
 30
0.0
 10
52.0231546315
 20
15.3166553049
 30
0.0
 10
50.2007047442
 20
16.0645867048
 30
0.0
 10
48.5550673248
 20
17.1613325004
 30
0.0
 10
47.1690633546
 20
18.5434827035
 30
0.0
 10
46.4418775922
 20
19.6184593303
 30
0.0
 10
46.1401993759
 20
20.1785480094
 30
0.0
  0
SPLINE
  5
29E
100
AcDbEntity
  8
0
100
AcDbSpline
 62
7
  6
CONTINUOUS
 70
0
 71
3
 72
19
 73
15
 74
0
 42
0.0000001
 43
0.0000001
 44
0.0000000001
 40
0.0
 40
0.0
 40
0.0
 40
0.0
 40
0.0825568706
 40
0.166831758
 40
0.2517393908
 40
0.3361504102
 40
0.4200856257
 40
0.5013374082
 40
0.5826021814
 40
0.6663461051
 40
0.7503686253
 40
0.834717312
 40
0.9182766363
 40
1.0
 40
1.0
 40
1.0
 40
1.0
 10
58.3536959728
 20
72.2286534365
 30
0.0
 10
59.4896853454
 20
72.23119672
 30
0.0
 10
61.7901415756
 20
72.0306984451
 30
0.0
 10
65.1553376986
 20
71.1431091131
 30
0.0
 10
68.3403839022
 20
69.6732887489
 30
0.0
 10
71.2151228474
 20
67.6724511674
 30
0.0
 10
73.6645779161
 20
65.2403134414
 30
0.0
 10
75.6390727917
 20
62.4636097502
 30
0.0
 10
77.1198294629
 20
59.3979789289
 30
0.0
 10
78.0694999627
 20
56.0875882943
 30
0.0
 10
78.4387869346
 20
52.6206265574
 30
0.0
 10
78.2002262093
 20
49.1441914688
 30
0.0
 10
77.3739359276
 20
45.793760767
 30
0.0
 10
76.4603686646
 20
43.6966074797
 30
0.0
 10
75.9216078028
 20
42.7095467606
 30
0.0
  0
SPLINE
  5
29F
100
AcDbEntity
  8
0
100
AcDbSpline
 62
7
  6
CONTINUOUS
 70
0
 71
3
 72
10
 73
6
 74
0
 42
0.0000001
 43
0.0000001
 44
0.0000000001
 40
0.0
 40
0.0
 40
0.0
 40
0.0
 40
0.3333296666
 40
0.6666703334
 40
1.0
 40
1.0
 40
1.0
 40
1.0
 10
86.5999311678
 20
33.8414412456
 30
0.0
 10
86.9218399568
 20
33.8427477078
 30
0.0
 10
87.5656720033
 20
33.8465066773
 30
0.0
 10
88.5312964435
 20
33.8624565713
 30
0.0
 10
89.17512849
 20
33.8662155409
 30
0.0
 10
89.497037279
 20
33.867522003
 30
0.0
  0
SPLINE
  5
2A0
100
AcDbEntity
  8
0
100
AcDbSpline
 62
7
  6
CONTINUOUS
 70
0
 71
3
 72
10
 73
6
 74
0
 42
0.0000001
 43
0.0000001
 44
0.0000000001
 40
0.0
 40
0.0
 40
0.0
 40
0.0
 40
0.3333296648
 40
0.6666703354
 40
1.0
 40
1.0
 40
1.0
 40
1.0
 10
89.4970372789
 20
26.8153574782
 30
0.0
 10
89.1751284883
 20
26.816664127
 30
0.0
 10
88.5312964322
 20
26.8204236336
 30
0.0
 10
87.5656720142
 20
26.8363758055
 30
0.0
 10
86.9218399583
 20
26.8401353121
 30
0.0
 10
86.5999311678
 20
26.8414419609
 30
0.0
  0
SPLINE
  5
2A1
100
AcDbEntity
  8
0
100
AcDbSpline
 62
7
  6
CONTINUOUS
 70
0
 71
3
 72
10
 73
6
 74
0
 42
0.0000001
 43
0.0000001
 44
0.0000000001
 40
0.0
 40
0.0
 40
0.0
 40
0.0
 40
0.3333296666
 40
0.6666703334
 40
1.0
 40
1.0
 40
1.0
 40
1.0
 10
23.2371464841
 20
26.8414419609
 30
0.0
 10
22.9152376951
 20
26.8401354988
 30
0.0
 10
22.2714056487
 20
26.8363765292
 30
0.0
 10
21.3057812085
 20
26.8204266352
 30
0.0
 10
20.6619491621
 20
26.8166676656
 30
0.0
 10
20.340040373
 20
26.8153612035
 30
0.0
  0
SPLINE
  5
2A2
100
AcDbEntity
  8
0
100
AcDbSpline
 62
7
  6
CONTINUOUS
 70
0
 71
3
 72
10
 73
6
 74
0
 42
0.0000001
 43
0.0000001
 44
0.0000000001
 40
0.0
 40
0.0
 40
0.0
 40
0.0
 40
0.3333296648
 40
0.6666703354
 40
1.0
 40
1.0
 40
1.0
 40
1.0
 10
20.3400403731
 20
33.8675257283
 30
0.0
 10
20.6619491637
 20
33.8662190796
 30
0.0
 10
21.3057812198
 20
33.862459573
 30
0.0
 10
22.2714056378
 20
33.846507401
 30
0.0
 10
22.9152376937
 20
33.8427478944
 30
0.0
 10
23.2371464841
 20
33.8414412456
 30
0.0
  0
SPLINE
  5
2A3
100
AcDbEntity
  8
0
100
AcDbSpline
 62
7
  6
CONTINUOUS
 70
0
 71
3
 72
23
 73
19
 74
0
 42
0.0000001
 43
0.0000001
 44
0.0000000001
 40
0.0
 40
0.0
 40
0.0
 40
0.0
 40
0.0309175188
 40
0.0950270987
 40
0.1595495501
 40
0.2244314806
 40
0.2891566079
 40
0.3539961522
 40
0.4184987732
 40
0.4823259459
 40
0.5465805852
 40
0.6108125314
 40
0.6750159828
 40
0.7390484737
 40
0.8030441726
 40
0.8675223287
 40
0.9330151148
 40
1.0
 40
1.0
 40
1.0
 40
1.0
 10
56.4274183553
 20
70.8870295958
 30
0.0
 10
56.9171812027
 20
70.8406129984
 30
0.0
 10
58.4159719137
 20
70.6287413688
 30
0.0
 10
60.8658760641
 20
69.9199631527
 30
0.0
 10
63.6181186754
 20
68.507326353
 30
0.0
 10
66.0575724206
 20
66.5889795253
 30
0.0
 10
68.0877824887
 20
64.2347728768
 30
0.0
 10
69.6220116428
 20
61.5379857235
 30
0.0
 10
70.6092839043
 20
58.6123851447
 30
0.0
 10
71.0232643914
 20
55.5618707346
 30
0.0
 10
70.8451124434
 20
52.4928147549
 30
0.0
 10
70.0901443196
 20
49.5068146018
 30
0.0
 10
68.7802476212
 20
46.7227646357
 30
0.0
 10
66.9678758812
 20
44.2415981694
 30
0.0
 10
64.7153441523
 20
42.1451064467
 30
0.0
 10
62.0842643772
 20
40.5047920893
 30
0.0
 10
59.1429825769
 20
39.3794369961
 30
0.0
 10
57.0502209742
 20
39.0373187213
 30
0.0
 10
55.9888061355
 20
38.9597794088
 30
0.0
  0
SPLINE
  5
2A4
100
AcDbEntity
  8
0
100
AcDbSpline
 62
7
  6
CONTINUOUS
 70
0
 71
3
 72
9
 73
5
 74
0
 42
0.0000001
 43
0.0000001
 44
0.0000000001
 40
0.0
 40
0.0
 40
0.0
 40
0.0
 40
0.5000602677
 40
1.0
 40
1.0
 40
1.0
 40
1.0
 10
56.3973854972
 20
39.9979182225
 30
0.0
 10
57.2182919743
 20
40.0805326869
 30
0.0
 10
58.8498447403
 20
40.3762624338
 30
0.0
 10
60.4099443202
 20
40.9392812627
 30
0.0
 10
61.1601519127
 20
41.2821705175
 30
0.0
  0
SPLINE
  5
2A5
100
AcDbEntity
  8
0
100
AcDbSpline
 62
7
  6
CONTINUOUS
 70
0
 71
3
 72
11
 73
7
 74
0
 42
0.0000001
 43
0.0000001
 44
0.0000000001
 40
0.0
 40
0.0
 40
0.0
 40
0.0
 40
0.2500169306
 40
0.5000320228
 40
0.7500232687
 40
1.0
 40
1.0
 40
1.0
 40
1.0
 10
53.8833104435
 20
39.9596192736
 30
0.0
 10
53.8802005226
 20
39.8762821537
 30
0.0
 10
53.869972478
 20
39.7097919207
 30
0.0
 10
53.8575666002
 20
39.4599012429
 30
0.0
 10
53.8528419688
 20
39.2097658932
 30
0.0
 10
53.8512373814
 20
39.0429865095
 30
0.0
 10
53.8482648442
 20
38.9596577936
 30
0.0
  0
SPLINE
  5
2A6
100
AcDbEntity
  8
0
100
AcDbSpline
 62
7
  6
CONTINUOUS
 70
0
 71
3
 72
8
 73
4
 74
0
 42
0.0000001
 43
0.0000001
 44
0.0000000001
 40
0.0
 40
0.0
 40
0.0
 40
0.0
 40
1.0
 40
1.0
 40
1.0
 40
1.0
 10
54.9189639814
 20
39.9647802548
 30
0.0
 10
54.573741849
 20
39.9647800823
 30
0.0
 10
54.2285325759
 20
39.9596194461
 30
0.0
 10
53.8833104435
 20
39.9596192736
 30
0.0
  0
SPLINE
  5
2A7
100
AcDbEntity
  8
0
100
AcDbSpline
 62
7
  6
CONTINUOUS
 70
0
 71
3
 72
8
 73
4
 74
0
 42
0.0000001
 43
0.0000001
 44
0.0000000001
 40
0.0
 40
0.0
 40
0.0
 40
0.0
 40
1.0
 40
1.0
 40
1.0
 40
1.0
 10
55.952902454
 20
39.9596158472
 30
0.0
 10
55.6082519972
 20
39.959615675
 30
0.0
 10
55.2636144382
 20
39.964780427
 30
0.0
 10
54.9189639814
 20
39.9647802548
 30
0.0
  0
SPLINE
  5
2A8
100
AcDbEntity
  8
0
100
AcDbSpline
 62
7
  6
CONTINUOUS
 70
0
 71
3
 72
11
 73
7
 74
0
 42
0.0000001
 43
0.0000001
 44
0.0000000001
 40
0.0
 40
0.0
 40
0.0
 40
0.0
 40
0.2500155425
 40
0.5000344735
 40
0.7500231459
 40
1.0
 40
1.0
 40
1.0
 40
1.0
 10
55.952902454
 20
39.9596158472
 30
0.0
 10
55.9560514477
 20
39.8762791592
 30
0.0
 10
55.9661263529
 20
39.7097773649
 30
0.0
 10
55.9789527417
 20
39.4599065092
 30
0.0
 10
55.9842388088
 20
39.2097756476
 30
0.0
 10
55.9858239058
 20
39.0429937546
 30
0.0
 10
55.9888127725
 20
38.9596640834
 30
0.0
  0
SPLINE
  5
2A9
100
AcDbEntity
  8
0
100
AcDbSpline
 62
7
  6
CONTINUOUS
 70
0
 71
3
 72
23
 73
19
 74
0
 42
0.0000001
 43
0.0000001
 44
0.0000000001
 40
0.0
 40
0.0
 40
0.0
 40
0.0
 40
0.0625000855
 40
0.1250065987
 40
0.1875045685
 40
0.250002204
 40
0.3124970511
 40
0.374995776
 40
0.4374952658
 40
0.4999942656
 40
0.5624932465
 40
0.6249921178
 40
0.6874914461
 40
0.7499882802
 40
0.8124897059
 40
0.8749932456
 40
0.9375040242
 40
1.0
 40
1.0
 40
1.0
 40
1.0
 10
61.9012598814
 20
29.9403199237
 30
0.0
 10
61.8986785086
 20
29.4840667626
 30
0.0
 10
61.8106484535
 20
28.5692042515
 30
0.0
 10
61.4110203853
 20
27.2508386845
 30
0.0
 10
60.7605925299
 20
26.0364004056
 30
0.0
 10
59.8868966029
 20
24.971485312
 30
0.0
 10
58.8219631224
 20
24.0975871167
 30
0.0
 10
57.6067402317
 20
23.448828742
 30
0.0
 10
56.2884852658
 20
23.0490834734
 30
0.0
 10
54.9175330905
 20
22.9138291217
 30
0.0
 10
53.546606594
 20
23.0493762127
 30
0.0
 10
52.2284775529
 20
23.4495743335
 30
0.0
 10
51.0134929507
 20
24.0987877083
 30
0.0
 10
49.9486993253
 20
24.9729145282
 30
0.0
 10
49.0752416009
 20
26.0381690195
 30
0.0
 10
48.4254828493
 20
27.2530844296
 30
0.0
 10
48.0258658132
 20
28.5713613028
 30
0.0
 10
47.9373830103
 20
29.4863368649
 30
0.0
 10
47.9358177706
 20
29.9425646418
 30
0.0
  0
SPLINE
  5
2AA
100
AcDbEntity
  8
0
100
AcDbSpline
 62
7
  6
CONTINUOUS
 70
0
 71
3
 72
23
 73
19
 74
0
 42
0.0000001
 43
0.0000001
 44
0.0000000001
 40
0.0
 40
0.0
 40
0.0
 40
0.0
 40
0.0625000855
 40
0.1250065987
 40
0.1875045685
 40
0.250002204
 40
0.3124970511
 40
0.374995776
 40
0.4374952658
 40
0.4999942656
 40
0.5624932465
 40
0.6249921178
 40
0.6874914461
 40
0.7499882802
 40
0.8124897059
 40
0.8749932456
 40
0.9375040242
 40
1.0
 40
1.0
 40
1.0
 40
1.0
 10
47.9358177706
 20
29.9425646418
 30
0.0
 10
47.9383991434
 20
30.3988178029
 30
0.0
 10
48.0264291985
 20
31.3136803141
 30
0.0
 10
48.4260572667
 20
32.632045881
 30
0.0
 10
49.0764851221
 20
33.8464841599
 30
0.0
 10
49.9501810491
 20
34.9113992535
 30
0.0
 10
51.0151145296
 20
35.7852974488
 30
0.0
 10
52.2303374203
 20
36.4340558235
 30
0.0
 10
53.5485923862
 20
36.8338010921
 30
0.0
 10
54.9195445615
 20
36.9690554438
 30
0.0
 10
56.290471058
 20
36.8335083528
 30
0.0
 10
57.6086000991
 20
36.433310232
 30
0.0
 10
58.8235847013
 20
35.7840968572
 30
0.0
 10
59.8883783267
 20
34.9099700373
 30
0.0
 10
60.7618360511
 20
33.8447155461
 30
0.0
 10
61.4115948027
 20
32.6298001359
 30
0.0
 10
61.8112118388
 20
31.3115232627
 30
0.0
 10
61.8996946417
 20
30.3965477006
 30
0.0
 10
61.9012598814
 20
29.9403199237
 30
0.0
  0
ENDSEC
  0
SECTION
  2
OBJECTS
  0
DICTIONARY
  5
C
100
AcDbDictionary
280
0
281
1
  3
ACAD_GROUP
350
D
  3
ACAD_MLINESTYLE
350
17
  3
ACAD_LAYOUT
350
1A
  3
ACAD_PLOTSETTINGS
350
19
  3
ACAD_PLOTSTYLENAME
350
E
  0
DICTIONARY
  5
D
102
{ACAD_REACTORS
330
C
102
}
100
AcDbDictionary
280
0
281
1
  0
ACDBDICTIONARYWDFLT
  5
E
102
{ACAD_REACTORS
330
C
102
}
100
AcDbDictionary
281
1
  3
Normal
350
F
100
AcDbDictionaryWithDefault
340
F
  0
DICTIONARY
  5
17
102
{ACAD_REACTORS
330
C
102
}
100
AcDbDictionary
280
0
281
1
  3
Standard
350
18
  0
DICTIONARY
  5
19
102
{ACAD_REACTORS
330
C
102
}
100
AcDbDictionary
281
1
  0
DICTIONARY
  5
1A
102
{ACAD_REACTORS
330
C
102
}
100
AcDbDictionary
281
1
  3
Model
350
2AB
  3
Layout1
350
2AC
  0
ACDBPLACEHOLDER
  5
F
102
{ACAD_REACTORS
330
E
102
}
  0
MLINESTYLE
  5
18
102
{ACAD_REACTORS
330
17
102
}
100
AcDbMlineStyle
  2
STANDARD
 70
0
  3

 62
256
 51
90.0
 52
90.0
 71
2
 49
0.5
 62
256
  6
BYLAYER
 49
-0.5
 62
256
  6
BYLAYER
  0
LAYOUT
  5
2AB
102
{ACAD_REACTORS
330
1A
102
}
100
AcDbPlotSettings
  1

  2
none_device
  4

  6

 40
0.0
 41
0.0
 42
0.0
 43
0.0
 44
210.0
 45
297.0
 46
0.0
 47
0.0
 48
0.0
 49
0.0
140
0.0
141
0.0
142
1.0
143
1.0
 70
1024
 72
1
 73
0
 74
0
  7

 75
0
147
1.0
148
0.0
149
0.0
100
AcDbLayout
  1
Model
 70
0
 71
0
 10
0.0
 20
0.0
 11
210.0
 21
297.0
 12
0.0
 22
0.0
 32
0.0
 14
0.0
 24
0.0
 34
0.0
 15
0.0
 25
0.0
 35
0.0
146
0.0
 13
0.0
 23
0.0
 33
0.0
 16
1.0
 26
0.0
 36
0.0
 17
0.0
 27
1.0
 37
0.0
 76
0
330
210
345
0
346
0
  0
LAYOUT
  5
2AC
102
{ACAD_REACTORS
330
1A
102
}
100
AcDbPlotSettings
  1

  2
none_device
  4

  6

 40
0.0
 41
0.0
 42
0.0
 43
0.0
 44
210.0
 45
297.0
 46
0.0
 47
0.0
 48
0.0
 49
0.0
140
0.0
141
0.0
142
1.0
143
1.0
 70
0
 72
1
 73
0
 74
0
  7

 75
0
147
1.0
148
0.0
149
0.0
100
AcDbLayout
  1
Layout1
 70
0
 71
1
 10
0.0
 20
0.0
 11
210.0
 21
297.0
 12
0.0
 22
0.0
 32
0.0
 14
0.0
 24
0.0
 34
0.0
 15
0.0
 25
0.0
 35
0.0
146
0.0
 13
0.0
 23
0.0
 33
0.0
 16
1.0
 26
0.0
 36
0.0
 17
0.0
 27
1.0
 37
0.0
 76
0
330
211
345
0
346
0
  0
ENDSEC
  0
EOF
