999
DXF file: C:\Users\sesa63760\Dev\_Creo\CAD\MCADID0000202_3D-CAD\drw0001_5.dxf
999
Pro/ENGINEER 2019471 by Parametric Technology Corporation
  0
SECTION
  2
HEADER
  9
$ACADVER
  1
AC1024
  9
$DWGCODEPAGE
  3
ANSI_1252
  9
$EXTMAX
 10
169.6535111839
 20
239.9385372458
 30
0.0
  9
$EXTMIN
 10
0.0
 20
0.0
 30
0.0
  9
$LIMMIN
 10
0.0
 20
0.0
  9
$LIMMAX
 10
169.6535111839
 20
239.9385372458
  9
$VIEWCTR
 10
84.826755592
 20
119.9692686229
  9
$VIEWSIZE
 40
239.9385372458
  9
$CLAYER
  8
0
  9
$LTSCALE
 40
15.6404379834
  9
$CELTYPE
  6
BYLAYER
  9
$DIMSCALE
 40
1.0
  9
$DIMASZ
 40
2.019684657
  9
$DIMEXO
 40
1.0
  9
$DIMDLI
 40
10.8061207886
  9
$DIMEXE
 40
1.0
  9
$DIMCEN
 40
2.5593443973
  9
$DIMLFAC
 40
1.0
  9
$DIMBLK
  1
_FILLED
  9
$DIMALT
 70
0
  9
$DIMALTF
 40
0.0393700787
  9
$DIMTXT
 40
2.8275585197
  9
$DIMTOL
 70
1
  9
$DIMLIM
 70
0
  9
$DIMTFAC
 40
1.0
  9
$DIMTP
 40
0.01
  9
$DIMTM
 40
0.01
  9
$DIMGAP
 40
0.625
  9
$DIMDSEP
 70
46
  9
$AUNITS
 70
0
  9
$PDMODE
 70
3
  9
$PDSIZE
 40
0.3125
  9
$HANDSEED
  5
385
  9
$TILEMODE
 70
1
  9
$MEASUREMENT
 70
1
  9
$INSUNITS
 70
4
  0
ENDSEC
  0
SECTION
  2
CLASSES
  0
CLASS
  1
ACDBDICTIONARYWDFLT
  2
AcDbDictionaryWithDefault
  3
AutoCAD 2000
 90
0
 91
1
280
0
281
0
  0
CLASS
  1
ACDBPLACEHOLDER
  2
AcDbPlaceHolder
  3
AutoCAD 2000
 90
0
 91
1
280
0
281
0
  0
CLASS
  1
LAYOUT
  2
AcDbLayout
  3
AutoCAD 2000
 90
0
 91
0
280
0
281
0
  0
ENDSEC
  0
SECTION
  2
TABLES
  0
TABLE
  2
VPORT
  5
8
100
AcDbSymbolTable
 70
2
  0
VPORT
  5
1F4
100
AcDbSymbolTableRecord
100
AcDbViewportTableRecord
  2
*ACTIVE
 70
0
 10
0.0
 20
0.0
 11
1.0
 21
1.0
 12
84.826755592
 22
119.9692686229
 13
0.0
 23
0.0
 14
1.0
 24
1.0
 15
0.0
 25
0.0
 16
0.0
 26
0.0
 36
1.0
 17
0.0
 27
0.0
 37
0.0
 40
239.9385372458
 41
0.7070707071
 42
50.0
 43
0.0
 44
0.0
 50
0.0
 51
0.0
 71
0
 72
100
 73
1
 74
1
 75
0
 76
0
 77
0
 78
0
  0
ENDTAB
  0
TABLE
  2
LTYPE
  5
5
100
AcDbSymbolTable
 70
6
  0
LTYPE
  5
14
100
AcDbSymbolTableRecord
100
AcDbLinetypeTableRecord
  2
BYBLOCK
 70
0
  3

 72
65
 73
0
 40
0.0
  0
LTYPE
  5
15
100
AcDbSymbolTableRecord
100
AcDbLinetypeTableRecord
  2
BYLAYER
 70
0
  3

 72
65
 73
0
 40
0.0
  0
LTYPE
  5
16
100
AcDbSymbolTableRecord
100
AcDbLinetypeTableRecord
  2
CONTINUOUS
 70
64
  3
Solid line
 72
65
 73
0
 40
0.0
  0
LTYPE
  5
1F5
100
AcDbSymbolTableRecord
100
AcDbLinetypeTableRecord
  2
CENTER
 70
64
  3
____ _ ____ _ ____ _ ____ _ ____ _ ____ _ ____
 72
65
 73
4
 40
0.6
 49
0.375
 74
0
 49
-0.075
 74
0
 49
0.075
 74
0
 49
-0.075
 74
0
  0
LTYPE
  5
1F6
100
AcDbSymbolTableRecord
100
AcDbLinetypeTableRecord
  2
HIDDEN
 70
64
  3
- - - - - - - - - - - - - - - - - - - -
 72
65
 73
2
 40
0.2
 49
0.1
 74
0
 49
-0.1
 74
0
  0
LTYPE
  5
1F7
100
AcDbSymbolTableRecord
100
AcDbLinetypeTableRecord
  2
PHANTOM
 70
64
  3
_____ _ _ _____ _ _ _____ _ _ _____
 72
65
 73
6
 40
0.8
 49
0.45
 74
0
 49
-0.05
 74
0
 49
0.1
 74
0
 49
-0.05
 74
0
 49
0.1
 74
0
 49
-0.05
 74
0
  0
LTYPE
  5
1F8
100
AcDbSymbolTableRecord
100
AcDbLinetypeTableRecord
  2
DOT
 70
64
  3
. . . . . . . . . . . . . . . . . . . .
 72
65
 73
2
 40
0.2
 49
0.1
 74
0
 49
-0.1
 74
0
  0
LTYPE
  5
1F9
100
AcDbSymbolTableRecord
100
AcDbLinetypeTableRecord
  2
DASHED
 70
64
  3
- - - - - - - - - - - - - - - - - - - -
 72
65
 73
2
 40
0.2
 49
0.1
 74
0
 49
-0.1
 74
0
  0
ENDTAB
  0
TABLE
  2
LAYER
  5
2
100
AcDbSymbolTable
 70
36
  0
LAYER
  5
10
100
AcDbSymbolTableRecord
100
AcDbLayerTableRecord
  2
0
 70
0
 62
7
  6
CONTINUOUS
370
-3
390
F
  0
LAYER
  5
1FA
100
AcDbSymbolTableRecord
100
AcDbLayerTableRecord
  2
DEFAULT_1
 70
0
 62
7
  6
CENTER
370
-3
390
F
  0
LAYER
  5
1FB
100
AcDbSymbolTableRecord
100
AcDbLayerTableRecord
  2
DEFAULT_2
 70
0
 62
8
  6
HIDDEN
370
-3
390
F
  0
LAYER
  5
1FC
100
AcDbSymbolTableRecord
100
AcDbLayerTableRecord
  2
DEFAULT_3
 70
0
 62
7
  6
PHANTOM
370
-3
390
F
  0
LAYER
  5
1FD
100
AcDbSymbolTableRecord
100
AcDbLayerTableRecord
  2
00_COMPONENTS
 70
0
 62
7
  6
CONTINUOUS
370
-3
390
F
  0
LAYER
  5
1FE
100
AcDbSymbolTableRecord
100
AcDbLayerTableRecord
  2
01_1_DEFAULT_DATUMS
 70
0
 62
7
  6
CONTINUOUS
370
-3
390
F
  0
LAYER
  5
1FF
100
AcDbSymbolTableRecord
100
AcDbLayerTableRecord
  2
01_PLANES
 70
0
 62
7
  6
CONTINUOUS
370
-3
390
F
  0
LAYER
  5
200
100
AcDbSymbolTableRecord
100
AcDbLayerTableRecord
  2
02_COORD_SYS
 70
0
 62
7
  6
CONTINUOUS
370
-3
390
F
  0
LAYER
  5
201
100
AcDbSymbolTableRecord
100
AcDbLayerTableRecord
  2
03_AXES
 70
0
 62
7
  6
CONTINUOUS
370
-3
390
F
  0
LAYER
  5
202
100
AcDbSymbolTableRecord
100
AcDbLayerTableRecord
  2
04_POINTS
 70
0
 62
7
  6
CONTINUOUS
370
-3
390
F
  0
LAYER
  5
203
100
AcDbSymbolTableRecord
100
AcDbLayerTableRecord
  2
05_CURVES
 70
0
 62
7
  6
CONTINUOUS
370
-3
390
F
  0
LAYER
  5
204
100
AcDbSymbolTableRecord
100
AcDbLayerTableRecord
  2
06_SURFS
 70
0
 62
7
  6
CONTINUOUS
370
-3
390
F
  0
LAYER
  5
205
100
AcDbSymbolTableRecord
100
AcDbLayerTableRecord
  2
07_COSMETICS
 70
0
 62
7
  6
CONTINUOUS
370
-3
390
F
  0
LAYER
  5
206
100
AcDbSymbolTableRecord
100
AcDbLayerTableRecord
  2
10_NOTES
 70
0
 62
7
  6
CONTINUOUS
370
-3
390
F
  0
LAYER
  5
207
100
AcDbSymbolTableRecord
100
AcDbLayerTableRecord
  2
11_NOTES_PUB
 70
0
 62
7
  6
CONTINUOUS
370
-3
390
F
  0
LAYER
  5
208
100
AcDbSymbolTableRecord
100
AcDbLayerTableRecord
  2
13_REF_GTOL
 70
0
 62
7
  6
CONTINUOUS
370
-3
390
F
  0
LAYER
  5
209
100
AcDbSymbolTableRecord
100
AcDbLayerTableRecord
  2
16_MISC
 70
0
 62
7
  6
CONTINUOUS
370
-3
390
F
  0
LAYER
  5
20A
100
AcDbSymbolTableRecord
100
AcDbLayerTableRecord
  2
17_NO_PRINT
 70
0
 62
7
  6
CONTINUOUS
370
-3
390
F
  0
LAYER
  5
20B
100
AcDbSymbolTableRecord
100
AcDbLayerTableRecord
  2
18_DATUM_CAMS_JOINTS
 70
0
 62
7
  6
CONTINUOUS
370
-3
390
F
  0
LAYER
  5
20C
100
AcDbSymbolTableRecord
100
AcDbLayerTableRecord
  2
19_DATUM_FUNCTIONAL
 70
0
 62
7
  6
CONTINUOUS
370
-3
390
F
  0
LAYER
  5
20D
100
AcDbSymbolTableRecord
100
AcDbLayerTableRecord
  2
20_DATUM_KINEMATIC_SCHEME
 70
0
 62
7
  6
CONTINUOUS
370
-3
390
F
  0
ENDTAB
  0
TABLE
  2
STYLE
  5
3
100
AcDbSymbolTable
 70
1
  0
STYLE
  5
11
100
AcDbSymbolTableRecord
100
AcDbTextStyleTableRecord
  2
STANDARD
 70
0
 40
0.0
 41
0.8
 50
0.0
 71
0
 42
0.2
  3
txt
  4

  0
STYLE
  5
20E
100
AcDbSymbolTableRecord
100
AcDbTextStyleTableRecord
  2
TEXTSTYLE_1
 70
0
 40
0.0
 41
0.8
 50
0.0
 71
0
 42
0.2
  3
gdt
  4

  0
ENDTAB
  0
TABLE
  2
VIEW
  5
6
100
AcDbSymbolTable
 70
0
  0
ENDTAB
  0
TABLE
  2
UCS
  5
7
100
AcDbSymbolTable
 70
0
  0
ENDTAB
  0
TABLE
  2
APPID
  5
9
100
AcDbSymbolTable
 70
1
  0
APPID
  5
20F
100
AcDbSymbolTableRecord
100
AcDbRegAppTableRecord
  2
ACAD
 70
0
  0
ENDTAB
  0
TABLE
  2
BLOCK_RECORD
  5
1
100
AcDbSymbolTable
 70
0
  0
BLOCK_RECORD
  5
210
100
AcDbSymbolTableRecord
100
AcDbBlockTableRecord
  2
*Model_Space
  0
BLOCK_RECORD
  5
211
100
AcDbSymbolTableRecord
100
AcDbBlockTableRecord
  2
*Paper_Space
  0
BLOCK_RECORD
  5
212
100
AcDbSymbolTableRecord
100
AcDbBlockTableRecord
  2
_FILLED
  0
ENDTAB
  0
TABLE
  2
DIMSTYLE
  5
A
100
AcDbSymbolTable
 70
1
100
AcDbDimStyleTable
 71
0
  0
DIMSTYLE
105
213
100
AcDbSymbolTableRecord
100
AcDbDimStyleTableRecord
  2
STANDARD
 70
0
  3

  4

 40
1.0
 41
2.019684657
 42
1.0
 43
0.38
 44
1.0
 45
0.0
 46
0.0
 47
0.01
 48
0.01
140
2.8275585197
141
0.09
142
0.0
143
25.4
144
1.0
145
0.0
146
1.0
147
0.625
 71
1
 72
0
 73
0
 74
0
 75
0
 76
0
 77
1
 78
8
 79
2
170
0
171
1
172
0
173
0
174
0
175
0
176
0
177
0
178
0
270
2
179
2
271
2
272
2
273
2
274
2
275
0
280
0
281
0
282
0
283
1
284
8
285
0
286
0
287
3
288
0
340
11
278
46
341
212
342
212
343
212
344
212
  0
ENDTAB
  0
ENDSEC
  0
SECTION
  2
BLOCKS
  0
BLOCK
  5
20
100
AcDbEntity
  8
0
100
AcDbBlockBegin
  2
*Model_Space
 70
0
 10
0.0
 20
0.0
 30
0.0
  3
*Model_Space
  1

  0
ENDBLK
  5
21
100
AcDbEntity
  8
0
100
AcDbBlockEnd
  0
BLOCK
  5
1C
100
AcDbEntity
  8
0
100
AcDbBlockBegin
  2
*Paper_Space
 70
0
 10
0.0
 20
0.0
 30
0.0
  3
*Paper_Space
  1

  0
ENDBLK
  5
1D
100
AcDbEntity
  8
0
100
AcDbBlockEnd
  0
BLOCK
  5
214
100
AcDbEntity
  8
0
100
AcDbBlockBegin
  2
_FILLED
 70
64
 10
0.0
 20
0.0
  3
_FILLED
  1

  0
SOLID
  5
215
100
AcDbEntity
  8
0
  6
BYBLOCK
 62
0
100
AcDbTrace
 10
0.0
 20
0.0
 11
-1.0
 21
0.25
 12
-1.0
 22
-0.25
 13
-1.0
 23
-0.25
  0
ENDBLK
  5
216
100
AcDbEntity
  8
0
  6
BYBLOCK
 62
0
100
AcDbBlockEnd
  0
ENDSEC
  0
SECTION
  2
ENTITIES
  0
LINE
  5
217
100
AcDbEntity
  8
0
100
AcDbLine
 62
7
  6
CONTINUOUS
 10
19.7760995333
 20
139.8930780539
 11
19.7760995333
 21
133.2328240264
  0
LINE
  5
218
100
AcDbEntity
  8
0
100
AcDbLine
 62
7
  6
CONTINUOUS
 10
19.7760995333
 20
107.2930780634
 11
19.7760995333
 21
100.6328240321
  0
LINE
  5
219
100
AcDbEntity
  8
0
100
AcDbLine
 62
7
  6
CONTINUOUS
 10
23.576099534
 20
147.1447441118
 11
20.1110360247
 21
141.1430780624
  0
LINE
  5
21A
100
AcDbEntity
  8
0
100
AcDbLine
 62
7
  6
CONTINUOUS
 10
20.1110360247
 20
99.3828240237
 11
23.576099534
 21
93.3811579743
  0
LINE
  5
21B
100
AcDbEntity
  8
0
100
AcDbLine
 62
7
  6
CONTINUOUS
 10
23.576099534
 20
87.962951043
 11
23.576099534
 21
152.562951043
  0
LINE
  5
21C
100
AcDbEntity
  8
0
100
AcDbLine
 62
7
  6
CONTINUOUS
 10
26.6721617662
 20
88.4369664361
 11
26.6721628036
 21
152.2469808884
  0
LINE
  5
21D
100
AcDbEntity
  8
0
100
AcDbLine
 62
7
  6
CONTINUOUS
 10
26.8273013954
 20
152.2466151826
 11
26.827301441
 21
88.4375150683
  0
LINE
  5
21E
100
AcDbEntity
  8
0
100
AcDbLine
 62
7
  6
CONTINUOUS
 10
23.576099534
 20
114.5447441113
 11
20.111036025
 21
108.5430780619
  0
LINE
  5
21F
100
AcDbEntity
  8
0
100
AcDbLine
 62
7
  6
CONTINUOUS
 10
20.1110360253
 20
131.9828240233
 11
23.576099534
 21
125.9811579744
  0
LINE
  5
220
100
AcDbEntity
  8
0
100
AcDbLine
 62
7
  6
CONTINUOUS
 10
39.2827865849
 20
88.4604362741
 11
39.2827865832
 21
152.2313363196
  0
LINE
  5
221
100
AcDbEntity
  8
0
100
AcDbLine
 62
7
  6
CONTINUOUS
 10
39.5794389751
 20
152.231304809
 11
39.5794836609
 21
88.4604835532
  0
LINE
  5
222
100
AcDbEntity
  8
0
100
AcDbLine
 62
7
  6
CONTINUOUS
 10
56.1138809886
 20
133.7506563449
 11
56.1138809886
 21
141.7752457416
  0
LINE
  5
223
100
AcDbEntity
  8
0
100
AcDbLine
 62
7
  6
CONTINUOUS
 10
56.5760995339
 20
93.4534882077
 11
56.5760995339
 21
112.9630484004
  0
LINE
  5
224
100
AcDbEntity
  8
0
100
AcDbLine
 62
7
  6
CONTINUOUS
 10
57.326099534
 20
135.7628748899
 11
57.326099534
 21
139.7630271946
  0
LINE
  5
225
100
AcDbEntity
  8
0
100
AcDbLine
 62
7
  6
CONTINUOUS
 10
57.8260995344
 20
136.4629510423
 11
57.8260995344
 21
137.2601451246
  0
LINE
  5
226
100
AcDbEntity
  8
0
100
AcDbLine
 62
7
  6
CONTINUOUS
 10
58.2556807922
 20
138.2499977509
 11
57.9065182777
 21
137.5859043421
  0
LINE
  5
227
100
AcDbEntity
  8
0
100
AcDbLine
 62
7
  6
CONTINUOUS
 10
58.2605647108
 20
137.498502458
 11
58.7016343576
 21
138.3373996306
  0
LINE
  5
228
100
AcDbEntity
  8
0
100
AcDbLine
 62
7
  6
CONTINUOUS
 10
26.6721617663
 20
88.436966436
 11
23.576099534
 21
88.3991613621
  0
LINE
  5
229
100
AcDbEntity
  8
0
100
AcDbLine
 62
7
  6
CONTINUOUS
 10
26.6721617662
 20
88.4369664361
 11
26.827301441
 21
88.4375150683
  0
LINE
  5
22A
100
AcDbEntity
  8
0
100
AcDbLine
 62
7
  6
CONTINUOUS
 10
23.576099534
 20
87.9629510434
 11
154.576099533
 21
87.962951043
  0
LINE
  5
22B
100
AcDbEntity
  8
0
100
AcDbLine
 62
7
  6
CONTINUOUS
 10
39.2827865849
 20
88.4604362741
 11
61.5784726773
 21
88.460483553
  0
LINE
  5
22C
100
AcDbEntity
  8
0
100
AcDbLine
 62
7
  6
CONTINUOUS
 10
128.0490432583
 20
89.2460611999
 11
63.5784726773
 21
89.2460611999
  0
LINE
  5
22D
100
AcDbEntity
  8
0
100
AcDbLine
 62
7
  6
CONTINUOUS
 10
62.2332663664
 20
97.1530008357
 11
62.4543561483
 21
96.8747326626
  0
LINE
  5
22E
100
AcDbEntity
  8
0
100
AcDbLine
 62
7
  6
CONTINUOUS
 10
65.1510689964
 20
99.6503634451
 11
64.9862101501
 21
99.8977774108
  0
LINE
  5
22F
100
AcDbEntity
  8
0
100
AcDbLine
 62
7
  6
CONTINUOUS
 10
63.7907072201
 20
97.1529266693
 11
63.9659889183
 21
96.8747082574
  0
LINE
  5
230
100
AcDbEntity
  8
0
100
AcDbLine
 62
7
  6
CONTINUOUS
 10
58.576099534
 20
108.9630483911
 11
56.5760995339
 21
112.9630484002
  0
LINE
  5
231
100
AcDbEntity
  8
0
100
AcDbLine
 62
7
  6
CONTINUOUS
 10
60.812609571
 20
100.9632843165
 11
60.812749374
 21
100.9556272536
  0
LINE
  5
232
100
AcDbEntity
  8
0
100
AcDbLine
 62
7
  6
CONTINUOUS
 10
58.2260995347
 20
136.4629510404
 11
58.2260995347
 21
137.358891372
  0
LINE
  5
233
100
AcDbEntity
  8
0
100
AcDbLine
 62
7
  6
CONTINUOUS
 10
58.3360995341
 20
138.575756962
 11
58.3360995341
 21
139.012951043
  0
LINE
  5
234
100
AcDbEntity
  8
0
100
AcDbLine
 62
7
  6
CONTINUOUS
 10
58.576099534
 20
108.9630483911
 11
58.576099534
 21
105.4842453599
  0
LINE
  5
235
100
AcDbEntity
  8
0
100
AcDbLine
 62
7
  6
CONTINUOUS
 10
58.576099534
 20
102.5981934443
 11
58.576099534
 21
94.2373919132
  0
LINE
  5
236
100
AcDbEntity
  8
0
100
AcDbLine
 62
7
  6
CONTINUOUS
 10
58.7360995345
 20
138.4770107183
 11
58.7360995345
 21
139.0129510449
  0
LINE
  5
237
100
AcDbEntity
  8
0
100
AcDbLine
 62
7
  6
CONTINUOUS
 10
61.1760995344
 20
105.912951043
 11
61.1760995344
 21
102.412951043
  0
LINE
  5
238
100
AcDbEntity
  8
0
100
AcDbLine
 62
7
  6
CONTINUOUS
 10
60.8141819156
 20
107.4487365505
 11
60.8126095544
 21
107.3626177699
  0
LINE
  5
239
100
AcDbEntity
  8
0
100
AcDbLine
 62
7
  6
CONTINUOUS
 10
93.0418273272
 20
96.0677666016
 11
95.867789854
 21
96.3242875185
  0
LINE
  5
23A
100
AcDbEntity
  8
0
100
AcDbLine
 62
7
  6
CONTINUOUS
 10
67.8925934912
 20
95.962951043
 11
101.771827326
 21
95.962951043
  0
LINE
  5
23B
100
AcDbEntity
  8
0
100
AcDbLine
 62
7
  6
CONTINUOUS
 10
68.6145735258
 20
103.3201009685
 11
68.7759921947
 21
103.0674393003
  0
LINE
  5
23C
100
AcDbEntity
  8
0
100
AcDbLine
 62
7
  6
CONTINUOUS
 10
66.1202672547
 20
99.9129510431
 11
66.1760995343
 21
99.7453179926
  0
LINE
  5
23D
100
AcDbEntity
  8
0
100
AcDbLine
 62
7
  6
CONTINUOUS
 10
63.7907072201
 20
99.6729488536
 11
63.7907072201
 21
97.1529266693
  0
LINE
  5
23E
100
AcDbEntity
  8
0
100
AcDbLine
 62
7
  6
CONTINUOUS
 10
63.9659889183
 20
99.9512186777
 11
63.9659889183
 21
96.8746838523
  0
LINE
  5
23F
100
AcDbEntity
  8
0
100
AcDbLine
 62
7
  6
CONTINUOUS
 10
64.0271972861
 20
107.7511762609
 11
64.0271972861
 21
108.012951043
  0
LINE
  5
240
100
AcDbEntity
  8
0
100
AcDbLine
 62
7
  6
CONTINUOUS
 10
64.6160995335
 20
139.0129510449
 11
64.6160995335
 21
138.4770107183
  0
LINE
  5
241
100
AcDbEntity
  8
0
100
AcDbLine
 62
7
  6
CONTINUOUS
 10
64.6863929014
 20
99.912951043
 11
64.6863929014
 21
96.962951043
  0
LINE
  5
242
100
AcDbEntity
  8
0
100
AcDbLine
 62
7
  6
CONTINUOUS
 10
64.9862101501
 20
96.9781246752
 11
64.9862101501
 21
99.8977774108
  0
LINE
  5
243
100
AcDbEntity
  8
0
100
AcDbLine
 62
7
  6
CONTINUOUS
 10
65.0160995339
 20
139.012951043
 11
65.0160995339
 21
138.5757569622
  0
LINE
  5
244
100
AcDbEntity
  8
0
100
AcDbLine
 62
7
  6
CONTINUOUS
 10
65.1260995333
 20
137.358891372
 11
65.1260995333
 21
136.4629510404
  0
LINE
  5
245
100
AcDbEntity
  8
0
100
AcDbLine
 62
7
  6
CONTINUOUS
 10
65.1510689964
 20
99.6503634451
 11
65.1510689964
 21
97.225538641
  0
LINE
  5
246
100
AcDbEntity
  8
0
100
AcDbLine
 62
7
  6
CONTINUOUS
 10
65.4508862449
 20
97.2407122732
 11
65.4508862449
 21
99.6351898128
  0
LINE
  5
247
100
AcDbEntity
  8
0
100
AcDbLine
 62
7
  6
CONTINUOUS
 10
65.5260995336
 20
137.2601451246
 11
65.5260995336
 21
136.4629510423
  0
LINE
  5
248
100
AcDbEntity
  8
0
100
AcDbLine
 62
7
  6
CONTINUOUS
 10
66.0260995333
 20
139.7630272
 11
66.0260995333
 21
135.7628748846
  0
LINE
  5
249
100
AcDbEntity
  8
0
100
AcDbLine
 62
7
  6
CONTINUOUS
 10
66.326099534
 20
99.7393097271
 11
66.326099534
 21
99.962951043
  0
LINE
  5
24A
100
AcDbEntity
  8
0
100
AcDbLine
 62
7
  6
CONTINUOUS
 10
66.3770155008
 20
99.6351898128
 11
66.3770155008
 21
97.2407122732
  0
LINE
  5
24B
100
AcDbEntity
  8
0
100
AcDbLine
 62
7
  6
CONTINUOUS
 10
66.5773208249
 20
99.6392077426
 11
66.5773208249
 21
97.2366943434
  0
LINE
  5
24C
100
AcDbEntity
  8
0
100
AcDbLine
 62
7
  6
CONTINUOUS
 10
66.976099534
 20
99.6860255622
 11
66.976099534
 21
97.1898765238
  0
LINE
  5
24D
100
AcDbEntity
  8
0
100
AcDbLine
 62
7
  6
CONTINUOUS
 10
67.006099534
 20
99.962951043
 11
67.006099534
 21
97.162951043
  0
LINE
  5
24E
100
AcDbEntity
  8
0
100
AcDbLine
 62
7
  6
CONTINUOUS
 10
67.2383180786
 20
141.7752457476
 11
67.2383180786
 21
133.7506563388
  0
LINE
  5
24F
100
AcDbEntity
  8
0
100
AcDbLine
 62
7
  6
CONTINUOUS
 10
67.5060995337
 20
97.662951043
 11
67.5060995337
 21
100.4629510438
  0
LINE
  5
250
100
AcDbEntity
  8
0
100
AcDbLine
 62
7
  6
CONTINUOUS
 10
67.7260995344
 20
123.1485431479
 11
67.7260995344
 21
149.4941946524
  0
LINE
  5
251
100
AcDbEntity
  8
0
100
AcDbLine
 62
7
  6
CONTINUOUS
 10
67.8925934912
 20
95.9629510431
 11
67.8925934912
 21
97.162951043
  0
LINE
  5
252
100
AcDbEntity
  8
0
100
AcDbLine
 62
7
  6
CONTINUOUS
 10
61.4765178943
 20
99.6729021287
 11
61.4983476227
 21
99.9511689819
  0
LINE
  5
253
100
AcDbEntity
  8
0
100
AcDbLine
 62
7
  6
CONTINUOUS
 10
68.570654055
 20
96.0677666016
 11
93.0418273273
 21
96.0677666016
  0
LINE
  5
254
100
AcDbEntity
  8
0
100
AcDbLine
 62
7
  6
CONTINUOUS
 10
63.9659889183
 20
96.8746838523
 11
62.4543372142
 21
96.8747326632
  0
LINE
  5
255
100
AcDbEntity
  8
0
100
AcDbLine
 62
7
  6
CONTINUOUS
 10
66.1202672548
 20
96.962951043
 11
64.6863929014
 21
96.962951043
  0
LINE
  5
256
100
AcDbEntity
  8
0
100
AcDbLine
 62
7
  6
CONTINUOUS
 10
63.7907071827
 20
97.1529504172
 11
62.2332663664
 21
97.1530008357
  0
LINE
  5
257
100
AcDbEntity
  8
0
100
AcDbLine
 62
7
  6
CONTINUOUS
 10
67.0060995344
 20
97.162951043
 11
93.6517814093
 21
97.162951043
  0
LINE
  5
258
100
AcDbEntity
  8
0
100
AcDbLine
 62
7
  6
CONTINUOUS
 10
65.4508862449
 20
97.2407122732
 11
66.3770155008
 21
97.2407122732
  0
LINE
  5
259
100
AcDbEntity
  8
0
100
AcDbLine
 62
7
  6
CONTINUOUS
 10
93.6517814085
 20
97.662951043
 11
67.5060995337
 21
97.662951043
  0
LINE
  5
25A
100
AcDbEntity
  8
0
100
AcDbLine
 62
7
  6
CONTINUOUS
 10
93.6517814085
 20
98.1129510434
 11
101.1831953154
 21
98.1129510434
  0
LINE
  5
25B
100
AcDbEntity
  8
0
100
AcDbLine
 62
7
  6
CONTINUOUS
 10
100.276099534
 20
98.162951043
 11
93.6517814093
 21
98.162951043
  0
LINE
  5
25C
100
AcDbEntity
  8
0
100
AcDbLine
 62
7
  6
CONTINUOUS
 10
66.3770155008
 20
99.6351898128
 11
65.4508862449
 21
99.6351898128
  0
LINE
  5
25D
100
AcDbEntity
  8
0
100
AcDbLine
 62
7
  6
CONTINUOUS
 10
61.4765178943
 20
99.6729021287
 11
63.7907071781
 21
99.6729488538
  0
LINE
  5
25E
100
AcDbEntity
  8
0
100
AcDbLine
 62
7
  6
CONTINUOUS
 10
64.6863929014
 20
99.912951043
 11
66.1202672548
 21
99.912951043
  0
LINE
  5
25F
100
AcDbEntity
  8
0
100
AcDbLine
 62
7
  6
CONTINUOUS
 10
61.2116564966
 20
99.962951043
 11
67.0060995344
 21
99.962951043
  0
LINE
  5
260
100
AcDbEntity
  8
0
100
AcDbLine
 62
7
  6
CONTINUOUS
 10
61.5368585567
 20
100.4633845036
 11
67.5060995337
 21
100.4629510438
  0
LINE
  5
261
100
AcDbEntity
  8
0
100
AcDbLine
 62
7
  6
CONTINUOUS
 10
99.8835364863
 20
96.2991921165
 11
101.7718273261
 21
95.962951043
  0
LINE
  5
262
100
AcDbEntity
  8
0
100
AcDbLine
 62
7
  6
CONTINUOUS
 10
68.420862421
 20
105.1272819505
 11
68.4914840721
 21
105.0834194698
  0
LINE
  5
263
100
AcDbEntity
  8
0
100
AcDbLine
 62
7
  6
CONTINUOUS
 10
68.379904632
 20
104.8677195407
 11
68.3597451379
 21
104.8808286768
  0
LINE
  5
264
100
AcDbEntity
  8
0
100
AcDbLine
 62
7
  6
CONTINUOUS
 10
61.5431437532
 20
117.9629510434
 11
63.5431437533
 21
113.9629510343
  0
LINE
  5
265
100
AcDbEntity
  8
0
100
AcDbLine
 62
7
  6
CONTINUOUS
 10
68.570654055
 20
96.0677666016
 11
68.570654055
 21
97.162951043
  0
LINE
  5
266
100
AcDbEntity
  8
0
100
AcDbLine
 62
7
  6
CONTINUOUS
 10
68.570654055
 20
107.6179426703
 11
68.570654055
 21
107.9081354844
  0
LINE
  5
267
100
AcDbEntity
  8
0
100
AcDbLine
 62
7
  6
CONTINUOUS
 10
68.7360995341
 20
126.4026219182
 11
68.7360995341
 21
139.7246954648
  0
LINE
  5
268
100
AcDbEntity
  8
0
100
AcDbLine
 62
7
  6
CONTINUOUS
 10
71.0760995333
 20
132.0089510432
 11
71.0760995333
 21
132.2629510439
  0
LINE
  5
269
100
AcDbEntity
  8
0
100
AcDbLine
 62
7
  6
CONTINUOUS
 10
71.0760995333
 20
134.5489510423
 11
71.0760995333
 21
134.802951043
  0
LINE
  5
26A
100
AcDbEntity
  8
0
100
AcDbLine
 62
7
  6
CONTINUOUS
 10
71.4700995345
 20
130.1039510439
 11
71.4700995345
 21
132.0089510432
  0
LINE
  5
26B
100
AcDbEntity
  8
0
100
AcDbLine
 62
7
  6
CONTINUOUS
 10
71.4700995345
 20
134.802951043
 11
71.4700995345
 21
137.5459510437
  0
LINE
  5
26C
100
AcDbEntity
  8
0
100
AcDbLine
 62
7
  6
CONTINUOUS
 10
71.4930995346
 20
132.2629510439
 11
71.4930995346
 21
134.5489510423
  0
LINE
  5
26D
100
AcDbEntity
  8
0
100
AcDbLine
 62
7
  6
CONTINUOUS
 10
99.883536486
 20
107.6767099695
 11
101.771827326
 21
108.012951043
  0
LINE
  5
26E
100
AcDbEntity
  8
0
100
AcDbLine
 62
7
  6
CONTINUOUS
 10
74.2760995344
 20
128.427951043
 11
74.2760995344
 21
130.1039510439
  0
LINE
  5
26F
100
AcDbEntity
  8
0
100
AcDbLine
 62
7
  6
CONTINUOUS
 10
75.3940995332
 20
127.2849510437
 11
75.3940995332
 21
128.427951043
  0
LINE
  5
270
100
AcDbEntity
  8
0
100
AcDbLine
 62
7
  6
CONTINUOUS
 10
66.1760995344
 20
97.1305840935
 11
66.1202672548
 21
96.962951043
  0
LINE
  5
271
100
AcDbEntity
  8
0
100
AcDbLine
 62
7
  6
CONTINUOUS
 10
93.6517814085
 20
106.262951043
 11
100.276099534
 21
106.262951043
  0
LINE
  5
272
100
AcDbEntity
  8
0
100
AcDbLine
 62
7
  6
CONTINUOUS
 10
101.1831953154
 20
106.2961131403
 11
93.0418273271
 21
106.2961131403
  0
LINE
  5
273
100
AcDbEntity
  8
0
100
AcDbLine
 62
7
  6
CONTINUOUS
 10
68.5706542728
 20
107.9081354845
 11
93.0418273271
 21
107.9081354845
  0
LINE
  5
274
100
AcDbEntity
  8
0
100
AcDbLine
 62
7
  6
CONTINUOUS
 10
64.0271972861
 20
108.012951043
 11
101.7718273261
 21
108.012951043
  0
LINE
  5
275
100
AcDbEntity
  8
0
100
AcDbLine
 62
7
  6
CONTINUOUS
 10
93.0418273271
 20
107.9081354845
 11
95.8677898543
 21
107.6516145676
  0
LINE
  5
276
100
AcDbEntity
  8
0
100
AcDbLine
 62
7
  6
CONTINUOUS
 10
64.6505647103
 20
138.3373996306
 11
65.0916343572
 21
137.498502458
  0
LINE
  5
277
100
AcDbEntity
  8
0
100
AcDbLine
 62
7
  6
CONTINUOUS
 10
65.4456807903
 20
137.5859043421
 11
65.096518276
 21
138.2499977503
  0
LINE
  5
278
100
AcDbEntity
  8
0
100
AcDbLine
 62
7
  6
CONTINUOUS
 10
79.4580995344
 20
128.427951043
 11
79.4580995344
 21
127.2849510437
  0
LINE
  5
279
100
AcDbEntity
  8
0
100
AcDbLine
 62
7
  6
CONTINUOUS
 10
80.5760995333
 20
130.1039510439
 11
80.5760995333
 21
128.427951043
  0
LINE
  5
27A
100
AcDbEntity
  8
0
100
AcDbLine
 62
7
  6
CONTINUOUS
 10
63.7907071781
 20
99.6729488538
 11
63.9659889178
 21
99.9512186777
  0
LINE
  5
27B
100
AcDbEntity
  8
0
100
AcDbLine
 62
7
  6
CONTINUOUS
 10
68.6145735258
 20
105.0058011176
 11
68.7759930824
 21
105.2584641753
  0
LINE
  5
27C
100
AcDbEntity
  8
0
100
AcDbLine
 62
7
  6
CONTINUOUS
 10
64.9862101501
 20
96.9781246752
 11
65.1510689964
 21
97.225538641
  0
LINE
  5
27D
100
AcDbEntity
  8
0
100
AcDbLine
 62
7
  6
CONTINUOUS
 10
128.6143060427
 20
113.9629510343
 11
63.5431437533
 21
113.9629510343
  0
LINE
  5
27E
100
AcDbEntity
  8
0
100
AcDbLine
 62
7
  6
CONTINUOUS
 10
83.3590995331
 20
134.5489510423
 11
83.3590995331
 21
132.2629510439
  0
LINE
  5
27F
100
AcDbEntity
  8
0
100
AcDbLine
 62
7
  6
CONTINUOUS
 10
83.3820995331
 20
137.5459510437
 11
83.3820995331
 21
134.802951043
  0
LINE
  5
280
100
AcDbEntity
  8
0
100
AcDbLine
 62
7
  6
CONTINUOUS
 10
83.3820995331
 20
132.0089510432
 11
83.3820995331
 21
130.1039510439
  0
LINE
  5
281
100
AcDbEntity
  8
0
100
AcDbLine
 62
7
  6
CONTINUOUS
 10
83.7760995344
 20
134.802951043
 11
83.7760995344
 21
134.5489510423
  0
LINE
  5
282
100
AcDbEntity
  8
0
100
AcDbLine
 62
7
  6
CONTINUOUS
 10
83.7760995344
 20
132.2629510439
 11
83.7760995344
 21
132.0089510432
  0
LINE
  5
283
100
AcDbEntity
  8
0
100
AcDbLine
 62
7
  6
CONTINUOUS
 10
85.9960995339
 20
139.7719868956
 11
85.9960995339
 21
126.4145417641
  0
LINE
  5
284
100
AcDbEntity
  8
0
100
AcDbLine
 62
7
  6
CONTINUOUS
 10
154.576099534
 20
117.9629510434
 11
61.5431437532
 21
117.9629510434
  0
LINE
  5
285
100
AcDbEntity
  8
0
100
AcDbLine
 62
7
  6
CONTINUOUS
 10
89.4260995336
 20
126.420981454
 11
89.4260995336
 21
139.775839253
  0
LINE
  5
286
100
AcDbEntity
  8
0
100
AcDbLine
 62
7
  6
CONTINUOUS
 10
91.8497971384
 20
131.8967052718
 11
91.8497971384
 21
132.1507052725
  0
LINE
  5
287
100
AcDbEntity
  8
0
100
AcDbLine
 62
7
  6
CONTINUOUS
 10
91.8497971384
 20
134.4367052709
 11
91.8497971384
 21
134.6907052716
  0
LINE
  5
288
100
AcDbEntity
  8
0
100
AcDbLine
 62
7
  6
CONTINUOUS
 10
92.2437971396
 20
129.9917052725
 11
92.2437971396
 21
131.8967052718
  0
LINE
  5
289
100
AcDbEntity
  8
0
100
AcDbLine
 62
7
  6
CONTINUOUS
 10
92.2437971396
 20
134.6907052716
 11
92.2437971396
 21
137.4337052723
  0
LINE
  5
28A
100
AcDbEntity
  8
0
100
AcDbLine
 62
7
  6
CONTINUOUS
 10
92.2667971397
 20
132.1507052725
 11
92.2667971397
 21
134.4367052709
  0
LINE
  5
28B
100
AcDbEntity
  8
0
100
AcDbLine
 62
7
  6
CONTINUOUS
 10
67.5060995337
 20
97.662951043
 11
67.0060995337
 21
97.162951043
  0
LINE
  5
28C
100
AcDbEntity
  8
0
100
AcDbLine
 62
7
  6
CONTINUOUS
 10
68.4797166747
 20
103.523838495
 11
68.5066352582
 21
103.5416978916
  0
LINE
  5
28D
100
AcDbEntity
  8
0
100
AcDbLine
 62
7
  6
CONTINUOUS
 10
68.4914844439
 20
103.2424828484
 11
68.420862421
 21
103.1986201356
  0
LINE
  5
28E
100
AcDbEntity
  8
0
100
AcDbLine
 62
7
  6
CONTINUOUS
 10
149.6324617948
 20
122.062951043
 11
68.8116916393
 21
122.062951043
  0
LINE
  5
28F
100
AcDbEntity
  8
0
100
AcDbLine
 62
7
  6
CONTINUOUS
 10
122.1476193621
 20
125.9029510429
 11
89.9441299442
 21
125.9029510429
  0
LINE
  5
290
100
AcDbEntity
  8
0
100
AcDbLine
 62
7
  6
CONTINUOUS
 10
85.4845088128
 20
125.9029510429
 11
69.2357704094
 21
125.9029510429
  0
LINE
  5
291
100
AcDbEntity
  8
0
100
AcDbLine
 62
7
  6
CONTINUOUS
 10
93.0418273272
 20
107.9081354845
 11
93.0418273272
 21
106.2961131403
  0
LINE
  5
292
100
AcDbEntity
  8
0
100
AcDbLine
 62
7
  6
CONTINUOUS
 10
93.0418273272
 20
97.162951043
 11
93.0418273272
 21
96.0677666016
  0
LINE
  5
293
100
AcDbEntity
  8
0
100
AcDbLine
 62
7
  6
CONTINUOUS
 10
93.6517814085
 20
97.162951043
 11
93.6517814085
 21
106.2629510426
  0
LINE
  5
294
100
AcDbEntity
  8
0
100
AcDbLine
 62
7
  6
CONTINUOUS
 10
95.0497971395
 20
128.3157052716
 11
95.0497971395
 21
129.9917052725
  0
LINE
  5
295
100
AcDbEntity
  8
0
100
AcDbLine
 62
7
  6
CONTINUOUS
 10
95.4848116865
 20
98.162951043
 11
95.4848116865
 21
106.2629510428
  0
LINE
  5
296
100
AcDbEntity
  8
0
100
AcDbLine
 62
7
  6
CONTINUOUS
 10
95.867789854
 20
107.6516145676
 11
95.867789854
 21
106.2961131403
  0
LINE
  5
297
100
AcDbEntity
  8
0
100
AcDbLine
 62
7
  6
CONTINUOUS
 10
95.867789854
 20
98.1129510434
 11
95.867789854
 21
96.3242875185
  0
LINE
  5
298
100
AcDbEntity
  8
0
100
AcDbLine
 62
7
  6
CONTINUOUS
 10
96.1677971383
 20
127.1727052724
 11
96.1677971383
 21
128.3157052716
  0
LINE
  5
299
100
AcDbEntity
  8
0
100
AcDbLine
 62
7
  6
CONTINUOUS
 10
60.9800382544
 20
100.5047588344
 11
61.4453812183
 21
100.6876684447
  0
LINE
  5
29A
100
AcDbEntity
  8
0
100
AcDbLine
 62
7
  6
CONTINUOUS
 10
116.0142787031
 20
127.1727052724
 11
111.950278702
 21
127.1727052724
  0
LINE
  5
29B
100
AcDbEntity
  8
0
100
AcDbLine
 62
7
  6
CONTINUOUS
 10
100.2317971395
 20
127.1727052724
 11
96.1677971383
 21
127.1727052724
  0
LINE
  5
29C
100
AcDbEntity
  8
0
100
AcDbLine
 62
7
  6
CONTINUOUS
 10
79.4580995344
 20
127.2849510437
 11
75.3940995332
 21
127.2849510437
  0
LINE
  5
29D
100
AcDbEntity
  8
0
100
AcDbLine
 62
7
  6
CONTINUOUS
 10
117.132278702
 20
128.3157052716
 11
116.0142787031
 21
128.3157052716
  0
LINE
  5
29E
100
AcDbEntity
  8
0
100
AcDbLine
 62
7
  6
CONTINUOUS
 10
111.950278702
 20
128.3157052716
 11
110.8322787031
 21
128.3157052716
  0
LINE
  5
29F
100
AcDbEntity
  8
0
100
AcDbLine
 62
7
  6
CONTINUOUS
 10
101.3497971384
 20
128.3157052716
 11
100.2317971395
 21
128.3157052716
  0
LINE
  5
2A0
100
AcDbEntity
  8
0
100
AcDbLine
 62
7
  6
CONTINUOUS
 10
96.1677971383
 20
128.3157052716
 11
95.0497971395
 21
128.3157052716
  0
LINE
  5
2A1
100
AcDbEntity
  8
0
100
AcDbLine
 62
7
  6
CONTINUOUS
 10
80.5760995333
 20
128.427951043
 11
79.4580995344
 21
128.427951043
  0
LINE
  5
2A2
100
AcDbEntity
  8
0
100
AcDbLine
 62
7
  6
CONTINUOUS
 10
75.3940995332
 20
128.427951043
 11
74.2760995344
 21
128.427951043
  0
LINE
  5
2A3
100
AcDbEntity
  8
0
100
AcDbLine
 62
7
  6
CONTINUOUS
 10
119.9382787019
 20
129.9917052725
 11
117.132278702
 21
129.9917052725
  0
LINE
  5
2A4
100
AcDbEntity
  8
0
100
AcDbLine
 62
7
  6
CONTINUOUS
 10
110.8322787031
 20
129.9917052725
 11
108.0262787032
 21
129.9917052725
  0
LINE
  5
2A5
100
AcDbEntity
  8
0
100
AcDbLine
 62
7
  6
CONTINUOUS
 10
104.1557971382
 20
129.9917052725
 11
101.3497971384
 21
129.9917052725
  0
LINE
  5
2A6
100
AcDbEntity
  8
0
100
AcDbLine
 62
7
  6
CONTINUOUS
 10
95.0497971395
 20
129.9917052725
 11
92.2437971396
 21
129.9917052725
  0
LINE
  5
2A7
100
AcDbEntity
  8
0
100
AcDbLine
 62
7
  6
CONTINUOUS
 10
83.3820995331
 20
130.1039510439
 11
80.5760995333
 21
130.1039510439
  0
LINE
  5
2A8
100
AcDbEntity
  8
0
100
AcDbLine
 62
7
  6
CONTINUOUS
 10
74.2760995344
 20
130.1039510439
 11
71.4700995345
 21
130.1039510439
  0
LINE
  5
2A9
100
AcDbEntity
  8
0
100
AcDbLine
 62
7
  6
CONTINUOUS
 10
99.8835364863
 20
96.2991921165
 11
99.8835364863
 21
98.1129510434
  0
LINE
  5
2AA
100
AcDbEntity
  8
0
100
AcDbLine
 62
7
  6
CONTINUOUS
 10
99.8835364863
 20
106.2961131403
 11
99.8835364863
 21
107.6767099696
  0
LINE
  5
2AB
100
AcDbEntity
  8
0
100
AcDbLine
 62
7
  6
CONTINUOUS
 10
100.2317971395
 20
128.3157052716
 11
100.2317971395
 21
127.1727052724
  0
LINE
  5
2AC
100
AcDbEntity
  8
0
100
AcDbLine
 62
7
  6
CONTINUOUS
 10
100.276099534
 20
98.162951043
 11
100.276099534
 21
106.2629510426
  0
LINE
  5
2AD
100
AcDbEntity
  8
0
100
AcDbLine
 62
7
  6
CONTINUOUS
 10
101.1831953156
 20
98.1129510434
 11
101.1831953156
 21
106.2961131403
  0
LINE
  5
2AE
100
AcDbEntity
  8
0
100
AcDbLine
 62
7
  6
CONTINUOUS
 10
101.3497971384
 20
129.9917052725
 11
101.3497971384
 21
128.3157052716
  0
LINE
  5
2AF
100
AcDbEntity
  8
0
100
AcDbLine
 62
7
  6
CONTINUOUS
 10
101.7718273261
 20
108.012951043
 11
101.7718273261
 21
95.962951043
  0
LINE
  5
2B0
100
AcDbEntity
  8
0
100
AcDbLine
 62
7
  6
CONTINUOUS
 10
56.5760995339
 20
93.4534882075
 11
58.576099534
 21
94.2390658544
  0
LINE
  5
2B1
100
AcDbEntity
  8
0
100
AcDbLine
 62
7
  6
CONTINUOUS
 10
120.3322787031
 20
131.8967052718
 11
119.9382787019
 21
131.8967052718
  0
LINE
  5
2B2
100
AcDbEntity
  8
0
100
AcDbLine
 62
7
  6
CONTINUOUS
 10
108.0262787032
 20
131.8967052718
 11
107.632278702
 21
131.8967052718
  0
LINE
  5
2B3
100
AcDbEntity
  8
0
100
AcDbLine
 62
7
  6
CONTINUOUS
 10
104.5497971395
 20
131.8967052718
 11
104.1557971382
 21
131.8967052718
  0
LINE
  5
2B4
100
AcDbEntity
  8
0
100
AcDbLine
 62
7
  6
CONTINUOUS
 10
92.2437971396
 20
131.8967052718
 11
91.8497971384
 21
131.8967052718
  0
LINE
  5
2B5
100
AcDbEntity
  8
0
100
AcDbLine
 62
7
  6
CONTINUOUS
 10
83.7760995344
 20
132.0089510432
 11
83.3820995331
 21
132.0089510432
  0
LINE
  5
2B6
100
AcDbEntity
  8
0
100
AcDbLine
 62
7
  6
CONTINUOUS
 10
71.4700995345
 20
132.0089510432
 11
71.0760995333
 21
132.0089510432
  0
LINE
  5
2B7
100
AcDbEntity
  8
0
100
AcDbLine
 62
7
  6
CONTINUOUS
 10
91.8497971384
 20
132.1507052725
 11
92.2667971397
 21
132.1507052725
  0
LINE
  5
2B8
100
AcDbEntity
  8
0
100
AcDbLine
 62
7
  6
CONTINUOUS
 10
104.1327971382
 20
132.1507052725
 11
104.5497971395
 21
132.1507052725
  0
LINE
  5
2B9
100
AcDbEntity
  8
0
100
AcDbLine
 62
7
  6
CONTINUOUS
 10
107.632278702
 20
132.1507052725
 11
108.0492787033
 21
132.1507052725
  0
LINE
  5
2BA
100
AcDbEntity
  8
0
100
AcDbLine
 62
7
  6
CONTINUOUS
 10
119.9152787018
 20
132.1507052725
 11
120.3322787031
 21
132.1507052725
  0
LINE
  5
2BB
100
AcDbEntity
  8
0
100
AcDbLine
 62
7
  6
CONTINUOUS
 10
71.0760995333
 20
132.2629510439
 11
71.4930995346
 21
132.2629510439
  0
LINE
  5
2BC
100
AcDbEntity
  8
0
100
AcDbLine
 62
7
  6
CONTINUOUS
 10
83.3590995331
 20
132.2629510439
 11
83.7760995344
 21
132.2629510439
  0
LINE
  5
2BD
100
AcDbEntity
  8
0
100
AcDbLine
 62
7
  6
CONTINUOUS
 10
66.7383942348
 20
133.250732498
 11
56.6138048324
 21
133.250732498
  0
LINE
  5
2BE
100
AcDbEntity
  8
0
100
AcDbLine
 62
7
  6
CONTINUOUS
 10
120.3322787031
 20
134.4367052709
 11
119.9152787018
 21
134.4367052709
  0
LINE
  5
2BF
100
AcDbEntity
  8
0
100
AcDbLine
 62
7
  6
CONTINUOUS
 10
108.0492787033
 20
134.4367052709
 11
107.632278702
 21
134.4367052709
  0
LINE
  5
2C0
100
AcDbEntity
  8
0
100
AcDbLine
 62
7
  6
CONTINUOUS
 10
104.5497971395
 20
134.4367052709
 11
104.1327971382
 21
134.4367052709
  0
LINE
  5
2C1
100
AcDbEntity
  8
0
100
AcDbLine
 62
7
  6
CONTINUOUS
 10
92.2667971397
 20
134.4367052709
 11
91.8497971384
 21
134.4367052709
  0
LINE
  5
2C2
100
AcDbEntity
  8
0
100
AcDbLine
 62
7
  6
CONTINUOUS
 10
83.7760995344
 20
134.5489510423
 11
83.3590995331
 21
134.5489510423
  0
LINE
  5
2C3
100
AcDbEntity
  8
0
100
AcDbLine
 62
7
  6
CONTINUOUS
 10
71.4930995346
 20
134.5489510423
 11
71.0760995333
 21
134.5489510423
  0
LINE
  5
2C4
100
AcDbEntity
  8
0
100
AcDbLine
 62
7
  6
CONTINUOUS
 10
91.8497971384
 20
134.6907052716
 11
92.2437971396
 21
134.6907052716
  0
LINE
  5
2C5
100
AcDbEntity
  8
0
100
AcDbLine
 62
7
  6
CONTINUOUS
 10
104.1557971382
 20
134.6907052716
 11
104.5497971395
 21
134.6907052716
  0
LINE
  5
2C6
100
AcDbEntity
  8
0
100
AcDbLine
 62
7
  6
CONTINUOUS
 10
107.632278702
 20
134.6907052716
 11
108.0262787032
 21
134.6907052716
  0
LINE
  5
2C7
100
AcDbEntity
  8
0
100
AcDbLine
 62
7
  6
CONTINUOUS
 10
119.9382787019
 20
134.6907052716
 11
120.3322787031
 21
134.6907052716
  0
LINE
  5
2C8
100
AcDbEntity
  8
0
100
AcDbLine
 62
7
  6
CONTINUOUS
 10
71.0760995333
 20
134.802951043
 11
71.4700995345
 21
134.802951043
  0
LINE
  5
2C9
100
AcDbEntity
  8
0
100
AcDbLine
 62
7
  6
CONTINUOUS
 10
83.3820995331
 20
134.802951043
 11
83.7760995344
 21
134.802951043
  0
LINE
  5
2CA
100
AcDbEntity
  8
0
100
AcDbLine
 62
7
  6
CONTINUOUS
 10
65.5261756802
 20
135.2629510423
 11
57.8260233869
 21
135.2629510423
  0
LINE
  5
2CB
100
AcDbEntity
  8
0
100
AcDbLine
 62
7
  6
CONTINUOUS
 10
64.8260995344
 20
135.762951043
 11
58.5260995336
 21
135.762951043
  0
LINE
  5
2CC
100
AcDbEntity
  8
0
100
AcDbLine
 62
7
  6
CONTINUOUS
 10
104.1327971382
 20
134.4367052709
 11
104.1327971382
 21
132.1507052725
  0
LINE
  5
2CD
100
AcDbEntity
  8
0
100
AcDbLine
 62
7
  6
CONTINUOUS
 10
104.1557971382
 20
137.4337052723
 11
104.1557971382
 21
134.6907052716
  0
LINE
  5
2CE
100
AcDbEntity
  8
0
100
AcDbLine
 62
7
  6
CONTINUOUS
 10
104.1557971382
 20
131.8967052718
 11
104.1557971382
 21
129.9917052725
  0
LINE
  5
2CF
100
AcDbEntity
  8
0
100
AcDbLine
 62
7
  6
CONTINUOUS
 10
104.5497971395
 20
134.6907052716
 11
104.5497971395
 21
134.4367052709
  0
LINE
  5
2D0
100
AcDbEntity
  8
0
100
AcDbLine
 62
7
  6
CONTINUOUS
 10
104.5497971395
 20
132.1507052725
 11
104.5497971395
 21
131.8967052718
  0
LINE
  5
2D1
100
AcDbEntity
  8
0
100
AcDbLine
 62
7
  6
CONTINUOUS
 10
107.632278702
 20
131.8967052718
 11
107.632278702
 21
132.1507052725
  0
LINE
  5
2D2
100
AcDbEntity
  8
0
100
AcDbLine
 62
7
  6
CONTINUOUS
 10
107.632278702
 20
134.4367052709
 11
107.632278702
 21
134.6907052716
  0
LINE
  5
2D3
100
AcDbEntity
  8
0
100
AcDbLine
 62
7
  6
CONTINUOUS
 10
63.5784726773
 20
89.2460611999
 11
61.5784726772
 21
88.4604835528
  0
LINE
  5
2D4
100
AcDbEntity
  8
0
100
AcDbLine
 62
7
  6
CONTINUOUS
 10
64.8260995355
 20
136.1629510434
 11
58.5260995325
 21
136.1629510434
  0
LINE
  5
2D5
100
AcDbEntity
  8
0
100
AcDbLine
 62
7
  6
CONTINUOUS
 10
92.2437971396
 20
137.4337052723
 11
104.1557971382
 21
137.4337052723
  0
LINE
  5
2D6
100
AcDbEntity
  8
0
100
AcDbLine
 62
7
  6
CONTINUOUS
 10
108.0262787032
 20
137.4337052723
 11
119.9382787019
 21
137.4337052723
  0
LINE
  5
2D7
100
AcDbEntity
  8
0
100
AcDbLine
 62
7
  6
CONTINUOUS
 10
71.4700995345
 20
137.5459510437
 11
83.3820995331
 21
137.5459510437
  0
LINE
  5
2D8
100
AcDbEntity
  8
0
100
AcDbLine
 62
7
  6
CONTINUOUS
 10
59.0360995366
 20
139.3129510437
 11
64.3160995314
 21
139.3129510437
  0
LINE
  5
2D9
100
AcDbEntity
  8
0
100
AcDbLine
 62
7
  6
CONTINUOUS
 10
59.0360995334
 20
139.7129510423
 11
64.3160995346
 21
139.7129510423
  0
LINE
  5
2DA
100
AcDbEntity
  8
0
100
AcDbLine
 62
7
  6
CONTINUOUS
 10
57.8260233762
 20
140.2629510423
 11
65.5261756909
 21
140.2629510423
  0
LINE
  5
2DB
100
AcDbEntity
  8
0
100
AcDbLine
 62
7
  6
CONTINUOUS
 10
69.2743551116
 20
140.2629510423
 11
85.5051353867
 21
140.2629510423
  0
LINE
  5
2DC
100
AcDbEntity
  8
0
100
AcDbLine
 62
7
  6
CONTINUOUS
 10
89.9132113229
 20
140.2629510423
 11
122.1306518285
 21
140.2629510423
  0
LINE
  5
2DD
100
AcDbEntity
  8
0
100
AcDbLine
 62
7
  6
CONTINUOUS
 10
108.0262787032
 20
129.9917052725
 11
108.0262787032
 21
131.8967052718
  0
LINE
  5
2DE
100
AcDbEntity
  8
0
100
AcDbLine
 62
7
  6
CONTINUOUS
 10
108.0262787032
 20
134.6907052716
 11
108.0262787032
 21
137.4337052723
  0
LINE
  5
2DF
100
AcDbEntity
  8
0
100
AcDbLine
 62
7
  6
CONTINUOUS
 10
108.0492787033
 20
132.1507052725
 11
108.0492787033
 21
134.4367052709
  0
LINE
  5
2E0
100
AcDbEntity
  8
0
100
AcDbLine
 62
7
  6
CONTINUOUS
 10
110.8322787031
 20
128.3157052716
 11
110.8322787031
 21
129.9917052725
  0
LINE
  5
2E1
100
AcDbEntity
  8
0
100
AcDbLine
 62
7
  6
CONTINUOUS
 10
111.950278702
 20
127.1727052724
 11
111.950278702
 21
128.3157052716
  0
LINE
  5
2E2
100
AcDbEntity
  8
0
100
AcDbLine
 62
7
  6
CONTINUOUS
 10
56.6138048356
 20
142.2751695884
 11
66.7383942315
 21
142.2751695884
  0
LINE
  5
2E3
100
AcDbEntity
  8
0
100
AcDbLine
 62
7
  6
CONTINUOUS
 10
116.0142787031
 20
128.3157052716
 11
116.0142787031
 21
127.1727052724
  0
LINE
  5
2E4
100
AcDbEntity
  8
0
100
AcDbLine
 62
7
  6
CONTINUOUS
 10
117.132278702
 20
129.9917052725
 11
117.132278702
 21
128.3157052716
  0
LINE
  5
2E5
100
AcDbEntity
  8
0
100
AcDbLine
 62
7
  6
CONTINUOUS
 10
68.7948559253
 20
150.562951043
 11
149.521120335
 21
150.562951043
  0
LINE
  5
2E6
100
AcDbEntity
  8
0
100
AcDbLine
 62
7
  6
CONTINUOUS
 10
119.9152787018
 20
134.4367052709
 11
119.9152787018
 21
132.1507052725
  0
LINE
  5
2E7
100
AcDbEntity
  8
0
100
AcDbLine
 62
7
  6
CONTINUOUS
 10
119.9382787019
 20
137.4337052723
 11
119.9382787019
 21
134.6907052716
  0
LINE
  5
2E8
100
AcDbEntity
  8
0
100
AcDbLine
 62
7
  6
CONTINUOUS
 10
119.9382787019
 20
131.8967052718
 11
119.9382787019
 21
129.9917052725
  0
LINE
  5
2E9
100
AcDbEntity
  8
0
100
AcDbLine
 62
7
  6
CONTINUOUS
 10
120.3322787031
 20
134.6907052716
 11
120.3322787031
 21
134.4367052709
  0
LINE
  5
2EA
100
AcDbEntity
  8
0
100
AcDbLine
 62
7
  6
CONTINUOUS
 10
120.3322787031
 20
132.1507052725
 11
120.3322787031
 21
131.8967052718
  0
LINE
  5
2EB
100
AcDbEntity
  8
0
100
AcDbLine
 62
7
  6
CONTINUOUS
 10
122.6360995345
 20
139.7575033367
 11
122.6360995345
 21
126.3914312153
  0
LINE
  5
2EC
100
AcDbEntity
  8
0
100
AcDbLine
 62
7
  6
CONTINUOUS
 10
23.576099534
 20
152.562951043
 11
154.576099533
 21
152.562951043
  0
LINE
  5
2ED
100
AcDbEntity
  8
0
100
AcDbLine
 62
7
  6
CONTINUOUS
 10
39.2827937591
 20
152.2313363189
 11
154.576099533
 21
152.231304809
  0
LINE
  5
2EE
100
AcDbEntity
  8
0
100
AcDbLine
 62
7
  6
CONTINUOUS
 10
26.6721628035
 20
152.2469808884
 11
26.827293301
 21
152.2466152017
  0
LINE
  5
2EF
100
AcDbEntity
  8
0
100
AcDbLine
 62
7
  6
CONTINUOUS
 10
23.576099534
 20
152.2721810801
 11
26.6721628035
 21
152.2469808884
  0
LINE
  5
2F0
100
AcDbEntity
  8
0
100
AcDbLine
 62
7
  6
CONTINUOUS
 10
134.576099534
 20
110.3542187816
 11
134.576099534
 21
93.1636374208
  0
LINE
  5
2F1
100
AcDbEntity
  8
0
100
AcDbLine
 62
7
  6
CONTINUOUS
 10
150.576099534
 20
149.5079718438
 11
150.576099534
 21
123.006588781
  0
LINE
  5
2F2
100
AcDbEntity
  8
0
100
AcDbLine
 62
7
  6
CONTINUOUS
 10
154.576099533
 20
152.562951043
 11
154.576099533
 21
87.962951043
  0
ARC
  5
2F3
100
AcDbEntity
  8
0
100
AcDbCircle
 62
7
  6
CONTINUOUS
 10
39.8631876603
 20
-3611.12656758
 40
3699.5870493815
100
AcDbArc
 50
90.0089888072
 51
90.201888042
  0
ARC
  5
2F4
100
AcDbEntity
  8
0
100
AcDbCircle
 62
7
  6
CONTINUOUS
 10
22.2760995368
 20
133.2328240269
 40
2.5000000036
100
AcDbArc
 50
180.0000000131
 51
210.0000000482
  0
ARC
  5
2F5
100
AcDbEntity
  8
0
100
AcDbCircle
 62
7
  6
CONTINUOUS
 10
22.276099534
 20
100.6328240241
 40
2.5
100
AcDbArc
 50
179.9999998166
 51
210.0000000108
  0
ARC
  5
2F6
100
AcDbEntity
  8
0
100
AcDbCircle
 62
7
  6
CONTINUOUS
 10
22.276099534
 20
139.8930780619
 40
2.5
100
AcDbArc
 50
149.9999999875
 51
180.0000001834
  0
ARC
  5
2F7
100
AcDbEntity
  8
0
100
AcDbCircle
 62
7
  6
CONTINUOUS
 10
22.2760995231
 20
107.2930780624
 40
2.4999999899
100
AcDbArc
 50
149.9999998799
 51
179.999999979
  0
ARC
  5
2F8
100
AcDbEntity
  8
0
100
AcDbCircle
 62
7
  6
CONTINUOUS
 10
24.676099534
 20
103.9629510432
 40
1.803491013
100
AcDbArc
 50
128.2599532581
 51
232.4156895541
  0
ARC
  5
2F9
100
AcDbEntity
  8
0
100
AcDbCircle
 62
7
  6
CONTINUOUS
 10
24.676099534
 20
136.5629510432
 40
1.803491013
100
AcDbArc
 50
128.2599532581
 51
232.4156895541
  0
ARC
  5
2FA
100
AcDbEntity
  8
0
100
AcDbCircle
 62
7
  6
CONTINUOUS
 10
56.576099534
 20
-192.137048957
 40
300.0
100
AcDbArc
 50
85.1631728593
 51
89.1188708804
  0
ARC
  5
2FB
100
AcDbEntity
  8
0
100
AcDbCircle
 62
7
  6
CONTINUOUS
 10
63.4074505473
 20
-88.0697427043
 40
196.0458808853
100
AcDbArc
 50
88.4908431098
 51
89.8188743804
  0
ARC
  5
2FC
100
AcDbEntity
  8
0
100
AcDbCircle
 62
7
  6
CONTINUOUS
 10
57.9745574767
 20
88.9394653344
 40
19.025787102
100
AcDbArc
 50
56.3879736369
 51
56.8448809921
  0
ARC
  5
2FD
100
AcDbEntity
  8
0
100
AcDbCircle
 62
7
  6
CONTINUOUS
 10
58.452157683
 20
89.670054462
 40
18.1529395278
100
AcDbArc
 50
56.9216516271
 51
57.0868513788
  0
ARC
  5
2FE
100
AcDbEntity
  8
0
100
AcDbCircle
 62
7
  6
CONTINUOUS
 10
59.4139402152
 20
90.5524129303
 40
17.1333617077
100
AcDbArc
 50
57.5202799376
 51
57.7760691814
  0
ARC
  5
2FF
100
AcDbEntity
  8
0
100
AcDbCircle
 62
7
  6
CONTINUOUS
 10
59.6055582241
 20
90.8560451502
 40
16.7743213946
100
AcDbArc
 50
57.7767437178
 51
58.0125261023
  0
ARC
  5
300
100
AcDbEntity
  8
0
100
AcDbCircle
 62
7
  6
CONTINUOUS
 10
60.5387844012
 20
92.3651173186
 40
15.3000000008
100
AcDbArc
 50
57.4266209804
 51
88.5718044442
  0
ARC
  5
301
100
AcDbEntity
  8
0
100
AcDbCircle
 62
7
  6
CONTINUOUS
 10
60.5387844012
 20
92.3651173186
 40
15.0
100
AcDbArc
 50
58.2999854881
 51
88.9540068589
  0
ARC
  5
302
100
AcDbEntity
  8
0
100
AcDbCircle
 62
7
  6
CONTINUOUS
 10
60.6739834692
 20
99.264088201
 40
1.6972213594
100
AcDbArc
 50
82.0533358496
 51
85.3102254208
  0
ARC
  5
303
100
AcDbEntity
  8
0
100
AcDbCircle
 62
7
  6
CONTINUOUS
 10
60.7500151482
 20
101.2505532334
 40
0.300995167
100
AcDbArc
 50
255.4891657623
 51
264.2316046456
  0
ARC
  5
304
100
AcDbEntity
  8
0
100
AcDbCircle
 62
7
  6
CONTINUOUS
 10
60.5972801598
 20
100.6699129641
 40
0.3
100
AcDbArc
 50
19.8238723944
 51
85.540893199
  0
ARC
  5
305
100
AcDbEntity
  8
0
100
AcDbCircle
 62
7
  6
CONTINUOUS
 10
60.776099534
 20
102.962951043
 40
2.0
100
AcDbArc
 50
233.1301023542
 51
271.0459931403
  0
ARC
  5
306
100
AcDbEntity
  8
0
100
AcDbCircle
 62
7
  6
CONTINUOUS
 10
60.776099534
 20
105.362951043
 40
2.0
100
AcDbArc
 50
88.9540068597
 51
126.8698976458
  0
ARC
  5
307
100
AcDbEntity
  8
0
100
AcDbCircle
 62
7
  6
CONTINUOUS
 10
60.7983603019
 20
105.745170521
 40
1.4704299174
100
AcDbArc
 50
88.812120129
 51
90.3119116475
  0
ARC
  5
308
100
AcDbEntity
  8
0
100
AcDbCircle
 62
7
  6
CONTINUOUS
 10
60.7978866093
 20
102.5728227128
 40
1.462532724
100
AcDbArc
 50
269.7037034308
 51
271.212856312
  0
ARC
  5
309
100
AcDbEntity
  8
0
100
AcDbCircle
 62
7
  6
CONTINUOUS
 10
60.5972801598
 20
107.6559891219
 40
0.3
100
AcDbArc
 50
274.4591067443
 51
340.1761276154
  0
ARC
  5
30A
100
AcDbEntity
  8
0
100
AcDbCircle
 62
7
  6
CONTINUOUS
 10
61.1651083576
 20
94.523407268
 40
11.9167013455
100
AcDbArc
 50
61.1508454548
 51
87.4335373321
  0
ARC
  5
30B
100
AcDbEntity
  8
0
100
AcDbCircle
 62
7
  6
CONTINUOUS
 10
61.7250430119
 20
115.5364035489
 40
14.6092887093
100
AcDbArc
 50
265.9150680981
 51
266.4197704883
  0
ARC
  5
30C
100
AcDbEntity
  8
0
100
AcDbCircle
 62
7
  6
CONTINUOUS
 10
61.1651141385
 20
113.8024742623
 40
11.9166805515
100
AcDbArc
 50
272.5664393165
 51
298.8491778743
  0
ARC
  5
30D
100
AcDbEntity
  8
0
100
AcDbCircle
 62
7
  6
CONTINUOUS
 10
61.4516097111
 20
111.6326655497
 40
10.6959912352
100
AcDbArc
 50
265.5440196527
 51
265.8864383188
  0
ARC
  5
30E
100
AcDbEntity
  8
0
100
AcDbCircle
 62
7
  6
CONTINUOUS
 10
61.676099534
 20
104.162951043
 40
3.5
100
AcDbArc
 50
126.8698976458
 51
233.1301023542
  0
ARC
  5
30F
100
AcDbEntity
  8
0
100
AcDbCircle
 62
7
  6
CONTINUOUS
 10
61.7921866325
 20
104.2973633443
 40
3.2593115186
100
AcDbArc
 50
128.2327238101
 51
128.9153265865
  0
ARC
  5
310
100
AcDbEntity
  8
0
100
AcDbCircle
 62
7
  6
CONTINUOUS
 10
61.7915856702
 20
104.0278108638
 40
3.2584632805
100
AcDbArc
 50
231.0933902731
 51
231.7674654575
  0
ARC
  5
311
100
AcDbEntity
  8
0
100
AcDbCircle
 62
7
  6
CONTINUOUS
 10
63.6957664996
 20
102.8932467334
 40
3.1509787273
100
AcDbArc
 50
222.0783450846
 51
224.423844669
  0
ARC
  5
312
100
AcDbEntity
  8
0
100
AcDbCircle
 62
7
  6
CONTINUOUS
 10
61.6750132573
 20
102.4159361115
 40
0.5187101141
100
AcDbArc
 50
180.3297341108
 51
272.5900115746
  0
ARC
  5
313
100
AcDbEntity
  8
0
100
AcDbCircle
 62
7
  6
CONTINUOUS
 10
61.6750109791
 20
105.9099686202
 40
0.5187074995
100
AcDbArc
 50
87.4100163296
 51
179.6705566693
  0
ARC
  5
314
100
AcDbEntity
  8
0
100
AcDbCircle
 62
7
  6
CONTINUOUS
 10
61.189086564
 20
107.5274473562
 40
0.3
100
AcDbArc
 50
89.1180676505
 51
159.7046191131
  0
ARC
  5
315
100
AcDbEntity
  8
0
100
AcDbCircle
 62
7
  6
CONTINUOUS
 10
57.8908119466
 20
119.5127158179
 40
19.1773069379
100
AcDbArc
 50
303.385472952
 51
303.5151917159
  0
ARC
  5
316
100
AcDbEntity
  8
0
100
AcDbCircle
 62
7
  6
CONTINUOUS
 10
58.1722405188
 20
119.0852125202
 40
18.6654856357
100
AcDbArc
 50
303.0789632293
 51
303.3862480898
  0
ARC
  5
317
100
AcDbEntity
  8
0
100
AcDbCircle
 62
7
  6
CONTINUOUS
 10
58.4539358852
 20
118.653148052
 40
18.1497027991
100
AcDbArc
 50
302.9130740534
 51
303.0782699778
  0
ARC
  5
318
100
AcDbEntity
  8
0
100
AcDbCircle
 62
7
  6
CONTINUOUS
 10
59.5072555109
 20
117.6263438359
 40
16.959122218
100
AcDbArc
 50
301.9890984172
 51
302.4807272777
  0
ARC
  5
319
100
AcDbEntity
  8
0
100
AcDbCircle
 62
7
  6
CONTINUOUS
 10
60.5387844012
 20
115.9607847674
 40
15.2999999996
100
AcDbArc
 50
273.3970337603
 51
302.573378484
  0
ARC
  5
31A
100
AcDbEntity
  8
0
100
AcDbCircle
 62
7
  6
CONTINUOUS
 10
60.5387844012
 20
115.9607847674
 40
15.0
100
AcDbArc
 50
271.0459931411
 51
301.7000146071
  0
ARC
  5
31B
100
AcDbEntity
  8
0
100
AcDbCircle
 62
7
  6
CONTINUOUS
 10
58.526099541
 20
137.260145125
 40
0.7000000066
100
AcDbArc
 50
152.2658097721
 51
180.0000000105
  0
ARC
  5
31C
100
AcDbEntity
  8
0
100
AcDbCircle
 62
7
  6
CONTINUOUS
 10
57.636099534
 20
138.5757569622
 40
0.7
100
AcDbArc
 50
332.2658100016
 51
0.000000088
  0
ARC
  5
31D
100
AcDbEntity
  8
0
100
AcDbCircle
 62
7
  6
CONTINUOUS
 10
59.0360995332
 20
139.0129510433
 40
0.699999999
100
AcDbArc
 50
89.9999999563
 51
180.0000000488
  0
ARC
  5
31E
100
AcDbEntity
  8
0
100
AcDbCircle
 62
7
  6
CONTINUOUS
 10
58.5260995334
 20
136.4629510421
 40
0.699999999
100
AcDbArc
 50
179.999999994
 51
269.9999999865
  0
ARC
  5
31F
100
AcDbEntity
  8
0
100
AcDbCircle
 62
7
  6
CONTINUOUS
 10
59.036099534
 20
139.012951043
 40
0.3
100
AcDbArc
 50
89.9999995033
 51
179.9999996378
  0
ARC
  5
320
100
AcDbEntity
  8
0
100
AcDbCircle
 62
7
  6
CONTINUOUS
 10
58.526099534
 20
136.462951043
 40
0.3
100
AcDbArc
 50
180.0000004895
 51
269.9999997161
  0
ARC
  5
321
100
AcDbEntity
  8
0
100
AcDbCircle
 62
7
  6
CONTINUOUS
 10
58.526099534
 20
137.3588913634
 40
0.3
100
AcDbArc
 50
152.2658091618
 51
179.9999983607
  0
ARC
  5
322
100
AcDbEntity
  8
0
100
AcDbCircle
 62
7
  6
CONTINUOUS
 10
58.4360995605
 20
138.4770107187
 40
0.299999974
100
AcDbArc
 50
332.2658079426
 51
359.9999999293
  0
ARC
  5
323
100
AcDbEntity
  8
0
100
AcDbCircle
 62
7
  6
CONTINUOUS
 10
65.8469307347
 20
114.9325433796
 40
17.8050022893
100
AcDbArc
 50
271.0593122749
 51
271.606867614
  0
ARC
  5
324
100
AcDbEntity
  8
0
100
AcDbCircle
 62
7
  6
CONTINUOUS
 10
65.8560172633
 20
82.3156883014
 40
17.4325684806
100
AcDbArc
 50
88.454202758
 51
88.9479236022
  0
ARC
  5
325
100
AcDbEntity
  8
0
100
AcDbCircle
 62
7
  6
CONTINUOUS
 10
65.9204982904
 20
84.7072553833
 40
15.0401322942
100
AcDbArc
 50
88.1220594892
 51
88.4539844676
  0
ARC
  5
326
100
AcDbEntity
  8
0
100
AcDbCircle
 62
7
  6
CONTINUOUS
 10
65.9407535804
 20
111.5139269068
 40
14.3850993704
100
AcDbArc
 50
271.6151404005
 51
272.0037264378
  0
ARC
  5
327
100
AcDbEntity
  8
0
100
AcDbCircle
 62
7
  6
CONTINUOUS
 10
70.2868975402
 20
104.162951043
 40
10.0
100
AcDbArc
 50
199.8238723941
 51
204.8345874898
  0
ARC
  5
328
100
AcDbEntity
  8
0
100
AcDbCircle
 62
7
  6
CONTINUOUS
 10
70.2868975402
 20
104.162951043
 40
10.0
100
AcDbArc
 50
159.7049005186
 51
160.1761276054
  0
ARC
  5
329
100
AcDbEntity
  8
0
100
AcDbCircle
 62
7
  6
CONTINUOUS
 10
70.2868975402
 20
104.162951043
 40
9.5000000004
100
AcDbArc
 50
201.4580076499
 51
202.9189194913
  0
ARC
  5
32A
100
AcDbEntity
  8
0
100
AcDbCircle
 62
7
  6
CONTINUOUS
 10
65.4727687476
 20
99.4994518111
 40
4.0000120899
100
AcDbArc
 50
177.5147382746
 51
215.9168468792
  0
ARC
  5
32B
100
AcDbEntity
  8
0
100
AcDbCircle
 62
7
  6
CONTINUOUS
 10
68.076099534
 20
104.162951043
 40
1.299998352
100
AcDbArc
 50
302.5731172675
 51
57.4268764289
  0
ARC
  5
32C
100
AcDbEntity
  8
0
100
AcDbCircle
 62
7
  6
CONTINUOUS
 10
68.0780946643
 20
104.1628467077
 40
0.9990144893
100
AcDbArc
 50
302.4801978001
 51
57.5188178475
  0
ARC
  5
32D
100
AcDbEntity
  8
0
100
AcDbCircle
 62
7
  6
CONTINUOUS
 10
66.4751707608
 20
104.1630317088
 40
0.9114293481
100
AcDbArc
 50
298.8519914894
 51
61.147628244
  0
ARC
  5
32E
100
AcDbEntity
  8
0
100
AcDbCircle
 62
7
  6
CONTINUOUS
 10
68.8116916395
 20
123.1485431481
 40
1.0855921051
100
AcDbArc
 50
180.0000000104
 51
269.9999999894
  0
ARC
  5
32F
100
AcDbEntity
  8
0
100
AcDbCircle
 62
7
  6
CONTINUOUS
 10
68.7948559253
 20
149.4941946521
 40
1.068756391
100
AcDbArc
 50
89.9999999997
 51
179.9999999812
  0
ARC
  5
330
100
AcDbEntity
  8
0
100
AcDbCircle
 62
7
  6
CONTINUOUS
 10
64.826099527
 20
137.260145125
 40
0.7000000066
100
AcDbArc
 50
0.0
 51
27.7341902279
  0
ARC
  5
331
100
AcDbEntity
  8
0
100
AcDbCircle
 62
7
  6
CONTINUOUS
 10
65.716099534
 20
138.5757569622
 40
0.7
100
AcDbArc
 50
179.9999998957
 51
207.734190054
  0
ARC
  5
332
100
AcDbEntity
  8
0
100
AcDbCircle
 62
7
  6
CONTINUOUS
 10
64.3160995348
 20
139.0129510433
 40
0.699999999
100
AcDbArc
 50
0.0
 51
90.0000000437
  0
ARC
  5
333
100
AcDbEntity
  8
0
100
AcDbCircle
 62
7
  6
CONTINUOUS
 10
64.8260995346
 20
136.4629510421
 40
0.699999999
100
AcDbArc
 50
270.0000000135
 51
360.0
  0
ARC
  5
334
100
AcDbEntity
  8
0
100
AcDbCircle
 62
7
  6
CONTINUOUS
 10
69.2743551114
 20
139.724695465
 40
0.5382555773
100
AcDbArc
 50
89.9999999751
 51
180.0000000236
  0
ARC
  5
335
100
AcDbEntity
  8
0
100
AcDbCircle
 62
7
  6
CONTINUOUS
 10
69.2357704094
 20
126.4026219182
 40
0.4996708753
100
AcDbArc
 50
179.9999999985
 51
270.0
  0
ARC
  5
336
100
AcDbEntity
  8
0
100
AcDbCircle
 62
7
  6
CONTINUOUS
 10
64.316099534
 20
139.012951043
 40
0.3
100
AcDbArc
 50
0.000000362
 51
90.0000004969
  0
ARC
  5
337
100
AcDbEntity
  8
0
100
AcDbCircle
 62
7
  6
CONTINUOUS
 10
64.826099534
 20
137.3588913634
 40
0.3
100
AcDbArc
 50
0.0000016393
 51
27.7341908381
  0
ARC
  5
338
100
AcDbEntity
  8
0
100
AcDbCircle
 62
7
  6
CONTINUOUS
 10
64.826099534
 20
136.462951043
 40
0.3
100
AcDbArc
 50
270.0000002838
 51
359.9999995103
  0
ARC
  5
339
100
AcDbEntity
  8
0
100
AcDbCircle
 62
7
  6
CONTINUOUS
 10
64.9160995075
 20
138.4770107187
 40
0.299999974
100
AcDbArc
 50
180.0000000707
 51
207.7341920574
  0
ARC
  5
33A
100
AcDbEntity
  8
0
100
AcDbCircle
 62
7
  6
CONTINUOUS
 10
64.0721638009
 20
264.1724704313
 40
168.1648829298
100
AcDbArc
 50
271.3017779169
 51
271.5328715803
  0
ARC
  5
33B
100
AcDbEntity
  8
0
100
AcDbCircle
 62
7
  6
CONTINUOUS
 10
85.4845088126
 20
126.4145417642
 40
0.5115907213
100
AcDbArc
 50
270.0000000207
 51
359.9999999808
  0
ARC
  5
33C
100
AcDbEntity
  8
0
100
AcDbCircle
 62
7
  6
CONTINUOUS
 10
85.5051353872
 20
139.7719868956
 40
0.4909641467
100
AcDbArc
 50
0.0
 51
90.0000000489
  0
ARC
  5
33D
100
AcDbEntity
  8
0
100
AcDbCircle
 62
7
  6
CONTINUOUS
 10
94.5193465183
 20
256.260442125
 40
150.0
100
AcDbArc
 50
265.1631728592
 51
269.6686126908
  0
ARC
  5
33E
100
AcDbEntity
  8
0
100
AcDbCircle
 62
7
  6
CONTINUOUS
 10
149.521120335
 20
149.5079718441
 40
1.0549791989
100
AcDbArc
 50
0.0
 51
89.9999999995
  0
ARC
  5
33F
100
AcDbEntity
  8
0
100
AcDbCircle
 62
7
  6
CONTINUOUS
 10
149.632461795
 20
123.0065887823
 40
0.9436377393
100
AcDbArc
 50
269.9999999921
 51
359.9999999173
  0
ARC
  5
340
100
AcDbEntity
  8
0
100
AcDbCircle
 62
7
  6
CONTINUOUS
 10
89.9441299446
 20
126.4209814538
 40
0.518030411
100
AcDbArc
 50
179.9999999799
 51
269.9999999636
  0
ARC
  5
341
100
AcDbEntity
  8
0
100
AcDbCircle
 62
7
  6
CONTINUOUS
 10
122.1306518289
 20
139.7575033367
 40
0.5054477056
100
AcDbArc
 50
0.0000000025
 51
90.0000000441
  0
ARC
  5
342
100
AcDbEntity
  8
0
100
AcDbCircle
 62
7
  6
CONTINUOUS
 10
122.1476193621
 20
126.3914312153
 40
0.4884801724
100
AcDbArc
 50
270.0000000082
 51
359.9999999933
  0
ARC
  5
343
100
AcDbEntity
  8
0
100
AcDbCircle
 62
7
  6
CONTINUOUS
 10
89.913211323
 20
139.7758392529
 40
0.4871117894
100
AcDbArc
 50
90.0000000064
 51
179.9999999921
  0
ARC
  5
344
100
AcDbEntity
  8
0
100
AcDbCircle
 62
7
  6
CONTINUOUS
 10
39.8345118366
 20
5678.9304009254
 40
5526.699092145
100
AcDbArc
 50
269.8651528877
 51
269.9942802898
  0
ARC
  5
345
100
AcDbEntity
  8
0
100
AcDbCircle
 62
7
  6
CONTINUOUS
 10
393.3382889785
 20
104.168924108
 40
332.1865444036
100
AcDbArc
 50
179.6991875695
 51
180.0010302386
  0
ARC
  5
346
100
AcDbEntity
  8
0
100
AcDbCircle
 62
7
  6
CONTINUOUS
 10
386.0423143218
 20
104.1378909852
 40
324.8905706596
100
AcDbArc
 50
179.9955805564
 51
180.3042016354
  0
SPLINE
  5
347
100
AcDbEntity
  8
0
100
AcDbSpline
 62
7
  6
CONTINUOUS
 70
0
 71
3
 72
12
 73
8
 74
0
 42
0.0000001
 43
0.0000001
 44
0.0000000001
 40
0.0
 40
0.0
 40
0.0
 40
0.0
 40
0.0259713555
 40
0.0782610036
 40
0.2711756048
 40
0.5803738896
 40
1.0
 40
1.0
 40
1.0
 40
1.0
 10
66.976099534
 20
99.6860255622
 30
0.0
 10
66.9761144476
 20
99.6882083864
 30
0.0
 10
66.9698952589
 20
99.6931295725
 30
0.0
 10
66.9492336238
 20
99.6997849825
 30
0.0
 10
66.9022398438
 20
99.7084869564
 30
0.0
 10
66.8258475183
 20
99.7169227087
 30
0.0
 10
66.7645747662
 20
99.7218118646
 30
0.0
 10
66.7293879573
 20
99.724222607
 30
0.0
  0
SPLINE
  5
348
100
AcDbEntity
  8
0
100
AcDbSpline
 62
7
  6
CONTINUOUS
 70
0
 71
3
 72
9
 73
5
 74
0
 42
0.0000001
 43
0.0000001
 44
0.0000000001
 40
0.0
 40
0.0
 40
0.0
 40
0.0
 40
0.2784020142
 40
1.0
 40
1.0
 40
1.0
 40
1.0
 10
66.4437213243
 20
97.1376232322
 30
0.0
 10
66.4702603371
 20
97.13855447
 30
0.0
 10
66.5655742774
 20
97.1422031901
 30
0.0
 10
66.6608542216
 20
97.1469993002
 30
0.0
 10
66.7295227266
 20
97.1517049152
 30
0.0
  0
SPLINE
  5
349
100
AcDbEntity
  8
0
100
AcDbSpline
 62
7
  6
CONTINUOUS
 70
0
 71
3
 72
9
 73
5
 74
0
 42
0.0000001
 43
0.0000001
 44
0.0000000001
 40
0.0
 40
0.0
 40
0.0
 40
0.0
 40
0.2811468972
 40
1.0
 40
1.0
 40
1.0
 40
1.0
 10
66.7295227266
 20
97.1517049152
 30
0.0
 10
66.7418056429
 20
97.1525464506
 30
0.0
 10
66.7854817879
 20
97.1557028919
 30
0.0
 10
66.8291210202
 20
97.1594809592
 30
0.0
 10
66.8604106363
 20
97.1629316241
 30
0.0
  0
SPLINE
  5
34A
100
AcDbEntity
  8
0
100
AcDbSpline
 62
7
  6
CONTINUOUS
 70
0
 71
3
 72
11
 73
7
 74
0
 42
0.0000001
 43
0.0000001
 44
0.0000000001
 40
0.0
 40
0.0
 40
0.0
 40
0.0
 40
0.4199500301
 40
0.7257862038
 40
0.9162933343
 40
1.0
 40
1.0
 40
1.0
 40
1.0
 10
66.8604106363
 20
97.1629316241
 30
0.0
 10
66.8771815313
 20
97.1647811431
 30
0.0
 10
66.9057613055
 20
97.1681757048
 30
0.0
 10
66.9432076266
 20
97.1749650255
 30
0.0
 10
66.963669716
 20
97.1800246719
 30
0.0
 10
66.9761225112
 20
97.1865134722
 30
0.0
 10
66.976099534
 20
97.1898765238
 30
0.0
  0
SPLINE
  5
34B
100
AcDbEntity
  8
0
100
AcDbSpline
 62
7
  6
CONTINUOUS
 70
0
 71
3
 72
9
 73
5
 74
0
 42
0.0000001
 43
0.0000001
 44
0.0000000001
 40
0.0
 40
0.0
 40
0.0
 40
0.0
 40
0.2903343097
 40
1.0
 40
1.0
 40
1.0
 40
1.0
 10
66.976099534
 20
97.1899016633
 30
0.0
 10
66.9760999532
 20
97.1949023933
 30
0.0
 10
66.953874214
 20
97.2019522273
 30
0.0
 10
66.9403034012
 20
97.2050882326
 30
0.0
 10
66.9282731911
 20
97.2072523436
 30
0.0
  0
SPLINE
  5
34C
100
AcDbEntity
  8
0
100
AcDbSpline
 62
7
  6
CONTINUOUS
 70
0
 71
3
 72
9
 73
5
 74
0
 42
0.0000001
 43
0.0000001
 44
0.0000000001
 40
0.0
 40
0.0
 40
0.0
 40
0.0
 40
0.389928206
 40
1.0
 40
1.0
 40
1.0
 40
1.0
 10
66.9282731911
 20
97.2072523436
 30
0.0
 10
66.883204739
 20
97.2153596941
 30
0.0
 10
66.7660394562
 20
97.2262352948
 30
0.0
 10
66.6488872516
 20
97.2333556393
 30
0.0
 10
66.5773214807
 20
97.2367195211
 30
0.0
  0
SPLINE
  5
34D
100
AcDbEntity
  8
0
100
AcDbSpline
 62
7
  6
CONTINUOUS
 70
0
 71
3
 72
9
 73
5
 74
0
 42
0.0000001
 43
0.0000001
 44
0.0000000001
 40
0.0
 40
0.0
 40
0.0
 40
0.0
 40
0.2196632042
 40
1.0
 40
1.0
 40
1.0
 40
1.0
 10
66.5773208249
 20
97.2366943434
 30
0.0
 10
66.5626667588
 20
97.237383143
 30
0.0
 10
66.4959262081
 20
97.2398847864
 30
0.0
 10
66.4291304293
 20
97.2407122732
 30
0.0
 10
66.3770155008
 20
97.2407122732
 30
0.0
  0
SPLINE
  5
34E
100
AcDbEntity
  8
0
100
AcDbSpline
 62
7
  6
CONTINUOUS
 70
0
 71
3
 72
14
 73
10
 74
0
 42
0.0000001
 43
0.0000001
 44
0.0000000001
 40
0.0
 40
0.0
 40
0.0
 40
0.0
 40
0.3736115911
 40
0.5434254525
 40
0.693150412
 40
0.8168368006
 40
0.9109741252
 40
0.9727496239
 40
1.0
 40
1.0
 40
1.0
 40
1.0
 10
65.4508862449
 20
97.2407121694
 30
0.0
 10
65.4134184239
 20
97.2407107671
 30
0.0
 10
65.3589013889
 20
97.2401895006
 30
0.0
 10
65.2894518437
 20
97.2383209613
 30
0.0
 10
65.2449401254
 20
97.2366062063
 30
0.0
 10
65.2084131195
 20
97.2342409818
 30
0.0
 10
65.1798033759
 20
97.2322531017
 30
0.0
 10
65.1629235121
 20
97.2288742769
 30
0.0
 10
65.1525659022
 20
97.2278249242
 30
0.0
 10
65.1510689967
 20
97.2255385375
 30
0.0
  0
SPLINE
  5
34F
100
AcDbEntity
  8
0
100
AcDbSpline
 62
7
  6
CONTINUOUS
 70
0
 71
3
 72
14
 73
10
 74
0
 42
0.0000001
 43
0.0000001
 44
0.0000000001
 40
0.0
 40
0.0
 40
0.0
 40
0.0
 40
0.0272503754
 40
0.0890258736
 40
0.183163198
 40
0.3068495865
 40
0.4565745462
 40
0.6263884079
 40
1.0
 40
1.0
 40
1.0
 40
1.0
 10
64.9862101495
 20
96.9781247779
 30
0.0
 10
64.9847132443
 20
96.9758383911
 30
0.0
 10
64.9743556342
 20
96.9747890385
 30
0.0
 10
64.9574757708
 20
96.9714102136
 30
0.0
 10
64.9288660272
 20
96.9694223336
 30
0.0
 10
64.8923390213
 20
96.9670571091
 30
0.0
 10
64.847827303
 20
96.9653423541
 30
0.0
 10
64.7783777575
 20
96.9634738148
 30
0.0
 10
64.7238607224
 20
96.9629525482
 30
0.0
 10
64.6863929014
 20
96.9629511459
 30
0.0
  0
SPLINE
  5
350
100
AcDbEntity
  8
0
100
AcDbSpline
 62
7
  6
CONTINUOUS
 70
0
 71
3
 72
13
 73
9
 74
0
 42
0.0000001
 43
0.0000001
 44
0.0000000001
 40
0.0
 40
0.0
 40
0.0
 40
0.0
 40
0.3720469229
 40
0.695881686
 40
0.8183313228
 40
0.9098199275
 40
0.9699377944
 40
1.0
 40
1.0
 40
1.0
 40
1.0
 10
68.5066328904
 20
103.541701482
 30
0.0
 10
68.5226576073
 20
103.5153993365
 30
0.0
 10
68.5517299825
 20
103.465710319
 30
0.0
 10
68.5840749151
 20
103.4059811893
 30
0.0
 10
68.6027834559
 20
103.3657917435
 30
0.0
 10
68.6112915571
 20
103.3443417569
 30
0.0
 10
68.61513458
 20
103.330529209
 30
0.0
 10
68.6161057636
 20
103.3220634525
 30
0.0
 10
68.6145714192
 20
103.3201040765
 30
0.0
  0
SPLINE
  5
351
100
AcDbEntity
  8
0
100
AcDbSpline
 62
7
  6
CONTINUOUS
 70
0
 71
3
 72
13
 73
9
 74
0
 42
0.0000001
 43
0.0000001
 44
0.0000000001
 40
0.0
 40
0.0
 40
0.0
 40
0.0
 40
0.3712068728
 40
0.6949610464
 40
0.8176321619
 40
0.9094191549
 40
0.9698039235
 40
1.0
 40
1.0
 40
1.0
 40
1.0
 10
68.5066371984
 20
104.7842080482
 30
0.0
 10
68.5226251405
 20
104.8104499345
 30
0.0
 10
68.5516609658
 20
104.8600695971
 30
0.0
 10
68.5839841668
 20
104.9197424513
 30
0.0
 10
68.6027150935
 20
104.9599585123
 30
0.0
 10
68.6112582163
 20
104.981467036
 30
0.0
 10
68.6151217343
 20
104.995326157
 30
0.0
 10
68.6161136624
 20
105.0038315457
 30
0.0
 10
68.6145726163
 20
105.0057996408
 30
0.0
  0
SPLINE
  5
352
100
AcDbEntity
  8
0
100
AcDbSpline
 62
7
  6
CONTINUOUS
 70
0
 71
3
 72
9
 73
5
 74
0
 42
0.0000001
 43
0.0000001
 44
0.0000000001
 40
0.0
 40
0.0
 40
0.0
 40
0.0
 40
0.5893973402
 40
1.0
 40
1.0
 40
1.0
 40
1.0
 10
68.3158700392
 20
104.909359494
 30
0.0
 10
68.337611226
 20
104.9459633524
 30
0.0
 10
68.3729226185
 20
105.0088716462
 30
0.0
 10
68.4062782705
 20
105.0732752476
 30
0.0
 10
68.416524339
 20
105.1011081244
 30
0.0
  0
SPLINE
  5
353
100
AcDbEntity
  8
0
100
AcDbSpline
 62
7
  6
CONTINUOUS
 70
0
 71
3
 72
9
 73
5
 74
0
 42
0.0000001
 43
0.0000001
 44
0.0000000001
 40
0.0
 40
0.0
 40
0.0
 40
0.0
 40
0.7052846658
 40
1.0
 40
1.0
 40
1.0
 40
1.0
 10
68.416524339
 20
105.1011081244
 30
0.0
 10
68.4187176277
 20
105.1070660715
 30
0.0
 10
68.4210483216
 20
105.114184225
 30
0.0
 10
68.423118572
 20
105.1258873398
 30
0.0
 10
68.4208614051
 20
105.127281412
 30
0.0
  0
SPLINE
  5
354
100
AcDbEntity
  8
0
100
AcDbSpline
 62
7
  6
CONTINUOUS
 70
0
 71
3
 72
12
 73
8
 74
0
 42
0.0000001
 43
0.0000001
 44
0.0000000001
 40
0.0
 40
0.0
 40
0.0
 40
0.0
 40
0.3947253501
 40
0.7148788793
 40
0.919400302
 40
0.974307322
 40
1.0
 40
1.0
 40
1.0
 40
1.0
 10
60.8288432562
 20
107.2152853218
 30
0.0
 10
60.8283478624
 20
107.234953634
 30
0.0
 10
60.8269849224
 20
107.2707147498
 30
0.0
 10
60.8240093499
 20
107.3159449457
 30
0.0
 10
60.8199432734
 20
107.3455377571
 30
0.0
 10
60.8165002083
 20
107.3583642617
 30
0.0
 10
60.8138902689
 20
107.3625857906
 30
0.0
 10
60.8126098565
 20
107.3626086642
 30
0.0
  0
SPLINE
  5
355
100
AcDbEntity
  8
0
100
AcDbSpline
 62
7
  6
CONTINUOUS
 70
0
 71
3
 72
20
 73
16
 74
0
 42
0.0000001
 43
0.0000001
 44
0.0000000001
 40
0.0
 40
0.0
 40
0.0
 40
0.0
 40
0.0018536365
 40
0.0073022388
 40
0.0161773463
 40
0.0283104985
 40
0.0616718065
 40
0.1058118431
 40
0.1588596166
 40
0.2189433969
 40
0.3549744301
 40
0.5059058853
 40
0.6662538588
 40
0.8320143834
 40
1.0
 40
1.0
 40
1.0
 40
1.0
 10
67.0060995345
 20
99.962951043
 30
0.0
 10
67.0060995345
 20
99.9633879516
 30
0.0
 10
67.0080702781
 20
99.9642865858
 30
0.0
 10
67.0100737117
 20
99.9672632269
 30
0.0
 10
67.0148981529
 20
99.971484915
 30
0.0
 10
67.0237850852
 20
99.980588797
 30
0.0
 10
67.0389780198
 20
99.9953674085
 30
0.0
 10
67.0607792408
 20
100.0170399655
 30
0.0
 10
67.0870785862
 20
100.0431796538
 30
0.0
 10
67.1284968289
 20
100.0848099306
 30
0.0
 10
67.185905751
 20
100.1430841747
 30
0.0
 10
67.2602550334
 20
100.2178379577
 30
0.0
 10
67.3398817128
 20
100.2972257573
 30
0.0
 10
67.4224061416
 20
100.3793996606
 30
0.0
 10
67.4781017903
 20
100.434953299
 30
0.0
 10
67.5060995344
 20
100.462951043
 30
0.0
  0
SPLINE
  5
356
100
AcDbEntity
  8
0
100
AcDbSpline
 62
7
  6
CONTINUOUS
 70
0
 71
3
 72
14
 73
10
 74
0
 42
0.0000001
 43
0.0000001
 44
0.0000000001
 40
0.0
 40
0.0
 40
0.0
 40
0.0
 40
0.1177293992
 40
0.2428763938
 40
0.509416302
 40
0.6407122515
 40
0.7645157374
 40
0.88254472
 40
1.0
 40
1.0
 40
1.0
 40
1.0
 10
154.5761066358
 20
88.8212256898
 30
0.0
 10
153.5351656394
 20
88.841669189
 30
0.0
 10
151.387704645
 20
88.8842483549
 30
0.0
 10
146.8832342981
 20
88.956185491
 30
0.0
 10
142.258493721
 20
89.0067216174
 30
0.0
 10
137.6457528296
 20
89.0665895555
 30
0.0
 10
134.3464352771
 20
89.1215791989
 30
0.0
 10
131.1697000724
 20
89.1849910111
 30
0.0
 10
129.0875889517
 20
89.2256662923
 30
0.0
 10
128.0490716656
 20
89.2460621914
 30
0.0
  0
SPLINE
  5
357
100
AcDbEntity
  8
0
100
AcDbSpline
 62
7
  6
CONTINUOUS
 70
0
 71
3
 72
9
 73
5
 74
0
 42
0.0000001
 43
0.0000001
 44
0.0000000001
 40
0.0
 40
0.0
 40
0.0
 40
0.0
 40
0.50078116
 40
1.0
 40
1.0
 40
1.0
 40
1.0
 10
68.8330267078
 20
104.162951043
 30
0.0
 10
68.8306520843
 20
104.283686955
 30
0.0
 10
68.7756645519
 20
104.5279878821
 30
0.0
 10
68.6075372401
 20
104.7186453908
 30
0.0
 10
68.5065933292
 20
104.7842371449
 30
0.0
  0
SPLINE
  5
358
100
AcDbEntity
  8
0
100
AcDbSpline
 62
7
  6
CONTINUOUS
 70
0
 71
3
 72
9
 73
5
 74
0
 42
0.0000001
 43
0.0000001
 44
0.0000000001
 40
0.0
 40
0.0
 40
0.0
 40
0.0
 40
0.5012417987
 40
1.0
 40
1.0
 40
1.0
 40
1.0
 10
68.3159884821
 20
104.9095523615
 30
0.0
 10
67.2064458725
 20
105.6277140236
 30
0.0
 10
64.7858349419
 20
106.7650606856
 30
0.0
 10
62.1437298069
 20
107.1902816528
 30
0.0
 10
60.8288389687
 20
107.2154836305
 30
0.0
  0
SPLINE
  5
359
100
AcDbEntity
  8
0
100
AcDbSpline
 62
7
  6
CONTINUOUS
 70
0
 71
3
 72
8
 73
4
 74
0
 42
0.0000001
 43
0.0000001
 44
0.0000000001
 40
0.0
 40
0.0
 40
0.0
 40
0.0
 40
1.0
 40
1.0
 40
1.0
 40
1.0
 10
60.7903554897
 20
107.2155786498
 30
0.0
 10
60.6836120353
 20
107.2150024383
 30
0.0
 10
60.5764825731
 20
107.2029014753
 30
0.0
 10
60.4719758577
 20
107.1811565099
 30
0.0
  0
SPLINE
  5
35A
100
AcDbEntity
  8
0
100
AcDbSpline
 62
7
  6
CONTINUOUS
 70
0
 71
3
 72
9
 73
5
 74
0
 42
0.0000001
 43
0.0000001
 44
0.0000000001
 40
0.0
 40
0.0
 40
0.0
 40
0.0
 40
0.5057171871
 40
1.0
 40
1.0
 40
1.0
 40
1.0
 10
60.4719758577
 20
107.1811565099
 30
0.0
 10
60.3443298366
 20
107.1545968933
 30
0.0
 10
60.0968169055
 20
107.0728869387
 30
0.0
 10
59.876133861
 20
106.9352384466
 30
0.0
 10
59.7750159985
 20
106.8576878852
 30
0.0
  0
SPLINE
  5
35B
100
AcDbEntity
  8
0
100
AcDbSpline
 62
7
  6
CONTINUOUS
 70
0
 71
3
 72
11
 73
7
 74
0
 42
0.0000001
 43
0.0000001
 44
0.0000000001
 40
0.0
 40
0.0
 40
0.0
 40
0.0
 40
0.2413229956
 40
0.4877452119
 40
0.7415464118
 40
1.0
 40
1.0
 40
1.0
 40
1.0
 10
59.7447809566
 20
106.8333526135
 30
0.0
 10
59.554356549
 20
106.6796156619
 30
0.0
 10
59.203351809
 20
106.3242039921
 30
0.0
 10
58.804391435
 20
105.67944863
 30
0.0
 10
58.5525738517
 20
104.9461520165
 30
0.0
 10
58.492515021
 20
104.4250616499
 30
0.0
 10
58.4924922844
 20
104.1629510414
 30
0.0
  0
SPLINE
  5
35C
100
AcDbEntity
  8
0
100
AcDbSpline
 62
7
  6
CONTINUOUS
 70
0
 71
3
 72
11
 73
7
 74
0
 42
0.0000001
 43
0.0000001
 44
0.0000000001
 40
0.0
 40
0.0
 40
0.0
 40
0.0
 40
0.2584557219
 40
0.512244485
 40
0.7586671616
 40
1.0
 40
1.0
 40
1.0
 40
1.0
 10
58.4923919853
 20
104.1629510506
 30
0.0
 10
58.4923692421
 20
103.900788361
 30
0.0
 10
58.5524223894
 20
103.3795947377
 30
0.0
 10
58.8044002412
 20
102.6462062601
 30
0.0
 10
59.2034918704
 20
102.0013696628
 30
0.0
 10
59.554606744
 20
101.6459137328
 30
0.0
 10
59.7450985764
 20
101.49217021
 30
0.0
  0
SPLINE
  5
35D
100
AcDbEntity
  8
0
100
AcDbSpline
 62
7
  6
CONTINUOUS
 70
0
 71
3
 72
9
 73
5
 74
0
 42
0.0000001
 43
0.0000001
 44
0.0000000001
 40
0.0
 40
0.0
 40
0.0
 40
0.0
 40
0.4942795927
 40
1.0
 40
1.0
 40
1.0
 40
1.0
 10
59.7750159985
 20
101.4682142008
 30
0.0
 10
59.876234227
 20
101.3906329505
 30
0.0
 10
60.097063116
 20
101.2528361077
 30
0.0
 10
60.3448102068
 20
101.1711574091
 30
0.0
 10
60.472563792
 20
101.1446126957
 30
0.0
  0
SPLINE
  5
35E
100
AcDbEntity
  8
0
100
AcDbSpline
 62
7
  6
CONTINUOUS
 70
0
 71
3
 72
8
 73
4
 74
0
 42
0.0000001
 43
0.0000001
 44
0.0000000001
 40
0.0
 40
0.0
 40
0.0
 40
0.0
 40
1.0
 40
1.0
 40
1.0
 40
1.0
 10
60.472563792
 20
101.1446126957
 30
0.0
 10
60.5768712247
 20
101.1229396373
 30
0.0
 10
60.6837895102
 20
101.1108554068
 30
0.0
 10
60.7903233734
 20
101.110309545
 30
0.0
  0
SPLINE
  5
35F
100
AcDbEntity
  8
0
100
AcDbSpline
 62
7
  6
CONTINUOUS
 70
0
 71
3
 72
9
 73
5
 74
0
 42
0.0000001
 43
0.0000001
 44
0.0000000001
 40
0.0
 40
0.0
 40
0.0
 40
0.0
 40
0.498758579
 40
1.0
 40
1.0
 40
1.0
 40
1.0
 10
60.8288428411
 20
101.1105794089
 30
0.0
 10
62.1437186622
 20
101.1357833067
 30
0.0
 10
64.7857916051
 20
101.561005797
 30
0.0
 10
67.2063670504
 20
102.698350934
 30
0.0
 10
68.3158934507
 20
103.416506263
 30
0.0
  0
SPLINE
  5
360
100
AcDbEntity
  8
0
100
AcDbSpline
 62
7
  6
CONTINUOUS
 70
0
 71
3
 72
10
 73
6
 74
0
 42
0.0000001
 43
0.0000001
 44
0.0000000001
 40
0.0
 40
0.0
 40
0.0
 40
0.0
 40
0.2502919154
 40
0.5010618319
 40
1.0
 40
1.0
 40
1.0
 40
1.0
 10
68.5066329607
 20
103.5417015509
 30
0.0
 10
68.5571033287
 20
103.5752514833
 30
0.0
 10
68.6502485208
 20
103.6556139592
 30
0.0
 10
68.7879072726
 20
103.8569541848
 30
0.0
 10
68.8330515083
 20
104.0421413311
 30
0.0
 10
68.8330267078
 20
104.162951043
 30
0.0
  0
SPLINE
  5
361
100
AcDbEntity
  8
0
100
AcDbSpline
 62
7
  6
CONTINUOUS
 70
0
 71
3
 72
9
 73
5
 74
0
 42
0.0000001
 43
0.0000001
 44
0.0000000001
 40
0.0
 40
0.0
 40
0.0
 40
0.0
 40
0.5775917763
 40
1.0
 40
1.0
 40
1.0
 40
1.0
 10
68.3158683588
 20
103.4165423995
 30
0.0
 10
68.3365032575
 20
103.3818013858
 30
0.0
 10
68.370862015
 20
103.3209185619
 30
0.0
 10
68.4031649546
 20
103.2586460195
 30
0.0
 10
68.4140734763
 20
103.2311823174
 30
0.0
  0
SPLINE
  5
362
100
AcDbEntity
  8
0
100
AcDbSpline
 62
7
  6
CONTINUOUS
 70
0
 71
3
 72
9
 73
5
 74
0
 42
0.0000001
 43
0.0000001
 44
0.0000000001
 40
0.0
 40
0.0
 40
0.0
 40
0.0
 40
0.7124160718
 40
1.0
 40
1.0
 40
1.0
 40
1.0
 10
68.4140734763
 20
103.2311823174
 30
0.0
 10
68.4170333836
 20
103.2237303443
 30
0.0
 10
68.4198843317
 20
103.2150949891
 30
0.0
 10
68.4236103624
 20
103.20033013
 30
0.0
 10
68.4208565402
 20
103.1986291951
 30
0.0
  0
SPLINE
  5
363
100
AcDbEntity
  8
0
100
AcDbSpline
 62
7
  6
CONTINUOUS
 70
0
 71
3
 72
12
 73
8
 74
0
 42
0.0000001
 43
0.0000001
 44
0.0000000001
 40
0.0
 40
0.0
 40
0.0
 40
0.0
 40
0.3902518449
 40
0.7103107632
 40
0.9175357242
 40
0.9737267359
 40
1.0
 40
1.0
 40
1.0
 40
1.0
 10
60.8288437988
 20
101.1106171991
 30
0.0
 10
60.8283539685
 20
101.0911714615
 30
0.0
 10
60.8270078925
 20
101.0556354324
 30
0.0
 10
60.8240591265
 20
101.010507504
 30
0.0
 10
60.8200026714
 20
100.9806829973
 30
0.0
 10
60.8165493042
 20
100.9676721781
 30
0.0
 10
60.8139189019
 20
100.9633087788
 30
0.0
 10
60.812609541
 20
100.9632849585
 30
0.0
  0
SPLINE
  5
364
100
AcDbEntity
  8
0
100
AcDbSpline
 62
7
  6
CONTINUOUS
 70
0
 71
3
 72
19
 73
15
 74
0
 42
0.0000001
 43
0.0000001
 44
0.0000000001
 40
0.0
 40
0.0
 40
0.0
 40
0.0
 40
0.0619939854
 40
0.1239590925
 40
0.1859780377
 40
0.2482144697
 40
0.3737296522
 40
0.5003471159
 40
0.6269803834
 40
0.752535792
 40
0.8148649543
 40
0.8769604158
 40
0.9389639645
 40
1.0
 40
1.0
 40
1.0
 40
1.0
 10
134.576099057
 20
93.1636002909
 30
0.0
 10
134.9967989871
 20
93.1551608768
 30
0.0
 10
135.8380330572
 20
93.1385739184
 30
0.0
 10
137.099209565
 20
93.0778609544
 30
0.0
 10
138.3581086527
 20
92.9587578218
 30
0.0
 10
140.035936613
 20
92.7103505143
 30
0.0
 10
142.1188373864
 20
92.2334287459
 30
0.0
 10
144.5843455564
 20
91.5045881052
 30
0.0
 10
147.0494513012
 20
90.7733166757
 30
0.0
 10
149.1328545617
 20
90.2945245524
 30
0.0
 10
150.8114018302
 20
90.0413543845
 30
0.0
 10
152.0715388796
 20
89.9201753953
 30
0.0
 10
153.3269039308
 20
89.8577395901
 30
0.0
 10
154.1618964857
 20
89.8407727906
 30
0.0
 10
154.5760992975
 20
89.8326485157
 30
0.0
  0
SPLINE
  5
365
100
AcDbEntity
  8
0
100
AcDbSpline
 62
7
  6
CONTINUOUS
 70
0
 71
3
 72
11
 73
7
 74
0
 42
0.0000001
 43
0.0000001
 44
0.0000000001
 40
0.0
 40
0.0
 40
0.0
 40
0.0
 40
0.3452580832
 40
0.6437663611
 40
0.8585830938
 40
1.0
 40
1.0
 40
1.0
 40
1.0
 10
59.7750151798
 20
101.4682151617
 30
0.0
 10
59.7562909682
 20
101.4484238313
 30
0.0
 10
59.7192923435
 20
101.4134490935
 30
0.0
 10
59.6639074049
 20
101.3737268318
 30
0.0
 10
59.6160376431
 20
101.3532110572
 30
0.0
 10
59.5850289859
 20
101.3562578867
 30
0.0
 10
59.5761013693
 20
101.362953581
 30
0.0
  0
SPLINE
  5
366
100
AcDbEntity
  8
0
100
AcDbSpline
 62
7
  6
CONTINUOUS
 70
0
 71
3
 72
11
 73
7
 74
0
 42
0.0000001
 43
0.0000001
 44
0.0000000001
 40
0.0
 40
0.0
 40
0.0
 40
0.0
 40
0.3311104007
 40
0.6279462182
 40
0.8507050306
 40
1.0
 40
1.0
 40
1.0
 40
1.0
 10
59.7750155717
 20
106.8576874773
 30
0.0
 10
59.7570678873
 20
106.8766580898
 30
0.0
 10
59.7211613915
 20
106.9108829143
 30
0.0
 10
59.6665192102
 20
106.950614319
 30
0.0
 10
59.6182034348
 20
106.9722079596
 30
0.0
 10
59.5855192148
 20
106.9700157105
 30
0.0
 10
59.5760991015
 20
106.9629506474
 30
0.0
  0
SPLINE
  5
367
100
AcDbEntity
  8
0
100
AcDbSpline
 62
7
  6
CONTINUOUS
 70
0
 71
3
 72
18
 73
14
 74
0
 42
0.0000001
 43
0.0000001
 44
0.0000000001
 40
0.0
 40
0.0
 40
0.0
 40
0.0
 40
0.059881084
 40
0.1219505513
 40
0.2466663921
 40
0.372790523
 40
0.4998356038
 40
0.6268374421
 40
0.7527300001
 40
0.8151841071
 40
0.8773483548
 40
0.9391945185
 40
1.0
 40
1.0
 40
1.0
 40
1.0
 10
154.5760931279
 20
115.0608673895
 30
0.0
 10
154.1665737997
 20
115.0198850439
 30
0.0
 10
153.3326260109
 20
114.9354050003
 30
0.0
 10
151.6508363304
 20
114.7194988261
 30
0.0
 10
149.5371435074
 20
114.3028780429
 30
0.0
 10
147.0463930359
 20
113.5572713592
 30
0.0
 10
144.5874046029
 20
112.6735396606
 30
0.0
 10
142.127346334
 20
111.7969664693
 30
0.0
 10
140.0422970821
 20
111.1954023667
 30
0.0
 10
138.3576011601
 20
110.8367847711
 30
0.0
 10
137.0921157248
 20
110.6314240158
 30
0.0
 10
135.83087435
 20
110.4786566774
 30
0.0
 10
134.9919218291
 20
110.3961629674
 30
0.0
 10
134.5760745853
 20
110.3546087229
 30
0.0
  0
SPLINE
  5
368
100
AcDbEntity
  8
0
100
AcDbSpline
 62
7
  6
CONTINUOUS
 70
0
 71
3
 72
15
 73
11
 74
0
 42
0.0000001
 43
0.0000001
 44
0.0000000001
 40
0.0
 40
0.0
 40
0.0
 40
0.0
 40
0.2500213327
 40
0.3751507832
 40
0.5002563121
 40
0.6253104896
 40
0.7502482041
 40
0.8749408225
 40
0.9374712609
 40
1.0
 40
1.0
 40
1.0
 40
1.0
 10
128.6143060427
 20
113.9629510343
 30
0.0
 10
129.2517340162
 20
113.9629510343
 30
0.0
 10
130.2122233934
 20
113.8799169621
 30
0.0
 10
131.4525337143
 20
113.5738247583
 30
0.0
 10
132.3492705818
 20
113.2317768364
 30
0.0
 10
133.1851057712
 20
112.7574719155
 30
0.0
 10
133.9123401681
 20
112.125781248
 30
0.0
 10
134.3551978956
 20
111.4453510721
 30
0.0
 10
134.5436994582
 20
110.8334057599
 30
0.0
 10
134.5761005563
 20
110.5136354484
 30
0.0
 10
134.576099534
 20
110.3542187816
 30
0.0
  0
SPLINE
  5
369
100
AcDbEntity
  8
0
100
AcDbSpline
 62
7
  6
CONTINUOUS
 70
0
 71
3
 72
14
 73
10
 74
0
 42
0.0000001
 43
0.0000001
 44
0.0000000001
 40
0.0
 40
0.0
 40
0.0
 40
0.0
 40
0.1182121091
 40
0.2360960857
 40
0.3608358532
 40
0.4921046232
 40
0.7575668911
 40
0.8827129663
 40
1.0
 40
1.0
 40
1.0
 40
1.0
 10
128.614452651
 20
113.9629254185
 30
0.0
 10
129.6359427535
 20
114.0650744289
 30
0.0
 10
131.6761498572
 20
114.2683782501
 30
0.0
 10
134.7939073391
 20
114.5834209126
 30
0.0
 10
138.0295671807
 20
114.8566493075
 30
0.0
 10
142.5477132691
 20
115.1648497385
 30
0.0
 10
147.0721207449
 20
115.4330931565
 30
0.0
 10
151.4678632765
 20
115.7995090332
 30
0.0
 10
153.562639811
 20
116.0106398344
 30
0.0
 10
154.576136186
 20
116.1119894725
 30
0.0
  0
SPLINE
  5
36A
100
AcDbEntity
  8
0
100
AcDbSpline
 62
7
  6
CONTINUOUS
 70
0
 71
3
 72
9
 73
5
 74
0
 42
0.0000001
 43
0.0000001
 44
0.0000000001
 40
0.0
 40
0.0
 40
0.0
 40
0.0
 40
0.1920561358
 40
1.0
 40
1.0
 40
1.0
 40
1.0
 10
66.4133690942
 20
99.7393097271
 30
0.0
 10
66.4335380094
 20
99.7374298339
 30
0.0
 10
66.5387327571
 20
99.7296119563
 30
0.0
 10
66.6441965955
 20
99.726211543
 30
0.0
 10
66.7293879573
 20
99.724222607
 30
0.0
  0
SPLINE
  5
36B
100
AcDbEntity
  8
0
100
AcDbSpline
 62
7
  6
CONTINUOUS
 70
0
 71
3
 72
19
 73
15
 74
0
 42
0.0000001
 43
0.0000001
 44
0.0000000001
 40
0.0
 40
0.0
 40
0.0
 40
0.0
 40
0.0058194732
 40
0.0129976711
 40
0.0229361273
 40
0.0508380319
 40
0.0889937195
 40
0.136542695
 40
0.1923593917
 40
0.3242928731
 40
0.4769841049
 40
0.6442475907
 40
0.8203324298
 40
1.0
 40
1.0
 40
1.0
 40
1.0
 10
61.2116564967
 20
99.962951043
 30
0.0
 10
61.2111702226
 20
99.9640017704
 30
0.0
 10
61.2142344506
 20
99.9661068348
 30
0.0
 10
61.2157610271
 20
99.9700382185
 30
0.0
 10
61.2209784314
 20
99.977615696
 30
0.0
 10
61.2286659566
 20
99.9904393341
 30
0.0
 10
61.2409669904
 20
100.0094983649
 30
0.0
 10
61.2561206752
 20
100.0331927178
 30
0.0
 10
61.281545148
 20
100.072516163
 30
0.0
 10
61.3184424893
 20
100.1293058033
 30
0.0
 10
61.367577842
 20
100.2045986308
 30
0.0
 10
61.4214679409
 20
100.2872726765
 30
0.0
 10
61.4782808544
 20
100.3744494982
 30
0.0
 10
61.5171633106
 20
100.4335907824
 30
0.0
 10
61.5369131128
 20
100.4633844994
 30
0.0
  0
SPLINE
  5
36C
100
AcDbEntity
  8
0
100
AcDbSpline
 62
7
  6
CONTINUOUS
 70
0
 71
3
 72
14
 73
10
 74
0
 42
0.0000001
 43
0.0000001
 44
0.0000000001
 40
0.0
 40
0.0
 40
0.0
 40
0.0
 40
0.026893575
 40
0.0882152492
 40
0.1825128109
 40
0.306784358
 40
0.4564780178
 40
0.6267037761
 40
1.0
 40
1.0
 40
1.0
 40
1.0
 10
65.1510689964
 20
99.6503634451
 30
0.0
 10
65.1525463315
 20
99.6481069492
 30
0.0
 10
65.1627880355
 20
99.6470177407
 30
0.0
 10
65.1796169375
 20
99.6436429779
 30
0.0
 10
65.2082553385
 20
99.6416538751
 30
0.0
 10
65.2448554217
 20
99.6393050995
 30
0.0
 10
65.2894635657
 20
99.6375632147
 30
0.0
 10
65.3589216107
 20
99.6357036802
 30
0.0
 10
65.413449296
 20
99.635191214
 30
0.0
 10
65.4508862446
 20
99.6351898128
 30
0.0
  0
SPLINE
  5
36D
100
AcDbEntity
  8
0
100
AcDbSpline
 62
7
  6
CONTINUOUS
 70
0
 71
3
 72
14
 73
10
 74
0
 42
0.0000001
 43
0.0000001
 44
0.0000000001
 40
0.0
 40
0.0
 40
0.0
 40
0.0
 40
0.0235531449
 40
0.0762256416
 40
0.1595083691
 40
0.2725969266
 40
0.414529395
 40
0.5842156475
 40
1.0
 40
1.0
 40
1.0
 40
1.0
 10
66.976099534
 20
99.6860255622
 30
0.0
 10
66.9760997299
 20
99.6828516583
 30
0.0
 10
66.9645604252
 20
99.6767729722
 30
0.0
 10
66.9456892168
 20
99.671914126
 30
0.0
 10
66.911650342
 20
99.6654925591
 30
0.0
 10
66.8668565831
 20
99.6597762335
 30
0.0
 10
66.8097491624
 20
99.653980151
 30
0.0
 10
66.712105745
 20
99.6462347893
 30
0.0
 10
66.6332880502
 20
99.6418384254
 30
0.0
 10
66.5773208249
 20
99.6392077426
 30
0.0
  0
SPLINE
  5
36E
100
AcDbEntity
  8
0
100
AcDbSpline
 62
7
  6
CONTINUOUS
 70
0
 71
3
 72
9
 73
5
 74
0
 42
0.0000001
 43
0.0000001
 44
0.0000000001
 40
0.0
 40
0.0
 40
0.0
 40
0.0
 40
0.2195838357
 40
1.0
 40
1.0
 40
1.0
 40
1.0
 10
66.5773208249
 20
99.6392077426
 30
0.0
 10
66.5626720542
 20
99.638519192
 30
0.0
 10
66.4959314811
 20
99.6360182617
 30
0.0
 10
66.429135727
 20
99.6351898128
 30
0.0
 10
66.3770155001
 20
99.6351898128
 30
0.0
  0
SPLINE
  5
36F
100
AcDbEntity
  8
0
100
AcDbSpline
 62
7
  6
CONTINUOUS
 70
0
 71
3
 72
14
 73
10
 74
0
 42
0.0000001
 43
0.0000001
 44
0.0000000001
 40
0.0
 40
0.0
 40
0.0
 40
0.0
 40
0.0270278843
 40
0.0886533338
 40
0.1832071032
 40
0.3075262058
 40
0.4570826389
 40
0.6270646502
 40
1.0
 40
1.0
 40
1.0
 40
1.0
 10
64.9862101502
 20
99.8977774107
 30
0.0
 10
64.9847254678
 20
99.900045129
 30
0.0
 10
64.9744191473
 20
99.9011058402
 30
0.0
 10
64.9575337877
 20
99.9044933863
 30
0.0
 10
64.9288292453
 20
99.9064714332
 30
0.0
 10
64.8922147416
 20
99.9088243402
 30
0.0
 10
64.8476407865
 20
99.9105682412
 30
0.0
 10
64.778258887
 20
99.9124348813
 30
0.0
 10
64.7237928878
 20
99.9129496433
 30
0.0
 10
64.6863929014
 20
99.912951043
 30
0.0
  0
SPLINE
  5
370
100
AcDbEntity
  8
0
100
AcDbSpline
 62
7
  6
CONTINUOUS
 70
0
 71
3
 72
13
 73
9
 74
0
 42
0.0000001
 43
0.0000001
 44
0.0000000001
 40
0.0
 40
0.0
 40
0.0
 40
0.0
 40
0.2494168899
 40
0.4987919252
 40
0.6240969213
 40
0.7493793113
 40
0.8747320553
 40
1.0
 40
1.0
 40
1.0
 40
1.0
 10
58.576099534
 20
94.2373919132
 30
0.0
 10
58.576099534
 20
93.5871791294
 30
0.0
 10
58.8376424266
 20
92.2733389146
 30
0.0
 10
59.7700263566
 20
90.8866147952
 30
0.0
 10
60.7848872702
 20
90.0574681031
 30
0.0
 10
61.6555951712
 20
89.5933713097
 30
0.0
 10
62.5997838864
 20
89.3093012253
 30
0.0
 10
63.2549566723
 20
89.2460611999
 30
0.0
 10
63.5815216417
 20
89.2460611999
 30
0.0
  0
SPLINE
  5
371
100
AcDbEntity
  8
0
100
AcDbSpline
 62
7
  6
CONTINUOUS
 70
0
 71
3
 72
14
 73
10
 74
0
 42
0.0000001
 43
0.0000001
 44
0.0000000001
 40
0.0
 40
0.0
 40
0.0
 40
0.0
 40
0.0668167135
 40
0.1721323876
 40
0.3072214763
 40
0.4607268666
 40
0.7707713161
 40
0.9011915895
 40
1.0
 40
1.0
 40
1.0
 40
1.0
 10
99.8838239292
 20
96.2991409326
 30
0.0
 10
99.7956761537
 20
96.314837086
 30
0.0
 10
99.5654469568
 20
96.335199318
 30
0.0
 10
99.1546287927
 20
96.3585687061
 30
0.0
 10
98.6268851638
 20
96.3744945052
 30
0.0
 10
97.8248162583
 20
96.3853935209
 30
0.0
 10
97.028708404
 20
96.3794598871
 30
0.0
 10
96.3065148529
 20
96.354479615
 30
0.0
 10
95.99978125
 20
96.3362687651
 30
0.0
 10
95.8679201853
 20
96.324299349
 30
0.0
  0
SPLINE
  5
372
100
AcDbEntity
  8
0
100
AcDbSpline
 62
7
  6
CONTINUOUS
 70
0
 71
3
 72
16
 73
12
 74
0
 42
0.0000001
 43
0.0000001
 44
0.0000000001
 40
0.0
 40
0.0
 40
0.0
 40
0.0
 40
0.1251075106
 40
0.250217637
 40
0.3753107919
 40
0.5003827007
 40
0.6254086778
 40
0.7503295486
 40
0.874998658
 40
0.9375046565
 40
1.0
 40
1.0
 40
1.0
 40
1.0
 10
128.0490432583
 20
89.2460611999
 30
0.0
 10
128.3962754235
 20
89.2460611999
 30
0.0
 10
129.0911802566
 20
89.2789709705
 30
0.0
 10
130.1238485931
 20
89.4275737562
 30
0.0
 10
131.1355331535
 20
89.684301994
 30
0.0
 10
132.1097459308
 20
90.06020482
 30
0.0
 10
133.0202098695
 20
90.574416536
 30
0.0
 10
133.8189867098
 20
91.2518285876
 30
0.0
 10
134.318244361
 20
91.9803384868
 30
0.0
 10
134.5373952849
 20
92.6421435772
 30
0.0
 10
134.5760980226
 20
92.9901834584
 30
0.0
 10
134.576099534
 20
93.1636374208
 30
0.0
  0
SPLINE
  5
373
100
AcDbEntity
  8
0
100
AcDbSpline
 62
7
  6
CONTINUOUS
 70
0
 71
3
 72
10
 73
6
 74
0
 42
0.0000001
 43
0.0000001
 44
0.0000000001
 40
0.0
 40
0.0
 40
0.0
 40
0.0
 40
0.3673276915
 40
0.6474203491
 40
1.0
 40
1.0
 40
1.0
 40
1.0
 10
60.8794822413
 20
100.7716448666
 30
0.0
 10
60.8866926513
 20
100.7516500511
 30
0.0
 10
60.9247113806
 20
100.729888983
 30
0.0
 10
60.980105902
 20
100.7187641163
 30
0.0
 10
61.0172174084
 20
100.7170545629
 30
0.0
 10
61.0376162397
 20
100.7174022293
 30
0.0
  0
SPLINE
  5
374
100
AcDbEntity
  8
0
100
AcDbSpline
 62
7
  6
CONTINUOUS
 70
0
 71
3
 72
9
 73
5
 74
0
 42
0.0000001
 43
0.0000001
 44
0.0000000001
 40
0.0
 40
0.0
 40
0.0
 40
0.0
 40
0.4748453195
 40
1.0
 40
1.0
 40
1.0
 40
1.0
 10
61.0376162397
 20
100.7174022293
 30
0.0
 10
61.0895557354
 20
100.7182874574
 30
0.0
 10
61.1984652059
 20
100.7343687853
 30
0.0
 10
61.3044305834
 20
100.7620605119
 30
0.0
 10
61.3590169298
 20
100.7799748104
 30
0.0
  0
SPLINE
  5
375
100
AcDbEntity
  8
0
100
AcDbSpline
 62
7
  6
CONTINUOUS
 70
0
 71
3
 72
10
 73
6
 74
0
 42
0.0000001
 43
0.0000001
 44
0.0000000001
 40
0.0
 40
0.0
 40
0.0
 40
0.0
 40
0.2531989979
 40
0.5040325672
 40
1.0
 40
1.0
 40
1.0
 40
1.0
 10
61.3569713176
 20
100.7815941102
 30
0.0
 10
61.3293530009
 20
100.811684507
 30
0.0
 10
61.2587468983
 20
100.8565305643
 30
0.0
 10
61.1069033692
 20
100.9108209811
 30
0.0
 10
60.9878673513
 20
100.9339830512
 30
0.0
 10
60.9086263824
 20
100.9450114729
 30
0.0
  0
SPLINE
  5
376
100
AcDbEntity
  8
0
100
AcDbSpline
 62
7
  6
CONTINUOUS
 70
0
 71
3
 72
8
 73
4
 74
0
 42
0.0000001
 43
0.0000001
 44
0.0000000001
 40
0.0
 40
0.0
 40
0.0
 40
0.0
 40
1.0
 40
1.0
 40
1.0
 40
1.0
 10
60.8127484742
 20
100.9556762278
 30
0.0
 10
60.782299122
 20
100.9496858755
 30
0.0
 10
60.7506385374
 20
100.9479611696
 30
0.0
 10
60.7197628763
 20
100.9510822155
 30
0.0
  0
ELLIPSE
  5
377
100
AcDbEntity
  8
0
100
AcDbEllipse
 62
7
  6
CONTINUOUS
 10
56.6139571526
 20
133.7508086616
 30
0.0
 11
0.3536610946
 21
0.3536610946
 31
0.0
 40
0.9996954599
 41
2.3563467841
 42
3.9268385162
  0
ELLIPSE
  5
378
100
AcDbEntity
  8
0
100
AcDbEllipse
 62
7
  6
CONTINUOUS
 10
66.7382419154
 20
133.7508086616
 30
0.0
 11
0.3536610946
 21
-0.3536610946
 31
0.0
 40
0.9996954599
 41
5.4979394429
 42
7.0684311645
  0
ELLIPSE
  5
379
100
AcDbEntity
  8
0
100
AcDbEllipse
 62
7
  6
CONTINUOUS
 10
66.7382419154
 20
141.7750934245
 30
0.0
 11
0.3536610946
 21
0.3536610946
 31
0.0
 40
0.9996954599
 41
5.4979394505
 42
7.068431178
  0
ELLIPSE
  5
37A
100
AcDbEntity
  8
0
100
AcDbEllipse
 62
7
  6
CONTINUOUS
 10
56.6139571526
 20
141.7750934245
 30
0.0
 11
-0.3536610946
 21
0.3536610946
 31
0.0
 40
0.9996954599
 41
-0.7852458692
 42
0.7852458689
  0
ELLIPSE
  5
37B
100
AcDbEntity
  8
0
100
AcDbEllipse
 62
7
  6
CONTINUOUS
 10
57.826175698
 20
135.763027207
 30
0.0
 11
0.3536610946
 21
0.3536610946
 31
0.0
 40
0.9996954599
 41
2.3563467848
 42
3.9268385345
  0
ELLIPSE
  5
37C
100
AcDbEntity
  8
0
100
AcDbEllipse
 62
7
  6
CONTINUOUS
 10
57.826175698
 20
139.762874879
 30
0.0
 11
0.3536610946
 21
-0.3536610946
 31
0.0
 40
0.9996954599
 41
2.356346794
 42
3.9268385254
  0
ELLIPSE
  5
37D
100
AcDbEntity
  8
0
100
AcDbEllipse
 62
7
  6
CONTINUOUS
 10
65.52602337
 20
139.762874879
 30
0.0
 11
0.3536610946
 21
0.3536610946
 31
0.0
 40
0.9996954599
 41
-0.7852458612
 42
0.7852458612
  0
ELLIPSE
  5
37E
100
AcDbEntity
  8
0
100
AcDbEllipse
 62
7
  6
CONTINUOUS
 10
65.52602337
 20
135.763027207
 30
0.0
 11
0.3536610946
 21
-0.3536610946
 31
0.0
 40
0.9996954599
 41
5.4979394247
 42
7.0684311654
  0
ELLIPSE
  5
37F
100
AcDbEntity
  8
0
100
AcDbEllipse
 62
7
  6
CONTINUOUS
 10
61.5871983267
 20
112.9187023931
 30
0.0
 11
-2.2607766574
 21
4.5215533241
 31
0.0
 40
0.9890707101
 41
-0.4592663434
 42
1.1027384703
  0
ELLIPSE
  5
380
100
AcDbEntity
  8
0
100
AcDbEllipse
 62
7
  6
CONTINUOUS
 10
61.5871983266
 20
93.4621975155
 30
0.0
 11
4.6657879027
 21
1.8326693429
 31
0.0
 40
0.9974447539
 41
2.7681880403
 42
4.3372431015
  0
ELLIPSE
  5
381
100
AcDbEntity
  8
0
100
AcDbEllipse
 62
7
  6
CONTINUOUS
 10
97.7730457424
 20
107.7092631248
 30
0.0
 11
2.2
 21
0.0
 31
0.0
 40
0.0524077793
 41
-2.6179938777
 42
-0.2862339977
  0
ELLIPSE
  5
382
100
AcDbEntity
  8
0
100
AcDbEllipse
 62
7
  6
CONTINUOUS
 10
63.5871983268
 20
108.918702384
 30
0.0
 11
-2.2607766571
 21
4.5215533243
 31
0.0
 40
0.9890707101
 41
-0.4592663433
 42
1.1027384704
  0
ENDSEC
  0
SECTION
  2
OBJECTS
  0
DICTIONARY
  5
C
100
AcDbDictionary
280
0
281
1
  3
ACAD_GROUP
350
D
  3
ACAD_MLINESTYLE
350
17
  3
ACAD_LAYOUT
350
1A
  3
ACAD_PLOTSETTINGS
350
19
  3
ACAD_PLOTSTYLENAME
350
E
  0
DICTIONARY
  5
D
102
{ACAD_REACTORS
330
C
102
}
100
AcDbDictionary
280
0
281
1
  0
ACDBDICTIONARYWDFLT
  5
E
102
{ACAD_REACTORS
330
C
102
}
100
AcDbDictionary
281
1
  3
Normal
350
F
100
AcDbDictionaryWithDefault
340
F
  0
DICTIONARY
  5
17
102
{ACAD_REACTORS
330
C
102
}
100
AcDbDictionary
280
0
281
1
  3
Standard
350
18
  0
DICTIONARY
  5
19
102
{ACAD_REACTORS
330
C
102
}
100
AcDbDictionary
281
1
  0
DICTIONARY
  5
1A
102
{ACAD_REACTORS
330
C
102
}
100
AcDbDictionary
281
1
  3
Model
350
383
  3
Layout1
350
384
  0
ACDBPLACEHOLDER
  5
F
102
{ACAD_REACTORS
330
E
102
}
  0
MLINESTYLE
  5
18
102
{ACAD_REACTORS
330
17
102
}
100
AcDbMlineStyle
  2
STANDARD
 70
0
  3

 62
256
 51
90.0
 52
90.0
 71
2
 49
0.5
 62
256
  6
BYLAYER
 49
-0.5
 62
256
  6
BYLAYER
  0
LAYOUT
  5
383
102
{ACAD_REACTORS
330
1A
102
}
100
AcDbPlotSettings
  1

  2
none_device
  4

  6

 40
0.0
 41
0.0
 42
0.0
 43
0.0
 44
210.0
 45
297.0
 46
0.0
 47
0.0
 48
0.0
 49
0.0
140
0.0
141
0.0
142
1.0
143
1.0
 70
1024
 72
1
 73
0
 74
0
  7

 75
0
147
1.0
148
0.0
149
0.0
100
AcDbLayout
  1
Model
 70
0
 71
0
 10
0.0
 20
0.0
 11
210.0
 21
297.0
 12
0.0
 22
0.0
 32
0.0
 14
0.0
 24
0.0
 34
0.0
 15
0.0
 25
0.0
 35
0.0
146
0.0
 13
0.0
 23
0.0
 33
0.0
 16
1.0
 26
0.0
 36
0.0
 17
0.0
 27
1.0
 37
0.0
 76
0
330
210
345
0
346
0
  0
LAYOUT
  5
384
102
{ACAD_REACTORS
330
1A
102
}
100
AcDbPlotSettings
  1

  2
none_device
  4

  6

 40
0.0
 41
0.0
 42
0.0
 43
0.0
 44
210.0
 45
297.0
 46
0.0
 47
0.0
 48
0.0
 49
0.0
140
0.0
141
0.0
142
1.0
143
1.0
 70
0
 72
1
 73
0
 74
0
  7

 75
0
147
1.0
148
0.0
149
0.0
100
AcDbLayout
  1
Layout1
 70
0
 71
1
 10
0.0
 20
0.0
 11
210.0
 21
297.0
 12
0.0
 22
0.0
 32
0.0
 14
0.0
 24
0.0
 34
0.0
 15
0.0
 25
0.0
 35
0.0
146
0.0
 13
0.0
 23
0.0
 33
0.0
 16
1.0
 26
0.0
 36
0.0
 17
0.0
 27
1.0
 37
0.0
 76
0
330
211
345
0
346
0
  0
ENDSEC
  0
EOF
