999
DXF file: C:\Users\sesa63760\OneDrive - Schneider Electric\Documents\7-Dev\_Creo\CAD\MCADPP0000123_3D-CAD\drw0001_7.dxf
999
Pro/ENGINEER 2019471 by Parametric Technology Corporation
  0
SECTION
  2
HEADER
  9
$ACADVER
  1
AC1024
  9
$DWGCODEPAGE
  3
ANSI_1252
  9
$EXTMAX
 10
79.0824789246
 20
111.8452201934
 30
0.0
  9
$EXTMIN
 10
0.0
 20
0.0
 30
0.0
  9
$LIMMIN
 10
0.0
 20
0.0
  9
$LIMMAX
 10
79.0824789246
 20
111.8452201934
  9
$VIEWCTR
 10
39.5412394623
 20
55.9226100967
  9
$VIEWSIZE
 40
111.8452201934
  9
$CLAYER
  8
0
  9
$LTSCALE
 40
7.2906513904
  9
$CELTYPE
  6
BYLAYER
  9
$DIMSCALE
 40
1.0
  9
$DIMASZ
 40
0.9414580824
  9
$DIMEXO
 40
1.0
  9
$DIMDLI
 40
5.0371773243
  9
$DIMEXE
 40
1.0
  9
$DIMCEN
 40
1.1930156821
  9
$DIMLFAC
 40
1.0
  9
$DIMBLK
  1
_FILLED
  9
$DIMALT
 70
0
  9
$DIMALTF
 40
0.0393700787
  9
$DIMTXT
 40
1.3180413154
  9
$DIMTOL
 70
1
  9
$DIMLIM
 70
0
  9
$DIMTFAC
 40
1.0
  9
$DIMTP
 40
0.01
  9
$DIMTM
 40
0.01
  9
$DIMGAP
 40
0.625
  9
$DIMDSEP
 70
46
  9
$AUNITS
 70
0
  9
$PDMODE
 70
3
  9
$PDSIZE
 40
0.3125
  9
$HANDSEED
  5
261
  9
$TILEMODE
 70
1
  9
$MEASUREMENT
 70
1
  9
$INSUNITS
 70
4
  0
ENDSEC
  0
SECTION
  2
CLASSES
  0
CLASS
  1
ACDBDICTIONARYWDFLT
  2
AcDbDictionaryWithDefault
  3
AutoCAD 2000
 90
0
 91
1
280
0
281
0
  0
CLASS
  1
ACDBPLACEHOLDER
  2
AcDbPlaceHolder
  3
AutoCAD 2000
 90
0
 91
1
280
0
281
0
  0
CLASS
  1
LAYOUT
  2
AcDbLayout
  3
AutoCAD 2000
 90
0
 91
0
280
0
281
0
  0
ENDSEC
  0
SECTION
  2
TABLES
  0
TABLE
  2
VPORT
  5
8
100
AcDbSymbolTable
 70
2
  0
VPORT
  5
1F4
100
AcDbSymbolTableRecord
100
AcDbViewportTableRecord
  2
*ACTIVE
 70
0
 10
0.0
 20
0.0
 11
1.0
 21
1.0
 12
39.5412394623
 22
55.9226100967
 13
0.0
 23
0.0
 14
1.0
 24
1.0
 15
0.0
 25
0.0
 16
0.0
 26
0.0
 36
1.0
 17
0.0
 27
0.0
 37
0.0
 40
111.8452201934
 41
0.7070707071
 42
50.0
 43
0.0
 44
0.0
 50
0.0
 51
0.0
 71
0
 72
100
 73
1
 74
1
 75
0
 76
0
 77
0
 78
0
  0
ENDTAB
  0
TABLE
  2
LTYPE
  5
5
100
AcDbSymbolTable
 70
6
  0
LTYPE
  5
14
100
AcDbSymbolTableRecord
100
AcDbLinetypeTableRecord
  2
BYBLOCK
 70
0
  3

 72
65
 73
0
 40
0.0
  0
LTYPE
  5
15
100
AcDbSymbolTableRecord
100
AcDbLinetypeTableRecord
  2
BYLAYER
 70
0
  3

 72
65
 73
0
 40
0.0
  0
LTYPE
  5
16
100
AcDbSymbolTableRecord
100
AcDbLinetypeTableRecord
  2
CONTINUOUS
 70
64
  3
Solid line
 72
65
 73
0
 40
0.0
  0
LTYPE
  5
1F5
100
AcDbSymbolTableRecord
100
AcDbLinetypeTableRecord
  2
CENTER
 70
64
  3
____ _ ____ _ ____ _ ____ _ ____ _ ____ _ ____
 72
65
 73
4
 40
0.6
 49
0.375
 74
0
 49
-0.075
 74
0
 49
0.075
 74
0
 49
-0.075
 74
0
  0
LTYPE
  5
1F6
100
AcDbSymbolTableRecord
100
AcDbLinetypeTableRecord
  2
HIDDEN
 70
64
  3
- - - - - - - - - - - - - - - - - - - -
 72
65
 73
2
 40
0.2
 49
0.1
 74
0
 49
-0.1
 74
0
  0
LTYPE
  5
1F7
100
AcDbSymbolTableRecord
100
AcDbLinetypeTableRecord
  2
PHANTOM
 70
64
  3
_____ _ _ _____ _ _ _____ _ _ _____
 72
65
 73
6
 40
0.8
 49
0.45
 74
0
 49
-0.05
 74
0
 49
0.1
 74
0
 49
-0.05
 74
0
 49
0.1
 74
0
 49
-0.05
 74
0
  0
LTYPE
  5
1F8
100
AcDbSymbolTableRecord
100
AcDbLinetypeTableRecord
  2
DOT
 70
64
  3
. . . . . . . . . . . . . . . . . . . .
 72
65
 73
2
 40
0.2
 49
0.1
 74
0
 49
-0.1
 74
0
  0
LTYPE
  5
1F9
100
AcDbSymbolTableRecord
100
AcDbLinetypeTableRecord
  2
DASHED
 70
64
  3
- - - - - - - - - - - - - - - - - - - -
 72
65
 73
2
 40
0.2
 49
0.1
 74
0
 49
-0.1
 74
0
  0
ENDTAB
  0
TABLE
  2
LAYER
  5
2
100
AcDbSymbolTable
 70
36
  0
LAYER
  5
10
100
AcDbSymbolTableRecord
100
AcDbLayerTableRecord
  2
0
 70
0
 62
7
  6
CONTINUOUS
370
-3
390
F
  0
LAYER
  5
1FA
100
AcDbSymbolTableRecord
100
AcDbLayerTableRecord
  2
DEFAULT_1
 70
0
 62
7
  6
CENTER
370
-3
390
F
  0
LAYER
  5
1FB
100
AcDbSymbolTableRecord
100
AcDbLayerTableRecord
  2
DEFAULT_2
 70
0
 62
8
  6
HIDDEN
370
-3
390
F
  0
LAYER
  5
1FC
100
AcDbSymbolTableRecord
100
AcDbLayerTableRecord
  2
DEFAULT_3
 70
0
 62
7
  6
PHANTOM
370
-3
390
F
  0
LAYER
  5
1FD
100
AcDbSymbolTableRecord
100
AcDbLayerTableRecord
  2
00_COMPONENTS
 70
0
 62
7
  6
CONTINUOUS
370
-3
390
F
  0
LAYER
  5
1FE
100
AcDbSymbolTableRecord
100
AcDbLayerTableRecord
  2
01_1_DEFAULT_DATUMS
 70
0
 62
7
  6
CONTINUOUS
370
-3
390
F
  0
LAYER
  5
1FF
100
AcDbSymbolTableRecord
100
AcDbLayerTableRecord
  2
01_PLANES
 70
0
 62
7
  6
CONTINUOUS
370
-3
390
F
  0
LAYER
  5
200
100
AcDbSymbolTableRecord
100
AcDbLayerTableRecord
  2
02_COORD_SYS
 70
0
 62
7
  6
CONTINUOUS
370
-3
390
F
  0
LAYER
  5
201
100
AcDbSymbolTableRecord
100
AcDbLayerTableRecord
  2
03_AXES
 70
0
 62
7
  6
CONTINUOUS
370
-3
390
F
  0
LAYER
  5
202
100
AcDbSymbolTableRecord
100
AcDbLayerTableRecord
  2
04_POINTS
 70
0
 62
7
  6
CONTINUOUS
370
-3
390
F
  0
LAYER
  5
203
100
AcDbSymbolTableRecord
100
AcDbLayerTableRecord
  2
05_CURVES
 70
0
 62
7
  6
CONTINUOUS
370
-3
390
F
  0
LAYER
  5
204
100
AcDbSymbolTableRecord
100
AcDbLayerTableRecord
  2
06_SURFS
 70
0
 62
7
  6
CONTINUOUS
370
-3
390
F
  0
LAYER
  5
205
100
AcDbSymbolTableRecord
100
AcDbLayerTableRecord
  2
07_COSMETICS
 70
0
 62
7
  6
CONTINUOUS
370
-3
390
F
  0
LAYER
  5
206
100
AcDbSymbolTableRecord
100
AcDbLayerTableRecord
  2
10_NOTES
 70
0
 62
7
  6
CONTINUOUS
370
-3
390
F
  0
LAYER
  5
207
100
AcDbSymbolTableRecord
100
AcDbLayerTableRecord
  2
11_NOTES_PUB
 70
0
 62
7
  6
CONTINUOUS
370
-3
390
F
  0
LAYER
  5
208
100
AcDbSymbolTableRecord
100
AcDbLayerTableRecord
  2
13_REF_GTOL
 70
0
 62
7
  6
CONTINUOUS
370
-3
390
F
  0
LAYER
  5
209
100
AcDbSymbolTableRecord
100
AcDbLayerTableRecord
  2
16_MISC
 70
0
 62
7
  6
CONTINUOUS
370
-3
390
F
  0
LAYER
  5
20A
100
AcDbSymbolTableRecord
100
AcDbLayerTableRecord
  2
17_NO_PRINT
 70
0
 62
7
  6
CONTINUOUS
370
-3
390
F
  0
LAYER
  5
20B
100
AcDbSymbolTableRecord
100
AcDbLayerTableRecord
  2
18_DATUM_CAMS_JOINTS
 70
0
 62
7
  6
CONTINUOUS
370
-3
390
F
  0
LAYER
  5
20C
100
AcDbSymbolTableRecord
100
AcDbLayerTableRecord
  2
19_DATUM_FUNCTIONAL
 70
0
 62
7
  6
CONTINUOUS
370
-3
390
F
  0
LAYER
  5
20D
100
AcDbSymbolTableRecord
100
AcDbLayerTableRecord
  2
20_DATUM_KINEMATIC_SCHEME
 70
0
 62
7
  6
CONTINUOUS
370
-3
390
F
  0
ENDTAB
  0
TABLE
  2
STYLE
  5
3
100
AcDbSymbolTable
 70
1
  0
STYLE
  5
11
100
AcDbSymbolTableRecord
100
AcDbTextStyleTableRecord
  2
STANDARD
 70
0
 40
0.0
 41
0.8
 50
0.0
 71
0
 42
0.2
  3
txt
  4

  0
STYLE
  5
20E
100
AcDbSymbolTableRecord
100
AcDbTextStyleTableRecord
  2
TEXTSTYLE_1
 70
0
 40
0.0
 41
0.8
 50
0.0
 71
0
 42
0.2
  3
gdt
  4

  0
ENDTAB
  0
TABLE
  2
VIEW
  5
6
100
AcDbSymbolTable
 70
0
  0
ENDTAB
  0
TABLE
  2
UCS
  5
7
100
AcDbSymbolTable
 70
0
  0
ENDTAB
  0
TABLE
  2
APPID
  5
9
100
AcDbSymbolTable
 70
1
  0
APPID
  5
20F
100
AcDbSymbolTableRecord
100
AcDbRegAppTableRecord
  2
ACAD
 70
0
  0
ENDTAB
  0
TABLE
  2
BLOCK_RECORD
  5
1
100
AcDbSymbolTable
 70
0
  0
BLOCK_RECORD
  5
210
100
AcDbSymbolTableRecord
100
AcDbBlockTableRecord
  2
*Model_Space
  0
BLOCK_RECORD
  5
211
100
AcDbSymbolTableRecord
100
AcDbBlockTableRecord
  2
*Paper_Space
  0
BLOCK_RECORD
  5
212
100
AcDbSymbolTableRecord
100
AcDbBlockTableRecord
  2
_FILLED
  0
ENDTAB
  0
TABLE
  2
DIMSTYLE
  5
A
100
AcDbSymbolTable
 70
1
100
AcDbDimStyleTable
 71
0
  0
DIMSTYLE
105
213
100
AcDbSymbolTableRecord
100
AcDbDimStyleTableRecord
  2
STANDARD
 70
0
  3

  4

 40
1.0
 41
0.9414580824
 42
1.0
 43
0.38
 44
1.0
 45
0.0
 46
0.0
 47
0.01
 48
0.01
140
1.3180413154
141
0.09
142
0.0
143
25.4
144
1.0
145
0.0
146
1.0
147
0.625
 71
1
 72
0
 73
0
 74
0
 75
0
 76
0
 77
1
 78
8
 79
2
170
0
171
1
172
0
173
0
174
0
175
0
176
0
177
0
178
0
270
2
179
2
271
2
272
2
273
2
274
2
275
0
280
0
281
0
282
0
283
1
284
8
285
0
286
0
287
3
288
0
340
11
278
46
341
212
342
212
343
212
344
212
  0
ENDTAB
  0
ENDSEC
  0
SECTION
  2
BLOCKS
  0
BLOCK
  5
20
100
AcDbEntity
  8
0
100
AcDbBlockBegin
  2
*Model_Space
 70
0
 10
0.0
 20
0.0
 30
0.0
  3
*Model_Space
  1

  0
ENDBLK
  5
21
100
AcDbEntity
  8
0
100
AcDbBlockEnd
  0
BLOCK
  5
1C
100
AcDbEntity
  8
0
100
AcDbBlockBegin
  2
*Paper_Space
 70
0
 10
0.0
 20
0.0
 30
0.0
  3
*Paper_Space
  1

  0
ENDBLK
  5
1D
100
AcDbEntity
  8
0
100
AcDbBlockEnd
  0
BLOCK
  5
214
100
AcDbEntity
  8
0
100
AcDbBlockBegin
  2
_FILLED
 70
64
 10
0.0
 20
0.0
  3
_FILLED
  1

  0
SOLID
  5
215
100
AcDbEntity
  8
0
  6
BYBLOCK
 62
0
100
AcDbTrace
 10
0.0
 20
0.0
 11
-1.0
 21
0.25
 12
-1.0
 22
-0.25
 13
-1.0
 23
-0.25
  0
ENDBLK
  5
216
100
AcDbEntity
  8
0
  6
BYBLOCK
 62
0
100
AcDbBlockEnd
  0
ENDSEC
  0
SECTION
  2
ENTITIES
  0
LINE
  5
217
100
AcDbEntity
  8
0
100
AcDbLine
 62
7
  6
CONTINUOUS
 10
8.3970686006
 20
56.1464050054
 11
8.3970686006
 21
64.4464050054
  0
LINE
  5
218
100
AcDbEntity
  8
0
100
AcDbLine
 62
7
  6
CONTINUOUS
 10
10.9970686006
 20
64.5964050054
 11
10.9970686006
 21
64.4464050054
  0
LINE
  5
219
100
AcDbEntity
  8
0
100
AcDbLine
 62
7
  6
CONTINUOUS
 10
12.1970686006
 20
64.4464050054
 11
12.1970686006
 21
64.5964050054
  0
LINE
  5
21A
100
AcDbEntity
  8
0
100
AcDbLine
 62
7
  6
CONTINUOUS
 10
17.1970686006
 20
49.4464050054
 11
17.1970686006
 21
56.1464050054
  0
LINE
  5
21B
100
AcDbEntity
  8
0
100
AcDbLine
 62
7
  6
CONTINUOUS
 10
17.6970686006
 20
49.4464050054
 11
17.6970686006
 21
56.1464050054
  0
LINE
  5
21C
100
AcDbEntity
  8
0
100
AcDbLine
 62
7
  6
CONTINUOUS
 10
18.6970686006
 20
50.4464050054
 11
18.6970686006
 21
56.1464050054
  0
LINE
  5
21D
100
AcDbEntity
  8
0
100
AcDbLine
 62
7
  6
CONTINUOUS
 10
19.5970686006
 20
47.4464050054
 11
19.5970686006
 21
49.4464050054
  0
LINE
  5
21E
100
AcDbEntity
  8
0
100
AcDbLine
 62
7
  6
CONTINUOUS
 10
19.8970686006
 20
54.6464050054
 11
19.8970686006
 21
64.4464050054
  0
LINE
  5
21F
100
AcDbEntity
  8
0
100
AcDbLine
 62
7
  6
CONTINUOUS
 10
20.2570686006
 20
64.9464050054
 11
20.2570686006
 21
64.4464050054
  0
LINE
  5
220
100
AcDbEntity
  8
0
100
AcDbLine
 62
7
  6
CONTINUOUS
 10
20.7970686006
 20
64.4464050054
 11
20.7970686006
 21
50.4464050054
  0
LINE
  5
221
100
AcDbEntity
  8
0
100
AcDbLine
 62
7
  6
CONTINUOUS
 10
19.5470686006
 20
50.4464050054
 11
18.6970686006
 21
51.2964050054
  0
LINE
  5
222
100
AcDbEntity
  8
0
100
AcDbLine
 62
7
  6
CONTINUOUS
 10
22.7570686006
 20
64.9464050054
 11
22.7570686006
 21
64.4464050054
  0
LINE
  5
223
100
AcDbEntity
  8
0
100
AcDbLine
 62
7
  6
CONTINUOUS
 10
23.2370686006
 20
64.4464050054
 11
23.2370686006
 21
64.9464050054
  0
LINE
  5
224
100
AcDbEntity
  8
0
100
AcDbLine
 62
7
  6
CONTINUOUS
 10
23.7970686006
 20
50.4464050054
 11
23.7970686006
 21
47.4464050054
  0
LINE
  5
225
100
AcDbEntity
  8
0
100
AcDbLine
 62
7
  6
CONTINUOUS
 10
23.9970686006
 20
47.4464050054
 11
23.9970686006
 21
48.2464050054
  0
LINE
  5
226
100
AcDbEntity
  8
0
100
AcDbLine
 62
7
  6
CONTINUOUS
 10
25.7370686006
 20
64.9464050054
 11
25.7370686006
 21
64.4464050054
  0
LINE
  5
227
100
AcDbEntity
  8
0
100
AcDbLine
 62
7
  6
CONTINUOUS
 10
28.9970686006
 20
48.2464050054
 11
28.9970686006
 21
49.4464050054
  0
LINE
  5
228
100
AcDbEntity
  8
0
100
AcDbLine
 62
7
  6
CONTINUOUS
 10
19.5970686006
 20
47.4464050054
 11
23.9970686006
 21
47.4464050054
  0
LINE
  5
229
100
AcDbEntity
  8
0
100
AcDbLine
 62
7
  6
CONTINUOUS
 10
33.3360922988
 20
64.4464050054
 11
33.3360922988
 21
50.4464050054
  0
LINE
  5
22A
100
AcDbEntity
  8
0
100
AcDbLine
 62
7
  6
CONTINUOUS
 10
33.3770686006
 20
49.4464050054
 11
33.3770686006
 21
50.4464050054
  0
LINE
  5
22B
100
AcDbEntity
  8
0
100
AcDbLine
 62
7
  6
CONTINUOUS
 10
23.9970686006
 20
48.2464050054
 11
28.9970686006
 21
48.2464050054
  0
LINE
  5
22C
100
AcDbEntity
  8
0
100
AcDbLine
 62
7
  6
CONTINUOUS
 10
63.2612548755
 20
48.8964050054
 11
66.5533918436
 21
48.8964050054
  0
LINE
  5
22D
100
AcDbEntity
  8
0
100
AcDbLine
 62
7
  6
CONTINUOUS
 10
66.8008958614
 20
48.8964050054
 11
70.8008958614
 21
48.8964050054
  0
LINE
  5
22E
100
AcDbEntity
  8
0
100
AcDbLine
 62
7
  6
CONTINUOUS
 10
17.1970686006
 20
49.4464050054
 11
19.5970686006
 21
49.4464050054
  0
LINE
  5
22F
100
AcDbEntity
  8
0
100
AcDbLine
 62
7
  6
CONTINUOUS
 10
28.9970686006
 20
49.4464050054
 11
63.4049381306
 21
49.4464050054
  0
LINE
  5
230
100
AcDbEntity
  8
0
100
AcDbLine
 62
7
  6
CONTINUOUS
 10
64.0012706271
 20
50.3464050054
 11
68.7023045368
 21
50.3464050054
  0
LINE
  5
231
100
AcDbEntity
  8
0
100
AcDbLine
 62
7
  6
CONTINUOUS
 10
17.6970686006
 20
50.4464050054
 11
17.1970686006
 21
50.4464050054
  0
LINE
  5
232
100
AcDbEntity
  8
0
100
AcDbLine
 62
7
  6
CONTINUOUS
 10
18.6970686006
 20
50.4464050054
 11
37.1371665326
 21
50.4464050054
  0
LINE
  5
233
100
AcDbEntity
  8
0
100
AcDbLine
 62
7
  6
CONTINUOUS
 10
17.1970686006
 20
51.2964050054
 11
17.6970686006
 21
51.2964050054
  0
LINE
  5
234
100
AcDbEntity
  8
0
100
AcDbLine
 62
7
  6
CONTINUOUS
 10
35.9680117255
 20
64.4464050054
 11
35.9680117255
 21
50.4464050054
  0
LINE
  5
235
100
AcDbEntity
  8
0
100
AcDbLine
 62
7
  6
CONTINUOUS
 10
36.0089880273
 20
50.4464050054
 11
36.0089880273
 21
49.4464050054
  0
LINE
  5
236
100
AcDbEntity
  8
0
100
AcDbLine
 62
7
  6
CONTINUOUS
 10
36.630784376
 20
57.7464050054
 11
36.630784376
 21
62.9464050054
  0
LINE
  5
237
100
AcDbEntity
  8
0
100
AcDbLine
 62
7
  6
CONTINUOUS
 10
37.1371665326
 20
57.7464050054
 11
37.1371665326
 21
49.4464050054
  0
LINE
  5
238
100
AcDbEntity
  8
0
100
AcDbLine
 62
7
  6
CONTINUOUS
 10
17.6970686006
 20
54.6464050054
 11
19.8970686006
 21
54.6464050054
  0
LINE
  5
239
100
AcDbEntity
  8
0
100
AcDbLine
 62
7
  6
CONTINUOUS
 10
61.3998932068
 20
55.7464050054
 11
54.2129238795
 21
55.7464050054
  0
LINE
  5
23A
100
AcDbEntity
  8
0
100
AcDbLine
 62
7
  6
CONTINUOUS
 10
18.6970686006
 20
56.1464050054
 11
8.3970686006
 21
56.1464050054
  0
LINE
  5
23B
100
AcDbEntity
  8
0
100
AcDbLine
 62
7
  6
CONTINUOUS
 10
49.5580375794
 20
56.4464050054
 11
53.4878181342
 21
56.4464050054
  0
LINE
  5
23C
100
AcDbEntity
  8
0
100
AcDbLine
 62
7
  6
CONTINUOUS
 10
61.3677155235
 20
56.9464050054
 11
61.7465084869
 21
56.9464050054
  0
LINE
  5
23D
100
AcDbEntity
  8
0
100
AcDbLine
 62
7
  6
CONTINUOUS
 10
52.3771154418
 20
57.4464050054
 11
49.5580375794
 21
57.4464050054
  0
LINE
  5
23E
100
AcDbEntity
  8
0
100
AcDbLine
 62
7
  6
CONTINUOUS
 10
36.630784376
 20
57.7464050054
 11
52.3656479582
 21
57.7464050054
  0
LINE
  5
23F
100
AcDbEntity
  8
0
100
AcDbLine
 62
7
  6
CONTINUOUS
 10
52.3656479582
 20
62.9464050054
 11
36.630784376
 21
62.9464050054
  0
LINE
  5
240
100
AcDbEntity
  8
0
100
AcDbLine
 62
7
  6
CONTINUOUS
 10
55.6080601838
 20
64.4464050054
 11
55.1443269176
 21
63.8464050054
  0
LINE
  5
241
100
AcDbEntity
  8
0
100
AcDbLine
 62
7
  6
CONTINUOUS
 10
64.0038414329
 20
63.5464050054
 11
70.2465090584
 21
63.5464050054
  0
LINE
  5
242
100
AcDbEntity
  8
0
100
AcDbLine
 62
7
  6
CONTINUOUS
 10
52.3771154418
 20
63.8464050054
 11
61.3677155235
 21
63.8464050054
  0
LINE
  5
243
100
AcDbEntity
  8
0
100
AcDbLine
 62
7
  6
CONTINUOUS
 10
8.3970686006
 20
64.4464050054
 11
65.8727735991
 21
64.4464050054
  0
LINE
  5
244
100
AcDbEntity
  8
0
100
AcDbLine
 62
7
  6
CONTINUOUS
 10
10.9970686006
 20
64.5964050054
 11
12.1970686006
 21
64.5964050054
  0
LINE
  5
245
100
AcDbEntity
  8
0
100
AcDbLine
 62
7
  6
CONTINUOUS
 10
20.2570686006
 20
64.9464050054
 11
25.7370686006
 21
64.9464050054
  0
LINE
  5
246
100
AcDbEntity
  8
0
100
AcDbLine
 62
7
  6
CONTINUOUS
 10
62.5592147719
 20
49.4464050054
 11
63.2612548755
 21
48.8964050054
  0
LINE
  5
247
100
AcDbEntity
  8
0
100
AcDbLine
 62
7
  6
CONTINUOUS
 10
49.5580375794
 20
56.4464050054
 11
49.5580375794
 21
57.4464050054
  0
LINE
  5
248
100
AcDbEntity
  8
0
100
AcDbLine
 62
7
  6
CONTINUOUS
 10
49.7290476511
 20
57.7464050054
 11
49.7290476511
 21
57.4464050054
  0
LINE
  5
249
100
AcDbEntity
  8
0
100
AcDbLine
 62
7
  6
CONTINUOUS
 10
64.1069782342
 20
48.8964050054
 11
63.4049381306
 21
49.4464050054
  0
LINE
  5
24A
100
AcDbEntity
  8
0
100
AcDbLine
 62
7
  6
CONTINUOUS
 10
51.7203367344
 20
57.7464050054
 11
51.7203367344
 21
62.9464050054
  0
LINE
  5
24B
100
AcDbEntity
  8
0
100
AcDbLine
 62
7
  6
CONTINUOUS
 10
52.3656479582
 20
57.7464050054
 11
52.3656479582
 21
62.9464050054
  0
LINE
  5
24C
100
AcDbEntity
  8
0
100
AcDbLine
 62
7
  6
CONTINUOUS
 10
52.3771154418
 20
57.4464050054
 11
52.3771154418
 21
63.8464050054
  0
LINE
  5
24D
100
AcDbEntity
  8
0
100
AcDbLine
 62
7
  6
CONTINUOUS
 10
52.8354942686
 20
63.8464050054
 11
52.8354942686
 21
64.4464050054
  0
LINE
  5
24E
100
AcDbEntity
  8
0
100
AcDbLine
 62
7
  6
CONTINUOUS
 10
53.3168080626
 20
63.8464050054
 11
53.3168080626
 21
56.4464050054
  0
LINE
  5
24F
100
AcDbEntity
  8
0
100
AcDbLine
 62
7
  6
CONTINUOUS
 10
53.4878181342
 20
49.4464050054
 11
53.4878181342
 21
56.4464050054
  0
LINE
  5
250
100
AcDbEntity
  8
0
100
AcDbLine
 62
7
  6
CONTINUOUS
 10
54.2129238795
 20
55.7464050054
 11
54.2129238795
 21
63.8464050054
  0
LINE
  5
251
100
AcDbEntity
  8
0
100
AcDbLine
 62
7
  6
CONTINUOUS
 10
61.0256953802
 20
55.7464050054
 11
61.0256953802
 21
63.8464050054
  0
LINE
  5
252
100
AcDbEntity
  8
0
100
AcDbLine
 62
7
  6
CONTINUOUS
 10
61.3677155235
 20
63.8464050054
 11
61.3677155235
 21
56.9464050054
  0
LINE
  5
253
100
AcDbEntity
  8
0
100
AcDbLine
 62
7
  6
CONTINUOUS
 10
66.8008958614
 20
48.8964050054
 11
66.5533918436
 21
49.5605407865
  0
LINE
  5
254
100
AcDbEntity
  8
0
100
AcDbLine
 62
7
  6
CONTINUOUS
 10
66.5533918436
 20
50.3464050054
 11
66.5533918436
 21
48.8964050054
  0
LINE
  5
255
100
AcDbEntity
  8
0
100
AcDbLine
 62
7
  6
CONTINUOUS
 10
65.8727735991
 20
64.4464050054
 11
65.9848102356
 21
63.5464050054
  0
LINE
  5
256
100
AcDbEntity
  8
0
100
AcDbLine
 62
7
  6
CONTINUOUS
 10
70.8008958614
 20
48.8964050054
 11
70.8008958614
 21
54.8193458675
  0
LINE
  5
257
100
AcDbEntity
  8
0
100
AcDbLine
 62
7
  6
CONTINUOUS
 10
70.2465090584
 20
63.5464050054
 11
70.9252514553
 21
58.0940085732
  0
SPLINE
  5
258
100
AcDbEntity
  8
0
100
AcDbSpline
 62
7
  6
CONTINUOUS
 70
0
 71
3
 72
20
 73
16
 74
0
 42
0.0000001
 43
0.0000001
 44
0.0000000001
 40
0.0
 40
0.0
 40
0.0
 40
0.0
 40
0.1746307104
 40
0.3433428164
 40
0.5005708175
 40
0.5733185035
 40
0.6414193096
 40
0.7044353401
 40
0.7620242127
 40
0.8139896579
 40
0.8603112979
 40
0.9012235582
 40
0.9373268756
 40
0.9697114311
 40
1.0
 40
1.0
 40
1.0
 40
1.0
 10
61.7439376812
 20
56.9464050054
 30
0.0
 10
61.7439376812
 20
56.51694905
 30
0.0
 10
61.7718971038
 20
55.6722859066
 30
0.0
 10
61.8968265321
 20
54.4466964626
 30
0.0
 10
62.0697352695
 20
53.480292075
 30
0.0
 10
62.248921017
 20
52.7692211968
 30
0.0
 10
62.3965208776
 20
52.2898215115
 30
0.0
 10
62.5592814561
 20
51.8548905584
 30
0.0
 10
62.7357582833
 20
51.4684765574
 30
0.0
 10
62.9242867872
 20
51.1340622226
 30
0.0
 10
63.1233526135
 20
50.8545931338
 30
0.0
 10
63.3315457704
 20
50.6324482183
 30
0.0
 10
63.5480430185
 20
50.4697751635
 30
0.0
 10
63.7719081809
 20
50.3695148015
 30
0.0
 10
63.9267842652
 20
50.3464050054
 30
0.0
 10
64.0012706271
 20
50.3464050054
 30
0.0
  0
SPLINE
  5
259
100
AcDbEntity
  8
0
100
AcDbSpline
 62
7
  6
CONTINUOUS
 70
0
 71
3
 72
18
 73
14
 74
0
 42
0.0000001
 43
0.0000001
 44
0.0000000001
 40
0.0
 40
0.0
 40
0.0
 40
0.0
 40
0.1644921349
 40
0.322438165
 40
0.4708575273
 40
0.607164398
 40
0.7291842861
 40
0.7843556161
 40
0.8354532399
 40
0.8824461527
 40
0.9253998089
 40
0.9644827397
 40
1.0
 40
1.0
 40
1.0
 40
1.0
 10
54.5871217061
 20
55.7464050054
 30
0.0
 10
54.6071250034
 20
55.3757069236
 30
0.0
 10
54.664826621
 20
54.6498957835
 30
0.0
 10
54.8067118945
 20
53.5961967686
 30
0.0
 10
54.9995969886
 20
52.6152067606
 30
0.0
 10
55.2390773619
 20
51.7282005558
 30
0.0
 10
55.4805364753
 20
51.0618228298
 30
0.0
 10
55.6961182626
 20
50.5935696802
 30
0.0
 10
55.8605084354
 20
50.2889288241
 30
0.0
 10
56.0321962963
 20
50.0204798712
 30
0.0
 10
56.2104069819
 20
49.789582353
 30
0.0
 10
56.3942659581
 20
49.5975666853
 30
0.0
 10
56.5258730545
 20
49.4914654306
 30
0.0
 10
56.5921666299
 20
49.4464050054
 30
0.0
  0
SPLINE
  5
25A
100
AcDbEntity
  8
0
100
AcDbSpline
 62
7
  6
CONTINUOUS
 70
0
 71
3
 72
18
 73
14
 74
0
 42
0.0000001
 43
0.0000001
 44
0.0000000001
 40
0.0
 40
0.0
 40
0.0
 40
0.0
 40
0.0355172603
 40
0.0746001911
 40
0.1175538473
 40
0.1645467601
 40
0.2156443839
 40
0.2708157139
 40
0.392835602
 40
0.5291424727
 40
0.677561835
 40
0.8355078651
 40
1.0
 40
1.0
 40
1.0
 40
1.0
 10
63.4049381306
 20
49.4464050054
 30
0.0
 10
63.3386445552
 20
49.4914654306
 30
0.0
 10
63.2070374588
 20
49.5975666853
 30
0.0
 10
63.0231784826
 20
49.789582353
 30
0.0
 10
62.844967797
 20
50.0204798712
 30
0.0
 10
62.6732799361
 20
50.2889288241
 30
0.0
 10
62.5088897633
 20
50.5935696802
 30
0.0
 10
62.2933079761
 20
51.0618228298
 30
0.0
 10
62.0518488626
 20
51.7282005558
 30
0.0
 10
61.8123684893
 20
52.6152067606
 30
0.0
 10
61.6194833952
 20
53.5961967686
 30
0.0
 10
61.4775981218
 20
54.6498957835
 30
0.0
 10
61.4198965041
 20
55.3757069236
 30
0.0
 10
61.3998932068
 20
55.7464050054
 30
0.0
  0
SPLINE
  5
25B
100
AcDbEntity
  8
0
100
AcDbSpline
 62
7
  6
CONTINUOUS
 70
0
 71
3
 72
20
 73
16
 74
0
 42
0.0000001
 43
0.0000001
 44
0.0000000001
 40
0.0
 40
0.0
 40
0.0
 40
0.0
 40
0.1682761697
 40
0.3351301741
 40
0.4936517755
 40
0.5677766925
 40
0.6374990995
 40
0.7022054447
 40
0.7613830634
 40
0.8146783185
 40
0.8619274166
 40
0.9032469707
 40
0.9391695061
 40
0.9708152604
 40
1.0
 40
1.0
 40
1.0
 40
1.0
 10
70.9252514553
 20
58.0940085732
 30
0.0
 10
70.9540766701
 20
57.6166921416
 30
0.0
 10
70.9750814108
 20
56.6635285695
 30
0.0
 10
70.9028417249
 20
55.2614296732
 30
0.0
 10
70.7565672622
 20
54.1341136097
 30
0.0
 10
70.5872403467
 20
53.2914254633
 30
0.0
 10
70.4409387142
 20
52.7168217284
 30
0.0
 10
70.2744041558
 20
52.1920904629
 30
0.0
 10
70.0894805805
 20
51.7232924251
 30
0.0
 10
69.8883836113
 20
51.3156909618
 30
0.0
 10
69.6731885787
 20
50.9737288476
 30
0.0
 10
69.4458848553
 20
50.7009198398
 30
0.0
 10
69.2075833893
 20
50.5001933787
 30
0.0
 10
68.9590669797
 20
50.3754958002
 30
0.0
 10
68.7852380529
 20
50.3464050054
 30
0.0
 10
68.7023045368
 20
50.3464050054
 30
0.0
  0
SPLINE
  5
25C
100
AcDbEntity
  8
0
100
AcDbSpline
 62
7
  6
CONTINUOUS
 70
0
 71
3
 72
18
 73
14
 74
0
 42
0.0000001
 43
0.0000001
 44
0.0000000001
 40
0.0
 40
0.0
 40
0.0
 40
0.0
 40
0.1613964914
 40
0.3188268572
 40
0.468396936
 40
0.6066269008
 40
0.7304873493
 40
0.7863104961
 40
0.8377705361
 40
0.884774446
 40
0.9273471241
 40
0.9656437457
 40
1.0
 40
1.0
 40
1.0
 40
1.0
 10
61.3702863293
 20
56.9464050054
 30
0.0
 10
61.3702863293
 20
57.3752180168
 30
0.0
 10
61.3943685563
 20
58.2225165429
 30
0.0
 10
61.5020415957
 20
59.4630360784
 30
0.0
 10
61.6780745271
 20
60.6337087075
 30
0.0
 10
61.9172556459
 20
61.7019690745
 30
0.0
 10
62.1715392045
 20
62.5090594919
 30
0.0
 10
62.4054429971
 20
63.0772681388
 30
0.0
 10
62.5859130848
 20
63.4457105026
 30
0.0
 10
62.7763095528
 20
63.7689541002
 30
0.0
 10
62.9755303087
 20
64.0449260488
 30
0.0
 10
63.1823489747
 20
64.2716324871
 30
0.0
 10
63.3320162143
 20
64.3950918255
 30
0.0
 10
63.4075089363
 20
64.4464050054
 30
0.0
  0
SPLINE
  5
25D
100
AcDbEntity
  8
0
100
AcDbSpline
 62
7
  6
CONTINUOUS
 70
0
 71
3
 72
20
 73
16
 74
0
 42
0.0000001
 43
0.0000001
 44
0.0000000001
 40
0.0
 40
0.0
 40
0.0
 40
0.0
 40
0.0302833767
 40
0.0626708184
 40
0.0987785292
 40
0.139688158
 40
0.1860112562
 40
0.2379742165
 40
0.2955667384
 40
0.3585788951
 40
0.4266821155
 40
0.4994282924
 40
0.65665386
 40
0.8253739828
 40
1.0
 40
1.0
 40
1.0
 40
1.0
 10
64.0038414329
 20
63.5464050054
 30
0.0
 10
63.9293679221
 20
63.5464050054
 30
0.0
 10
63.7745048604
 20
63.5232632822
 30
0.0
 10
63.5506181719
 20
63.4230459621
 30
0.0
 10
63.3341188432
 20
63.2603521645
 30
0.0
 10
63.1258976216
 20
63.0382234026
 30
0.0
 10
62.9268902615
 20
62.7587234684
 30
0.0
 10
62.7383029274
 20
62.4243373767
 30
0.0
 10
62.5618809769
 20
62.037904305
 30
0.0
 10
62.3990666616
 20
61.6029897152
 30
0.0
 10
62.2515162933
 20
61.1235817155
 30
0.0
 10
62.0722872518
 20
60.4125280378
 30
0.0
 10
61.8993949603
 20
59.4461088608
 30
0.0
 10
61.7744711182
 20
58.2205194513
 30
0.0
 10
61.7465084869
 20
57.3758489448
 30
0.0
 10
61.7465084869
 20
56.9464050054
 30
0.0
  0
SPLINE
  5
25E
100
AcDbEntity
  8
0
100
AcDbSpline
 62
7
  6
CONTINUOUS
 70
0
 71
3
 72
33
 73
29
 74
0
 42
0.0000001
 43
0.0000001
 44
0.0000000001
 40
0.0
 40
0.0
 40
0.0
 40
0.0
 40
0.0151416073
 40
0.0313351615
 40
0.0493889237
 40
0.0698437884
 40
0.0930055379
 40
0.1189869418
 40
0.1477826192
 40
0.1792884834
 40
0.2133407638
 40
0.2497139776
 40
0.3283277678
 40
0.412687862
 40
0.4999997586
 40
0.5873113077
 40
0.6716704686
 40
0.7502833293
 40
0.7866563441
 40
0.8207085808
 40
0.852214668
 40
0.8810107197
 40
0.9069925927
 40
0.9301547964
 40
0.950610093
 40
0.9686643511
 40
0.9848582707
 40
1.0
 40
1.0
 40
1.0
 40
1.0
 10
68.7023045368
 20
50.3464050054
 30
0.0
 10
68.6278314114
 20
50.3464050054
 30
0.0
 10
68.4729693901
 20
50.3695450052
 30
0.0
 10
68.2490837458
 20
50.4697608877
 30
0.0
 10
68.0325843156
 20
50.6324527576
 30
0.0
 10
67.8243611748
 20
50.8545810052
 30
0.0
 10
67.6253539917
 20
51.134082243
 30
0.0
 10
67.4367666797
 20
51.4684657078
 30
0.0
 10
67.2603439822
 20
51.8548938289
 30
0.0
 10
67.0975313239
 20
52.2898086355
 30
0.0
 10
66.9499839344
 20
52.7692203181
 30
0.0
 10
66.7707479017
 20
53.480282776
 30
0.0
 10
66.5978598031
 20
54.4466977528
 30
0.0
 10
66.472937224
 20
55.6723374491
 30
0.0
 10
66.4307550803
 20
56.9463993081
 30
0.0
 10
66.4729364115
 20
58.2204565813
 30
0.0
 10
66.5978565051
 20
59.4460855882
 30
0.0
 10
66.7707410111
 20
60.4124908236
 30
0.0
 10
66.9499726727
 20
61.1235484274
 30
0.0
 10
67.0975180201
 20
61.6029606309
 30
0.0
 10
67.2603291029
 20
62.0378789154
 30
0.0
 10
67.4367515487
 20
62.4243129461
 30
0.0
 10
67.6253397669
 20
62.7587031473
 30
0.0
 10
67.8243472203
 20
63.0382124264
 30
0.0
 10
68.0325733706
 20
63.2603471857
 30
0.0
 10
68.2490766662
 20
63.4230448438
 30
0.0
 10
68.4729666642
 20
63.5232626301
 30
0.0
 10
68.6278308113
 20
63.5464050054
 30
0.0
 10
68.7023045368
 20
63.5464050054
 30
0.0
  0
ENDSEC
  0
SECTION
  2
OBJECTS
  0
DICTIONARY
  5
C
100
AcDbDictionary
280
0
281
1
  3
ACAD_GROUP
350
D
  3
ACAD_MLINESTYLE
350
17
  3
ACAD_LAYOUT
350
1A
  3
ACAD_PLOTSETTINGS
350
19
  3
ACAD_PLOTSTYLENAME
350
E
  0
DICTIONARY
  5
D
102
{ACAD_REACTORS
330
C
102
}
100
AcDbDictionary
280
0
281
1
  0
ACDBDICTIONARYWDFLT
  5
E
102
{ACAD_REACTORS
330
C
102
}
100
AcDbDictionary
281
1
  3
Normal
350
F
100
AcDbDictionaryWithDefault
340
F
  0
DICTIONARY
  5
17
102
{ACAD_REACTORS
330
C
102
}
100
AcDbDictionary
280
0
281
1
  3
Standard
350
18
  0
DICTIONARY
  5
19
102
{ACAD_REACTORS
330
C
102
}
100
AcDbDictionary
281
1
  0
DICTIONARY
  5
1A
102
{ACAD_REACTORS
330
C
102
}
100
AcDbDictionary
281
1
  3
Model
350
25F
  3
Layout1
350
260
  0
ACDBPLACEHOLDER
  5
F
102
{ACAD_REACTORS
330
E
102
}
  0
MLINESTYLE
  5
18
102
{ACAD_REACTORS
330
17
102
}
100
AcDbMlineStyle
  2
STANDARD
 70
0
  3

 62
256
 51
90.0
 52
90.0
 71
2
 49
0.5
 62
256
  6
BYLAYER
 49
-0.5
 62
256
  6
BYLAYER
  0
LAYOUT
  5
25F
102
{ACAD_REACTORS
330
1A
102
}
100
AcDbPlotSettings
  1

  2
none_device
  4

  6

 40
0.0
 41
0.0
 42
0.0
 43
0.0
 44
210.0
 45
297.0
 46
0.0
 47
0.0
 48
0.0
 49
0.0
140
0.0
141
0.0
142
1.0
143
1.0
 70
1024
 72
1
 73
0
 74
0
  7

 75
0
147
1.0
148
0.0
149
0.0
100
AcDbLayout
  1
Model
 70
0
 71
0
 10
0.0
 20
0.0
 11
210.0
 21
297.0
 12
0.0
 22
0.0
 32
0.0
 14
0.0
 24
0.0
 34
0.0
 15
0.0
 25
0.0
 35
0.0
146
0.0
 13
0.0
 23
0.0
 33
0.0
 16
1.0
 26
0.0
 36
0.0
 17
0.0
 27
1.0
 37
0.0
 76
0
330
210
345
0
346
0
  0
LAYOUT
  5
260
102
{ACAD_REACTORS
330
1A
102
}
100
AcDbPlotSettings
  1

  2
none_device
  4

  6

 40
0.0
 41
0.0
 42
0.0
 43
0.0
 44
210.0
 45
297.0
 46
0.0
 47
0.0
 48
0.0
 49
0.0
140
0.0
141
0.0
142
1.0
143
1.0
 70
0
 72
1
 73
0
 74
0
  7

 75
0
147
1.0
148
0.0
149
0.0
100
AcDbLayout
  1
Layout1
 70
0
 71
1
 10
0.0
 20
0.0
 11
210.0
 21
297.0
 12
0.0
 22
0.0
 32
0.0
 14
0.0
 24
0.0
 34
0.0
 15
0.0
 25
0.0
 35
0.0
146
0.0
 13
0.0
 23
0.0
 33
0.0
 16
1.0
 26
0.0
 36
0.0
 17
0.0
 27
1.0
 37
0.0
 76
0
330
211
345
0
346
0
  0
ENDSEC
  0
EOF
