  0
SECTION
  2
HEADER
  9
$ACADVER
  1
AC1009
  9
$DWGCODEPAGE
  3
ansi_1250
  9
$INSBASE
 10
0.0
 20
0.0
 30
0.0
  9
$EXTMIN
 10
-1.811024
 20
-12.716535
 30
0.0
  9
$EXTMAX
 10
1.811024
 20
0.384774
 30
0.0
  9
$LIMMIN
 10
0.0
 20
0.0
  9
$LIMMAX
 10
0.0
 20
0.0
  9
$ORTHOMODE
 70
     0
  9
$REGENMODE
 70
     1
  9
$FILLMODE
 70
     1
  9
$QTEXTMODE
 70
     0
  9
$MIRRTEXT
 70
     1
  9
$DRAGMODE
 70
     2
  9
$LTSCALE
 40
1.0
  9
$OSMODE
 70
     0
  9
$ATTMODE
 70
     1
  9
$TEXTSIZE
 40
0.2
  9
$TRACEWID
 40
0.05
  9
$TEXTSTYLE
  7
STANDARD
  9
$CLAYER
  8
0
  9
$CELTYPE
  6
CONTINUOUS
  9
$CECOLOR
 62
   256
  9
$DIMSCALE
 40
1.0
  9
$DIMASZ
 40
0.18
  9
$DIMEXO
 40
0.0625
  9
$DIMDLI
 40
0.38
  9
$DIMRND
 40
0.0
  9
$DIMDLE
 40
0.0
  9
$DIMEXE
 40
0.18
  9
$DIMTP
 40
0.0
  9
$DIMTM
 40
0.0
  9
$DIMTXT
 40
0.18
  9
$DIMCEN
 40
0.09
  9
$DIMTSZ
 40
0.0
  9
$DIMTOL
 70
     0
  9
$DIMLIM
 70
     0
  9
$DIMTIH
 70
     1
  9
$DIMTOH
 70
     1
  9
$DIMSE1
 70
     0
  9
$DIMSE2
 70
     0
  9
$DIMTAD
 70
     0
  9
$DIMZIN
 70
     0
  9
$DIMBLK
  1

  9
$DIMASO
 70
     1
  9
$DIMSHO
 70
     1
  9
$DIMPOST
  1

  9
$DIMAPOST
  1

  9
$DIMALT
 70
     0
  9
$DIMALTD
 70
     2
  9
$DIMALTF
 40
25.4
  9
$DIMLFAC
 40
1.0
  9
$DIMTOFL
 70
     0
  9
$DIMTVP
 40
0.0
  9
$DIMTIX
 70
     0
  9
$DIMSOXD
 70
     0
  9
$DIMSAH
 70
     0
  9
$DIMBLK1
  1

  9
$DIMBLK2
  1

  9
$DIMSTYLE
  2
STANDARD
  9
$DIMCLRD
 70
     0
  9
$DIMCLRE
 70
     0
  9
$DIMCLRT
 70
     0
  9
$DIMTFAC
 40
1.0
  9
$DIMGAP
 40
0.09
  9
$LUNITS
 70
     2
  9
$LUPREC
 70
     4
  9
$AXISMODE
 70
     0
  9
$AXISUNIT
 10
0.0
 20
0.0
  9
$SKETCHINC
 40
0.1
  9
$FILLETRAD
 40
0.0
  9
$AUNITS
 70
     0
  9
$AUPREC
 70
     0
  9
$MENU
  1
acad
  9
$ELEVATION
 40
0.0
  9
$PELEVATION
 40
0.0
  9
$THICKNESS
 40
0.0
  9
$LIMCHECK
 70
     0
  9
$BLIPMODE
 70
     1
  9
$CHAMFERA
 40
0.0
  9
$CHAMFERB
 40
0.0
  9
$SKPOLY
 70
     0
  9
$TDCREATE
 40
0.000000000
  9
$TDUPDATE
 40
0.000000000
  9
$TDINDWG
 40
0.0000000000
  9
$TDUSRTIMER
 40
0.0000000000
  9
$USRTIMER
 70
     1
  9
$ANGBASE
 50
0.0
  9
$ANGDIR
 70
     0
  9
$PDMODE
 70
     0
  9
$PDSIZE
 40
0.0
  9
$PLINEWID
 40
0.0
  9
$COORDS
 70
     0
  9
$SPLFRAME
 70
     0
  9
$SPLINETYPE
 70
     6
  9
$SPLINESEGS
 70
     8
  9
$ATTDIA
 70
     0
  9
$ATTREQ
 70
     1
  9
$HANDLING
 70
     1
  9
$HANDSEED
  5
1F9
  9
$SURFTAB1
 70
     6
  9
$SURFTAB2
 70
     6
  9
$SURFTYPE
 70
     6
  9
$SURFU
 70
     6
  9
$SURFV
 70
     6
  9
$UCSNAME
  2

  9
$UCSORG
 10
0.0
 20
0.0
 30
0.0
  9
$UCSXDIR
 10
1.0
 20
0.0
 30
0.0
  9
$UCSYDIR
 10
0.0
 20
1.0
 30
0.0
  9
$PUCSNAME
  2

  9
$PUCSORG
 10
0.0
 20
0.0
 30
0.0
  9
$PUCSXDIR
 10
1.0
 20
0.0
 30
0.0
  9
$PUCSYDIR
 10
0.0
 20
1.0
 30
0.0
  9
$USERI1
 70
     0
  9
$USERI2
 70
     0
  9
$USERI3
 70
     0
  9
$USERI4
 70
     0
  9
$USERI5
 70
     0
  9
$USERR1
 40
0.0
  9
$USERR2
 40
0.0
  9
$USERR3
 40
0.0
  9
$USERR4
 40
0.0
  9
$USERR5
 40
0.0
  9
$WORLDVIEW
 70
     1
  9
$SHADEDGE
 70
     3
  9
$SHADEDIF
 70
    70
  9
$TILEMODE
 70
     1
  9
$MAXACTVP
 70
    16
  9
$PINSBASE
 10
0.0
 20
0.0
 30
0.0
  9
$PLIMCHECK
 70
     0
  9
$PEXTMIN
 10
1.000000E+20
 20
1.000000E+20
 30
1.000000E+20
  9
$PEXTMAX
 10
-1.000000E+20
 20
-1.000000E+20
 30
-1.000000E+20
  9
$PLIMMIN
 10
0.0
 20
0.0
  9
$PLIMMAX
 10
12.0
 20
9.0
  9
$UNITMODE
 70
     0
  9
$VISRETAIN
 70
     0
  9
$PLINEGEN
 70
     1
  9
$PSLTSCALE
 70
     0
  9
$TREEDEPTH
 70
  3020
  0
ENDSEC
  0
SECTION
  2
TABLES
  0
TABLE
  2
VPORT
 70
     1
  0
VPORT
  2
*ACTIVE
 70
     0
 10
0.0
 20
0.0
 11
1.0
 21
1.0
 12
6.591288
 22
4.579184
 13
0.0
 23
0.0
 14
1.0
 24
1.0
 15
0.0
 25
0.0
 16
0.0
 26
0.0
 36
1.0
 17
0.0
 27
0.0
 37
0.0
 40
9.158369
 41
0.688564
 42
50.0
 43
0.0
 44
0.0
 50
0.0
 51
0.0
 71
     0
 72
   100
 73
     1
 74
     1
 75
     0
 76
     0
 77
     0
 78
     0
  0
ENDTAB
  0
TABLE
  2
LTYPE
 70
     5
  0
LTYPE
  2
CONTINUOUS
 70
    64
  3
Solid line
 72
    65
 73
     0
 40
0.0
  0
LTYPE
  2
CENTER
 70
    64
  3
Center ____ _ ____ _ ____ _ ____ _ ____ _ ____
 72
    65
 73
     4
 40
50.8
 49
31.75
 49
-6.35
 49
6.35
 49
-6.35
  0
LTYPE
  2
HIDDEN
 70
    64
  3
Hidden __ __ __ __ __ __ __ __ __ __ __ __ __ __
 72
    65
 73
     2
 40
9.525
 49
6.35
 49
-3.175
  0
LTYPE
  2
CENTER2
 70
    64
  3
Center (.5x) ___ _ ___ _ ___ _ ___ _ ___ _ ___
 72
    65
 73
     4
 40
28.575
 49
19.05
 49
-3.175
 49
3.175
 49
-3.175
  0
LTYPE
  2
HIDDEN2
 70
    64
  3
Hidden (.5x) _ _ _ _ _ _ _ _ _ _ _ _ _ _ _ _ _
 72
    65
 73
     2
 40
4.7625
 49
3.175
 49
-1.5875
  0
ENDTAB
  0
TABLE
  2
LAYER
 70
     1
  0
LAYER
  2
0
 70
     0
 62
     7
  6
CONTINUOUS
  0
ENDTAB
  0
TABLE
  2
STYLE
 70
     1
  0
STYLE
  2
STANDARD
 70
     0
 40
0.0
 41
1.0
 50
0.0
 71
     0
 42
0.0
  3
txt
  4

  0
ENDTAB
  0
TABLE
  2
VIEW
 70
     0
  0
ENDTAB
  0
TABLE
  2
UCS
 70
     0
  0
ENDTAB
  0
TABLE
  2
APPID
 70
     1
  0
APPID
  2
ACAD
 70
     0
  0
ENDTAB
  0
TABLE
  2
DIMSTYLE
 70
     1
  0
DIMSTYLE
  2
STANDARD
 70
     0
  3

  4

  5

  6

  7

 40
1.0
 41
0.18
 42
0.0625
 43
0.38
 44
0.18
 45
0.0
 46
0.0
 47
0.0
 48
0.0
 71
     0
 72
     0
 73
     1
 74
     1
 75
     0
 76
     0
 77
     0
 78
     0
140
0.18
141
0.09
142
0.0
143
25.4
144
1.0
145
0.0
146
1.0
147
0.09
170
     0
171
     2
172
     0
173
     0
174
     0
175
     0
176
     0
177
     0
178
     0
  0
ENDTAB
  0
ENDSEC
  0
SECTION
  2
BLOCKS
  0
ENDSEC
  0
SECTION
  2
ENTITIES
  0
LINE
  8
0
  6
CONTINUOUS
 62
     7
  5
123
 10
0.901329
 20
-6.444882
 30
0.0
 11
0.901329
 21
-11.943725
 31
0.0
  0
LINE
  8
0
  6
CONTINUOUS
 62
     7
  5
124
 10
0.901329
 20
-6.444882
 30
0.0
 11
-0.901329
 21
-6.444882
 31
0.0
  0
LINE
  8
0
  6
CONTINUOUS
 62
     7
  5
125
 10
0.901329
 20
-11.943725
 30
0.0
 11
0.8977
 21
-11.964716
 31
0.0
  0
LINE
  8
0
  6
CONTINUOUS
 62
     7
  5
126
 10
0.8977
 20
-11.964716
 30
0.0
 11
0.886844
 21
-11.985538
 31
0.0
  0
LINE
  8
0
  6
CONTINUOUS
 62
     7
  5
127
 10
0.886844
 20
-11.985538
 30
0.0
 11
0.868847
 21
-12.006023
 31
0.0
  0
LINE
  8
0
  6
CONTINUOUS
 62
     7
  5
128
 10
0.868847
 20
-12.006023
 30
0.0
 11
0.843855
 21
-12.026007
 31
0.0
  0
LINE
  8
0
  6
CONTINUOUS
 62
     7
  5
129
 10
0.843855
 20
-12.026007
 30
0.0
 11
0.812069
 21
-12.045329
 31
0.0
  0
LINE
  8
0
  6
CONTINUOUS
 62
     7
  5
12A
 10
0.812069
 20
-12.045329
 30
0.0
 11
0.773745
 21
-12.063832
 31
0.0
  0
LINE
  8
0
  6
CONTINUOUS
 62
     7
  5
12B
 10
0.773745
 20
-12.063832
 30
0.0
 11
0.72919
 21
-12.081368
 31
0.0
  0
LINE
  8
0
  6
CONTINUOUS
 62
     7
  5
12C
 10
0.72919
 20
-12.081368
 30
0.0
 11
0.678765
 21
-12.097796
 31
0.0
  0
LINE
  8
0
  6
CONTINUOUS
 62
     7
  5
12D
 10
0.678765
 20
-12.097796
 30
0.0
 11
0.622875
 21
-12.112983
 31
0.0
  0
LINE
  8
0
  6
CONTINUOUS
 62
     7
  5
12E
 10
0.622875
 20
-12.112983
 30
0.0
 11
0.561969
 21
-12.126808
 31
0.0
  0
LINE
  8
0
  6
CONTINUOUS
 62
     7
  5
12F
 10
0.561969
 20
-12.126808
 30
0.0
 11
0.496539
 21
-12.139159
 31
0.0
  0
LINE
  8
0
  6
CONTINUOUS
 62
     7
  5
130
 10
0.496539
 20
-12.139159
 30
0.0
 11
0.427111
 21
-12.149936
 31
0.0
  0
LINE
  8
0
  6
CONTINUOUS
 62
     7
  5
131
 10
0.427111
 20
-12.149936
 30
0.0
 11
0.354245
 21
-12.159053
 31
0.0
  0
LINE
  8
0
  6
CONTINUOUS
 62
     7
  5
132
 10
0.354245
 20
-12.159053
 30
0.0
 11
0.278526
 21
-12.166436
 31
0.0
  0
LINE
  8
0
  6
CONTINUOUS
 62
     7
  5
133
 10
0.278526
 20
-12.166436
 30
0.0
 11
0.200565
 21
-12.172026
 31
0.0
  0
LINE
  8
0
  6
CONTINUOUS
 62
     7
  5
134
 10
0.200565
 20
-12.172026
 30
0.0
 11
0.120988
 21
-12.175778
 31
0.0
  0
LINE
  8
0
  6
CONTINUOUS
 62
     7
  5
135
 10
0.120988
 20
-12.175778
 30
0.0
 11
0.040438
 21
-12.177661
 31
0.0
  0
LINE
  8
0
  6
CONTINUOUS
 62
     7
  5
136
 10
0.040438
 20
-12.177661
 30
0.0
 11
-0.040438
 21
-12.177661
 31
0.0
  0
LINE
  8
0
  6
CONTINUOUS
 62
     7
  5
137
 10
-0.040438
 20
-12.177661
 30
0.0
 11
-0.120988
 21
-12.175778
 31
0.0
  0
LINE
  8
0
  6
CONTINUOUS
 62
     7
  5
138
 10
-0.120988
 20
-12.175778
 30
0.0
 11
-0.200565
 21
-12.172026
 31
0.0
  0
LINE
  8
0
  6
CONTINUOUS
 62
     7
  5
139
 10
-0.200565
 20
-12.172026
 30
0.0
 11
-0.278526
 21
-12.166436
 31
0.0
  0
LINE
  8
0
  6
CONTINUOUS
 62
     7
  5
13A
 10
-0.278526
 20
-12.166436
 30
0.0
 11
-0.354245
 21
-12.159053
 31
0.0
  0
LINE
  8
0
  6
CONTINUOUS
 62
     7
  5
13B
 10
-0.354245
 20
-12.159053
 30
0.0
 11
-0.427111
 21
-12.149936
 31
0.0
  0
LINE
  8
0
  6
CONTINUOUS
 62
     7
  5
13C
 10
-0.427111
 20
-12.149936
 30
0.0
 11
-0.496539
 21
-12.139159
 31
0.0
  0
LINE
  8
0
  6
CONTINUOUS
 62
     7
  5
13D
 10
-0.496539
 20
-12.139159
 30
0.0
 11
-0.561969
 21
-12.126808
 31
0.0
  0
LINE
  8
0
  6
CONTINUOUS
 62
     7
  5
13E
 10
-0.561969
 20
-12.126808
 30
0.0
 11
-0.622875
 21
-12.112983
 31
0.0
  0
LINE
  8
0
  6
CONTINUOUS
 62
     7
  5
13F
 10
-0.622875
 20
-12.112983
 30
0.0
 11
-0.678765
 21
-12.097796
 31
0.0
  0
LINE
  8
0
  6
CONTINUOUS
 62
     7
  5
140
 10
-0.678765
 20
-12.097796
 30
0.0
 11
-0.72919
 21
-12.081368
 31
0.0
  0
LINE
  8
0
  6
CONTINUOUS
 62
     7
  5
141
 10
-0.72919
 20
-12.081368
 30
0.0
 11
-0.773745
 21
-12.063832
 31
0.0
  0
LINE
  8
0
  6
CONTINUOUS
 62
     7
  5
142
 10
-0.773745
 20
-12.063832
 30
0.0
 11
-0.812069
 21
-12.045329
 31
0.0
  0
LINE
  8
0
  6
CONTINUOUS
 62
     7
  5
143
 10
-0.812069
 20
-12.045329
 30
0.0
 11
-0.843855
 21
-12.026007
 31
0.0
  0
LINE
  8
0
  6
CONTINUOUS
 62
     7
  5
144
 10
-0.843855
 20
-12.026007
 30
0.0
 11
-0.868847
 21
-12.006023
 31
0.0
  0
LINE
  8
0
  6
CONTINUOUS
 62
     7
  5
145
 10
-0.868847
 20
-12.006023
 30
0.0
 11
-0.886844
 21
-11.985538
 31
0.0
  0
LINE
  8
0
  6
CONTINUOUS
 62
     7
  5
146
 10
-0.886844
 20
-11.985538
 30
0.0
 11
-0.8977
 21
-11.964716
 31
0.0
  0
LINE
  8
0
  6
CONTINUOUS
 62
     7
  5
147
 10
-0.8977
 20
-11.964716
 30
0.0
 11
-0.901329
 21
-11.943725
 31
0.0
  0
LINE
  8
0
  6
CONTINUOUS
 62
     7
  5
148
 10
-0.901329
 20
-6.444882
 30
0.0
 11
-0.901329
 21
-11.943725
 31
0.0
  0
LINE
  8
0
  6
CONTINUOUS
 62
     7
  5
149
 10
-0.869291
 20
-12.563618
 30
0.0
 11
-0.869291
 21
-12.716535
 31
0.0
  0
LINE
  8
0
  6
CONTINUOUS
 62
     7
  5
14A
 10
0.869291
 20
-12.716535
 30
0.0
 11
-0.869291
 21
-12.716535
 31
0.0
  0
LINE
  8
0
  6
CONTINUOUS
 62
     7
  5
14B
 10
0.869291
 20
-12.563618
 30
0.0
 11
0.869291
 21
-12.716535
 31
0.0
  0
LINE
  8
0
  6
CONTINUOUS
 62
     7
  5
14C
 10
-0.700866
 20
-12.338946
 30
0.0
 11
-0.651969
 21
-12.60497
 31
0.0
  0
LINE
  8
0
  6
CONTINUOUS
 62
     7
  5
14D
 10
-1.086614
 20
-12.178335
 30
0.0
 11
-0.700866
 21
-12.338946
 31
0.0
  0
LINE
  8
0
  6
CONTINUOUS
 62
     7
  5
14E
 10
-1.086614
 20
-12.522266
 30
0.0
 11
-1.086614
 21
-12.178335
 31
0.0
  0
LINE
  8
0
  6
CONTINUOUS
 62
     7
  5
14F
 10
-0.651969
 20
-12.60497
 30
0.0
 11
-1.086614
 21
-12.522266
 31
0.0
  0
LINE
  8
0
  6
CONTINUOUS
 62
     7
  5
150
 10
0.651969
 20
-12.60497
 30
0.0
 11
-0.651969
 21
-12.60497
 31
0.0
  0
LINE
  8
0
  6
CONTINUOUS
 62
     7
  5
151
 10
0.651969
 20
-12.60497
 30
0.0
 11
0.700866
 21
-12.338946
 31
0.0
  0
LINE
  8
0
  6
CONTINUOUS
 62
     7
  5
152
 10
0.700866
 20
-12.338946
 30
0.0
 11
-0.700866
 21
-12.338946
 31
0.0
  0
LINE
  8
0
  6
CONTINUOUS
 62
     7
  5
153
 10
1.086614
 20
-12.522266
 30
0.0
 11
0.651969
 21
-12.60497
 31
0.0
  0
LINE
  8
0
  6
CONTINUOUS
 62
     7
  5
154
 10
1.086614
 20
-12.178335
 30
0.0
 11
1.086614
 21
-12.522266
 31
0.0
  0
LINE
  8
0
  6
CONTINUOUS
 62
     7
  5
155
 10
0.700866
 20
-12.338946
 30
0.0
 11
1.086614
 21
-12.178335
 31
0.0
  0
LINE
  8
0
  6
CONTINUOUS
 62
     7
  5
156
 10
-0.901329
 20
-11.537922
 30
0.0
 11
-1.086614
 21
-11.615068
 31
0.0
  0
LINE
  8
0
  6
CONTINUOUS
 62
     7
  5
157
 10
1.086614
 20
-11.615068
 30
0.0
 11
1.086614
 21
-12.178335
 31
0.0
  0
LINE
  8
0
  6
CONTINUOUS
 62
     7
  5
158
 10
1.086614
 20
-11.615068
 30
0.0
 11
0.901329
 21
-11.537922
 31
0.0
  0
LINE
  8
0
  6
CONTINUOUS
 62
     7
  5
159
 10
-1.086614
 20
-11.615068
 30
0.0
 11
-1.086614
 21
-12.178335
 31
0.0
  0
ARC
  8
0
  6
CONTINUOUS
 62
     7
  5
15A
 10
0.0
 20
-5.086614
 30
0.0
 40
1.358268
 50
180.0
 51
270.0
  0
LINE
  8
0
  6
CONTINUOUS
 62
     7
  5
15B
 10
-0.254331
 20
-3.102835
 30
0.0
 11
-0.254331
 21
-3.001102
 31
0.0
  0
LINE
  8
0
  6
CONTINUOUS
 62
     7
  5
15C
 10
0.254331
 20
-3.102835
 30
0.0
 11
-0.254331
 21
-3.102835
 31
0.0
  0
LINE
  8
0
  6
CONTINUOUS
 62
     7
  5
15D
 10
-0.254331
 20
-3.001102
 30
0.0
 11
0.254331
 21
-3.001102
 31
0.0
  0
LINE
  8
0
  6
CONTINUOUS
 62
     7
  5
15E
 10
0.254331
 20
-3.001102
 30
0.0
 11
0.254331
 21
-3.102835
 31
0.0
  0
LINE
  8
0
  6
CONTINUOUS
 62
     7
  5
15F
 10
-0.905512
 20
-0.820217
 30
0.0
 11
-0.905512
 21
-0.979173
 31
0.0
  0
LINE
  8
0
  6
CONTINUOUS
 62
     7
  5
160
 10
-0.905512
 20
-0.820217
 30
0.0
 11
0.905512
 21
-0.820217
 31
0.0
  0
LINE
  8
0
  6
CONTINUOUS
 62
     7
  5
161
 10
0.905512
 20
-0.979173
 30
0.0
 11
-0.905512
 21
-0.979173
 31
0.0
  0
LINE
  8
0
  6
CONTINUOUS
 62
     7
  5
162
 10
0.905512
 20
-0.820217
 30
0.0
 11
0.905512
 21
-0.979173
 31
0.0
  0
LINE
  8
0
  6
CONTINUOUS
 62
     7
  5
163
 10
1.267717
 20
0.0
 30
0.0
 11
-1.267717
 21
0.0
 31
0.0
  0
LINE
  8
0
  6
CONTINUOUS
 62
     7
  5
164
 10
-1.159055
 20
-0.979173
 30
0.0
 11
-0.905512
 21
-0.979173
 31
0.0
  0
ARC
  8
0
  6
CONTINUOUS
 62
     7
  5
165
 10
0.134469
 20
-6.064567
 30
0.0
 40
0.171142
 50
270.0
 51
90.0
  0
LINE
  8
0
  6
CONTINUOUS
 62
     7
  5
166
 10
0.134469
 20
-6.235709
 30
0.0
 11
-0.134469
 21
-6.235709
 31
0.0
  0
ARC
  8
0
  6
CONTINUOUS
 62
     7
  5
167
 10
-0.134469
 20
-6.064567
 30
0.0
 40
0.171142
 50
90.0
 51
270.0
  0
LINE
  8
0
  6
CONTINUOUS
 62
     7
  5
168
 10
-0.134469
 20
-5.893425
 30
0.0
 11
0.134469
 21
-5.893425
 31
0.0
  0
ARC
  8
0
  6
CONTINUOUS
 62
     7
  5
169
 10
-0.977953
 20
-5.221083
 30
0.0
 40
0.171142
 50
180.0
 51
0.0
  0
LINE
  8
0
  6
CONTINUOUS
 62
     7
  5
16A
 10
-1.149094
 20
-5.221083
 30
0.0
 11
-1.149094
 21
-4.952146
 31
0.0
  0
ARC
  8
0
  6
CONTINUOUS
 62
     7
  5
16B
 10
-0.977953
 20
-4.952146
 30
0.0
 40
0.171142
 50
0.0
 51
180.0
  0
LINE
  8
0
  6
CONTINUOUS
 62
     7
  5
16C
 10
-0.806811
 20
-4.952146
 30
0.0
 11
-0.806811
 21
-5.221083
 31
0.0
  0
ARC
  8
0
  6
CONTINUOUS
 62
     7
  5
16D
 10
-0.134469
 20
-4.108661
 30
0.0
 40
0.171142
 50
90.0
 51
270.0
  0
LINE
  8
0
  6
CONTINUOUS
 62
     7
  5
16E
 10
-0.134469
 20
-3.93752
 30
0.0
 11
0.134469
 21
-3.93752
 31
0.0
  0
ARC
  8
0
  6
CONTINUOUS
 62
     7
  5
16F
 10
0.134469
 20
-4.108661
 30
0.0
 40
0.171142
 50
270.0
 51
90.0
  0
LINE
  8
0
  6
CONTINUOUS
 62
     7
  5
170
 10
0.134469
 20
-4.279803
 30
0.0
 11
-0.134469
 21
-4.279803
 31
0.0
  0
ARC
  8
0
  6
CONTINUOUS
 62
     7
  5
171
 10
0.977953
 20
-4.952146
 30
0.0
 40
0.171142
 50
0.0
 51
180.0
  0
LINE
  8
0
  6
CONTINUOUS
 62
     7
  5
172
 10
1.149094
 20
-4.952146
 30
0.0
 11
1.149094
 21
-5.221083
 31
0.0
  0
ARC
  8
0
  6
CONTINUOUS
 62
     7
  5
173
 10
0.977953
 20
-5.221083
 30
0.0
 40
0.171142
 50
180.0
 51
0.0
  0
LINE
  8
0
  6
CONTINUOUS
 62
     7
  5
174
 10
0.806811
 20
-5.221083
 30
0.0
 11
0.806811
 21
-4.952146
 31
0.0
  0
LINE
  8
0
  6
CONTINUOUS
 62
     7
  5
175
 10
0.256713
 20
-4.939921
 30
0.0
 11
0.256713
 21
-5.233307
 31
0.0
  0
LINE
  8
0
  6
CONTINUOUS
 62
     7
  5
176
 10
0.256713
 20
-5.233307
 30
0.0
 11
-0.256713
 21
-5.233307
 31
0.0
  0
LINE
  8
0
  6
CONTINUOUS
 62
     7
  5
177
 10
-0.256713
 20
-4.939921
 30
0.0
 11
0.256713
 21
-4.939921
 31
0.0
  0
LINE
  8
0
  6
CONTINUOUS
 62
     7
  5
178
 10
-0.256713
 20
-5.233307
 30
0.0
 11
-0.256713
 21
-4.939921
 31
0.0
  0
CIRCLE
  8
0
  6
CONTINUOUS
 62
     7
  5
179
 10
0.0
 20
-5.086614
 30
0.0
 40
0.366732
  0
ARC
  8
0
  6
CONTINUOUS
 62
     7
  5
17A
 10
0.0
 20
-5.086614
 30
0.0
 40
0.733465
 50
337.5
 51
22.5
  0
ARC
  8
0
  6
CONTINUOUS
 62
     7
  5
17B
 10
0.0
 20
-5.086614
 30
0.0
 40
0.733465
 50
247.5
 51
292.5
  0
ARC
  8
0
  6
CONTINUOUS
 62
     7
  5
17C
 10
0.0
 20
-5.086614
 30
0.0
 40
0.733465
 50
67.5
 51
112.5
  0
ARC
  8
0
  6
CONTINUOUS
 62
     7
  5
17D
 10
0.0
 20
-5.086614
 30
0.0
 40
0.733465
 50
157.5
 51
202.5
  0
LINE
  8
0
  6
CONTINUOUS
 62
     7
  5
17E
 10
-0.677633
 20
-4.805929
 30
0.0
 11
-1.129388
 21
-4.618806
 31
0.0
  0
LINE
  8
0
  6
CONTINUOUS
 62
     7
  5
17F
 10
0.280685
 20
-4.408981
 30
0.0
 11
0.467808
 21
-3.957226
 31
0.0
  0
ARC
  8
0
  6
CONTINUOUS
 62
     7
  5
180
 10
0.0
 20
-5.086614
 30
0.0
 40
1.222441
 50
67.5
 51
112.5
  0
LINE
  8
0
  6
CONTINUOUS
 62
     7
  5
181
 10
-0.467808
 20
-3.957226
 30
0.0
 11
-0.280685
 21
-4.408981
 31
0.0
  0
LINE
  8
0
  6
CONTINUOUS
 62
     7
  5
182
 10
0.677633
 20
-5.367299
 30
0.0
 11
1.129388
 21
-5.554422
 31
0.0
  0
ARC
  8
0
  6
CONTINUOUS
 62
     7
  5
183
 10
0.0
 20
-5.086614
 30
0.0
 40
1.222441
 50
337.5
 51
22.5
  0
LINE
  8
0
  6
CONTINUOUS
 62
     7
  5
184
 10
1.129388
 20
-4.618806
 30
0.0
 11
0.677633
 21
-4.805929
 31
0.0
  0
LINE
  8
0
  6
CONTINUOUS
 62
     7
  5
185
 10
-0.280685
 20
-5.764247
 30
0.0
 11
-0.467808
 21
-6.216002
 31
0.0
  0
LINE
  8
0
  6
CONTINUOUS
 62
     7
  5
186
 10
-1.129388
 20
-5.554422
 30
0.0
 11
-0.677633
 21
-5.367299
 31
0.0
  0
ARC
  8
0
  6
CONTINUOUS
 62
     7
  5
187
 10
0.0
 20
-5.086614
 30
0.0
 40
1.222441
 50
202.5
 51
247.5
  0
ARC
  8
0
  6
CONTINUOUS
 62
     7
  5
188
 10
0.0
 20
-5.086614
 30
0.0
 40
1.222441
 50
157.5
 51
202.5
  0
ARC
  8
0
  6
CONTINUOUS
 62
     7
  5
189
 10
0.0
 20
-5.086614
 30
0.0
 40
1.222441
 50
112.5
 51
157.5
  0
ARC
  8
0
  6
CONTINUOUS
 62
     7
  5
18A
 10
0.0
 20
-5.086614
 30
0.0
 40
1.222441
 50
22.5
 51
67.5
  0
ARC
  8
0
  6
CONTINUOUS
 62
     7
  5
18B
 10
0.0
 20
-5.086614
 30
0.0
 40
1.222441
 50
292.5
 51
337.5
  0
ARC
  8
0
  6
CONTINUOUS
 62
     7
  5
18C
 10
0.0
 20
-5.086614
 30
0.0
 40
1.222441
 50
247.5
 51
292.5
  0
LINE
  8
0
  6
CONTINUOUS
 62
     7
  5
18D
 10
0.467808
 20
-6.216002
 30
0.0
 11
0.280685
 21
-5.764247
 31
0.0
  0
ARC
  8
0
  6
CONTINUOUS
 62
     7
  5
18E
 10
0.0
 20
-5.086614
 30
0.0
 40
1.358268
 50
270.0
 51
0.0
  0
LINE
  8
0
  6
CONTINUOUS
 62
     7
  5
18F
 10
1.811024
 20
-5.086614
 30
0.0
 11
1.358268
 21
-5.086614
 31
0.0
  0
LINE
  8
0
  6
CONTINUOUS
 62
     7
  5
190
 10
-1.358268
 20
-3.805055
 30
0.0
 11
-1.358268
 21
-5.086614
 31
0.0
  0
LINE
  8
0
  6
CONTINUOUS
 62
     7
  5
191
 10
1.358268
 20
-3.805055
 30
0.0
 11
1.358268
 21
-5.086614
 31
0.0
  0
LINE
  8
0
  6
CONTINUOUS
 62
     7
  5
192
 10
1.358268
 20
-4.500322
 30
0.0
 11
1.376622
 21
-4.521037
 31
0.0
  0
LINE
  8
0
  6
CONTINUOUS
 62
     7
  5
193
 10
1.376622
 20
-4.521037
 30
0.0
 11
1.39501
 21
-4.541814
 31
0.0
  0
LINE
  8
0
  6
CONTINUOUS
 62
     7
  5
194
 10
1.39501
 20
-4.541814
 30
0.0
 11
1.413396
 21
-4.562618
 31
0.0
  0
LINE
  8
0
  6
CONTINUOUS
 62
     7
  5
195
 10
1.413396
 20
-4.562618
 30
0.0
 11
1.431745
 21
-4.583411
 31
0.0
  0
LINE
  8
0
  6
CONTINUOUS
 62
     7
  5
196
 10
1.431745
 20
-4.583411
 30
0.0
 11
1.450018
 21
-4.604159
 31
0.0
  0
LINE
  8
0
  6
CONTINUOUS
 62
     7
  5
197
 10
1.450018
 20
-4.604159
 30
0.0
 11
1.468182
 21
-4.624827
 31
0.0
  0
LINE
  8
0
  6
CONTINUOUS
 62
     7
  5
198
 10
1.468182
 20
-4.624827
 30
0.0
 11
1.486201
 21
-4.645379
 31
0.0
  0
LINE
  8
0
  6
CONTINUOUS
 62
     7
  5
199
 10
1.486201
 20
-4.645379
 30
0.0
 11
1.50404
 21
-4.665783
 31
0.0
  0
LINE
  8
0
  6
CONTINUOUS
 62
     7
  5
19A
 10
1.50404
 20
-4.665783
 30
0.0
 11
1.521669
 21
-4.686008
 31
0.0
  0
LINE
  8
0
  6
CONTINUOUS
 62
     7
  5
19B
 10
1.521669
 20
-4.686008
 30
0.0
 11
1.539052
 21
-4.706021
 31
0.0
  0
LINE
  8
0
  6
CONTINUOUS
 62
     7
  5
19C
 10
1.539052
 20
-4.706021
 30
0.0
 11
1.556156
 21
-4.72579
 31
0.0
  0
LINE
  8
0
  6
CONTINUOUS
 62
     7
  5
19D
 10
1.556156
 20
-4.72579
 30
0.0
 11
1.572948
 21
-4.745282
 31
0.0
  0
LINE
  8
0
  6
CONTINUOUS
 62
     7
  5
19E
 10
1.572948
 20
-4.745282
 30
0.0
 11
1.589394
 21
-4.764465
 31
0.0
  0
LINE
  8
0
  6
CONTINUOUS
 62
     7
  5
19F
 10
1.589394
 20
-4.764465
 30
0.0
 11
1.605461
 21
-4.783307
 31
0.0
  0
LINE
  8
0
  6
CONTINUOUS
 62
     7
  5
1A0
 10
1.605461
 20
-4.783307
 30
0.0
 11
1.621116
 21
-4.801777
 31
0.0
  0
LINE
  8
0
  6
CONTINUOUS
 62
     7
  5
1A1
 10
1.621116
 20
-4.801777
 30
0.0
 11
1.636327
 21
-4.819846
 31
0.0
  0
LINE
  8
0
  6
CONTINUOUS
 62
     7
  5
1A2
 10
1.636327
 20
-4.819846
 30
0.0
 11
1.651065
 21
-4.837483
 31
0.0
  0
LINE
  8
0
  6
CONTINUOUS
 62
     7
  5
1A3
 10
1.651065
 20
-4.837483
 30
0.0
 11
1.665299
 21
-4.854662
 31
0.0
  0
LINE
  8
0
  6
CONTINUOUS
 62
     7
  5
1A4
 10
1.665299
 20
-4.854662
 30
0.0
 11
1.679008
 21
-4.871363
 31
0.0
  0
LINE
  8
0
  6
CONTINUOUS
 62
     7
  5
1A5
 10
1.679008
 20
-4.871363
 30
0.0
 11
1.692415
 21
-4.887873
 31
0.0
  0
LINE
  8
0
  6
CONTINUOUS
 62
     7
  5
1A6
 10
1.692415
 20
-4.887873
 30
0.0
 11
1.705567
 21
-4.904271
 31
0.0
  0
LINE
  8
0
  6
CONTINUOUS
 62
     7
  5
1A7
 10
1.705567
 20
-4.904271
 30
0.0
 11
1.718354
 21
-4.920448
 31
0.0
  0
LINE
  8
0
  6
CONTINUOUS
 62
     7
  5
1A8
 10
1.718354
 20
-4.920448
 30
0.0
 11
1.730671
 21
-4.936298
 31
0.0
  0
LINE
  8
0
  6
CONTINUOUS
 62
     7
  5
1A9
 10
1.730671
 20
-4.936298
 30
0.0
 11
1.742414
 21
-4.95172
 31
0.0
  0
LINE
  8
0
  6
CONTINUOUS
 62
     7
  5
1AA
 10
1.742414
 20
-4.95172
 30
0.0
 11
1.753487
 21
-4.966618
 31
0.0
  0
LINE
  8
0
  6
CONTINUOUS
 62
     7
  5
1AB
 10
1.753487
 20
-4.966618
 30
0.0
 11
1.763799
 21
-4.980903
 31
0.0
  0
LINE
  8
0
  6
CONTINUOUS
 62
     7
  5
1AC
 10
1.763799
 20
-4.980903
 30
0.0
 11
1.773267
 21
-4.994495
 31
0.0
  0
LINE
  8
0
  6
CONTINUOUS
 62
     7
  5
1AD
 10
1.773267
 20
-4.994495
 30
0.0
 11
1.781815
 21
-5.007323
 31
0.0
  0
LINE
  8
0
  6
CONTINUOUS
 62
     7
  5
1AE
 10
1.781815
 20
-5.007323
 30
0.0
 11
1.789375
 21
-5.019324
 31
0.0
  0
LINE
  8
0
  6
CONTINUOUS
 62
     7
  5
1AF
 10
1.789375
 20
-5.019324
 30
0.0
 11
1.795883
 21
-5.030438
 31
0.0
  0
LINE
  8
0
  6
CONTINUOUS
 62
     7
  5
1B0
 10
1.795883
 20
-5.030438
 30
0.0
 11
1.801282
 21
-5.040612
 31
0.0
  0
LINE
  8
0
  6
CONTINUOUS
 62
     7
  5
1B1
 10
1.801282
 20
-5.040612
 30
0.0
 11
1.805524
 21
-5.049799
 31
0.0
  0
LINE
  8
0
  6
CONTINUOUS
 62
     7
  5
1B2
 10
1.805524
 20
-5.049799
 30
0.0
 11
1.808575
 21
-5.057967
 31
0.0
  0
LINE
  8
0
  6
CONTINUOUS
 62
     7
  5
1B3
 10
1.808575
 20
-5.057967
 30
0.0
 11
1.810411
 21
-5.065094
 31
0.0
  0
LINE
  8
0
  6
CONTINUOUS
 62
     7
  5
1B4
 10
1.810411
 20
-5.065094
 30
0.0
 11
1.811024
 21
-5.071172
 31
0.0
  0
LINE
  8
0
  6
CONTINUOUS
 62
     7
  5
1B5
 10
1.811024
 20
-0.890157
 30
0.0
 11
1.811024
 21
-5.071172
 31
0.0
  0
LINE
  8
0
  6
CONTINUOUS
 62
     7
  5
1B6
 10
1.811024
 20
-5.071172
 30
0.0
 11
1.811024
 21
-5.086614
 31
0.0
  0
LINE
  8
0
  6
CONTINUOUS
 62
     7
  5
1B7
 10
-1.811024
 20
-5.071172
 30
0.0
 11
-1.810411
 21
-5.065094
 31
0.0
  0
LINE
  8
0
  6
CONTINUOUS
 62
     7
  5
1B8
 10
-1.810411
 20
-5.065094
 30
0.0
 11
-1.808575
 21
-5.057967
 31
0.0
  0
LINE
  8
0
  6
CONTINUOUS
 62
     7
  5
1B9
 10
-1.808575
 20
-5.057967
 30
0.0
 11
-1.805524
 21
-5.049799
 31
0.0
  0
LINE
  8
0
  6
CONTINUOUS
 62
     7
  5
1BA
 10
-1.805524
 20
-5.049799
 30
0.0
 11
-1.801282
 21
-5.040612
 31
0.0
  0
LINE
  8
0
  6
CONTINUOUS
 62
     7
  5
1BB
 10
-1.801282
 20
-5.040612
 30
0.0
 11
-1.795883
 21
-5.030438
 31
0.0
  0
LINE
  8
0
  6
CONTINUOUS
 62
     7
  5
1BC
 10
-1.795883
 20
-5.030438
 30
0.0
 11
-1.789375
 21
-5.019324
 31
0.0
  0
LINE
  8
0
  6
CONTINUOUS
 62
     7
  5
1BD
 10
-1.789375
 20
-5.019324
 30
0.0
 11
-1.781815
 21
-5.007323
 31
0.0
  0
LINE
  8
0
  6
CONTINUOUS
 62
     7
  5
1BE
 10
-1.781815
 20
-5.007323
 30
0.0
 11
-1.773267
 21
-4.994495
 31
0.0
  0
LINE
  8
0
  6
CONTINUOUS
 62
     7
  5
1BF
 10
-1.773267
 20
-4.994495
 30
0.0
 11
-1.763799
 21
-4.980903
 31
0.0
  0
LINE
  8
0
  6
CONTINUOUS
 62
     7
  5
1C0
 10
-1.763799
 20
-4.980903
 30
0.0
 11
-1.753487
 21
-4.966618
 31
0.0
  0
LINE
  8
0
  6
CONTINUOUS
 62
     7
  5
1C1
 10
-1.753487
 20
-4.966618
 30
0.0
 11
-1.742414
 21
-4.95172
 31
0.0
  0
LINE
  8
0
  6
CONTINUOUS
 62
     7
  5
1C2
 10
-1.742414
 20
-4.95172
 30
0.0
 11
-1.730671
 21
-4.936298
 31
0.0
  0
LINE
  8
0
  6
CONTINUOUS
 62
     7
  5
1C3
 10
-1.730671
 20
-4.936298
 30
0.0
 11
-1.718354
 21
-4.920448
 31
0.0
  0
LINE
  8
0
  6
CONTINUOUS
 62
     7
  5
1C4
 10
-1.718354
 20
-4.920448
 30
0.0
 11
-1.705567
 21
-4.904271
 31
0.0
  0
LINE
  8
0
  6
CONTINUOUS
 62
     7
  5
1C5
 10
-1.705567
 20
-4.904271
 30
0.0
 11
-1.692415
 21
-4.887873
 31
0.0
  0
LINE
  8
0
  6
CONTINUOUS
 62
     7
  5
1C6
 10
-1.692415
 20
-4.887873
 30
0.0
 11
-1.679008
 21
-4.871363
 31
0.0
  0
LINE
  8
0
  6
CONTINUOUS
 62
     7
  5
1C7
 10
-1.679008
 20
-4.871363
 30
0.0
 11
-1.665299
 21
-4.854662
 31
0.0
  0
LINE
  8
0
  6
CONTINUOUS
 62
     7
  5
1C8
 10
-1.665299
 20
-4.854662
 30
0.0
 11
-1.651065
 21
-4.837483
 31
0.0
  0
LINE
  8
0
  6
CONTINUOUS
 62
     7
  5
1C9
 10
-1.651065
 20
-4.837483
 30
0.0
 11
-1.636327
 21
-4.819846
 31
0.0
  0
LINE
  8
0
  6
CONTINUOUS
 62
     7
  5
1CA
 10
-1.636327
 20
-4.819846
 30
0.0
 11
-1.621116
 21
-4.801777
 31
0.0
  0
LINE
  8
0
  6
CONTINUOUS
 62
     7
  5
1CB
 10
-1.621116
 20
-4.801777
 30
0.0
 11
-1.605461
 21
-4.783307
 31
0.0
  0
LINE
  8
0
  6
CONTINUOUS
 62
     7
  5
1CC
 10
-1.605461
 20
-4.783307
 30
0.0
 11
-1.589394
 21
-4.764465
 31
0.0
  0
LINE
  8
0
  6
CONTINUOUS
 62
     7
  5
1CD
 10
-1.589394
 20
-4.764465
 30
0.0
 11
-1.572948
 21
-4.745282
 31
0.0
  0
LINE
  8
0
  6
CONTINUOUS
 62
     7
  5
1CE
 10
-1.572948
 20
-4.745282
 30
0.0
 11
-1.556156
 21
-4.72579
 31
0.0
  0
LINE
  8
0
  6
CONTINUOUS
 62
     7
  5
1CF
 10
-1.556156
 20
-4.72579
 30
0.0
 11
-1.539052
 21
-4.706021
 31
0.0
  0
LINE
  8
0
  6
CONTINUOUS
 62
     7
  5
1D0
 10
-1.539052
 20
-4.706021
 30
0.0
 11
-1.521669
 21
-4.686008
 31
0.0
  0
LINE
  8
0
  6
CONTINUOUS
 62
     7
  5
1D1
 10
-1.521669
 20
-4.686008
 30
0.0
 11
-1.50404
 21
-4.665783
 31
0.0
  0
LINE
  8
0
  6
CONTINUOUS
 62
     7
  5
1D2
 10
-1.50404
 20
-4.665783
 30
0.0
 11
-1.486201
 21
-4.645379
 31
0.0
  0
LINE
  8
0
  6
CONTINUOUS
 62
     7
  5
1D3
 10
-1.486201
 20
-4.645379
 30
0.0
 11
-1.468182
 21
-4.624827
 31
0.0
  0
LINE
  8
0
  6
CONTINUOUS
 62
     7
  5
1D4
 10
-1.468182
 20
-4.624827
 30
0.0
 11
-1.450018
 21
-4.604159
 31
0.0
  0
LINE
  8
0
  6
CONTINUOUS
 62
     7
  5
1D5
 10
-1.450018
 20
-4.604159
 30
0.0
 11
-1.431745
 21
-4.583411
 31
0.0
  0
LINE
  8
0
  6
CONTINUOUS
 62
     7
  5
1D6
 10
-1.431745
 20
-4.583411
 30
0.0
 11
-1.413396
 21
-4.562618
 31
0.0
  0
LINE
  8
0
  6
CONTINUOUS
 62
     7
  5
1D7
 10
-1.413396
 20
-4.562618
 30
0.0
 11
-1.39501
 21
-4.541814
 31
0.0
  0
LINE
  8
0
  6
CONTINUOUS
 62
     7
  5
1D8
 10
-1.39501
 20
-4.541814
 30
0.0
 11
-1.376622
 21
-4.521037
 31
0.0
  0
LINE
  8
0
  6
CONTINUOUS
 62
     7
  5
1D9
 10
-1.376622
 20
-4.521037
 30
0.0
 11
-1.358268
 21
-4.500322
 31
0.0
  0
LINE
  8
0
  6
CONTINUOUS
 62
     7
  5
1DA
 10
-1.811024
 20
-5.086614
 30
0.0
 11
-1.811024
 21
-5.071172
 31
0.0
  0
LINE
  8
0
  6
CONTINUOUS
 62
     7
  5
1DB
 10
-1.358268
 20
-5.086614
 30
0.0
 11
-1.811024
 21
-5.086614
 31
0.0
  0
LINE
  8
0
  6
CONTINUOUS
 62
     7
  5
1DC
 10
-1.811024
 20
-0.890157
 30
0.0
 11
-1.811024
 21
-5.071172
 31
0.0
  0
ARC
  8
0
  6
CONTINUOUS
 62
     7
  5
1DD
 10
-1.159055
 20
-3.594633
 30
0.0
 40
0.289764
 50
180.0
 51
292.845904
  0
CIRCLE
  8
0
  6
CONTINUOUS
 62
     7
  5
1DE
 10
-1.086614
 20
-1.398819
 30
0.0
 40
0.271654
  0
CIRCLE
  8
0
  6
CONTINUOUS
 62
     7
  5
1DF
 10
1.086614
 20
-1.398819
 30
0.0
 40
0.271654
  0
CIRCLE
  8
0
  6
CONTINUOUS
 62
     7
  5
1E0
 10
-1.086614
 20
-2.034646
 30
0.0
 40
0.271654
  0
CIRCLE
  8
0
  6
CONTINUOUS
 62
     7
  5
1E1
 10
1.086614
 20
-2.034646
 30
0.0
 40
0.271654
  0
CIRCLE
  8
0
  6
CONTINUOUS
 62
     7
  5
1E2
 10
-1.086614
 20
-2.670472
 30
0.0
 40
0.271654
  0
CIRCLE
  8
0
  6
CONTINUOUS
 62
     7
  5
1E3
 10
1.086614
 20
-2.670472
 30
0.0
 40
0.271654
  0
CIRCLE
  8
0
  6
CONTINUOUS
 62
     7
  5
1E4
 10
-1.086614
 20
-3.306299
 30
0.0
 40
0.271654
  0
CIRCLE
  8
0
  6
CONTINUOUS
 62
     7
  5
1E5
 10
1.086614
 20
-3.306299
 30
0.0
 40
0.271654
  0
ARC
  8
0
  6
CONTINUOUS
 62
     7
  5
1E6
 10
1.159055
 20
-1.268937
 30
0.0
 40
0.289764
 50
0.0
 51
90.0
  0
LINE
  8
0
  6
CONTINUOUS
 62
     7
  5
1E7
 10
0.905512
 20
-0.979173
 30
0.0
 11
1.159055
 21
-0.979173
 31
0.0
  0
ARC
  8
0
  6
CONTINUOUS
 62
     7
  5
1E8
 10
-1.159055
 20
-1.268937
 30
0.0
 40
0.289764
 50
90.0
 51
180.0
  0
LINE
  8
0
  6
CONTINUOUS
 62
     7
  5
1E9
 10
-1.448819
 20
-3.594633
 30
0.0
 11
-1.448819
 21
-1.268937
 31
0.0
  0
LINE
  8
0
  6
CONTINUOUS
 62
     7
  5
1EA
 10
1.448819
 20
-1.268937
 30
0.0
 11
1.448819
 21
-3.594633
 31
0.0
  0
ARC
  8
0
  6
CONTINUOUS
 62
     7
  5
1EB
 10
1.159055
 20
-3.594633
 30
0.0
 40
0.289764
 50
247.154096
 51
0.0
  0
LINE
  8
0
  6
CONTINUOUS
 62
     7
  5
1EC
 10
1.046553
 20
-3.861665
 30
0.0
 11
0.225004
 21
-3.515543
 31
0.0
  0
ARC
  8
0
  6
CONTINUOUS
 62
     7
  5
1ED
 10
0.0
 20
-4.049608
 30
0.0
 40
0.579528
 50
67.154096
 51
112.845904
  0
LINE
  8
0
  6
CONTINUOUS
 62
     7
  5
1EE
 10
-0.225004
 20
-3.515543
 30
0.0
 11
-1.046553
 21
-3.861665
 31
0.0
  0
ARC
  8
0
  6
CONTINUOUS
 62
     7
  5
1EF
 10
-0.536092
 20
-0.890157
 30
0.0
 40
1.274932
 50
135.717224
 51
180.0
  0
ARC
  8
0
  6
CONTINUOUS
 62
     7
  5
1F0
 10
0.536092
 20
-0.890157
 30
0.0
 40
1.274932
 50
0.0
 51
44.282776
  0
LINE
  8
0
  6
CONTINUOUS
 62
     7
  5
1F1
 10
-1.267717
 20
0.0
 30
0.0
 11
-1.448819
 21
0.0
 31
0.0
  0
LINE
  8
0
  6
CONTINUOUS
 62
     7
  5
1F2
 10
1.448819
 20
0.0
 30
0.0
 11
1.267717
 21
0.0
 31
0.0
  0
LINE
  8
0
  6
CONTINUOUS
 62
     7
  5
1F3
 10
-0.901329
 20
-6.102733
 30
0.0
 11
-0.901329
 21
-6.444882
 31
0.0
  0
LINE
  8
0
  6
CONTINUOUS
 62
     7
  5
1F4
 10
0.901329
 20
-6.444882
 30
0.0
 11
0.901329
 21
-6.102733
 31
0.0
  0
ARC
  8
0
  6
CONTINUOUS
 62
     7
  5
1F5
 10
-0.536092
 20
-0.890157
 30
0.0
 40
1.274932
 50
135.717224
 51
180.0
  0
ARC
  8
0
  6
CONTINUOUS
 62
     7
  5
1F6
 10
0.536092
 20
-0.890157
 30
0.0
 40
1.274932
 50
0.0
 51
44.282776
  0
ENDSEC
  0
EOF
