999
DXF file: C:\Users\sesa63760\Dev\_Creo\CAD\MCADPD0005304_3D-CAD\drw0001_1.dxf
999
Pro/ENGINEER 2019471 by Parametric Technology Corporation
  0
SECTION
  2
HEADER
  9
$ACADVER
  1
AC1024
  9
$DWGCODEPAGE
  3
ANSI_1252
  9
$EXTMAX
 10
110.2877256924
 20
155.9783549078
 30
0.0
  9
$EXTMIN
 10
0.0
 20
0.0
 30
0.0
  9
$LIMMIN
 10
0.0
 20
0.0
  9
$LIMMAX
 10
110.2877256924
 20
155.9783549078
  9
$VIEWCTR
 10
55.1438628462
 20
77.9891774539
  9
$VIEWSIZE
 40
155.9783549078
  9
$CLAYER
  8
0
  9
$LTSCALE
 40
10.1674779495
  9
$CELTYPE
  6
BYLAYER
  9
$DIMSCALE
 40
1.0
  9
$DIMASZ
 40
1.3129491154
  9
$DIMEXO
 40
1.0
  9
$DIMDLI
 40
7.024802947
  9
$DIMEXE
 40
1.0
  9
$DIMCEN
 40
1.663769119
  9
$DIMLFAC
 40
1.0
  9
$DIMBLK
  1
_FILLED
  9
$DIMALT
 70
0
  9
$DIMALTF
 40
0.0393700787
  9
$DIMTXT
 40
1.8381287615
  9
$DIMTOL
 70
1
  9
$DIMLIM
 70
0
  9
$DIMTFAC
 40
1.0
  9
$DIMTP
 40
0.01
  9
$DIMTM
 40
0.01
  9
$DIMGAP
 40
0.625
  9
$DIMDSEP
 70
46
  9
$AUNITS
 70
0
  9
$PDMODE
 70
3
  9
$PDSIZE
 40
0.3125
  9
$HANDSEED
  5
3A1
  9
$TILEMODE
 70
1
  9
$MEASUREMENT
 70
1
  9
$INSUNITS
 70
4
  0
ENDSEC
  0
SECTION
  2
CLASSES
  0
CLASS
  1
ACDBDICTIONARYWDFLT
  2
AcDbDictionaryWithDefault
  3
AutoCAD 2000
 90
0
 91
1
280
0
281
0
  0
CLASS
  1
ACDBPLACEHOLDER
  2
AcDbPlaceHolder
  3
AutoCAD 2000
 90
0
 91
1
280
0
281
0
  0
CLASS
  1
LAYOUT
  2
AcDbLayout
  3
AutoCAD 2000
 90
0
 91
0
280
0
281
0
  0
ENDSEC
  0
SECTION
  2
TABLES
  0
TABLE
  2
VPORT
  5
8
100
AcDbSymbolTable
 70
2
  0
VPORT
  5
1F4
100
AcDbSymbolTableRecord
100
AcDbViewportTableRecord
  2
*ACTIVE
 70
0
 10
0.0
 20
0.0
 11
1.0
 21
1.0
 12
55.1438628462
 22
77.9891774539
 13
0.0
 23
0.0
 14
1.0
 24
1.0
 15
0.0
 25
0.0
 16
0.0
 26
0.0
 36
1.0
 17
0.0
 27
0.0
 37
0.0
 40
155.9783549078
 41
0.7070707071
 42
50.0
 43
0.0
 44
0.0
 50
0.0
 51
0.0
 71
0
 72
100
 73
1
 74
1
 75
0
 76
0
 77
0
 78
0
  0
ENDTAB
  0
TABLE
  2
LTYPE
  5
5
100
AcDbSymbolTable
 70
6
  0
LTYPE
  5
14
100
AcDbSymbolTableRecord
100
AcDbLinetypeTableRecord
  2
BYBLOCK
 70
0
  3

 72
65
 73
0
 40
0.0
  0
LTYPE
  5
15
100
AcDbSymbolTableRecord
100
AcDbLinetypeTableRecord
  2
BYLAYER
 70
0
  3

 72
65
 73
0
 40
0.0
  0
LTYPE
  5
16
100
AcDbSymbolTableRecord
100
AcDbLinetypeTableRecord
  2
CONTINUOUS
 70
64
  3
Solid line
 72
65
 73
0
 40
0.0
  0
LTYPE
  5
1F5
100
AcDbSymbolTableRecord
100
AcDbLinetypeTableRecord
  2
CENTER
 70
64
  3
____ _ ____ _ ____ _ ____ _ ____ _ ____ _ ____
 72
65
 73
4
 40
0.6
 49
0.375
 74
0
 49
-0.075
 74
0
 49
0.075
 74
0
 49
-0.075
 74
0
  0
LTYPE
  5
1F6
100
AcDbSymbolTableRecord
100
AcDbLinetypeTableRecord
  2
HIDDEN
 70
64
  3
- - - - - - - - - - - - - - - - - - - -
 72
65
 73
2
 40
0.2
 49
0.1
 74
0
 49
-0.1
 74
0
  0
LTYPE
  5
1F7
100
AcDbSymbolTableRecord
100
AcDbLinetypeTableRecord
  2
PHANTOM
 70
64
  3
_____ _ _ _____ _ _ _____ _ _ _____
 72
65
 73
6
 40
0.8
 49
0.45
 74
0
 49
-0.05
 74
0
 49
0.1
 74
0
 49
-0.05
 74
0
 49
0.1
 74
0
 49
-0.05
 74
0
  0
LTYPE
  5
1F8
100
AcDbSymbolTableRecord
100
AcDbLinetypeTableRecord
  2
DOT
 70
64
  3
. . . . . . . . . . . . . . . . . . . .
 72
65
 73
2
 40
0.2
 49
0.1
 74
0
 49
-0.1
 74
0
  0
LTYPE
  5
1F9
100
AcDbSymbolTableRecord
100
AcDbLinetypeTableRecord
  2
DASHED
 70
64
  3
- - - - - - - - - - - - - - - - - - - -
 72
65
 73
2
 40
0.2
 49
0.1
 74
0
 49
-0.1
 74
0
  0
ENDTAB
  0
TABLE
  2
LAYER
  5
2
100
AcDbSymbolTable
 70
36
  0
LAYER
  5
10
100
AcDbSymbolTableRecord
100
AcDbLayerTableRecord
  2
0
 70
0
 62
7
  6
CONTINUOUS
370
-3
390
F
  0
LAYER
  5
1FA
100
AcDbSymbolTableRecord
100
AcDbLayerTableRecord
  2
DEFAULT_1
 70
0
 62
7
  6
CENTER
370
-3
390
F
  0
LAYER
  5
1FB
100
AcDbSymbolTableRecord
100
AcDbLayerTableRecord
  2
DEFAULT_2
 70
0
 62
7
  6
HIDDEN
370
-3
390
F
  0
LAYER
  5
1FC
100
AcDbSymbolTableRecord
100
AcDbLayerTableRecord
  2
DEFAULT_3
 70
0
 62
7
  6
PHANTOM
370
-3
390
F
  0
LAYER
  5
1FD
100
AcDbSymbolTableRecord
100
AcDbLayerTableRecord
  2
00_COMPONENTS
 70
0
 62
7
  6
CONTINUOUS
370
-3
390
F
  0
LAYER
  5
1FE
100
AcDbSymbolTableRecord
100
AcDbLayerTableRecord
  2
01_1_DEFAULT_DATUMS
 70
0
 62
7
  6
CONTINUOUS
370
-3
390
F
  0
LAYER
  5
1FF
100
AcDbSymbolTableRecord
100
AcDbLayerTableRecord
  2
01_PLANES
 70
0
 62
7
  6
CONTINUOUS
370
-3
390
F
  0
LAYER
  5
200
100
AcDbSymbolTableRecord
100
AcDbLayerTableRecord
  2
02_COORD_SYS
 70
0
 62
7
  6
CONTINUOUS
370
-3
390
F
  0
LAYER
  5
201
100
AcDbSymbolTableRecord
100
AcDbLayerTableRecord
  2
03_AXES
 70
0
 62
7
  6
CONTINUOUS
370
-3
390
F
  0
LAYER
  5
202
100
AcDbSymbolTableRecord
100
AcDbLayerTableRecord
  2
04_POINTS
 70
0
 62
7
  6
CONTINUOUS
370
-3
390
F
  0
LAYER
  5
203
100
AcDbSymbolTableRecord
100
AcDbLayerTableRecord
  2
05_CURVES
 70
0
 62
7
  6
CONTINUOUS
370
-3
390
F
  0
LAYER
  5
204
100
AcDbSymbolTableRecord
100
AcDbLayerTableRecord
  2
06_SURFS
 70
0
 62
7
  6
CONTINUOUS
370
-3
390
F
  0
LAYER
  5
205
100
AcDbSymbolTableRecord
100
AcDbLayerTableRecord
  2
07_COSMETICS
 70
0
 62
7
  6
CONTINUOUS
370
-3
390
F
  0
LAYER
  5
206
100
AcDbSymbolTableRecord
100
AcDbLayerTableRecord
  2
10_NOTES
 70
0
 62
7
  6
CONTINUOUS
370
-3
390
F
  0
LAYER
  5
207
100
AcDbSymbolTableRecord
100
AcDbLayerTableRecord
  2
11_NOTES_PUB
 70
0
 62
7
  6
CONTINUOUS
370
-3
390
F
  0
LAYER
  5
208
100
AcDbSymbolTableRecord
100
AcDbLayerTableRecord
  2
13_REF_GTOL
 70
0
 62
7
  6
CONTINUOUS
370
-3
390
F
  0
LAYER
  5
209
100
AcDbSymbolTableRecord
100
AcDbLayerTableRecord
  2
16_MISC
 70
0
 62
7
  6
CONTINUOUS
370
-3
390
F
  0
LAYER
  5
20A
100
AcDbSymbolTableRecord
100
AcDbLayerTableRecord
  2
17_NO_PRINT
 70
0
 62
7
  6
CONTINUOUS
370
-3
390
F
  0
LAYER
  5
20B
100
AcDbSymbolTableRecord
100
AcDbLayerTableRecord
  2
18_DATUM_CAMS_JOINTS
 70
0
 62
7
  6
CONTINUOUS
370
-3
390
F
  0
LAYER
  5
20C
100
AcDbSymbolTableRecord
100
AcDbLayerTableRecord
  2
19_DATUM_FUNCTIONAL
 70
0
 62
7
  6
CONTINUOUS
370
-3
390
F
  0
LAYER
  5
20D
100
AcDbSymbolTableRecord
100
AcDbLayerTableRecord
  2
20_DATUM_KINEMATIC_SCHEME
 70
0
 62
7
  6
CONTINUOUS
370
-3
390
F
  0
ENDTAB
  0
TABLE
  2
STYLE
  5
3
100
AcDbSymbolTable
 70
1
  0
STYLE
  5
11
100
AcDbSymbolTableRecord
100
AcDbTextStyleTableRecord
  2
STANDARD
 70
0
 40
0.0
 41
1.0
 50
0.0
 71
0
 42
0.2
  3
ARIAL.TTF
  4

  0
STYLE
  5
20E
100
AcDbSymbolTableRecord
100
AcDbTextStyleTableRecord
  2
TEXTSTYLE_1
 70
0
 40
0.0
 41
0.8
 50
0.0
 71
0
 42
0.2
  3
gdt
  4

  0
ENDTAB
  0
TABLE
  2
VIEW
  5
6
100
AcDbSymbolTable
 70
0
  0
ENDTAB
  0
TABLE
  2
UCS
  5
7
100
AcDbSymbolTable
 70
0
  0
ENDTAB
  0
TABLE
  2
APPID
  5
9
100
AcDbSymbolTable
 70
1
  0
APPID
  5
20F
100
AcDbSymbolTableRecord
100
AcDbRegAppTableRecord
  2
ACAD
 70
0
  0
ENDTAB
  0
TABLE
  2
BLOCK_RECORD
  5
1
100
AcDbSymbolTable
 70
0
  0
BLOCK_RECORD
  5
210
100
AcDbSymbolTableRecord
100
AcDbBlockTableRecord
  2
*Model_Space
  0
BLOCK_RECORD
  5
211
100
AcDbSymbolTableRecord
100
AcDbBlockTableRecord
  2
*Paper_Space
  0
BLOCK_RECORD
  5
212
100
AcDbSymbolTableRecord
100
AcDbBlockTableRecord
  2
_FILLED
  0
ENDTAB
  0
TABLE
  2
DIMSTYLE
  5
A
100
AcDbSymbolTable
 70
1
100
AcDbDimStyleTable
 71
0
  0
DIMSTYLE
105
213
100
AcDbSymbolTableRecord
100
AcDbDimStyleTableRecord
  2
STANDARD
 70
0
  3

  4

 40
1.0
 41
1.3129491154
 42
1.0
 43
0.38
 44
1.0
 45
0.0
 46
0.0
 47
0.01
 48
0.01
140
1.8381287615
141
0.09
142
0.0
143
25.4
144
1.0
145
0.0
146
1.0
147
0.625
 71
1
 72
0
 73
0
 74
0
 75
0
 76
0
 77
1
 78
8
 79
2
170
0
171
1
172
0
173
0
174
0
175
0
176
0
177
0
178
0
270
2
179
2
271
2
272
2
273
2
274
2
275
0
280
0
281
0
282
0
283
1
284
8
285
0
286
0
287
3
288
0
340
11
278
46
341
212
342
212
343
212
344
212
  0
ENDTAB
  0
ENDSEC
  0
SECTION
  2
BLOCKS
  0
BLOCK
  5
20
100
AcDbEntity
  8
0
100
AcDbBlockBegin
  2
*Model_Space
 70
0
 10
0.0
 20
0.0
 30
0.0
  3
*Model_Space
  1

  0
ENDBLK
  5
21
100
AcDbEntity
  8
0
100
AcDbBlockEnd
  0
BLOCK
  5
1C
100
AcDbEntity
  8
0
100
AcDbBlockBegin
  2
*Paper_Space
 70
0
 10
0.0
 20
0.0
 30
0.0
  3
*Paper_Space
  1

  0
ENDBLK
  5
1D
100
AcDbEntity
  8
0
100
AcDbBlockEnd
  0
BLOCK
  5
214
100
AcDbEntity
  8
0
100
AcDbBlockBegin
  2
_FILLED
 70
64
 10
0.0
 20
0.0
  3
_FILLED
  1

  0
SOLID
  5
215
100
AcDbEntity
  8
0
  6
BYBLOCK
 62
0
100
AcDbTrace
 10
0.0
 20
0.0
 11
-1.0
 21
0.25
 12
-1.0
 22
-0.25
 13
-1.0
 23
-0.25
  0
ENDBLK
  5
216
100
AcDbEntity
  8
0
  6
BYBLOCK
 62
0
100
AcDbBlockEnd
  0
ENDSEC
  0
SECTION
  2
ENTITIES
  0
LINE
  5
217
100
AcDbEntity
  8
0
100
AcDbLine
 62
7
  6
BYLAYER
 10
38.5349756438
 20
12.038597862
 11
30.7567686672
 21
16.5292461617
  0
LINE
  5
218
100
AcDbEntity
  8
0
100
AcDbLine
 62
7
  6
BYLAYER
 10
38.5349756438
 20
14.896356322
 11
30.7567686672
 21
19.3870046217
  0
LINE
  5
219
100
AcDbEntity
  8
0
100
AcDbLine
 62
7
  6
BYLAYER
 10
46.8532496168
 20
141.1124039702
 11
44.3519886051
 21
139.6683088719
  0
LINE
  5
21A
100
AcDbEntity
  8
0
100
AcDbLine
 62
7
  6
BYLAYER
 10
48.5986076713
 20
141.4668902515
 11
47.3736152236
 21
140.7596447538
  0
LINE
  5
21B
100
AcDbEntity
  8
0
100
AcDbLine
 62
7
  6
BYLAYER
 10
44.969462177
 20
139.3716146306
 11
43.7444697293
 21
138.6643691329
  0
LINE
  5
21C
100
AcDbEntity
  8
0
100
AcDbLine
 62
7
  6
BYLAYER
 10
44.0273136194
 20
138.501072831
 11
45.1108852996
 21
139.126669498
  0
LINE
  5
21D
100
AcDbEntity
  8
0
100
AcDbLine
 62
7
  6
BYLAYER
 10
47.7978798811
 20
140.6779972827
 11
48.8814515613
 21
141.3035939497
  0
LINE
  5
21E
100
AcDbEntity
  8
0
100
AcDbLine
 62
7
  6
BYLAYER
 10
42.3294000327
 20
136.2143783051
 11
42.6971677244
 21
136.4267078134
  0
LINE
  5
21F
100
AcDbEntity
  8
0
100
AcDbLine
 62
7
  6
BYLAYER
 10
34.5044190044
 20
21.5506986372
 11
36.6257393479
 21
21.5507037362
  0
LINE
  5
220
100
AcDbEntity
  8
0
100
AcDbLine
 62
7
  6
BYLAYER
 10
14.5589280046
 20
34.7282758256
 11
46.3081546637
 21
16.3982659476
  0
LINE
  5
221
100
AcDbEntity
  8
0
100
AcDbLine
 62
7
  6
BYLAYER
 10
14.3518156838
 20
35.1860619734
 11
46.1010423429
 21
16.8560520954
  0
LINE
  5
222
100
AcDbEntity
  8
0
100
AcDbLine
 62
7
  6
BYLAYER
 10
56.0004960639
 20
14.4064460783
 11
49.6363985645
 21
18.0806763606
  0
LINE
  5
223
100
AcDbEntity
  8
0
100
AcDbLine
 62
7
  6
BYLAYER
 10
42.3180053134
 20
25.4541748699
 11
39.3481444678
 21
27.1687860389
  0
LINE
  5
224
100
AcDbEntity
  8
0
100
AcDbLine
 62
7
  6
BYLAYER
 10
31.7113594362
 20
31.5777861877
 11
28.7414985906
 21
33.2923973567
  0
LINE
  5
225
100
AcDbEntity
  8
0
100
AcDbLine
 62
7
  6
BYLAYER
 10
21.104713559
 20
37.7013975055
 11
18.1348527134
 21
39.4160086745
  0
LINE
  5
226
100
AcDbEntity
  8
0
100
AcDbLine
 62
7
  6
BYLAYER
 10
18.1348527134
 20
44.4710976143
 11
21.104713559
 21
42.7564864453
  0
LINE
  5
227
100
AcDbEntity
  8
0
100
AcDbLine
 62
7
  6
BYLAYER
 10
28.7414985906
 20
38.3474862965
 11
31.7113594362
 21
36.6328751275
  0
LINE
  5
228
100
AcDbEntity
  8
0
100
AcDbLine
 62
7
  6
BYLAYER
 10
39.3481444678
 20
32.2238749787
 11
42.3180053134
 21
30.5092638097
  0
LINE
  5
229
100
AcDbEntity
  8
0
100
AcDbLine
 62
7
  6
BYLAYER
 10
14.3518156838
 20
35.1860619734
 11
14.3518156838
 21
59.2728832787
  0
LINE
  5
22A
100
AcDbEntity
  8
0
100
AcDbLine
 62
7
  6
BYLAYER
 10
14.8165976961
 20
100.9143923196
 11
14.8165976961
 21
97.4034319259
  0
LINE
  5
22B
100
AcDbEntity
  8
0
100
AcDbLine
 62
7
  6
BYLAYER
 10
46.8532496168
 20
141.1124039702
 11
46.9996839077
 21
141.3165243474
  0
LINE
  5
22C
100
AcDbEntity
  8
0
100
AcDbLine
 62
7
  6
BYLAYER
 10
34.2503222698
 20
113.1900264213
 11
15.9023804842
 21
102.5969005248
  0
LINE
  5
22D
100
AcDbEntity
  8
0
100
AcDbLine
 62
7
  6
BYLAYER
 10
15.6952861845
 20
96.1786994643
 11
15.6952861877
 21
99.6896598561
  0
LINE
  5
22E
100
AcDbEntity
  8
0
100
AcDbLine
 62
7
  6
BYLAYER
 10
18.1348527134
 20
39.4160086745
 11
18.1348527134
 21
44.4710976143
  0
LINE
  5
22F
100
AcDbEntity
  8
0
100
AcDbLine
 62
7
  6
BYLAYER
 10
19.0768080474
 20
77.88857269
 11
19.0768080474
 21
82.5426364676
  0
LINE
  5
230
100
AcDbEntity
  8
0
100
AcDbLine
 62
7
  6
BYLAYER
 10
34.1588126341
 20
112.7989972258
 11
16.4023782458
 21
102.5473762457
  0
LINE
  5
231
100
AcDbEntity
  8
0
100
AcDbLine
 62
7
  6
BYLAYER
 10
67.8444853373
 20
24.1022941156
 11
66.6070219346
 21
24.8167277816
  0
LINE
  5
232
100
AcDbEntity
  8
0
100
AcDbLine
 62
7
  6
BYLAYER
 10
46.1010423429
 20
40.9428734007
 11
14.3518156838
 21
59.2728832787
  0
LINE
  5
233
100
AcDbEntity
  8
0
100
AcDbLine
 62
7
  6
BYLAYER
 10
15.0589195211
 20
60.4976298497
 11
46.8081461802
 21
42.1676199718
  0
LINE
  5
234
100
AcDbEntity
  8
0
100
AcDbLine
 62
7
  6
BYLAYER
 10
24.3715161236
 20
58.3339217045
 11
24.4593784646
 21
58.2114484583
  0
LINE
  5
235
100
AcDbEntity
  8
0
100
AcDbLine
 62
7
  6
BYLAYER
 10
20.344010228
 20
81.1589449013
 11
20.344010228
 21
76.5048811236
  0
LINE
  5
236
100
AcDbEntity
  8
0
100
AcDbLine
 62
7
  6
BYLAYER
 10
21.104713559
 20
42.7564864453
 11
21.104713559
 21
37.7013975055
  0
LINE
  5
237
100
AcDbEntity
  8
0
100
AcDbLine
 62
7
  6
BYLAYER
 10
23.8123242242
 20
59.4977399488
 11
23.8123242242
 21
58.6567639945
  0
LINE
  5
238
100
AcDbEntity
  8
0
100
AcDbLine
 62
7
  6
BYLAYER
 10
24.2512694048
 20
74.968030472
 11
24.2512694048
 21
65.80480385
  0
LINE
  5
239
100
AcDbEntity
  8
0
100
AcDbLine
 62
7
  6
BYLAYER
 10
24.4593849724
 20
58.1174898531
 11
24.4593849724
 21
58.2114484583
  0
LINE
  5
23A
100
AcDbEntity
  8
0
100
AcDbLine
 62
7
  6
BYLAYER
 10
25.0998330759
 20
58.113679714
 11
25.0998330759
 21
58.754413183
  0
LINE
  5
23B
100
AcDbEntity
  8
0
100
AcDbLine
 62
7
  6
BYLAYER
 10
45.584807878
 20
46.0866990689
 11
44.2972990263
 21
46.8300258347
  0
LINE
  5
23C
100
AcDbEntity
  8
0
100
AcDbLine
 62
7
  6
BYLAYER
 10
34.9781620008
 20
52.2103103867
 11
33.6906531491
 21
52.9536371525
  0
LINE
  5
23D
100
AcDbEntity
  8
0
100
AcDbLine
 62
7
  6
BYLAYER
 10
24.3715161236
 20
58.3339217045
 11
23.0840072719
 21
59.0772484703
  0
LINE
  5
23E
100
AcDbEntity
  8
0
100
AcDbLine
 62
7
  6
BYLAYER
 10
23.8123242242
 20
59.4977399488
 11
25.0998330759
 21
58.754413183
  0
LINE
  5
23F
100
AcDbEntity
  8
0
100
AcDbLine
 62
7
  6
BYLAYER
 10
34.4189701014
 20
53.374128631
 11
35.7064789531
 21
52.6308018652
  0
LINE
  5
240
100
AcDbEntity
  8
0
100
AcDbLine
 62
7
  6
BYLAYER
 10
45.0256159786
 20
47.2505173132
 11
46.3131248303
 21
46.5071905474
  0
LINE
  5
241
100
AcDbEntity
  8
0
100
AcDbLine
 62
7
  6
BYLAYER
 10
34.9781620008
 20
52.2103103867
 11
35.0660243418
 21
52.0878371405
  0
LINE
  5
242
100
AcDbEntity
  8
0
100
AcDbLine
 62
7
  6
BYLAYER
 10
25.4839258248
 20
23.5510133145
 11
25.4839258248
 21
26.4087717744
  0
LINE
  5
243
100
AcDbEntity
  8
0
100
AcDbLine
 62
7
  6
BYLAYER
 10
25.5240971446
 20
58.7544142028
 11
25.5240971446
 21
58.1136807338
  0
LINE
  5
244
100
AcDbEntity
  8
0
100
AcDbLine
 62
7
  6
BYLAYER
 10
26.1645530791
 20
58.1174852569
 11
26.1645530791
 21
58.2114539993
  0
LINE
  5
245
100
AcDbEntity
  8
0
100
AcDbLine
 62
7
  6
BYLAYER
 10
27.2168589994
 20
58.8907419245
 11
27.2168589994
 21
59.7317248815
  0
LINE
  5
246
100
AcDbEntity
  8
0
100
AcDbLine
 62
7
  6
BYLAYER
 10
28.7414985906
 20
33.2923973567
 11
28.7414985906
 21
38.3474862965
  0
LINE
  5
247
100
AcDbEntity
  8
0
100
AcDbLine
 62
7
  6
BYLAYER
 10
83.2947041804
 20
30.1646704178
 11
79.4055334863
 21
32.410033368
  0
LINE
  5
248
100
AcDbEntity
  8
0
100
AcDbLine
 62
7
  6
BYLAYER
 10
56.0004960639
 20
47.4747939721
 11
24.2512694048
 21
65.80480385
  0
LINE
  5
249
100
AcDbEntity
  8
0
100
AcDbLine
 62
7
  6
BYLAYER
 10
83.2947041804
 20
33.0501692177
 11
81.9044844742
 21
33.8527947815
  0
LINE
  5
24A
100
AcDbEntity
  8
0
100
AcDbLine
 62
7
  6
BYLAYER
 10
45.584807878
 20
46.0866990689
 11
45.672670219
 21
45.9642258227
  0
LINE
  5
24B
100
AcDbEntity
  8
0
100
AcDbLine
 62
7
  6
BYLAYER
 10
30.7567686672
 20
19.3870046217
 11
30.7567686672
 21
16.5292461617
  0
LINE
  5
24C
100
AcDbEntity
  8
0
100
AcDbLine
 62
7
  6
BYLAYER
 10
31.7113594362
 20
36.6328751275
 11
31.7113594362
 21
31.5777861877
  0
LINE
  5
24D
100
AcDbEntity
  8
0
100
AcDbLine
 62
7
  6
BYLAYER
 10
32.3123647254
 20
24.4785562354
 11
32.3123647254
 21
21.9180502964
  0
LINE
  5
24E
100
AcDbEntity
  8
0
100
AcDbLine
 62
7
  6
BYLAYER
 10
33.5003638798
 20
101.7309865192
 11
33.5003638798
 21
108.4431553422
  0
LINE
  5
24F
100
AcDbEntity
  8
0
100
AcDbLine
 62
7
  6
BYLAYER
 10
34.1154795103
 20
22.9590728888
 11
34.1154795103
 21
23.4375509796
  0
LINE
  5
250
100
AcDbEntity
  8
0
100
AcDbLine
 62
7
  6
BYLAYER
 10
34.4189701014
 20
53.374128631
 11
34.4189701014
 21
52.5331526767
  0
LINE
  5
251
100
AcDbEntity
  8
0
100
AcDbLine
 62
7
  6
BYLAYER
 10
35.0660308496
 20
51.9938785353
 11
35.0660308496
 21
52.0878371405
  0
LINE
  5
252
100
AcDbEntity
  8
0
100
AcDbLine
 62
7
  6
BYLAYER
 10
35.7064789531
 20
51.9900683962
 11
35.7064789531
 21
52.6308018652
  0
LWPOLYLINE
  5
253
100
AcDbEntity
  8
0
100
AcDbPolyline
 62
7
  6
BYLAYER
 90
6
 70
0
 10
37.1013923755
 20
126.114029753
 10
36.6547081261
 20
122.45712158
 10
35.5223636831
 20
118.035944744
 10
34.8368167583
 20
115.6961719897
 10
33.6764245686
 20
110.7377080977
 10
33.5003666605
 20
108.4472924706
  0
LINE
  5
254
100
AcDbEntity
  8
0
100
AcDbLine
 62
7
  6
BYLAYER
 10
84.3553599362
 20
34.3696472839
 11
83.5775257974
 21
34.818719874
  0
LINE
  5
255
100
AcDbEntity
  8
0
100
AcDbLine
 62
7
  6
BYLAYER
 10
36.1307430218
 20
52.630802885
 11
36.1307430218
 21
51.990069416
  0
LINE
  5
256
100
AcDbEntity
  8
0
100
AcDbLine
 62
7
  6
BYLAYER
 10
36.7711989563
 20
51.9938739391
 11
36.7711989563
 21
52.0878426815
  0
LINE
  5
257
100
AcDbEntity
  8
0
100
AcDbLine
 62
7
  6
BYLAYER
 10
37.6725946724
 20
52.6800030798
 11
37.6725946724
 21
53.5209860368
  0
LINE
  5
258
100
AcDbEntity
  8
0
100
AcDbLine
 62
7
  6
BYLAYER
 10
38.5349756438
 20
14.896356322
 11
38.5349756438
 21
12.038597862
  0
LINE
  5
259
100
AcDbEntity
  8
0
100
AcDbLine
 62
7
  6
BYLAYER
 10
39.3481444678
 20
27.1687860389
 11
39.3481444678
 21
32.2238749787
  0
LINE
  5
25A
100
AcDbEntity
  8
0
100
AcDbLine
 62
7
  6
BYLAYER
 10
40.1258827344
 20
73.3780984622
 11
40.1258827344
 21
68.7240346846
  0
LINE
  5
25B
100
AcDbEntity
  8
0
100
AcDbLine
 62
7
  6
BYLAYER
 10
37.1014672338
 20
126.1142082061
 11
37.4379920478
 21
139.6921967135
  0
LINE
  5
25C
100
AcDbEntity
  8
0
100
AcDbLine
 62
7
  6
BYLAYER
 10
37.833974021
 20
125.104637646
 11
38.170623246
 21
138.6743761008
  0
LINE
  5
25D
100
AcDbEntity
  8
0
100
AcDbLine
 62
7
  6
BYLAYER
 10
42.3294000327
 20
136.2143783051
 11
42.331123552
 21
136.2723644203
  0
LINE
  5
25E
100
AcDbEntity
  8
0
100
AcDbLine
 62
7
  6
BYLAYER
 10
42.6122439227
 20
136.0510820033
 11
42.6139674421
 21
136.1090681185
  0
LINE
  5
25F
100
AcDbEntity
  8
0
100
AcDbLine
 62
7
  6
BYLAYER
 10
20.3438580015
 20
83.9262681542
 11
30.2010853668
 21
87.8039618634
  0
LINE
  5
260
100
AcDbEntity
  8
0
100
AcDbLine
 62
7
  6
BYLAYER
 10
40.1258827344
 20
68.7240346846
 11
53.6102590929
 21
57.3925129202
  0
LINE
  5
261
100
AcDbEntity
  8
0
100
AcDbLine
 62
7
  6
BYLAYER
 10
42.2826171491
 20
18.2847777001
 11
42.282625981
 21
14.2022918775
  0
LINE
  5
262
100
AcDbEntity
  8
0
100
AcDbLine
 62
7
  6
BYLAYER
 10
42.3180053134
 20
30.5092638097
 11
42.3180053134
 21
25.4541748699
  0
LINE
  5
263
100
AcDbEntity
  8
0
100
AcDbLine
 62
7
  6
BYLAYER
 10
43.0416755328
 20
142.2326533099
 11
43.0416755328
 21
141.8244021013
  0
LINE
  5
264
100
AcDbEntity
  8
0
100
AcDbLine
 62
7
  6
BYLAYER
 10
44.969462177
 20
139.0450193075
 11
44.969462177
 21
139.3716146306
  0
LINE
  5
265
100
AcDbEntity
  8
0
100
AcDbLine
 62
7
  6
BYLAYER
 10
45.0256159786
 20
47.2505173132
 11
45.0256159786
 21
46.4095413589
  0
LINE
  5
266
100
AcDbEntity
  8
0
100
AcDbLine
 62
7
  6
BYLAYER
 10
45.6726767268
 20
45.8702672175
 11
45.6726767268
 21
45.9642258227
  0
LINE
  5
267
100
AcDbEntity
  8
0
100
AcDbLine
 62
7
  6
BYLAYER
 10
46.1010423429
 20
40.9428734007
 11
46.1010423429
 21
16.8560520954
  0
LINE
  5
268
100
AcDbEntity
  8
0
100
AcDbLine
 62
7
  6
BYLAYER
 10
26.164559587
 20
58.2114539993
 11
26.2524201615
 21
58.3339262256
  0
LINE
  5
269
100
AcDbEntity
  8
0
100
AcDbLine
 62
7
  6
BYLAYER
 10
20.344010228
 20
76.5048811237
 11
40.1258827344
 21
68.7240346846
  0
LINE
  5
26A
100
AcDbEntity
  8
0
100
AcDbLine
 62
7
  6
BYLAYER
 10
40.1258827344
 20
73.3780984622
 11
20.344010228
 21
81.1589449013
  0
LINE
  5
26B
100
AcDbEntity
  8
0
100
AcDbLine
 62
7
  6
BYLAYER
 10
53.6102590929
 20
62.0465766978
 11
40.1258827344
 21
73.3780984622
  0
LINE
  5
26C
100
AcDbEntity
  8
0
100
AcDbLine
 62
7
  6
BYLAYER
 10
46.3131248303
 20
45.8664570784
 11
46.3131248303
 21
46.5071905474
  0
LINE
  5
26D
100
AcDbEntity
  8
0
100
AcDbLine
 62
7
  6
BYLAYER
 10
46.6466971337
 20
141.1841860299
 11
46.6466971337
 21
141.5924372385
  0
LINE
  5
26E
100
AcDbEntity
  8
0
100
AcDbLine
 62
7
  6
BYLAYER
 10
46.737388899
 20
46.5071915672
 11
46.737388899
 21
45.8664580982
  0
LINE
  5
26F
100
AcDbEntity
  8
0
100
AcDbLine
 62
7
  6
BYLAYER
 10
47.3778448335
 20
45.8702626213
 11
47.3778448335
 21
45.9642313637
  0
LINE
  5
270
100
AcDbEntity
  8
0
100
AcDbLine
 62
7
  6
BYLAYER
 10
47.7978798811
 20
140.5147009809
 11
47.7978798811
 21
140.6779972827
  0
LINE
  5
271
100
AcDbEntity
  8
0
100
AcDbLine
 62
7
  6
BYLAYER
 10
48.2792405496
 20
46.556391762
 11
48.2792405496
 21
47.397374719
  0
LINE
  5
272
100
AcDbEntity
  8
0
100
AcDbLine
 62
7
  6
BYLAYER
 10
15.0589195211
 20
60.4976298497
 11
24.2512694048
 21
65.80480385
  0
LINE
  5
273
100
AcDbEntity
  8
0
100
AcDbLine
 62
7
  6
BYLAYER
 10
53.8792113424
 20
74.1336987202
 11
15.6952861845
 21
96.1786994643
  0
LINE
  5
274
100
AcDbEntity
  8
0
100
AcDbLine
 62
7
  6
BYLAYER
 10
53.6102590928
 20
57.3925129202
 11
53.6102590928
 21
62.0465766979
  0
LINE
  5
275
100
AcDbEntity
  8
0
100
AcDbLine
 62
7
  6
BYLAYER
 10
53.8792113424
 20
74.1336987202
 11
53.879211339
 21
77.6446591158
  0
LINE
  5
276
100
AcDbEntity
  8
0
100
AcDbLine
 62
7
  6
BYLAYER
 10
56.0004960639
 20
56.6723097627
 11
56.0004960639
 21
47.4747939721
  0
LINE
  5
277
100
AcDbEntity
  8
0
100
AcDbLine
 62
7
  6
BYLAYER
 10
56.0004960639
 20
21.7549678325
 11
56.0004960639
 21
14.4064460783
  0
LINE
  5
278
100
AcDbEntity
  8
0
100
AcDbLine
 62
7
  6
BYLAYER
 10
36.7712054642
 20
52.0878426815
 11
36.8590660387
 21
52.2103149078
  0
LINE
  5
279
100
AcDbEntity
  8
0
100
AcDbLine
 62
7
  6
BYLAYER
 10
57.4147423043
 20
78.8694124836
 11
95.5983495139
 21
100.9145967926
  0
LWPOLYLINE
  5
27A
100
AcDbEntity
  8
0
100
AcDbPolyline
 62
7
  6
BYLAYER
 90
4
 70
0
 10
65.6535036907
 20
78.482084076
 10
67.6440075551
 20
79.0200963444
 10
72.5963294613
 20
81.8862526281
 10
73.5104930614
 20
83.0182919267
  0
LINE
  5
27B
100
AcDbEntity
  8
0
100
AcDbLine
 62
7
  6
BYLAYER
 10
53.879211339
 20
77.6446591158
 11
15.6952861877
 21
99.6896598561
  0
LINE
  5
27C
100
AcDbEntity
  8
0
100
AcDbLine
 62
7
  6
BYLAYER
 10
16.4023900217
 20
100.914406429
 11
54.5863151796
 21
78.8694056849
  0
LINE
  5
27D
100
AcDbEntity
  8
0
100
AcDbLine
 62
7
  6
BYLAYER
 10
58.1218520295
 20
74.1337089183
 11
58.1218520327
 21
77.6446693138
  0
LINE
  5
27E
100
AcDbEntity
  8
0
100
AcDbLine
 62
7
  6
BYLAYER
 10
58.3907642818
 20
62.0465881888
 11
58.3907642818
 21
57.3925244111
  0
LINE
  5
27F
100
AcDbEntity
  8
0
100
AcDbLine
 62
7
  6
BYLAYER
 10
59.3945944826
 20
20.6526557068
 11
59.3945944826
 21
16.3660180169
  0
LINE
  5
280
100
AcDbEntity
  8
0
100
AcDbLine
 62
7
  6
BYLAYER
 10
96.3054592357
 20
99.689853619
 11
58.1218520327
 21
77.6446693138
  0
LINE
  5
281
100
AcDbEntity
  8
0
100
AcDbLine
 62
7
  6
BYLAYER
 10
27.2168589994
 20
59.7317248815
 11
25.5240971446
 21
58.7544142028
  0
LINE
  5
282
100
AcDbEntity
  8
0
100
AcDbLine
 62
7
  6
BYLAYER
 10
26.2524201615
 20
58.3339262256
 11
27.9451820163
 21
59.3112369044
  0
LINE
  5
283
100
AcDbEntity
  8
0
100
AcDbLine
 62
7
  6
BYLAYER
 10
96.305459239
 20
96.1788932273
 11
58.1218520295
 21
74.1337089183
  0
LINE
  5
284
100
AcDbEntity
  8
0
100
AcDbLine
 62
7
  6
BYLAYER
 10
42.3950078227
 20
141.9567416699
 11
42.4165213839
 21
141.8723400349
  0
LINE
  5
285
100
AcDbEntity
  8
0
100
AcDbLine
 62
7
  6
BYLAYER
 10
66.6070197665
 20
126.7563653024
 11
66.6070197665
 21
126.8794475423
  0
LINE
  5
286
100
AcDbEntity
  8
0
100
AcDbLine
 62
7
  6
BYLAYER
 10
66.1492742191
 20
122.5212598455
 11
65.6815076921
 21
109.0272203045
  0
LINE
  5
287
100
AcDbEntity
  8
0
100
AcDbLine
 62
7
  6
BYLAYER
 10
91.6361572589
 20
81.1742271972
 11
71.8749772094
 21
73.3781747777
  0
LINE
  5
288
100
AcDbEntity
  8
0
100
AcDbLine
 62
7
  6
BYLAYER
 10
83.3300225727
 20
85.0947607478
 11
90.608083369
 21
84.1936741019
  0
LINE
  5
289
100
AcDbEntity
  8
0
100
AcDbLine
 62
7
  6
BYLAYER
 10
67.8444853373
 20
24.1022941156
 11
67.8444853373
 21
25.5311733456
  0
LINE
  5
28A
100
AcDbEntity
  8
0
100
AcDbLine
 62
7
  6
BYLAYER
 10
69.1525935805
 20
128.1065861741
 11
69.1525935805
 21
128.3491264962
  0
LINE
  5
28B
100
AcDbEntity
  8
0
100
AcDbLine
 62
7
  6
BYLAYER
 10
69.5090962898
 20
127.0975119765
 11
69.5090962898
 21
127.5734626039
  0
LINE
  5
28C
100
AcDbEntity
  8
0
100
AcDbLine
 62
7
  6
BYLAYER
 10
71.8749772094
 20
73.3781747777
 11
71.8749772094
 21
68.724111
  0
LINE
  5
28D
100
AcDbEntity
  8
0
100
AcDbLine
 62
7
  6
BYLAYER
 10
47.3778513414
 20
45.9642313637
 11
47.4657119159
 21
46.08670359
  0
LINE
  5
28E
100
AcDbEntity
  8
0
100
AcDbLine
 62
7
  6
BYLAYER
 10
71.8749772094
 20
73.3781747777
 11
58.3907642819
 21
62.0465881888
  0
LINE
  5
28F
100
AcDbEntity
  8
0
100
AcDbLine
 62
7
  6
BYLAYER
 10
36.1307430218
 20
52.630802885
 11
37.6725946724
 21
53.5209860368
  0
LINE
  5
290
100
AcDbEntity
  8
0
100
AcDbLine
 62
7
  6
BYLAYER
 10
38.4009176893
 20
53.1004980596
 11
36.8590660387
 21
52.2103149078
  0
LINE
  5
291
100
AcDbEntity
  8
0
100
AcDbLine
 62
7
  6
BYLAYER
 10
21.104713559
 20
41.1306483981
 11
18.1348527134
 21
39.4160086745
  0
LINE
  5
292
100
AcDbEntity
  8
0
100
AcDbLine
 62
7
  6
BYLAYER
 10
71.8749772094
 20
68.724111
 11
91.6361572589
 21
76.5201634196
  0
LINE
  5
293
100
AcDbEntity
  8
0
100
AcDbLine
 62
7
  6
BYLAYER
 10
96.9418082386
 20
71.1121304812
 11
89.2233553941
 21
75.5682804972
  0
LINE
  5
294
100
AcDbEntity
  8
0
100
AcDbLine
 62
7
  6
BYLAYER
 10
89.5713425756
 20
75.7055661401
 11
97.4417997551
 21
71.1616583658
  0
LINE
  5
295
100
AcDbEntity
  8
0
100
AcDbLine
 62
7
  6
BYLAYER
 10
49.4527647763
 20
99.1487851384
 11
37.1025628089
 21
106.2790162614
  0
LINE
  5
296
100
AcDbEntity
  8
0
100
AcDbLine
 62
7
  6
BYLAYER
 10
74.8991814542
 20
112.898553061
 11
74.5626798059
 21
125.934804458
  0
LINE
  5
297
100
AcDbEntity
  8
0
100
AcDbLine
 62
7
  6
BYLAYER
 10
75.9054690815
 20
30.389282304
 11
75.9054690815
 21
28.7562774698
  0
LINE
  5
298
100
AcDbEntity
  8
0
100
AcDbLine
 62
7
  6
BYLAYER
 10
58.3907642819
 20
57.3925244112
 11
71.8749772094
 21
68.724111
  0
LINE
  5
299
100
AcDbEntity
  8
0
100
AcDbLine
 62
7
  6
BYLAYER
 10
80.2185173919
 20
86.8911484618
 11
83.3300225727
 21
85.0947607478
  0
LINE
  5
29A
100
AcDbEntity
  8
0
100
AcDbLine
 62
7
  6
BYLAYER
 10
80.8548547132
 20
87.2585357925
 11
81.1026033867
 21
87.115501265
  0
LINE
  5
29B
100
AcDbEntity
  8
0
100
AcDbLine
 62
7
  6
BYLAYER
 10
42.4165213839
 20
141.8723400349
 11
43.5202819732
 21
139.7880288652
  0
LWPOLYLINE
  5
29C
100
AcDbEntity
  8
0
100
AcDbPolyline
 62
7
  6
BYLAYER
 90
3
 70
0
 10
78.5003635331
 20
108.4416710497
 10
78.4331277388
 20
109.3704085774
 10
77.0411464569
 20
113.0858395638
  0
LINE
  5
29D
100
AcDbEntity
  8
0
100
AcDbLine
 62
7
  6
BYLAYER
 10
78.5003638798
 20
101.7309865192
 11
78.5003638798
 21
108.4431497603
  0
LINE
  5
29E
100
AcDbEntity
  8
0
100
AcDbLine
 62
7
  6
BYLAYER
 10
46.737388899
 20
46.5071915672
 11
48.2792405496
 21
47.397374719
  0
LINE
  5
29F
100
AcDbEntity
  8
0
100
AcDbLine
 62
7
  6
BYLAYER
 10
87.7494583548
 20
70.1853795678
 11
88.4427385033
 21
70.5856426589
  0
LINE
  5
2A0
100
AcDbEntity
  8
0
100
AcDbLine
 62
7
  6
BYLAYER
 10
89.1710615202
 20
70.1651546817
 11
87.7494583548
 21
69.3443966108
  0
LINE
  5
2A1
100
AcDbEntity
  8
0
100
AcDbLine
 62
7
  6
BYLAYER
 10
49.0075635665
 20
46.9768867418
 11
47.4657119159
 21
46.08670359
  0
LINE
  5
2A2
100
AcDbEntity
  8
0
100
AcDbLine
 62
7
  6
BYLAYER
 10
31.7113594362
 20
35.0070370803
 11
28.7414985906
 21
33.2923973567
  0
LINE
  5
2A3
100
AcDbEntity
  8
0
100
AcDbLine
 62
7
  6
BYLAYER
 10
96.9418082386
 20
71.1121304812
 11
87.7494583548
 21
65.8049564809
  0
LINE
  5
2A4
100
AcDbEntity
  8
0
100
AcDbLine
 62
7
  6
BYLAYER
 10
46.8081461802
 20
42.1676199718
 11
56.0004960639
 21
47.4747939721
  0
LINE
  5
2A5
100
AcDbEntity
  8
0
100
AcDbLine
 62
7
  6
BYLAYER
 10
83.2947041804
 20
33.0501692177
 11
83.2947041804
 21
30.1646704178
  0
LINE
  5
2A6
100
AcDbEntity
  8
0
100
AcDbLine
 62
7
  6
BYLAYER
 10
84.3553599362
 20
34.3696472839
 11
84.3553599362
 21
35.2677999428
  0
LINE
  5
2A7
100
AcDbEntity
  8
0
100
AcDbLine
 62
7
  6
BYLAYER
 10
87.7494583548
 20
74.986808209
 11
87.7494583548
 21
65.8049564809
  0
LINE
  5
2A8
100
AcDbEntity
  8
0
100
AcDbLine
 62
7
  6
BYLAYER
 10
87.7494583548
 20
40.0851303413
 11
87.7494583548
 21
32.7366085872
  0
LINE
  5
2A9
100
AcDbEntity
  8
0
100
AcDbLine
 62
7
  6
BYLAYER
 10
37.833974021
 20
125.104637646
 11
65.6815076921
 21
109.0272203045
  0
LINE
  5
2AA
100
AcDbEntity
  8
0
100
AcDbLine
 62
7
  6
BYLAYER
 10
46.9996839077
 20
141.3165243474
 11
46.8532466728
 21
141.5206464244
  0
LINE
  5
2AB
100
AcDbEntity
  8
0
100
AcDbLine
 62
7
  6
BYLAYER
 10
88.4427385033
 20
69.7446597019
 11
88.4427385033
 21
70.5856426589
  0
LINE
  5
2AC
100
AcDbEntity
  8
0
100
AcDbLine
 62
7
  6
BYLAYER
 10
91.636157259
 20
76.5201634196
 11
91.636157259
 21
81.1742271972
  0
LINE
  5
2AD
100
AcDbEntity
  8
0
100
AcDbLine
 62
7
  6
BYLAYER
 10
92.9000147972
 20
77.9025374559
 11
92.9000147972
 21
82.5566012335
  0
LINE
  5
2AE
100
AcDbEntity
  8
0
100
AcDbLine
 62
7
  6
BYLAYER
 10
42.3180053134
 20
28.8834257625
 11
39.3481444678
 21
27.1687860389
  0
LINE
  5
2AF
100
AcDbEntity
  8
0
100
AcDbLine
 62
7
  6
BYLAYER
 10
34.1154795103
 20
22.9590728888
 11
32.3123647254
 21
21.9180502964
  0
LWPOLYLINE
  5
2B0
100
AcDbEntity
  8
0
100
AcDbPolyline
 62
7
  6
BYLAYER
 90
4
 70
0
 10
75.8348879656
 20
109.2347696789
 10
75.7757123117
 20
109.3070876157
 10
75.2452195302
 20
110.4677369421
 10
74.8992712083
 20
112.8981549821
  0
LINE
  5
2B1
100
AcDbEntity
  8
0
100
AcDbLine
 62
7
  6
BYLAYER
 10
74.8814400202
 20
113.8673601226
 11
74.8981649508
 21
113.8396060864
  0
LINE
  5
2B2
100
AcDbEntity
  8
0
100
AcDbLine
 62
7
  6
BYLAYER
 10
77.0411221721
 20
113.0858799534
 11
77.041770753
 21
113.0848002621
  0
LINE
  5
2B3
100
AcDbEntity
  8
0
100
AcDbLine
 62
7
  6
BYLAYER
 10
96.305459239
 20
96.1788932273
 11
96.3054592357
 21
99.689853619
  0
LINE
  5
2B4
100
AcDbEntity
  8
0
100
AcDbLine
 62
7
  6
BYLAYER
 10
97.1841300636
 20
100.9145758845
 11
97.1841300636
 21
97.4036154909
  0
LINE
  5
2B5
100
AcDbEntity
  8
0
100
AcDbLine
 62
7
  6
BYLAYER
 10
97.6489120758
 20
46.6170509127
 11
97.6489120758
 21
70.703872218
  0
LINE
  5
2B6
100
AcDbEntity
  8
0
100
AcDbLine
 62
7
  6
BYLAYER
 10
30.7567686672
 20
19.3870046217
 11
34.5044190044
 21
21.5506986372
  0
LINE
  5
2B7
100
AcDbEntity
  8
0
100
AcDbLine
 62
7
  6
BYLAYER
 10
36.6257393479
 20
21.5507037362
 11
37.0047008867
 21
21.7694959767
  0
LINE
  5
2B8
100
AcDbEntity
  8
0
100
AcDbLine
 62
7
  6
BYLAYER
 10
74.8745381749
 20
113.8532467032
 11
74.8981649508
 21
113.8396060864
  0
LINE
  5
2B9
100
AcDbEntity
  8
0
100
AcDbLine
 62
7
  6
BYLAYER
 10
95.598337738
 20
102.5475666094
 11
77.117096717
 21
113.2174747023
  0
LINE
  5
2BA
100
AcDbEntity
  8
0
100
AcDbLine
 62
7
  6
BYLAYER
 10
96.0983292545
 20
102.597094494
 11
76.0883592762
 21
114.149594695
  0
LINE
  5
2BB
100
AcDbEntity
  8
0
100
AcDbLine
 62
7
  6
BYLAYER
 10
74.8742115019
 20
113.8659021884
 11
74.8981649508
 21
113.8396060864
  0
LINE
  5
2BC
100
AcDbEntity
  8
0
100
AcDbLine
 62
7
  6
BYLAYER
 10
77.041770753
 20
113.0848002621
 11
74.8306303589
 21
115.5542586641
  0
LINE
  5
2BD
100
AcDbEntity
  8
0
100
AcDbLine
 62
7
  6
BYLAYER
 10
42.6615786879
 20
18.5035699405
 11
42.2826171491
 21
18.2847777001
  0
LINE
  5
2BE
100
AcDbEntity
  8
0
100
AcDbLine
 62
7
  6
BYLAYER
 10
42.282625981
 20
17.0600503375
 11
38.5349756438
 21
14.896356322
  0
LINE
  5
2BF
100
AcDbEntity
  8
0
100
AcDbLine
 62
7
  6
BYLAYER
 10
42.2826171491
 20
15.4270192401
 11
45.1365054933
 21
17.0747026085
  0
LINE
  5
2C0
100
AcDbEntity
  8
0
100
AcDbLine
 62
7
  6
BYLAYER
 10
42.3294000327
 20
136.2143783051
 11
42.6122439227
 21
136.0510820033
  0
LINE
  5
2C1
100
AcDbEntity
  8
0
100
AcDbLine
 62
7
  6
BYLAYER
 10
66.1492742191
 20
122.5212598455
 11
42.6139674421
 21
136.1090681185
  0
LINE
  5
2C2
100
AcDbEntity
  8
0
100
AcDbLine
 62
7
  6
BYLAYER
 10
42.331123552
 20
136.2723644203
 11
38.170623246
 21
138.6743761008
  0
LINE
  5
2C3
100
AcDbEntity
  8
0
100
AcDbLine
 62
7
  6
BYLAYER
 10
39.5839305338
 20
141.0664032161
 11
43.7444697293
 21
138.6643691329
  0
LINE
  5
2C4
100
AcDbEntity
  8
0
100
AcDbLine
 62
7
  6
BYLAYER
 10
44.0273136194
 20
138.501072831
 11
67.562669384
 21
124.9132362428
  0
LINE
  5
2C5
100
AcDbEntity
  8
0
100
AcDbLine
 62
7
  6
BYLAYER
 10
66.4655989991
 20
126.7977987115
 11
45.1108852996
 21
139.126669498
  0
LINE
  5
2C6
100
AcDbEntity
  8
0
100
AcDbLine
 62
7
  6
BYLAYER
 10
44.969462177
 20
139.3716146306
 11
66.6070197665
 21
126.8794475423
  0
LINE
  5
2C7
100
AcDbEntity
  8
0
100
AcDbLine
 62
7
  6
BYLAYER
 10
83.2947041804
 20
33.0501692177
 11
84.3553599362
 21
34.3696472839
  0
LINE
  5
2C8
100
AcDbEntity
  8
0
100
AcDbLine
 62
7
  6
BYLAYER
 10
42.282625981
 20
14.2022918775
 11
38.5349756438
 21
12.038597862
  0
LINE
  5
2C9
100
AcDbEntity
  8
0
100
AcDbLine
 62
7
  6
BYLAYER
 10
96.9418082386
 20
45.3923043417
 11
87.7494583548
 21
40.0851303413
  0
LINE
  5
2CA
100
AcDbEntity
  8
0
100
AcDbLine
 62
7
  6
BYLAYER
 10
46.8081461802
 20
16.4477938322
 11
56.0004960639
 21
21.7549678325
  0
LINE
  5
2CB
100
AcDbEntity
  8
0
100
AcDbLine
 62
7
  6
BYLAYER
 10
84.3553599362
 20
35.2677999428
 11
75.9054690815
 21
30.389282304
  0
LINE
  5
2CC
100
AcDbEntity
  8
0
100
AcDbLine
 62
7
  6
BYLAYER
 10
67.8444853373
 20
25.5311733456
 11
59.3945944826
 21
20.6526557068
  0
LINE
  5
2CD
100
AcDbEntity
  8
0
100
AcDbLine
 62
7
  6
BYLAYER
 10
75.9054690815
 20
28.7562774698
 11
67.8444853373
 21
24.1022941156
  0
LINE
  5
2CE
100
AcDbEntity
  8
0
100
AcDbLine
 62
7
  6
BYLAYER
 10
69.0111728131
 20
128.2674776655
 11
47.3736152236
 21
140.7596447538
  0
LINE
  5
2CF
100
AcDbEntity
  8
0
100
AcDbLine
 62
7
  6
BYLAYER
 10
47.7978798811
 20
140.6779972827
 11
69.1525935805
 21
128.3491264962
  0
LINE
  5
2D0
100
AcDbEntity
  8
0
100
AcDbLine
 62
7
  6
BYLAYER
 10
72.416796795
 20
127.7157634414
 11
48.8814515613
 21
141.3035939497
  0
LINE
  5
2D1
100
AcDbEntity
  8
0
100
AcDbLine
 62
7
  6
BYLAYER
 10
48.5986076713
 20
141.4668902515
 11
44.4380588551
 21
143.8689298891
  0
LINE
  5
2D2
100
AcDbEntity
  8
0
100
AcDbLine
 62
7
  6
BYLAYER
 10
73.416781898
 20
127.8148180135
 11
49.8814345943
 21
141.4026497188
  0
LINE
  5
2D3
100
AcDbEntity
  8
0
100
AcDbLine
 62
7
  6
BYLAYER
 10
49.5985907042
 20
141.5659460206
 11
45.4380905549
 21
143.9679575611
  0
LINE
  5
2D4
100
AcDbEntity
  8
0
100
AcDbLine
 62
7
  6
BYLAYER
 10
87.7494583548
 20
32.7366085872
 11
83.2947041804
 21
30.1646704178
  0
LINE
  5
2D5
100
AcDbEntity
  8
0
100
AcDbLine
 62
7
  6
BYLAYER
 10
59.3945944826
 20
16.3660180169
 11
56.0004960639
 21
14.4064460783
  0
LINE
  5
2D6
100
AcDbEntity
  8
0
100
AcDbLine
 62
7
  6
BYLAYER
 10
43.0416755328
 20
141.8244021013
 11
46.6466971337
 21
141.1841860299
  0
LINE
  5
2D7
100
AcDbEntity
  8
0
100
AcDbLine
 62
7
  6
BYLAYER
 10
46.6466971337
 20
141.5924372385
 11
43.0416755328
 21
142.2326533099
  0
ARC
  5
2D8
100
AcDbEntity
  8
0
100
AcDbCircle
 62
7
  6
BYLAYER
 10
61.2186796841
 20
142.0917858736
 40
21.3838587639
100
AcDbArc
 50
299.4699161301
 51
299.999144942
  0
ARC
  5
2D9
100
AcDbEntity
  8
0
100
AcDbCircle
 62
7
  6
BYLAYER
 10
69.069682372
 20
127.5735810364
 40
0.639330911
100
AcDbArc
 50
353.4947330223
 51
359.989398588
  0
SPLINE
  5
2DA
100
AcDbEntity
  8
0
100
AcDbSpline
 62
7
  6
BYLAYER
 70
0
 71
3
 72
11
 73
7
 74
0
 42
0.0000001
 43
0.0000001
 44
0.0000000001
 40
0.0
 40
0.0
 40
0.0
 40
0.0
 40
0.2372542275
 40
0.5000017852
 40
0.7627483734
 40
1.0
 40
1.0
 40
1.0
 40
1.0
 10
97.6489120758
 20
46.6170509127
 30
0.0
 10
97.6489120758
 20
46.5011249674
 30
0.0
 10
97.605448168
 20
46.2566518336
 30
0.0
 10
97.4538437783
 20
45.9131749518
 30
0.0
 10
97.2321885289
 20
45.6101431858
 30
0.0
 10
97.0422021014
 20
45.4502664194
 30
0.0
 10
96.9418082386
 20
45.3923043417
 30
0.0
  0
SPLINE
  5
2DB
100
AcDbEntity
  8
0
100
AcDbSpline
 62
7
  6
BYLAYER
 70
0
 71
3
 72
11
 73
7
 74
0
 42
0.0000001
 43
0.0000001
 44
0.0000000001
 40
0.0
 40
0.0
 40
0.0
 40
0.0
 40
0.2895396729
 40
0.5491163863
 40
0.7822545095
 40
1.0
 40
1.0
 40
1.0
 40
1.0
 10
46.8081461802
 20
16.4477938322
 30
0.0
 10
46.764293545
 20
16.4224756526
 30
0.0
 10
46.6769837373
 20
16.3809953649
 30
0.0
 10
46.5428413293
 20
16.348525537
 30
0.0
 10
46.4169114451
 20
16.3516878798
 30
0.0
 10
46.3411617168
 20
16.3792743386
 30
0.0
 10
46.30818264
 20
16.3983144043
 30
0.0
  0
SPLINE
  5
2DC
100
AcDbEntity
  8
0
100
AcDbSpline
 62
7
  6
BYLAYER
 70
0
 71
3
 72
9
 73
5
 74
0
 42
0.0000001
 43
0.0000001
 44
0.0000000001
 40
0.0
 40
0.0
 40
0.0
 40
0.0
 40
0.2578132897
 40
1.0
 40
1.0
 40
1.0
 40
1.0
 10
91.6361572589
 20
76.5201634196
 30
0.0
 10
91.6729124588
 20
76.5346638423
 30
0.0
 10
91.8145083407
 20
76.5933067085
 30
0.0
 10
91.9521254779
 20
76.6617662628
 30
0.0
 10
92.0506330001
 20
76.7186392678
 30
0.0
  0
SPLINE
  5
2DD
100
AcDbEntity
  8
0
100
AcDbSpline
 62
7
  6
BYLAYER
 70
0
 71
3
 72
11
 73
7
 74
0
 42
0.0000001
 43
0.0000001
 44
0.0000000001
 40
0.0
 40
0.0
 40
0.0
 40
0.0
 40
0.2896883482
 40
0.5490957826
 40
0.7822202924
 40
1.0
 40
1.0
 40
1.0
 40
1.0
 10
92.0506330001
 20
76.7186392678
 30
0.0
 10
92.1778737155
 20
76.7921012905
 30
0.0
 10
92.4087279298
 20
76.9511224454
 30
0.0
 10
92.6846498476
 20
77.241074685
 30
0.0
 10
92.8592035495
 20
77.5618606643
 30
0.0
 10
92.8999687989
 20
77.7920835419
 30
0.0
 10
92.8999944903
 20
77.9025374771
 30
0.0
  0
SPLINE
  5
2DE
100
AcDbEntity
  8
0
100
AcDbSpline
 62
7
  6
BYLAYER
 70
0
 71
3
 72
15
 73
11
 74
0
 42
0.0000001
 43
0.0000001
 44
0.0000000001
 40
0.0
 40
0.0
 40
0.0
 40
0.0
 40
0.1067381187
 40
0.2253469003
 40
0.3533899923
 40
0.487389449
 40
0.6231979094
 40
0.7564872908
 40
0.8832329599
 40
1.0
 40
1.0
 40
1.0
 40
1.0
 10
53.6102590929
 20
57.3925129202
 30
0.0
 10
53.737529806
 20
57.285561674
 30
0.0
 10
54.0339388451
 20
57.0921419129
 30
0.0
 10
54.543238278
 20
56.8778315417
 30
0.0
 10
55.1198533819
 20
56.7315875577
 30
0.0
 10
55.737045853
 20
56.6600089448
 30
0.0
 10
56.3664576254
 20
56.6664493461
 30
0.0
 10
56.9790169753
 20
56.7505021448
 30
0.0
 10
57.5461205707
 20
56.9083744549
 30
0.0
 10
57.8936258778
 20
57.0657784872
 30
0.0
 10
58.0511230533
 20
57.1567089811
 30
0.0
  0
SPLINE
  5
2DF
100
AcDbEntity
  8
0
100
AcDbSpline
 62
7
  6
BYLAYER
 70
0
 71
3
 72
9
 73
5
 74
0
 42
0.0000001
 43
0.0000001
 44
0.0000000001
 40
0.0
 40
0.0
 40
0.0
 40
0.0
 40
0.2593773557
 40
1.0
 40
1.0
 40
1.0
 40
1.0
 10
58.0511230533
 20
57.1567089811
 30
0.0
 10
58.0821043488
 20
57.1745959337
 30
0.0
 10
58.2001711853
 20
57.2458864799
 30
0.0
 10
58.3125623052
 20
57.3268066363
 30
0.0
 10
58.3907642819
 20
57.3925244112
 30
0.0
  0
SPLINE
  5
2E0
100
AcDbEntity
  8
0
100
AcDbSpline
 62
7
  6
BYLAYER
 70
0
 71
3
 72
11
 73
7
 74
0
 42
0.0000001
 43
0.0000001
 44
0.0000000001
 40
0.0
 40
0.0
 40
0.0
 40
0.0
 40
0.2372518718
 40
0.4999985497
 40
0.7627460178
 40
1.0
 40
1.0
 40
1.0
 40
1.0
 10
15.0589195211
 20
60.4976298497
 30
0.0
 10
14.9585255545
 20
60.4396677121
 30
0.0
 10
14.7685390209
 20
60.2797908023
 30
0.0
 10
14.5468837763
 20
59.9767588844
 30
0.0
 10
14.3952795206
 20
59.6332820744
 30
0.0
 10
14.3518156838
 20
59.3888091041
 30
0.0
 10
14.3518156838
 20
59.2728832787
 30
0.0
  0
SPLINE
  5
2E1
100
AcDbEntity
  8
0
100
AcDbSpline
 62
7
  6
BYLAYER
 70
0
 71
3
 72
11
 73
7
 74
0
 42
0.0000001
 43
0.0000001
 44
0.0000000001
 40
0.0
 40
0.0
 40
0.0
 40
0.0
 40
0.2895411595
 40
0.5491183966
 40
0.7822559144
 40
1.0
 40
1.0
 40
1.0
 40
1.0
 10
14.3518156838
 20
35.1860619734
 30
0.0
 10
14.3518156838
 20
35.1354231215
 30
0.0
 10
14.3595477253
 20
35.0390662692
 30
0.0
 10
14.3985008334
 20
34.9066551059
 30
0.0
 10
14.464207398
 20
34.799173969
 30
0.0
 10
14.5259757997
 20
34.7473649623
 30
0.0
 10
14.5589559803
 20
34.7283242827
 30
0.0
  0
SPLINE
  5
2E2
100
AcDbEntity
  8
0
100
AcDbSpline
 62
7
  6
BYLAYER
 70
0
 71
3
 72
11
 73
7
 74
0
 42
0.0000001
 43
0.0000001
 44
0.0000000001
 40
0.0
 40
0.0
 40
0.0
 40
0.0
 40
0.2177842323
 40
0.4509131322
 40
0.7102976887
 40
1.0
 40
1.0
 40
1.0
 40
1.0
 10
43.2752607802
 20
47.6788836692
 30
0.0
 10
43.2752607742
 20
47.5550941785
 30
0.0
 10
43.3210097701
 20
47.2970776036
 30
0.0
 10
43.5166185556
 20
46.937584746
 30
0.0
 10
43.8258371896
 20
46.6126192321
 30
0.0
 10
44.0845658013
 20
46.4344227895
 30
0.0
 10
44.2271733092
 20
46.3520901691
 30
0.0
  0
SPLINE
  5
2E3
100
AcDbEntity
  8
0
100
AcDbSpline
 62
7
  6
BYLAYER
 70
0
 71
3
 72
14
 73
10
 74
0
 42
0.0000001
 43
0.0000001
 44
0.0000000001
 40
0.0
 40
0.0
 40
0.0
 40
0.0
 40
0.3072317182
 40
0.4487020663
 40
0.5794198076
 40
0.6986183273
 40
0.8067440091
 40
0.9059146339
 40
1.0
 40
1.0
 40
1.0
 40
1.0
 10
90.608083369
 20
84.1936741019
 30
0.0
 10
90.9172836117
 20
84.1553924472
 30
0.0
 10
91.3662843598
 20
84.0560077863
 30
0.0
 10
91.9090362583
 20
83.8275750629
 30
0.0
 10
92.2516821498
 20
83.6243018298
 30
0.0
 10
92.531442573
 20
83.3898962124
 30
0.0
 10
92.7400846201
 20
83.1293617508
 30
0.0
 10
92.870047474
 20
82.8490472568
 30
0.0
 10
92.9000166797
 20
82.6520124084
 30
0.0
 10
92.8999945161
 20
82.5566012546
 30
0.0
  0
SPLINE
  5
2E4
100
AcDbEntity
  8
0
100
AcDbSpline
 62
7
  6
BYLAYER
 70
0
 71
3
 72
9
 73
5
 74
0
 42
0.0000001
 43
0.0000001
 44
0.0000000001
 40
0.0
 40
0.0
 40
0.0
 40
0.0
 40
0.2420988806
 40
1.0
 40
1.0
 40
1.0
 40
1.0
 10
19.9261898445
 20
83.7265346557
 30
0.0
 10
19.9585629071
 20
83.7452251406
 30
0.0
 10
20.0938593695
 20
83.8196801056
 30
0.0
 10
20.2349580128
 20
83.8834284403
 30
0.0
 10
20.3438580015
 20
83.9262681542
 30
0.0
  0
SPLINE
  5
2E5
100
AcDbEntity
  8
0
100
AcDbSpline
 62
7
  6
BYLAYER
 70
0
 71
3
 72
11
 73
7
 74
0
 42
0.0000001
 43
0.0000001
 44
0.0000000001
 40
0.0
 40
0.0
 40
0.0
 40
0.0
 40
0.2895468475
 40
0.5491384346
 40
0.782278826
 40
1.0
 40
1.0
 40
1.0
 40
1.0
 10
23.0374726351
 20
81.9302753358
 30
0.0
 10
23.1032537672
 20
81.9682538634
 30
0.0
 10
23.2226262271
 20
82.0505653756
 30
0.0
 10
23.3654217165
 20
82.2004752576
 30
0.0
 10
23.4557443293
 20
82.3664394374
 30
0.0
 10
23.476745324
 20
82.485521206
 30
0.0
 10
23.4767463651
 20
82.5426364308
 30
0.0
  0
SPLINE
  5
2E6
100
AcDbEntity
  8
0
100
AcDbSpline
 62
7
  6
BYLAYER
 70
0
 71
3
 72
11
 73
7
 74
0
 42
0.0000001
 43
0.0000001
 44
0.0000000001
 40
0.0
 40
0.0
 40
0.0
 40
0.0
 40
0.2895468475
 40
0.5491384346
 40
0.782278826
 40
1.0
 40
1.0
 40
1.0
 40
1.0
 10
91.0845843
 20
81.9313618339
 30
0.0
 10
91.1503654321
 20
81.9693403615
 30
0.0
 10
91.269737892
 20
82.0516518736
 30
0.0
 10
91.4125333814
 20
82.2015617557
 30
0.0
 10
91.5028559942
 20
82.3675259354
 30
0.0
 10
91.5238569889
 20
82.4866077041
 30
0.0
 10
91.52385803
 20
82.5437229288
 30
0.0
  0
SPLINE
  5
2E7
100
AcDbEntity
  8
0
100
AcDbSpline
 62
7
  6
BYLAYER
 70
0
 71
3
 72
11
 73
7
 74
0
 42
0.0000001
 43
0.0000001
 44
0.0000000001
 40
0.0
 40
0.0
 40
0.0
 40
0.0
 40
0.2895468475
 40
0.5491384346
 40
0.782278826
 40
1.0
 40
1.0
 40
1.0
 40
1.0
 10
57.0603708264
 20
62.2875902834
 30
0.0
 10
57.1261519584
 20
62.325568811
 30
0.0
 10
57.2455244184
 20
62.4078803231
 30
0.0
 10
57.3883199078
 20
62.5577902052
 30
0.0
 10
57.4786425205
 20
62.723754385
 30
0.0
 10
57.4996435153
 20
62.8428361536
 30
0.0
 10
57.4996445564
 20
62.8999513783
 30
0.0
  0
SPLINE
  5
2E8
100
AcDbEntity
  8
0
100
AcDbSpline
 62
7
  6
BYLAYER
 70
0
 71
3
 72
11
 73
7
 74
0
 42
0.0000001
 43
0.0000001
 44
0.0000000001
 40
0.0
 40
0.0
 40
0.0
 40
0.0
 40
0.2177842323
 40
0.4509131322
 40
0.7102976887
 40
1.0
 40
1.0
 40
1.0
 40
1.0
 10
32.668614903
 20
53.802494987
 30
0.0
 10
32.668614897
 20
53.6787054963
 30
0.0
 10
32.7143638929
 20
53.4206889215
 30
0.0
 10
32.9099726784
 20
53.0611960638
 30
0.0
 10
33.2191913124
 20
52.7362305499
 30
0.0
 10
33.4779199241
 20
52.5580341074
 30
0.0
 10
33.620527432
 20
52.4757014869
 30
0.0
  0
SPLINE
  5
2E9
100
AcDbEntity
  8
0
100
AcDbSpline
 62
7
  6
BYLAYER
 70
0
 71
3
 72
11
 73
7
 74
0
 42
0.0000001
 43
0.0000001
 44
0.0000000001
 40
0.0
 40
0.0
 40
0.0
 40
0.0
 40
0.2177842323
 40
0.4509131322
 40
0.7102976887
 40
1.0
 40
1.0
 40
1.0
 40
1.0
 10
22.0619690258
 20
59.9261063048
 30
0.0
 10
22.0619690198
 20
59.8023168141
 30
0.0
 10
22.1077180157
 20
59.5443002393
 30
0.0
 10
22.3033268012
 20
59.1848073816
 30
0.0
 10
22.6125454352
 20
58.8598418677
 30
0.0
 10
22.8712740469
 20
58.6816454252
 30
0.0
 10
23.0138815548
 20
58.5993128047
 30
0.0
  0
SPLINE
  5
2EA
100
AcDbEntity
  8
0
100
AcDbSpline
 62
7
  6
BYLAYER
 70
0
 71
3
 72
9
 73
5
 74
0
 42
0.0000001
 43
0.0000001
 44
0.0000000001
 40
0.0
 40
0.0
 40
0.0
 40
0.0
 40
0.4843460033
 40
1.0
 40
1.0
 40
1.0
 40
1.0
 10
41.6815111763
 20
80.3183534875
 30
0.0
 10
42.4248002991
 20
79.8892250205
 30
0.0
 10
44.0197514754
 20
79.105618618
 30
0.0
 10
45.6911917849
 20
78.5064321529
 30
0.0
 10
46.5654328875
 20
78.2406475941
 30
0.0
  0
SPLINE
  5
2EB
100
AcDbEntity
  8
0
100
AcDbSpline
 62
7
  6
BYLAYER
 70
0
 71
3
 72
11
 73
7
 74
0
 42
0.0000001
 43
0.0000001
 44
0.0000000001
 40
0.0
 40
0.0
 40
0.0
 40
0.0
 40
0.2177817009
 40
0.4509079353
 40
0.7102947134
 40
1.0
 40
1.0
 40
1.0
 40
1.0
 10
27.3839363035
 20
26.4087717745
 30
0.0
 10
27.3839363184
 20
26.3287861056
 30
0.0
 10
27.4134949844
 20
26.1620706533
 30
0.0
 10
27.5398825685
 20
25.9297826853
 30
0.0
 10
27.7396833685
 20
25.7198038937
 30
0.0
 10
27.9068609569
 20
25.6046588332
 30
0.0
 10
27.9990077667
 20
25.5514590513
 30
0.0
  0
SPLINE
  5
2EC
100
AcDbEntity
  8
0
100
AcDbSpline
 62
7
  6
BYLAYER
 70
0
 71
3
 72
11
 73
7
 74
0
 42
0.0000001
 43
0.0000001
 44
0.0000000001
 40
0.0
 40
0.0
 40
0.0
 40
0.0
 40
0.2229567302
 40
0.4583366895
 40
0.7156442799
 40
1.0
 40
1.0
 40
1.0
 40
1.0
 10
25.4839442162
 20
26.4087717288
 30
0.0
 10
25.4839625314
 20
26.5428165251
 30
0.0
 10
25.526873696
 20
26.8198948032
 30
0.0
 10
25.7128930022
 20
27.2132612257
 30
0.0
 10
26.0110128871
 20
27.5778089151
 30
0.0
 10
26.2647082704
 20
27.7851981377
 30
0.0
 10
26.4049909328
 20
27.8829103193
 30
0.0
  0
SPLINE
  5
2ED
100
AcDbEntity
  8
0
100
AcDbSpline
 62
7
  6
BYLAYER
 70
0
 71
3
 72
11
 73
7
 74
0
 42
0.0000001
 43
0.0000001
 44
0.0000000001
 40
0.0
 40
0.0
 40
0.0
 40
0.0
 40
0.2897048043
 40
0.5490913404
 40
0.7822177947
 40
1.0
 40
1.0
 40
1.0
 40
1.0
 10
96.305459239
 20
96.1788932273
 30
0.0
 10
96.4370950763
 20
96.2548927596
 30
0.0
 10
96.6759156679
 20
96.4193850147
 30
0.0
 10
96.9613395484
 20
96.7193525081
 30
0.0
 10
97.1418893378
 20
97.0511892321
 30
0.0
 10
97.1841151152
 20
97.2893514564
 30
0.0
 10
97.184115094
 20
97.4036154908
 30
0.0
  0
SPLINE
  5
2EE
100
AcDbEntity
  8
0
100
AcDbSpline
 62
7
  6
BYLAYER
 70
0
 71
3
 72
17
 73
13
 74
0
 42
0.0000001
 43
0.0000001
 44
0.0000000001
 40
0.0
 40
0.0
 40
0.0
 40
0.0
 40
0.0428584629
 40
0.08748393
 40
0.135317815
 40
0.1872795469
 40
0.3045398917
 40
0.4382057949
 40
0.5825481992
 40
0.7297130515
 40
0.8713063844
 40
1.0
 40
1.0
 40
1.0
 40
1.0
 10
25.483939461
 20
23.5510133068
 30
0.0
 10
25.4839308415
 20
23.4371471439
 30
0.0
 10
25.5144528357
 20
23.2037404706
 30
0.0
 10
25.6482447957
 20
22.8666838975
 30
0.0
 10
25.8655041712
 20
22.547170756
 30
0.0
 10
26.2744158597
 20
22.1367544959
 30
0.0
 10
26.9712232338
 20
21.7126036298
 30
0.0
 10
27.9731026261
 20
21.3779383324
 30
0.0
 10
29.0974671168
 20
21.219909687
 30
0.0
 10
30.2531520021
 20
21.2519014833
 30
0.0
 10
31.3458339285
 20
21.4704679459
 30
0.0
 10
32.0162592908
 20
21.7470947645
 30
0.0
 10
32.3123647254
 20
21.9180502964
 30
0.0
  0
SPLINE
  5
2EF
100
AcDbEntity
  8
0
100
AcDbSpline
 62
7
  6
BYLAYER
 70
0
 71
3
 72
13
 73
9
 74
0
 42
0.0000001
 43
0.0000001
 44
0.0000000001
 40
0.0
 40
0.0
 40
0.0
 40
0.0
 40
0.1142253587
 40
0.237559206
 40
0.5000004539
 40
0.7624414493
 40
0.885775028
 40
1.0
 40
1.0
 40
1.0
 40
1.0
 10
53.8792113424
 20
74.1336987202
 30
0.0
 10
54.0243929114
 20
74.0498799983
 30
0.0
 10
54.3420112175
 20
73.902020634
 30
0.0
 10
55.0458172515
 20
73.6881892763
 30
0.0
 10
56.0005347482
 20
73.5843866821
 30
0.0
 10
56.9552514493
 20
73.6881935814
 30
0.0
 10
57.6590550349
 20
73.9020284648
 30
0.0
 10
57.9766715563
 20
74.0498894333
 30
0.0
 10
58.1218520295
 20
74.1337089183
 30
0.0
  0
SPLINE
  5
2F0
100
AcDbEntity
  8
0
100
AcDbSpline
 62
7
  6
BYLAYER
 70
0
 71
3
 72
16
 73
12
 74
0
 42
0.0000001
 43
0.0000001
 44
0.0000000001
 40
0.0
 40
0.0
 40
0.0
 40
0.0
 40
0.0428749215
 40
0.0875218052
 40
0.1869210508
 40
0.3042319763
 40
0.4379526978
 40
0.5823548967
 40
0.7295670544
 40
0.8712583699
 40
1.0
 40
1.0
 40
1.0
 40
1.0
 10
54.4997679209
 20
62.899951452
 30
0.0
 10
54.4997671426
 20
62.8572542452
 30
0.0
 10
54.5111057114
 20
62.7697116158
 30
0.0
 10
54.5805096854
 20
62.5952283721
 30
0.0
 10
54.7559498697
 20
62.3936768665
 30
0.0
 10
55.0572197633
 20
62.2108415867
 30
0.0
 10
55.4332048396
 20
62.0849644694
 30
0.0
 10
55.8547264647
 20
62.0258392055
 30
0.0
 10
56.2881483044
 20
62.0377476216
 30
0.0
 10
56.6978958845
 20
62.1197705001
 30
0.0
 10
56.9493392741
 20
62.2234865695
 30
0.0
 10
57.0603708264
 20
62.2875902834
 30
0.0
  0
SPLINE
  5
2F1
100
AcDbEntity
  8
0
100
AcDbSpline
 62
7
  6
BYLAYER
 70
0
 71
3
 72
16
 73
12
 74
0
 42
0.0000001
 43
0.0000001
 44
0.0000000001
 40
0.0
 40
0.0
 40
0.0
 40
0.0
 40
0.0428749215
 40
0.0875218052
 40
0.1869210508
 40
0.3042319763
 40
0.4379526978
 40
0.5823548967
 40
0.7295670544
 40
0.8712583699
 40
1.0
 40
1.0
 40
1.0
 40
1.0
 10
88.5239813945
 20
82.5437230025
 30
0.0
 10
88.5239806163
 20
82.5010257957
 30
0.0
 10
88.535319185
 20
82.4134831663
 30
0.0
 10
88.604723159
 20
82.2389999226
 30
0.0
 10
88.7801633433
 20
82.0374484169
 30
0.0
 10
89.081433237
 20
81.8546131372
 30
0.0
 10
89.4574183133
 20
81.7287360199
 30
0.0
 10
89.8789399383
 20
81.669610756
 30
0.0
 10
90.3123617781
 20
81.681519172
 30
0.0
 10
90.7221093581
 20
81.7635420506
 30
0.0
 10
90.9735527477
 20
81.8672581199
 30
0.0
 10
91.0845843
 20
81.9313618339
 30
0.0
  0
SPLINE
  5
2F2
100
AcDbEntity
  8
0
100
AcDbSpline
 62
7
  6
BYLAYER
 70
0
 71
3
 72
9
 73
5
 74
0
 42
0.0000001
 43
0.0000001
 44
0.0000000001
 40
0.0
 40
0.0
 40
0.0
 40
0.0
 40
0.2467887033
 40
1.0
 40
1.0
 40
1.0
 40
1.0
 10
49.881384341
 20
141.4025624734
 30
0.0
 10
49.8625781789
 20
141.4134155842
 30
0.0
 10
49.7842788843
 20
141.4537135784
 30
0.0
 10
49.6981267233
 20
141.4782732896
 30
0.0
 10
49.632556585
 20
141.4878767021
 30
0.0
  0
SPLINE
  5
2F3
100
AcDbEntity
  8
0
100
AcDbSpline
 62
7
  6
BYLAYER
 70
0
 71
3
 72
9
 73
5
 74
0
 42
0.0000001
 43
0.0000001
 44
0.0000000001
 40
0.0
 40
0.0
 40
0.0
 40
0.0
 40
0.4605348695
 40
1.0
 40
1.0
 40
1.0
 40
1.0
 10
49.632556585
 20
141.4878767021
 30
0.0
 10
49.5134672603
 20
141.5053185429
 30
0.0
 10
49.2454937941
 20
141.4813678878
 30
0.0
 10
49.0035509954
 20
141.3740876701
 30
0.0
 10
48.8814515613
 20
141.3035939497
 30
0.0
  0
SPLINE
  5
2F4
100
AcDbEntity
  8
0
100
AcDbSpline
 62
7
  6
BYLAYER
 70
0
 71
3
 72
11
 73
7
 74
0
 42
0.0000001
 43
0.0000001
 44
0.0000000001
 40
0.0
 40
0.0
 40
0.0
 40
0.0
 40
0.2895473313
 40
0.5491390889
 40
0.7822792833
 40
1.0
 40
1.0
 40
1.0
 40
1.0
 10
69.0111728131
 20
128.2674776655
 30
0.0
 10
69.0857261581
 20
128.2244352454
 30
0.0
 10
69.2210175167
 20
128.131148509
 30
0.0
 10
69.3828556853
 20
127.9612493825
 30
0.0
 10
69.4852235289
 20
127.7731548259
 30
0.0
 10
69.5090251988
 20
127.6381939316
 30
0.0
 10
69.5090263834
 20
127.5734626456
 30
0.0
  0
SPLINE
  5
2F5
100
AcDbEntity
  8
0
100
AcDbSpline
 62
7
  6
BYLAYER
 70
0
 71
3
 72
9
 73
5
 74
0
 42
0.0000001
 43
0.0000001
 44
0.0000000001
 40
0.0
 40
0.0
 40
0.0
 40
0.0
 40
0.2258457004
 40
1.0
 40
1.0
 40
1.0
 40
1.0
 10
43.5202819732
 20
139.7880288652
 30
0.0
 10
43.5264170061
 20
139.7764436376
 30
0.0
 10
43.5584074739
 20
139.7276704605
 30
0.0
 10
43.6059655457
 20
139.6907749876
 30
0.0
 10
43.644881824
 20
139.6683071722
 30
0.0
  0
SPLINE
  5
2F6
100
AcDbEntity
  8
0
100
AcDbSpline
 62
7
  6
BYLAYER
 70
0
 71
3
 72
11
 73
7
 74
0
 42
0.0000001
 43
0.0000001
 44
0.0000000001
 40
0.0
 40
0.0
 40
0.0
 40
0.0
 40
0.2372436391
 40
0.5000005261
 40
0.7627571268
 40
1.0
 40
1.0
 40
1.0
 40
1.0
 10
43.644881824
 20
139.6683071722
 30
0.0
 10
43.6950771879
 20
139.6393275209
 30
0.0
 10
43.8118058958
 20
139.5970447368
 30
0.0
 10
43.9984357704
 20
139.5767853381
 30
0.0
 10
44.1850653634
 20
139.5970455884
 30
0.0
 10
44.3017936123
 20
139.6393289522
 30
0.0
 10
44.3519886051
 20
139.6683088719
 30
0.0
  0
SPLINE
  5
2F7
100
AcDbEntity
  8
0
100
AcDbSpline
 62
7
  6
BYLAYER
 70
0
 71
3
 72
11
 73
7
 74
0
 42
0.0000001
 43
0.0000001
 44
0.0000000001
 40
0.0
 40
0.0
 40
0.0
 40
0.0
 40
0.250256134
 40
0.5004121977
 40
0.750282183
 40
1.0
 40
1.0
 40
1.0
 40
1.0
 10
37.4382441234
 20
139.6920744822
 30
0.0
 10
37.4423676667
 20
139.8560089574
 30
0.0
 10
37.4882244485
 20
140.1840748083
 30
0.0
 10
37.6655727665
 20
140.6469157
 30
0.0
 10
37.9403983452
 20
141.0588143024
 30
0.0
 10
38.1786612611
 20
141.2875199124
 30
0.0
 10
38.3078023703
 20
141.3880113217
 30
0.0
  0
SPLINE
  5
2F8
100
AcDbEntity
  8
0
100
AcDbSpline
 62
7
  6
BYLAYER
 70
0
 71
3
 72
17
 73
13
 74
0
 42
0.0000001
 43
0.0000001
 44
0.0000000001
 40
0.0
 40
0.0
 40
0.0
 40
0.0
 40
0.1272982288
 40
0.2672433834
 40
0.4129331574
 40
0.556605428
 40
0.6907704266
 40
0.8097097279
 40
0.8627555318
 40
0.9116117451
 40
0.9569771456
 40
1.0
 40
1.0
 40
1.0
 40
1.0
 10
66.4655989991
 20
126.7977987115
 30
0.0
 10
66.6020870163
 20
126.7189991007
 30
0.0
 10
66.9103725435
 20
126.590500262
 30
0.0
 10
67.4131288837
 20
126.4857429044
 30
0.0
 10
67.9466284221
 20
126.4648345336
 30
0.0
 10
68.4694952688
 20
126.5294643416
 30
0.0
 10
68.941566715
 20
126.6745884219
 30
0.0
 10
69.2763642315
 20
126.8615636234
 30
0.0
 10
69.4810186661
 20
127.0444715555
 30
0.0
 10
69.5949377821
 20
127.1881796939
 30
0.0
 10
69.6726199152
 20
127.3406927611
 30
0.0
 10
69.6988652596
 20
127.4482263883
 30
0.0
 10
69.7048969159
 20
127.5011483295
 30
0.0
  0
SPLINE
  5
2F9
100
AcDbEntity
  8
0
100
AcDbSpline
 62
7
  6
BYLAYER
 70
0
 71
3
 72
11
 73
7
 74
0
 42
0.0000001
 43
0.0000001
 44
0.0000000001
 40
0.0
 40
0.0
 40
0.0
 40
0.0
 40
0.2496600753
 40
0.4994735757
 40
0.7496348336
 40
1.0
 40
1.0
 40
1.0
 40
1.0
 10
73.416784723
 20
127.8148236713
 30
0.0
 10
73.5820849586
 20
127.7193755763
 30
0.0
 10
73.8919293801
 20
127.488834257
 30
0.0
 10
74.2571001583
 20
127.039278088
 30
0.0
 10
74.4957960384
 20
126.510622312
 30
0.0
 10
74.5572659434
 20
126.1275253099
 30
0.0
 10
74.5623894688
 20
125.9361765607
 30
0.0
  0
SPLINE
  5
2FA
100
AcDbEntity
  8
0
100
AcDbSpline
 62
7
  6
BYLAYER
 70
0
 71
3
 72
11
 73
7
 74
0
 42
0.0000001
 43
0.0000001
 44
0.0000000001
 40
0.0
 40
0.0
 40
0.0
 40
0.0
 40
0.2362339405
 40
0.4978381176
 40
0.7606133251
 40
1.0
 40
1.0
 40
1.0
 40
1.0
 10
44.0273136194
 20
138.501072831
 30
0.0
 10
43.8312664538
 20
138.3878856228
 30
0.0
 10
43.4593070096
 20
138.0773026523
 30
0.0
 10
43.0213898927
 20
137.4881596165
 30
0.0
 10
42.7157214765
 20
136.8174227335
 30
0.0
 10
42.6207827812
 20
136.3383634492
 30
0.0
 10
42.6139674421
 20
136.1090681185
 30
0.0
  0
SPLINE
  5
2FB
100
AcDbEntity
  8
0
100
AcDbSpline
 62
7
  6
BYLAYER
 70
0
 71
3
 72
11
 73
7
 74
0
 42
0.0000001
 43
0.0000001
 44
0.0000000001
 40
0.0
 40
0.0
 40
0.0
 40
0.0
 40
0.2496801593
 40
0.500566947
 40
0.7509624581
 40
1.0
 40
1.0
 40
1.0
 40
1.0
 10
42.9989340697
 20
144.1019812071
 30
0.0
 10
43.1920191806
 20
144.1846924433
 30
0.0
 10
43.6008285042
 20
144.3034119535
 30
0.0
 10
44.2364657716
 20
144.3396995963
 30
0.0
 10
44.8644050993
 20
144.2367965639
 30
0.0
 10
45.2566060709
 20
144.0727285196
 30
0.0
 10
45.4380591036
 20
143.9679861041
 30
0.0
  0
SPLINE
  5
2FC
100
AcDbEntity
  8
0
100
AcDbSpline
 62
7
  6
BYLAYER
 70
0
 71
3
 72
9
 73
5
 74
0
 42
0.0000001
 43
0.0000001
 44
0.0000000001
 40
0.0
 40
0.0
 40
0.0
 40
0.0
 40
0.5144969349
 40
1.0
 40
1.0
 40
1.0
 40
1.0
 10
42.9989520334
 20
144.1019962612
 30
0.0
 10
42.1428023722
 20
143.7353046891
 30
0.0
 10
40.5155910815
 20
142.9318277102
 30
0.0
 10
39.0013438824
 20
141.927777911
 30
0.0
 10
38.3077539782
 20
141.3879872001
 30
0.0
  0
SPLINE
  5
2FD
100
AcDbEntity
  8
0
100
AcDbSpline
 62
7
  6
BYLAYER
 70
0
 71
3
 72
11
 73
7
 74
0
 42
0.0000001
 43
0.0000001
 44
0.0000000001
 40
0.0
 40
0.0
 40
0.0
 40
0.0
 40
0.2325958647
 40
0.4898234693
 40
0.7524987966
 40
1.0
 40
1.0
 40
1.0
 40
1.0
 10
27.9990077667
 20
25.5514590513
 30
0.0
 10
28.1842887529
 20
25.444489444
 30
0.0
 10
28.6103349786
 20
25.2804746752
 30
0.0
 10
29.2991011274
 20
25.1776978081
 30
0.0
 10
30.0084276213
 20
25.2105795333
 30
0.0
 10
30.4678727008
 20
25.3274339459
 30
0.0
 10
30.6792514857
 20
25.4119610388
 30
0.0
  0
SPLINE
  5
2FE
100
AcDbEntity
  8
0
100
AcDbSpline
 62
7
  6
BYLAYER
 70
0
 71
3
 72
9
 73
5
 74
0
 42
0.0000001
 43
0.0000001
 44
0.0000000001
 40
0.0
 40
0.0
 40
0.0
 40
0.0
 40
0.2445442684
 40
1.0
 40
1.0
 40
1.0
 40
1.0
 10
34.1154795103
 20
22.9590728888
 30
0.0
 10
34.1505319626
 20
22.9793103108
 30
0.0
 10
34.2949418116
 20
23.0602014379
 30
0.0
 10
34.443410067
 20
23.1337954359
 30
0.0
 10
34.5572311809
 20
23.1855546248
 30
0.0
  0
SPLINE
  5
2FF
100
AcDbEntity
  8
0
100
AcDbSpline
 62
7
  6
BYLAYER
 70
0
 71
3
 72
11
 73
7
 74
0
 42
0.0000001
 43
0.0000001
 44
0.0000000001
 40
0.0
 40
0.0
 40
0.0
 40
0.0
 40
0.2479491859
 40
0.4956850196
 40
0.7449575083
 40
1.0
 40
1.0
 40
1.0
 40
1.0
 10
14.8165976961
 20
100.9143923196
 30
0.0
 10
14.8165976961
 20
101.0874153744
 30
0.0
 10
14.8717953426
 20
101.4355920394
 30
0.0
 10
15.105617955
 20
101.907594844
 30
0.0
 10
15.458604412
 20
102.3030648348
 30
0.0
 10
15.7482512179
 20
102.5079144825
 30
0.0
 10
15.9023804842
 20
102.5969005248
 30
0.0
  0
SPLINE
  5
300
100
AcDbEntity
  8
0
100
AcDbSpline
 62
7
  6
BYLAYER
 70
0
 71
3
 72
11
 73
7
 74
0
 42
0.0000001
 43
0.0000001
 44
0.0000000001
 40
0.0
 40
0.0
 40
0.0
 40
0.0
 40
0.2550463361
 40
0.5043102758
 40
0.7520369707
 40
1.0
 40
1.0
 40
1.0
 40
1.0
 10
96.0983292545
 20
102.597094494
 30
0.0
 10
96.2524630724
 20
102.5081073059
 30
0.0
 10
96.5421143617
 20
102.3032616972
 30
0.0
 10
96.8950912519
 20
101.9077909374
 30
0.0
 10
97.1289365877
 20
101.4357967428
 30
0.0
 10
97.1841300636
 20
101.0876103806
 30
0.0
 10
97.1841300636
 20
100.9145758845
 30
0.0
  0
SPLINE
  5
301
100
AcDbEntity
  8
0
100
AcDbSpline
 62
7
  6
BYLAYER
 70
0
 71
3
 72
11
 73
7
 74
0
 42
0.0000001
 43
0.0000001
 44
0.0000000001
 40
0.0
 40
0.0
 40
0.0
 40
0.0
 40
0.2177817009
 40
0.4509079353
 40
0.7102947134
 40
1.0
 40
1.0
 40
1.0
 40
1.0
 10
14.8166126657
 20
97.4034319259
 30
0.0
 10
14.8166126869
 20
97.2891666847
 30
0.0
 10
14.8588393526
 20
97.0510017528
 30
0.0
 10
15.0393930441
 20
96.7191617986
 30
0.0
 10
15.3248227584
 20
96.4191920962
 30
0.0
 10
15.5636478848
 20
96.2546991527
 30
0.0
 10
15.6952861845
 20
96.1786994643
 30
0.0
  0
SPLINE
  5
302
100
AcDbEntity
  8
0
100
AcDbSpline
 62
7
  6
BYLAYER
 70
0
 71
3
 72
9
 73
5
 74
0
 42
0.0000001
 43
0.0000001
 44
0.0000000001
 40
0.0
 40
0.0
 40
0.0
 40
0.0
 40
0.4791553398
 40
1.0
 40
1.0
 40
1.0
 40
1.0
 10
38.0950076745
 20
83.1245875108
 30
0.0
 10
38.5874204263
 20
82.5864155443
 30
0.0
 10
39.7215098015
 20
81.5586405868
 30
0.0
 10
40.9948201856
 20
80.7148057468
 30
0.0
 10
41.6815111763
 20
80.3183534875
 30
0.0
  0
SPLINE
  5
303
100
AcDbEntity
  8
0
100
AcDbSpline
 62
7
  6
BYLAYER
 70
0
 71
3
 72
16
 73
12
 74
0
 42
0.0000001
 43
0.0000001
 44
0.0000000001
 40
0.0
 40
0.0
 40
0.0
 40
0.0
 40
0.0428749215
 40
0.0875218052
 40
0.1869210508
 40
0.3042319763
 40
0.4379526978
 40
0.5823548967
 40
0.7295670544
 40
0.8712583699
 40
1.0
 40
1.0
 40
1.0
 40
1.0
 10
20.4768697296
 20
82.5426365044
 30
0.0
 10
20.4768689514
 20
82.4999392976
 30
0.0
 10
20.4882075201
 20
82.4123966682
 30
0.0
 10
20.5576114942
 20
82.2379134246
 30
0.0
 10
20.7330516784
 20
82.0363619189
 30
0.0
 10
21.0343215721
 20
81.8535266392
 30
0.0
 10
21.4103066484
 20
81.7276495218
 30
0.0
 10
21.8318282734
 20
81.6685242579
 30
0.0
 10
22.2652501132
 20
81.680432674
 30
0.0
 10
22.6749976932
 20
81.7624555525
 30
0.0
 10
22.9264410828
 20
81.8661716219
 30
0.0
 10
23.0374726351
 20
81.9302753358
 30
0.0
  0
SPLINE
  5
304
100
AcDbEntity
  8
0
100
AcDbSpline
 62
7
  6
BYLAYER
 70
0
 71
3
 72
11
 73
7
 74
0
 42
0.0000001
 43
0.0000001
 44
0.0000000001
 40
0.0
 40
0.0
 40
0.0
 40
0.0
 40
0.2177780874
 40
0.450908656
 40
0.7102682714
 40
1.0
 40
1.0
 40
1.0
 40
1.0
 10
19.0768225151
 20
82.5426364886
 30
0.0
 10
19.0768085757
 20
82.6530897339
 30
0.0
 10
19.1176571524
 20
82.8833111993
 30
0.0
 10
19.2921589471
 20
83.2040798516
 30
0.0
 10
19.5680614382
 20
83.4940641307
 30
0.0
 10
19.7989299257
 20
83.6530615459
 30
0.0
 10
19.9261898445
 20
83.7265346557
 30
0.0
  0
SPLINE
  5
305
100
AcDbEntity
  8
0
100
AcDbSpline
 62
7
  6
BYLAYER
 70
0
 71
3
 72
12
 73
8
 74
0
 42
0.0000001
 43
0.0000001
 44
0.0000000001
 40
0.0
 40
0.0
 40
0.0
 40
0.0
 40
0.1029123959
 40
0.2087648988
 40
0.4380247613
 40
0.7011755364
 40
1.0
 40
1.0
 40
1.0
 40
1.0
 10
19.0768225151
 20
77.888572711
 30
0.0
 10
19.0768311053
 20
77.8205054687
 30
0.0
 10
19.0916658568
 20
77.6820104124
 30
0.0
 10
19.1814420815
 20
77.4046981393
 30
0.0
 10
19.4115072196
 20
77.0723410412
 30
0.0
 10
19.824168244
 20
76.7426638765
 30
0.0
 10
20.1600812655
 20
76.5772262979
 30
0.0
 10
20.344010228
 20
76.5048811237
 30
0.0
  0
SPLINE
  5
306
100
AcDbEntity
  8
0
100
AcDbSpline
 62
7
  6
BYLAYER
 70
0
 71
3
 72
11
 73
7
 74
0
 42
0.0000001
 43
0.0000001
 44
0.0000000001
 40
0.0
 40
0.0
 40
0.0
 40
0.0
 40
0.2177442246
 40
0.4508817658
 40
0.7104588047
 40
1.0
 40
1.0
 40
1.0
 40
1.0
 10
97.4417717787
 20
71.1616099091
 30
0.0
 10
97.4747519708
 20
71.1425691994
 30
0.0
 10
97.536520415
 20
71.0907601973
 30
0.0
 10
97.6022269248
 20
70.9832790298
 30
0.0
 10
97.6411800947
 20
70.8508679124
 30
0.0
 10
97.6489120758
 20
70.754511077
 30
0.0
 10
97.6489120758
 20
70.703872218
 30
0.0
  0
SPLINE
  5
307
100
AcDbEntity
  8
0
100
AcDbSpline
 62
7
  6
BYLAYER
 70
0
 71
3
 72
15
 73
11
 74
0
 42
0.0000001
 43
0.0000001
 44
0.0000000001
 40
0.0
 40
0.0
 40
0.0
 40
0.0
 40
0.1141220302
 40
0.2373445468
 40
0.3669709618
 40
0.5000005211
 40
0.6330300079
 40
0.7626562113
 40
0.8858783941
 40
1.0
 40
1.0
 40
1.0
 40
1.0
 10
23.0138815548
 20
58.5993128047
 30
0.0
 10
23.1711595876
 20
58.5085103443
 30
0.0
 10
23.5152255005
 20
58.348367141
 30
0.0
 10
24.0753939565
 20
58.1780003983
 30
0.0
 10
24.681971932
 20
58.0732578379
 30
0.0
 10
25.311982462
 20
58.0378351273
 30
0.0
 10
25.9419924885
 20
58.0732608265
 30
0.0
 10
26.5485689769
 20
58.1780062651
 30
0.0
 10
27.1087350219
 20
58.3483756697
 30
0.0
 10
27.4527988283
 20
58.5085205908
 30
0.0
 10
27.6100756221
 20
58.5993238466
 30
0.0
  0
SPLINE
  5
308
100
AcDbEntity
  8
0
100
AcDbSpline
 62
7
  6
BYLAYER
 70
0
 71
3
 72
11
 73
7
 74
0
 42
0.0000001
 43
0.0000001
 44
0.0000000001
 40
0.0
 40
0.0
 40
0.0
 40
0.0
 40
0.2897018301
 40
0.5490862154
 40
0.7822153082
 40
1.0
 40
1.0
 40
1.0
 40
1.0
 10
27.6100756221
 20
58.5993238466
 30
0.0
 10
27.752680464
 20
58.6816562977
 30
0.0
 10
28.0114041681
 20
58.8598520612
 30
0.0
 10
28.3206165233
 20
59.1848151683
 30
0.0
 10
28.5162210981
 20
59.5443045451
 30
0.0
 10
28.5619690198
 20
59.8023181466
 30
0.0
 10
28.5619690258
 20
59.9261063048
 30
0.0
  0
SPLINE
  5
309
100
AcDbEntity
  8
0
100
AcDbSpline
 62
7
  6
BYLAYER
 70
0
 71
3
 72
15
 73
11
 74
0
 42
0.0000001
 43
0.0000001
 44
0.0000000001
 40
0.0
 40
0.0
 40
0.0
 40
0.0
 40
0.1141220302
 40
0.2373445468
 40
0.3669709618
 40
0.5000005211
 40
0.6330300079
 40
0.7626562113
 40
0.8858783941
 40
1.0
 40
1.0
 40
1.0
 40
1.0
 10
33.620527432
 20
52.4757014869
 30
0.0
 10
33.7778054648
 20
52.3848990265
 30
0.0
 10
34.1218713777
 20
52.2247558232
 30
0.0
 10
34.6820398337
 20
52.0543890805
 30
0.0
 10
35.2886178093
 20
51.9496465201
 30
0.0
 10
35.9186283392
 20
51.9142238095
 30
0.0
 10
36.5486383657
 20
51.9496495087
 30
0.0
 10
37.1552148541
 20
52.0543949473
 30
0.0
 10
37.7153808991
 20
52.2247643519
 30
0.0
 10
38.0594447055
 20
52.3849092729
 30
0.0
 10
38.2167214993
 20
52.4757125288
 30
0.0
  0
SPLINE
  5
30A
100
AcDbEntity
  8
0
100
AcDbSpline
 62
7
  6
BYLAYER
 70
0
 71
3
 72
11
 73
7
 74
0
 42
0.0000001
 43
0.0000001
 44
0.0000000001
 40
0.0
 40
0.0
 40
0.0
 40
0.0
 40
0.2897018301
 40
0.5490862154
 40
0.7822153082
 40
1.0
 40
1.0
 40
1.0
 40
1.0
 10
38.2167214993
 20
52.4757125288
 30
0.0
 10
38.3593263412
 20
52.5580449799
 30
0.0
 10
38.6180500453
 20
52.7362407434
 30
0.0
 10
38.9272624005
 20
53.0612038505
 30
0.0
 10
39.1228669753
 20
53.4206932273
 30
0.0
 10
39.168614897
 20
53.6787068288
 30
0.0
 10
39.168614903
 20
53.802494987
 30
0.0
  0
SPLINE
  5
30B
100
AcDbEntity
  8
0
100
AcDbSpline
 62
7
  6
BYLAYER
 70
0
 71
3
 72
11
 73
7
 74
0
 42
0.0000001
 43
0.0000001
 44
0.0000000001
 40
0.0
 40
0.0
 40
0.0
 40
0.0
 40
0.2897018301
 40
0.5490862154
 40
0.7822153082
 40
1.0
 40
1.0
 40
1.0
 40
1.0
 10
88.9868653302
 20
69.5403691508
 30
0.0
 10
89.1294701722
 20
69.622701602
 30
0.0
 10
89.3881938763
 20
69.8008973655
 30
0.0
 10
89.6974062314
 20
70.1258604726
 30
0.0
 10
89.8930108063
 20
70.4853498494
 30
0.0
 10
89.938758728
 20
70.7433634509
 30
0.0
 10
89.9387587339
 20
70.8671516091
 30
0.0
  0
SPLINE
  5
30C
100
AcDbEntity
  8
0
100
AcDbSpline
 62
7
  6
BYLAYER
 70
0
 71
3
 72
15
 73
11
 74
0
 42
0.0000001
 43
0.0000001
 44
0.0000000001
 40
0.0
 40
0.0
 40
0.0
 40
0.0
 40
0.1141220302
 40
0.2373445468
 40
0.3669709618
 40
0.5000005211
 40
0.6330300079
 40
0.7626562113
 40
0.8858783941
 40
1.0
 40
1.0
 40
1.0
 40
1.0
 10
44.2271733092
 20
46.3520901691
 30
0.0
 10
44.384451342
 20
46.2612877087
 30
0.0
 10
44.7285172549
 20
46.1011445054
 30
0.0
 10
45.2886857109
 20
45.9307777626
 30
0.0
 10
45.8952636865
 20
45.8260352023
 30
0.0
 10
46.5252742164
 20
45.7906124917
 30
0.0
 10
47.1552842429
 20
45.8260381909
 30
0.0
 10
47.7618607313
 20
45.9307836295
 30
0.0
 10
48.3220267763
 20
46.1011530341
 30
0.0
 10
48.6660905827
 20
46.2612979551
 30
0.0
 10
48.8233673765
 20
46.3521012109
 30
0.0
  0
SPLINE
  5
30D
100
AcDbEntity
  8
0
100
AcDbSpline
 62
7
  6
BYLAYER
 70
0
 71
3
 72
11
 73
7
 74
0
 42
0.0000001
 43
0.0000001
 44
0.0000000001
 40
0.0
 40
0.0
 40
0.0
 40
0.0
 40
0.2897018301
 40
0.5490862154
 40
0.7822153082
 40
1.0
 40
1.0
 40
1.0
 40
1.0
 10
48.8233673765
 20
46.3521012109
 30
0.0
 10
48.9659722184
 20
46.4344336621
 30
0.0
 10
49.2246959225
 20
46.6126294256
 30
0.0
 10
49.5339082777
 20
46.9375925327
 30
0.0
 10
49.7295128525
 20
47.2970819095
 30
0.0
 10
49.7752607742
 20
47.555095511
 30
0.0
 10
49.7752607802
 20
47.6788836692
 30
0.0
  0
SPLINE
  5
30E
100
AcDbEntity
  8
0
100
AcDbSpline
 62
7
  6
BYLAYER
 70
0
 71
3
 72
9
 73
5
 74
0
 42
0.0000001
 43
0.0000001
 44
0.0000000001
 40
0.0
 40
0.0
 40
0.0
 40
0.0
 40
0.5207531643
 40
1.0
 40
1.0
 40
1.0
 40
1.0
 10
87.7681269974
 20
69.0972943302
 30
0.0
 10
87.9894186044
 20
69.142283962
 30
0.0
 10
88.4092188591
 20
69.2572100783
 30
0.0
 10
88.8068877792
 20
69.4364596852
 30
0.0
 10
88.9868653302
 20
69.5403691508
 30
0.0
  0
SPLINE
  5
30F
100
AcDbEntity
  8
0
100
AcDbSpline
 62
7
  6
BYLAYER
 70
0
 71
3
 72
11
 73
7
 74
0
 42
0.0000001
 43
0.0000001
 44
0.0000000001
 40
0.0
 40
0.0
 40
0.0
 40
0.0
 40
0.2814056112
 40
0.5408385737
 40
0.779082214
 40
1.0
 40
1.0
 40
1.0
 40
1.0
 10
81.1026033867
 20
87.115501265
 30
0.0
 10
81.2697567616
 20
87.0189974023
 30
0.0
 10
81.5801893024
 20
86.8135118171
 30
0.0
 10
81.9791436227
 20
86.4545871593
 30
0.0
 10
82.2838880167
 20
86.0636121277
 30
0.0
 10
82.4229659452
 20
85.7775402026
 30
0.0
 10
82.4720722233
 20
85.6341946612
 30
0.0
  0
SPLINE
  5
310
100
AcDbEntity
  8
0
100
AcDbSpline
 62
7
  6
BYLAYER
 70
0
 71
3
 72
12
 73
8
 74
0
 42
0.0000001
 43
0.0000001
 44
0.0000000001
 40
0.0
 40
0.0
 40
0.0
 40
0.0
 40
0.2392235872
 40
0.5017939689
 40
0.7632664786
 40
0.8861623142
 40
1.0
 40
1.0
 40
1.0
 40
1.0
 10
66.1492740609
 20
122.5212599203
 30
0.0
 10
66.1560887175
 20
122.7505322865
 30
0.0
 10
66.2510540811
 20
123.2296188608
 30
0.0
 10
66.5563685245
 20
123.899846448
 30
0.0
 10
66.9299676692
 20
124.402697112
 30
0.0
 10
67.2811661249
 20
124.7280532003
 30
0.0
 10
67.4680930346
 20
124.8586896364
 30
0.0
 10
67.5626202378
 20
124.9132646168
 30
0.0
  0
SPLINE
  5
311
100
AcDbEntity
  8
0
100
AcDbSpline
 62
7
  6
BYLAYER
 70
0
 71
3
 72
21
 73
17
 74
0
 42
0.0000001
 43
0.0000001
 44
0.0000000001
 40
0.0
 40
0.0
 40
0.0
 40
0.0
 40
0.0549930209
 40
0.1126898823
 40
0.172634597
 40
0.2342893625
 40
0.2971382325
 40
0.3607479536
 40
0.4247955867
 40
0.4890674391
 40
0.5534367703
 40
0.6178300218
 40
0.6821914399
 40
0.7464558584
 40
0.874175055
 40
1.0
 40
1.0
 40
1.0
 40
1.0
 10
68.8791687305
 20
108.7924470352
 30
0.0
 10
68.8593033335
 20
108.2886964488
 30
0.0
 10
68.7466424242
 20
107.258320459
 30
0.0
 10
68.3811175704
 20
105.7148694343
 30
0.0
 10
67.8165561309
 20
104.1671931472
 30
0.0
 10
67.0560928542
 20
102.6527128709
 30
0.0
 10
66.1055873828
 20
101.2089710966
 30
0.0
 10
64.9750519794
 20
99.8721979317
 30
0.0
 10
63.6798898762
 20
98.6746361388
 30
0.0
 10
62.2410516908
 20
97.6421352362
 30
0.0
 10
60.6840761378
 20
96.7919899796
 30
0.0
 10
59.0370211217
 20
96.1319539959
 30
0.0
 10
57.3277376566
 20
95.6608848333
 30
0.0
 10
55.0060737918
 20
95.2746050222
 30
0.0
 10
52.0774732391
 20
95.2084797478
 30
0.0
 10
49.7653936725
 20
95.5174618612
 30
0.0
 10
48.6343148884
 20
95.7437133411
 30
0.0
  0
SPLINE
  5
312
100
AcDbEntity
  8
0
100
AcDbSpline
 62
7
  6
BYLAYER
 70
0
 71
3
 72
15
 73
11
 74
0
 42
0.0000001
 43
0.0000001
 44
0.0000000001
 40
0.0
 40
0.0
 40
0.0
 40
0.0
 40
0.1117682398
 40
0.2404156112
 40
0.3814558127
 40
0.5270030744
 40
0.668533065
 40
0.7982456089
 40
0.9095585338
 40
1.0
 40
1.0
 40
1.0
 40
1.0
 10
48.6343148886
 20
95.7437133411
 30
0.0
 10
48.6343148886
 20
95.8753530299
 30
0.0
 10
48.6451791371
 20
96.1585438231
 30
0.0
 10
48.6891124677
 20
96.6059004863
 30
0.0
 10
48.7646408822
 20
97.0893400617
 30
0.0
 10
48.8681926767
 20
97.583084265
 30
0.0
 10
48.9965051634
 20
98.0571804553
 30
0.0
 10
49.1391659546
 20
98.4849142946
 30
0.0
 10
49.2887494506
 20
98.845862739
 30
0.0
 10
49.3979521736
 20
99.0574487078
 30
0.0
 10
49.4527647765
 20
99.1487851383
 30
0.0
  0
SPLINE
  5
313
100
AcDbEntity
  8
0
100
AcDbSpline
 62
7
  6
BYLAYER
 70
0
 71
3
 72
14
 73
10
 74
0
 42
0.0000001
 43
0.0000001
 44
0.0000000001
 40
0.0
 40
0.0
 40
0.0
 40
0.0
 40
0.219847651
 40
0.3478280829
 40
0.4831011482
 40
0.6209985225
 40
0.756209331
 40
0.8836679097
 40
1.0
 40
1.0
 40
1.0
 40
1.0
 10
65.6815077324
 20
109.0272202707
 30
0.0
 10
65.8899626458
 20
108.9053261544
 30
0.0
 10
66.2481177135
 20
108.7593329749
 30
0.0
 10
66.764801312
 20
108.6370008425
 30
0.0
 10
67.2025501433
 20
108.5792093929
 30
0.0
 10
67.6516647836
 20
108.5669727176
 30
0.0
 10
68.0913283525
 20
108.5982721703
 30
0.0
 10
68.5017704253
 20
108.6722222199
 30
0.0
 10
68.7592412477
 20
108.7483499054
 30
0.0
 10
68.8791687296
 20
108.7924470229
 30
0.0
  0
SPLINE
  5
314
100
AcDbEntity
  8
0
100
AcDbSpline
 62
7
  6
BYLAYER
 70
0
 71
3
 72
13
 73
9
 74
0
 42
0.0000001
 43
0.0000001
 44
0.0000000001
 40
0.0
 40
0.0
 40
0.0
 40
0.0
 40
0.2884117895
 40
0.4244943811
 40
0.5540207997
 40
0.6764398551
 40
0.791503948
 40
1.0
 40
1.0
 40
1.0
 40
1.0
 10
48.6343148884
 20
95.7437133411
 30
0.0
 10
47.0827033497
 20
96.0540876169
 30
0.0
 10
44.82356728
 20
96.6661206576
 30
0.0
 10
42.0050006117
 20
97.8116072047
 30
0.0
 10
40.1077392289
 20
98.7836824614
 30
0.0
 10
38.4099173553
 20
99.8743665966
 30
0.0
 10
36.5062877312
 20
101.4142061203
 30
0.0
 10
35.3289648138
 20
102.7843968218
 30
0.0
 10
34.740337675
 20
103.7652233546
 30
0.0
  0
SPLINE
  5
315
100
AcDbEntity
  8
0
100
AcDbSpline
 62
7
  6
BYLAYER
 70
0
 71
3
 72
13
 73
9
 74
0
 42
0.0000001
 43
0.0000001
 44
0.0000000001
 40
0.0
 40
0.0
 40
0.0
 40
0.0
 40
0.2502288937
 40
0.3865726809
 40
0.5240021868
 40
0.6575487547
 40
0.7832128151
 40
1.0
 40
1.0
 40
1.0
 40
1.0
 10
37.1025627629
 20
106.2790163382
 30
0.0
 10
36.8000254817
 20
106.2184971215
 30
0.0
 10
36.3440857047
 20
106.0500825569
 30
0.0
 10
35.8013539452
 20
105.6965663299
 30
0.0
 10
35.4249810239
 20
105.3605134062
 30
0.0
 10
35.120074082
 20
104.9746707816
 30
0.0
 10
34.8380325049
 20
104.458185595
 30
0.0
 10
34.7403376217
 20
104.0325209865
 30
0.0
 10
34.7403376215
 20
103.7652234438
 30
0.0
  0
SPLINE
  5
316
100
AcDbEntity
  8
0
100
AcDbSpline
 62
7
  6
BYLAYER
 70
0
 71
3
 72
12
 73
8
 74
0
 42
0.0000001
 43
0.0000001
 44
0.0000000001
 40
0.0
 40
0.0
 40
0.0
 40
0.0
 40
0.2752812124
 40
0.5348773552
 40
0.7745550518
 40
0.8883613177
 40
1.0
 40
1.0
 40
1.0
 40
1.0
 10
37.8339739698
 20
125.1046376752
 30
0.0
 10
37.7298300178
 20
125.1639921385
 30
0.0
 10
37.5353743067
 20
125.2945013149
 30
0.0
 10
37.2947301164
 20
125.5345702098
 30
0.0
 10
37.1597018225
 20
125.7702746558
 30
0.0
 10
37.1071602779
 20
125.9669339148
 30
0.0
 10
37.1004382916
 20
126.0656062846
 30
0.0
 10
37.1017279131
 20
126.1142019177
 30
0.0
  0
SPLINE
  5
317
100
AcDbEntity
  8
0
100
AcDbSpline
 62
7
  6
BYLAYER
 70
0
 71
3
 72
11
 73
7
 74
0
 42
0.0000001
 43
0.0000001
 44
0.0000000001
 40
0.0
 40
0.0
 40
0.0
 40
0.0
 40
0.2362114448
 40
0.4977621228
 40
0.7605547782
 40
1.0
 40
1.0
 40
1.0
 40
1.0
 10
39.5839694222
 20
141.0663807644
 30
0.0
 10
39.3879404686
 20
140.9532040708
 30
0.0
 10
39.0160235075
 20
140.6426857273
 30
0.0
 10
38.5781195553
 20
140.0536024103
 30
0.0
 10
38.2723998988
 20
139.3828625886
 30
0.0
 10
38.1774402685
 20
138.9037280203
 30
0.0
 10
38.1706232456
 20
138.6743760762
 30
0.0
  0
SPLINE
  5
318
100
AcDbEntity
  8
0
100
AcDbSpline
 62
7
  6
BYLAYER
 70
0
 71
3
 72
11
 73
7
 74
0
 42
0.0000001
 43
0.0000001
 44
0.0000000001
 40
0.0
 40
0.0
 40
0.0
 40
0.0
 40
0.2933192871
 40
0.5538105228
 40
0.7853920027
 40
1.0
 40
1.0
 40
1.0
 40
1.0
 10
38.1709042326
 20
138.6745306389
 30
0.0
 10
38.0595287823
 20
138.7382465371
 30
0.0
 10
37.8580023653
 20
138.87550894
 30
0.0
 10
37.6176417155
 20
139.1253161768
 30
0.0
 10
37.467636781
 20
139.4008170588
 30
0.0
 10
37.4357639303
 20
139.5982602795
 30
0.0
 10
37.438028156
 20
139.6921135339
 30
0.0
  0
SPLINE
  5
319
100
AcDbEntity
  8
0
100
AcDbSpline
 62
7
  6
BYLAYER
 70
0
 71
3
 72
11
 73
7
 74
0
 42
0.0000001
 43
0.0000001
 44
0.0000000001
 40
0.0
 40
0.0
 40
0.0
 40
0.0
 40
0.2393869001
 40
0.5021621874
 40
0.7637662825
 40
1.0
 40
1.0
 40
1.0
 40
1.0
 10
42.331123552
 20
136.2723644203
 30
0.0
 10
42.3379388985
 20
136.5016599666
 30
0.0
 10
42.4328777211
 20
136.9807195399
 30
0.0
 10
42.7385463755
 20
137.65145655
 30
0.0
 10
43.1764634955
 20
138.2405993147
 30
0.0
 10
43.5484227488
 20
138.5511820315
 30
0.0
 10
43.7444697293
 20
138.6643691329
 30
0.0
  0
SPLINE
  5
31A
100
AcDbEntity
  8
0
100
AcDbSpline
 62
7
  6
BYLAYER
 70
0
 71
3
 72
11
 73
7
 74
0
 42
0.0000001
 43
0.0000001
 44
0.0000000001
 40
0.0
 40
0.0
 40
0.0
 40
0.0
 40
0.2272070861
 40
0.464700594
 40
0.720960462
 40
1.0
 40
1.0
 40
1.0
 40
1.0
 10
74.5626206612
 20
125.9347972584
 30
0.0
 10
74.5647564752
 20
125.8534079353
 30
0.0
 10
74.5455964964
 20
125.6855207758
 30
0.0
 10
74.4487303815
 20
125.4432173243
 30
0.0
 10
74.2881423515
 20
125.2150825801
 30
0.0
 10
74.1487479405
 20
125.0816247081
 30
0.0
 10
74.0713060049
 20
125.0183717141
 30
0.0
  0
SPLINE
  5
31B
100
AcDbEntity
  8
0
100
AcDbSpline
 62
7
  6
BYLAYER
 70
0
 71
3
 72
9
 73
5
 74
0
 42
0.0000001
 43
0.0000001
 44
0.0000000001
 40
0.0
 40
0.0
 40
0.0
 40
0.0
 40
0.2591884254
 40
1.0
 40
1.0
 40
1.0
 40
1.0
 10
87.7517963245
 20
68.8997072867
 30
0.0
 10
87.8739671682
 20
68.9179192915
 30
0.0
 10
88.3432388461
 20
69.0008688889
 30
0.0
 10
88.8043359658
 20
69.1348435504
 30
0.0
 10
89.1314878123
 20
69.2675602803
 30
0.0
  0
SPLINE
  5
31C
100
AcDbEntity
  8
0
100
AcDbSpline
 62
7
  6
BYLAYER
 70
0
 71
3
 72
9
 73
5
 74
0
 42
0.0000001
 43
0.0000001
 44
0.0000000001
 40
0.0
 40
0.0
 40
0.0
 40
0.0
 40
0.257635353
 40
1.0
 40
1.0
 40
1.0
 40
1.0
 10
89.1314878123
 20
69.2675602803
 30
0.0
 10
89.1812592472
 20
69.2877512166
 30
0.0
 10
89.3731796538
 20
69.3691717696
 30
0.0
 10
89.559943774
 20
69.4629970721
 30
0.0
 10
89.6939750658
 20
69.5403796109
 30
0.0
  0
SPLINE
  5
31D
100
AcDbEntity
  8
0
100
AcDbSpline
 62
7
  6
BYLAYER
 70
0
 71
3
 72
11
 73
7
 74
0
 42
0.0000001
 43
0.0000001
 44
0.0000000001
 40
0.0
 40
0.0
 40
0.0
 40
0.0
 40
0.2360386286
 40
0.4791593586
 40
0.7337766719
 40
1.0
 40
1.0
 40
1.0
 40
1.0
 10
74.8990439446
 20
112.8978768974
 30
0.0
 10
74.9008559518
 20
112.8170902911
 30
0.0
 10
74.8823212068
 20
112.6518690395
 30
0.0
 10
74.7913598316
 20
112.4151525952
 30
0.0
 10
74.6438944991
 20
112.1969741776
 30
0.0
 10
74.518533498
 20
112.0688891263
 30
0.0
 10
74.4500344101
 20
112.0087686364
 30
0.0
  0
SPLINE
  5
31E
100
AcDbEntity
  8
0
100
AcDbSpline
 62
7
  6
BYLAYER
 70
0
 71
3
 72
15
 73
11
 74
0
 42
0.0000001
 43
0.0000001
 44
0.0000000001
 40
0.0
 40
0.0
 40
0.0
 40
0.0
 40
0.1448521773
 40
0.2745451637
 40
0.3911081005
 40
0.4999989894
 40
0.6088900536
 40
0.7254534612
 40
0.8551471319
 40
1.0
 40
1.0
 40
1.0
 40
1.0
 10
89.6939750658
 20
69.5403796109
 30
0.0
 10
89.8804600809
 20
69.6480461396
 30
0.0
 10
90.2187907469
 20
69.8811106302
 30
0.0
 10
90.6231423577
 20
70.3059376409
 30
0.0
 10
90.8789206721
 20
70.7764517751
 30
0.0
 10
90.9676299229
 20
71.2754132629
 30
0.0
 10
90.8789134211
 20
71.7743741172
 30
0.0
 10
90.6231284698
 20
72.2448867832
 30
0.0
 10
90.2187708228
 20
72.6697117313
 30
0.0
 10
89.8804367219
 20
72.9027747725
 30
0.0
 10
89.6939500421
 20
73.0104404716
 30
0.0
  0
SPLINE
  5
31F
100
AcDbEntity
  8
0
100
AcDbSpline
 62
7
  6
BYLAYER
 70
0
 71
3
 72
9
 73
5
 74
0
 42
0.0000001
 43
0.0000001
 44
0.0000000001
 40
0.0
 40
0.0
 40
0.0
 40
0.0
 40
0.4772001256
 40
1.0
 40
1.0
 40
1.0
 40
1.0
 10
89.6939500421
 20
73.0104404716
 30
0.0
 10
89.411020428
 20
73.173786265
 30
0.0
 10
88.7764471104
 20
73.4451666426
 30
0.0
 10
88.1058058275
 20
73.5983258592
 30
0.0
 10
87.7518022841
 20
73.6510974604
 30
0.0
  0
SPLINE
  5
320
100
AcDbEntity
  8
0
100
AcDbSpline
 62
7
  6
BYLAYER
 70
0
 71
3
 72
9
 73
5
 74
0
 42
0.0000001
 43
0.0000001
 44
0.0000000001
 40
0.0
 40
0.0
 40
0.0
 40
0.0
 40
0.24214876
 40
1.0
 40
1.0
 40
1.0
 40
1.0
 10
92.0506330001
 20
81.3727030454
 30
0.0
 10
92.0184928618
 20
81.3541470387
 30
0.0
 10
91.8842088016
 20
81.2802233667
 30
0.0
 10
91.7442027691
 20
81.2168526102
 30
0.0
 10
91.6361572589
 20
81.1742271972
 30
0.0
  0
SPLINE
  5
321
100
AcDbEntity
  8
0
100
AcDbSpline
 62
7
  6
BYLAYER
 70
0
 71
3
 72
21
 73
17
 74
0
 42
0.0000001
 43
0.0000001
 44
0.0000000001
 40
0.0
 40
0.0
 40
0.0
 40
0.0
 40
0.0513414981
 40
0.1020296127
 40
0.1530124051
 40
0.2053451465
 40
0.317828793
 40
0.3794619838
 40
0.4447799217
 40
0.5133781534
 40
0.5843732974
 40
0.7291407378
 40
0.8006144
 40
0.8701293117
 40
0.9368381055
 40
1.0
 40
1.0
 40
1.0
 40
1.0
 10
37.1025617566
 20
106.2790160021
 30
0.0
 10
36.9050221529
 20
106.5461912684
 30
0.0
 10
36.5396434338
 20
107.0981163714
 30
0.0
 10
36.0926572222
 20
107.9844354402
 30
0.0
 10
35.7583550987
 20
108.9262955168
 30
0.0
 10
35.4602568468
 20
110.2941977929
 30
0.0
 10
35.4169909909
 20
111.772242037
 30
0.0
 10
35.5715265367
 20
113.3144219615
 30
0.0
 10
35.780209343
 20
114.5635871677
 30
0.0
 10
36.0610475858
 20
115.8598920065
 30
0.0
 10
36.4986186767
 20
117.6475050647
 30
0.0
 10
36.9658313054
 20
119.4469853995
 30
0.0
 10
37.3655100572
 20
121.2529361185
 30
0.0
 10
37.6069228863
 20
122.5757409378
 30
0.0
 10
37.7708823362
 20
123.8563353902
 30
0.0
 10
37.8244703062
 20
124.6959776222
 30
0.0
 10
37.8339732098
 20
125.1046381071
 30
0.0
  0
SPLINE
  5
322
100
AcDbEntity
  8
0
100
AcDbSpline
 62
7
  6
BYLAYER
 70
0
 71
3
 72
15
 73
11
 74
0
 42
0.0000001
 43
0.0000001
 44
0.0000000001
 40
0.0
 40
0.0
 40
0.0
 40
0.0
 40
0.1113945198
 40
0.2301681914
 40
0.3532294795
 40
0.4787077037
 40
0.6063786378
 40
0.7364094661
 40
0.8681405853
 40
1.0
 40
1.0
 40
1.0
 40
1.0
 10
65.681507973
 20
109.0272201398
 30
0.0
 10
65.6518529741
 20
108.209089897
 30
0.0
 10
65.3790059573
 20
106.5221148051
 30
0.0
 10
64.4089877752
 20
104.0921720479
 30
0.0
 10
62.8323735811
 20
101.8650167726
 30
0.0
 10
60.6684049287
 20
100.0874376036
 30
0.0
 10
58.0567400461
 20
98.9475587503
 30
0.0
 10
55.2103406144
 20
98.472882736
 30
0.0
 10
52.3050940319
 20
98.5640975998
 30
0.0
 10
50.3936828119
 20
98.9169046612
 30
0.0
 10
49.4527646207
 20
99.1487849279
 30
0.0
  0
SPLINE
  5
323
100
AcDbEntity
  8
0
100
AcDbSpline
 62
7
  6
BYLAYER
 70
0
 71
3
 72
13
 73
9
 74
0
 42
0.0000001
 43
0.0000001
 44
0.0000000001
 40
0.0
 40
0.0
 40
0.0
 40
0.0
 40
0.2884116428
 40
0.4244941501
 40
0.5540205336
 40
0.6764396256
 40
0.7915038141
 40
1.0
 40
1.0
 40
1.0
 40
1.0
 10
49.4527647763
 20
99.1487851384
 30
0.0
 10
48.0735555554
 20
99.4246731763
 30
0.0
 10
46.0654367777
 20
99.9687049102
 30
0.0
 10
43.5600472758
 20
100.9869174439
 30
0.0
 10
41.8735940067
 20
101.8509848439
 30
0.0
 10
40.3644185199
 20
102.8204810952
 30
0.0
 10
38.6723007378
 20
104.1892250421
 30
0.0
 10
37.6257871371
 20
105.4071701032
 30
0.0
 10
37.1025628089
 20
106.2790162614
 30
0.0
  0
SPLINE
  5
324
100
AcDbEntity
  8
0
100
AcDbSpline
 62
7
  6
BYLAYER
 70
0
 71
3
 72
9
 73
5
 74
0
 42
0.0000001
 43
0.0000001
 44
0.0000000001
 40
0.0
 40
0.0
 40
0.0
 40
0.0
 40
0.2408068714
 40
1.0
 40
1.0
 40
1.0
 40
1.0
 10
58.3907642819
 20
62.0465881888
 30
0.0
 10
58.3653366995
 20
62.0252198781
 30
0.0
 10
58.2575728882
 20
61.9390770181
 30
0.0
 10
58.1418080066
 20
61.8631294285
 30
0.0
 10
58.0511230533
 20
61.8107727588
 30
0.0
  0
SPLINE
  5
325
100
AcDbEntity
  8
0
100
AcDbSpline
 62
7
  6
BYLAYER
 70
0
 71
3
 72
15
 73
11
 74
0
 42
0.0000001
 43
0.0000001
 44
0.0000000001
 40
0.0
 40
0.0
 40
0.0
 40
0.0
 40
0.1167670401
 40
0.2435127092
 40
0.3768020906
 40
0.512610551
 40
0.6466100077
 40
0.7746530997
 40
0.8932618813
 40
1.0
 40
1.0
 40
1.0
 40
1.0
 10
58.0511230533
 20
61.8107727588
 30
0.0
 10
57.8936258778
 20
61.7198422649
 30
0.0
 10
57.5461205707
 20
61.5624382325
 30
0.0
 10
56.9790169753
 20
61.4045659224
 30
0.0
 10
56.3664576254
 20
61.3205131237
 30
0.0
 10
55.737045853
 20
61.3140727224
 30
0.0
 10
55.1198533819
 20
61.3856513353
 30
0.0
 10
54.543238278
 20
61.5318953194
 30
0.0
 10
54.0339388451
 20
61.7462056905
 30
0.0
 10
53.737529806
 20
61.9396254517
 30
0.0
 10
53.6102590929
 20
62.0465766978
 30
0.0
  0
SPLINE
  5
326
100
AcDbEntity
  8
0
100
AcDbSpline
 62
7
  6
BYLAYER
 70
0
 71
3
 72
11
 73
7
 74
0
 42
0.0000001
 43
0.0000001
 44
0.0000000001
 40
0.0
 40
0.0
 40
0.0
 40
0.0
 40
0.2895649585
 40
0.5491125837
 40
0.7822453718
 40
1.0
 40
1.0
 40
1.0
 40
1.0
 10
48.5986076713
 20
141.4668902515
 30
0.0
 10
48.6863208834
 20
141.5175311959
 30
0.0
 10
48.8609342262
 20
141.6005073978
 30
0.0
 10
49.1292226954
 20
141.6654196756
 30
0.0
 10
49.381074374
 20
141.6591038329
 30
0.0
 10
49.5325726521
 20
141.6039290832
 30
0.0
 10
49.5985404451
 20
141.5658587676
 30
0.0
  0
SPLINE
  5
327
100
AcDbEntity
  8
0
100
AcDbSpline
 62
7
  6
BYLAYER
 70
0
 71
3
 72
18
 73
14
 74
0
 42
0.0000001
 43
0.0000001
 44
0.0000000001
 40
0.0
 40
0.0
 40
0.0
 40
0.0
 40
0.1928622881
 40
0.3705454427
 40
0.5305889764
 40
0.6701656538
 40
0.7866724577
 40
0.8356946711
 40
0.8784085146
 40
0.9150871348
 40
0.9464732741
 40
0.9739869999
 40
1.0
 40
1.0
 40
1.0
 40
1.0
 10
74.8981654884
 20
113.8396062189
 30
0.0
 10
75.0969859212
 20
113.5706997228
 30
0.0
 10
75.4589444817
 20
113.0387629641
 30
0.0
 10
75.9099270106
 20
112.2354729362
 30
0.0
 10
76.2446196787
 20
111.4768394831
 30
0.0
 10
76.4616383596
 20
110.7870742371
 30
0.0
 10
76.5492315058
 20
110.2623791068
 30
0.0
 10
76.5533232472
 20
109.9005949762
 30
0.0
 10
76.5275432732
 20
109.6786391336
 30
0.0
 10
76.4739219512
 20
109.493018931
 30
0.0
 10
76.3937088611
 20
109.345983758
 30
0.0
 10
76.2866747013
 20
109.2409037639
 30
0.0
 10
76.1984810625
 20
109.2041483415
 30
0.0
 10
76.1543138219
 20
109.1949897265
 30
0.0
  0
SPLINE
  5
328
100
AcDbEntity
  8
0
100
AcDbSpline
 62
7
  6
BYLAYER
 70
0
 71
3
 72
9
 73
5
 74
0
 42
0.0000001
 43
0.0000001
 44
0.0000000001
 40
0.0
 40
0.0
 40
0.0
 40
0.0
 40
0.4612041855
 40
1.0
 40
1.0
 40
1.0
 40
1.0
 10
76.1543138219
 20
109.1949897265
 30
0.0
 10
76.1018077732
 20
109.1841019581
 30
0.0
 10
75.9822983415
 20
109.1859650615
 30
0.0
 10
75.8716093352
 20
109.226546605
 30
0.0
 10
75.8153958739
 20
109.2541938097
 30
0.0
  0
SPLINE
  5
329
100
AcDbEntity
  8
0
100
AcDbSpline
 62
7
  6
BYLAYER
 70
0
 71
3
 72
12
 73
8
 74
0
 42
0.0000001
 43
0.0000001
 44
0.0000000001
 40
0.0
 40
0.0
 40
0.0
 40
0.0
 40
0.2988244636
 40
0.5619752387
 40
0.7912351012
 40
0.8970876041
 40
1.0
 40
1.0
 40
1.0
 40
1.0
 10
20.344010228
 20
81.1589449013
 30
0.0
 10
20.1600812655
 20
81.2312900755
 30
0.0
 10
19.824168244
 20
81.3967276542
 30
0.0
 10
19.4115072196
 20
81.7264048188
 30
0.0
 10
19.1814420815
 20
82.058761917
 30
0.0
 10
19.0916658568
 20
82.33607419
 30
0.0
 10
19.0768311053
 20
82.4745692464
 30
0.0
 10
19.0768225151
 20
82.5426364886
 30
0.0
  0
SPLINE
  5
32A
100
AcDbEntity
  8
0
100
AcDbSpline
 62
7
  6
BYLAYER
 70
0
 71
3
 72
11
 73
7
 74
0
 42
0.0000001
 43
0.0000001
 44
0.0000000001
 40
0.0
 40
0.0
 40
0.0
 40
0.0
 40
0.2177842323
 40
0.4509131322
 40
0.7102976887
 40
1.0
 40
1.0
 40
1.0
 40
1.0
 10
89.9387587339
 20
70.8671516091
 30
0.0
 10
89.9387587398
 20
70.9909410997
 30
0.0
 10
89.893009744
 20
71.2489576746
 30
0.0
 10
89.6974009585
 20
71.6084505322
 30
0.0
 10
89.3881823245
 20
71.9334160462
 30
0.0
 10
89.1294537128
 20
72.1116124887
 30
0.0
 10
88.9868462049
 20
72.1939451091
 30
0.0
  0
SPLINE
  5
32B
100
AcDbEntity
  8
0
100
AcDbSpline
 62
7
  6
BYLAYER
 70
0
 71
3
 72
9
 73
5
 74
0
 42
0.0000001
 43
0.0000001
 44
0.0000000001
 40
0.0
 40
0.0
 40
0.0
 40
0.0
 40
0.2657577146
 40
1.0
 40
1.0
 40
1.0
 40
1.0
 10
46.6466971337
 20
141.1841860299
 30
0.0
 10
46.6658203319
 20
141.1807899397
 30
0.0
 10
46.7372218623
 20
141.1653719413
 30
0.0
 10
46.806774841
 20
141.1392251334
 30
0.0
 10
46.8532466728
 20
141.1123952158
 30
0.0
  0
SPLINE
  5
32C
100
AcDbEntity
  8
0
100
AcDbSpline
 62
7
  6
BYLAYER
 70
0
 71
3
 72
11
 73
7
 74
0
 42
0.0000001
 43
0.0000001
 44
0.0000000001
 40
0.0
 40
0.0
 40
0.0
 40
0.0
 40
0.2177137982
 40
0.4508430878
 40
0.7104430672
 40
1.0
 40
1.0
 40
1.0
 40
1.0
 10
45.4380108604
 20
143.9679040366
 30
0.0
 10
45.3720605401
 20
144.0059713091
 30
0.0
 10
45.2205763998
 20
144.0611244931
 30
0.0
 10
44.9687299716
 20
144.0674549772
 30
0.0
 10
44.700445348
 20
144.0024969691
 30
0.0
 10
44.5258155697
 20
143.9195397547
 30
0.0
 10
44.4381075219
 20
143.868901792
 30
0.0
  0
SPLINE
  5
32D
100
AcDbEntity
  8
0
100
AcDbSpline
 62
7
  6
BYLAYER
 70
0
 71
3
 72
11
 73
7
 74
0
 42
0.0000001
 43
0.0000001
 44
0.0000000001
 40
0.0
 40
0.0
 40
0.0
 40
0.0
 40
0.2635942875
 40
0.5139321117
 40
0.7572742586
 40
1.0
 40
1.0
 40
1.0
 40
1.0
 10
33.5003700615
 20
108.4431528578
 30
0.0
 10
33.500364063
 20
108.0127880577
 30
0.0
 10
33.5471527512
 20
107.1724961629
 30
0.0
 10
33.7797158162
 20
105.9542021436
 30
0.0
 10
34.1724739927
 20
104.8135755109
 30
0.0
 10
34.5364141663
 20
104.1050225266
 30
0.0
 10
34.740337675
 20
103.7652233546
 30
0.0
  0
SPLINE
  5
32E
100
AcDbEntity
  8
0
100
AcDbSpline
 62
7
  6
BYLAYER
 70
0
 71
3
 72
25
 73
21
 74
0
 42
0.0000001
 43
0.0000001
 44
0.0000000001
 40
0.0
 40
0.0
 40
0.0
 40
0.0
 40
0.0213320766
 40
0.0428927013
 40
0.0648979236
 40
0.0875429807
 40
0.135318091
 40
0.1872188362
 40
0.2436561765
 40
0.3046037051
 40
0.36969118
 40
0.4382883193
 40
0.5095747622
 40
0.5825991135
 40
0.6563310323
 40
0.7297073453
 40
0.8016839945
 40
0.8712750555
 40
0.9376185707
 40
1.0
 40
1.0
 40
1.0
 40
1.0
 10
33.500403912
 20
101.730986375
 30
0.0
 10
33.5003832364
 20
101.4117952768
 30
0.0
 10
33.5415868115
 20
100.7692489771
 30
0.0
 10
33.7262346919
 20
99.8134670384
 30
0.0
 10
34.0324165359
 20
98.8686788309
 30
0.0
 10
34.6102020862
 20
97.6092421842
 30
0.0
 10
35.6468240443
 20
96.0837700719
 30
0.0
 10
37.3028615942
 20
94.4211297363
 30
0.0
 10
39.3551376535
 20
92.9213939713
 30
0.0
 10
41.759700718
 20
91.6136149508
 30
0.0
 10
44.4662745183
 20
90.5232288735
 30
0.0
 10
47.4179744011
 20
89.6725699991
 30
0.0
 10
50.5524065066
 20
89.0793528256
 30
0.0
 10
53.8029836843
 20
88.7561070555
 30
0.0
 10
57.1004210882
 20
88.7097268522
 30
0.0
 10
60.3744083148
 20
88.9411481487
 30
0.0
 10
63.555049141
 20
89.44552818
 30
0.0
 10
66.5750191823
 20
90.2121099707
 30
0.0
 10
69.3695563252
 20
91.2247242718
 30
0.0
 10
71.1019737702
 20
92.0788660851
 30
0.0
 10
71.9103326956
 20
92.5455695425
 30
0.0
  0
SPLINE
  5
32F
100
AcDbEntity
  8
0
100
AcDbSpline
 62
7
  6
BYLAYER
 70
0
 71
3
 72
11
 73
7
 74
0
 42
0.0000001
 43
0.0000001
 44
0.0000000001
 40
0.0
 40
0.0
 40
0.0
 40
0.0
 40
0.2895468475
 40
0.5491384346
 40
0.782278826
 40
1.0
 40
1.0
 40
1.0
 40
1.0
 10
20.9161434597
 20
83.1549975994
 30
0.0
 10
20.8503623276
 20
83.1170190718
 30
0.0
 10
20.7309898676
 20
83.0347075596
 30
0.0
 10
20.5881943783
 20
82.8847976776
 30
0.0
 10
20.4978717655
 20
82.7188334978
 30
0.0
 10
20.4768707707
 20
82.5997517292
 30
0.0
 10
20.4768697296
 20
82.5426365044
 30
0.0
  0
SPLINE
  5
330
100
AcDbEntity
  8
0
100
AcDbSpline
 62
7
  6
BYLAYER
 70
0
 71
3
 72
11
 73
7
 74
0
 42
0.0000001
 43
0.0000001
 44
0.0000000001
 40
0.0
 40
0.0
 40
0.0
 40
0.0
 40
0.2895468475
 40
0.5491384346
 40
0.782278826
 40
1.0
 40
1.0
 40
1.0
 40
1.0
 10
88.9632551246
 20
83.1560840974
 30
0.0
 10
88.8974739925
 20
83.1181055698
 30
0.0
 10
88.7781015325
 20
83.0357940577
 30
0.0
 10
88.6353060431
 20
82.8858841757
 30
0.0
 10
88.5449834304
 20
82.7199199959
 30
0.0
 10
88.5239824356
 20
82.6008382273
 30
0.0
 10
88.5239813945
 20
82.5437230025
 30
0.0
  0
SPLINE
  5
331
100
AcDbEntity
  8
0
100
AcDbSpline
 62
7
  6
BYLAYER
 70
0
 71
3
 72
11
 73
7
 74
0
 42
0.0000001
 43
0.0000001
 44
0.0000000001
 40
0.0
 40
0.0
 40
0.0
 40
0.0
 40
0.2895396729
 40
0.5491163863
 40
0.7822545095
 40
1.0
 40
1.0
 40
1.0
 40
1.0
 10
96.9418082386
 20
71.1121304812
 30
0.0
 10
96.9856608738
 20
71.1374486608
 30
0.0
 10
97.0729706814
 20
71.1789289485
 30
0.0
 10
97.2071130895
 20
71.2113987764
 30
0.0
 10
97.3330429737
 20
71.2082364336
 30
0.0
 10
97.4087927019
 20
71.1806499748
 30
0.0
 10
97.4417717787
 20
71.1616099091
 30
0.0
  0
SPLINE
  5
332
100
AcDbEntity
  8
0
100
AcDbSpline
 62
7
  6
BYLAYER
 70
0
 71
3
 72
11
 73
7
 74
0
 42
0.0000001
 43
0.0000001
 44
0.0000000001
 40
0.0
 40
0.0
 40
0.0
 40
0.0
 40
0.2895468475
 40
0.5491384346
 40
0.782278826
 40
1.0
 40
1.0
 40
1.0
 40
1.0
 10
54.9390416509
 20
63.512312547
 30
0.0
 10
54.8732605188
 20
63.4743340194
 30
0.0
 10
54.7538880589
 20
63.3920225072
 30
0.0
 10
54.6110925695
 20
63.2421126252
 30
0.0
 10
54.5207699567
 20
63.0761484454
 30
0.0
 10
54.499768962
 20
62.9570666768
 30
0.0
 10
54.4997679209
 20
62.899951452
 30
0.0
  0
SPLINE
  5
333
100
AcDbEntity
  8
0
100
AcDbSpline
 62
7
  6
BYLAYER
 70
0
 71
3
 72
17
 73
13
 74
0
 42
0.0000001
 43
0.0000001
 44
0.0000000001
 40
0.0
 40
0.0
 40
0.0
 40
0.0
 40
0.1331557173
 40
0.2768640711
 40
0.4240557964
 40
0.5669664679
 40
0.6985725634
 40
0.8139855767
 40
0.8653040914
 40
0.9127398575
 40
0.9571866065
 40
1.0
 40
1.0
 40
1.0
 40
1.0
 10
32.0373207405
 20
24.6312091201
 30
0.0
 10
31.7305934175
 20
24.4844187122
 30
0.0
 10
31.0566227777
 20
24.2527434992
 30
0.0
 10
29.981777594
 20
24.087341333
 30
0.0
 10
28.8691669094
 20
24.0965400644
 30
0.0
 10
27.802656211
 20
24.2804884796
 30
0.0
 10
26.8622490859
 20
24.6249621038
 30
0.0
 10
26.2139372459
 20
25.0443398937
 30
0.0
 10
25.8358672451
 20
25.4429420153
 30
0.0
 10
25.6352003052
 20
25.7515776913
 30
0.0
 10
25.5120022858
 20
26.0757289475
 30
0.0
 10
25.4839292774
 20
26.2994382026
 30
0.0
 10
25.4839442162
 20
26.4087717288
 30
0.0
  0
SPLINE
  5
334
100
AcDbEntity
  8
0
100
AcDbSpline
 62
7
  6
BYLAYER
 70
0
 71
3
 72
9
 73
5
 74
0
 42
0.0000001
 43
0.0000001
 44
0.0000000001
 40
0.0
 40
0.0
 40
0.0
 40
0.0
 40
0.235274099
 40
1.0
 40
1.0
 40
1.0
 40
1.0
 10
33.054720606
 20
52.9748892534
 30
0.0
 10
33.0930580533
 20
53.0161440823
 30
0.0
 10
33.2639295336
 20
53.1841107394
 30
0.0
 10
33.4619786703
 20
53.3230957881
 30
0.0
 10
33.6205082962
 20
53.4146223632
 30
0.0
  0
SPLINE
  5
335
100
AcDbEntity
  8
0
100
AcDbSpline
 62
7
  6
BYLAYER
 70
0
 71
3
 72
11
 73
7
 74
0
 42
0.0000001
 43
0.0000001
 44
0.0000000001
 40
0.0
 40
0.0
 40
0.0
 40
0.0
 40
0.278735719
 40
0.5343544013
 40
0.7721054218
 40
1.0
 40
1.0
 40
1.0
 40
1.0
 10
27.7573649746
 20
27.0988757473
 30
0.0
 10
27.6996172152
 20
27.0507392884
 30
0.0
 10
27.5955842273
 20
26.9498074296
 30
0.0
 10
27.4751940728
 20
26.7781058942
 30
0.0
 10
27.4009259002
 20
26.5963799497
 30
0.0
 10
27.3839362921
 20
26.4702384129
 30
0.0
 10
27.3839363035
 20
26.4087717745
 30
0.0
  0
SPLINE
  5
336
100
AcDbEntity
  8
0
100
AcDbSpline
 62
7
  6
BYLAYER
 70
0
 71
3
 72
11
 73
7
 74
0
 42
0.0000001
 43
0.0000001
 44
0.0000000001
 40
0.0
 40
0.0
 40
0.0
 40
0.0
 40
0.2177842323
 40
0.4509131322
 40
0.7102976887
 40
1.0
 40
1.0
 40
1.0
 40
1.0
 10
39.168614903
 20
53.802494987
 30
0.0
 10
39.1686149089
 20
53.9262844776
 30
0.0
 10
39.122865913
 20
54.1843010525
 30
0.0
 10
38.9272571276
 20
54.5437939101
 30
0.0
 10
38.6180384936
 20
54.8687594241
 30
0.0
 10
38.3593098818
 20
55.0469558666
 30
0.0
 10
38.2167023739
 20
55.129288487
 30
0.0
  0
SPLINE
  5
337
100
AcDbEntity
  8
0
100
AcDbSpline
 62
7
  6
BYLAYER
 70
0
 71
3
 72
9
 73
5
 74
0
 42
0.0000001
 43
0.0000001
 44
0.0000000001
 40
0.0
 40
0.0
 40
0.0
 40
0.0
 40
0.4744317054
 40
1.0
 40
1.0
 40
1.0
 40
1.0
 10
24.4593784646
 20
58.2114484583
 30
0.0
 10
24.4593784637
 20
58.1971092531
 30
0.0
 10
24.4524951852
 20
58.1666444162
 30
0.0
 10
24.4347040657
 20
58.1414117211
 30
0.0
 10
24.4238962981
 20
58.1297705177
 30
0.0
  0
SPLINE
  5
338
100
AcDbEntity
  8
0
100
AcDbSpline
 62
7
  6
BYLAYER
 70
0
 71
3
 72
11
 73
7
 74
0
 42
0.0000001
 43
0.0000001
 44
0.0000000001
 40
0.0
 40
0.0
 40
0.0
 40
0.0
 40
0.2177508335
 40
0.4508940037
 40
0.710465094
 40
1.0
 40
1.0
 40
1.0
 40
1.0
 10
15.9024037132
 20
102.5968602909
 30
0.0
 10
15.9353842211
 20
102.6159014863
 30
0.0
 10
16.0111378699
 20
102.6434891092
 30
0.0
 10
16.1370715258
 20
102.6466468641
 30
0.0
 10
16.2712159954
 20
102.6141769245
 30
0.0
 10
16.3585251484
 20
102.5726942706
 30
0.0
 10
16.4023782458
 20
102.5473762457
 30
0.0
  0
SPLINE
  5
339
100
AcDbEntity
  8
0
100
AcDbSpline
 62
7
  6
BYLAYER
 70
0
 71
3
 72
9
 73
5
 74
0
 42
0.0000001
 43
0.0000001
 44
0.0000000001
 40
0.0
 40
0.0
 40
0.0
 40
0.0
 40
0.2354281956
 40
1.0
 40
1.0
 40
1.0
 40
1.0
 10
22.4553759838
 20
59.1063103606
 30
0.0
 10
22.4933966841
 20
59.1467696648
 30
0.0
 10
22.6624583885
 20
59.3114988559
 30
0.0
 10
22.8577114561
 20
59.4480804195
 30
0.0
 10
23.013862419
 20
59.538233681
 30
0.0
  0
SPLINE
  5
33A
100
AcDbEntity
  8
0
100
AcDbSpline
 62
7
  6
BYLAYER
 70
0
 71
3
 72
11
 73
7
 74
0
 42
0.0000001
 43
0.0000001
 44
0.0000000001
 40
0.0
 40
0.0
 40
0.0
 40
0.0
 40
0.217784692
 40
0.450913785
 40
0.71029817
 40
1.0
 40
1.0
 40
1.0
 40
1.0
 10
97.1841300636
 20
100.9145758845
 30
0.0
 10
97.1841300581
 20
100.800309893
 30
0.0
 10
97.1419012077
 20
100.5621434928
 30
0.0
 10
96.9613431405
 20
100.2303071463
 30
0.0
 10
96.6759163535
 20
99.9303412025
 30
0.0
 10
96.4370944748
 20
99.765852806
 30
0.0
 10
96.3054592373
 20
99.68985362
 30
0.0
  0
SPLINE
  5
33B
100
AcDbEntity
  8
0
100
AcDbSpline
 62
7
  6
BYLAYER
 70
0
 71
3
 72
11
 73
7
 74
0
 42
0.0000001
 43
0.0000001
 44
0.0000000001
 40
0.0
 40
0.0
 40
0.0
 40
0.0
 40
0.2177842323
 40
0.4509131322
 40
0.7102976887
 40
1.0
 40
1.0
 40
1.0
 40
1.0
 10
28.5619690258
 20
59.9261063048
 30
0.0
 10
28.5619690317
 20
60.0498957954
 30
0.0
 10
28.5162200358
 20
60.3079123703
 30
0.0
 10
28.3206112504
 20
60.6674052279
 30
0.0
 10
28.0113926164
 20
60.9923707419
 30
0.0
 10
27.7526640046
 20
61.1705671844
 30
0.0
 10
27.6100564967
 20
61.2528998048
 30
0.0
  0
SPLINE
  5
33C
100
AcDbEntity
  8
0
100
AcDbSpline
 62
7
  6
BYLAYER
 70
0
 71
3
 72
11
 73
7
 74
0
 42
0.0000001
 43
0.0000001
 44
0.0000000001
 40
0.0
 40
0.0
 40
0.0
 40
0.0
 40
0.2177797394
 40
0.4509042664
 40
0.7103116364
 40
1.0
 40
1.0
 40
1.0
 40
1.0
 10
92.8999945161
 20
82.5566012546
 30
0.0
 10
92.8999688583
 20
82.4461473025
 30
0.0
 10
92.8592035044
 20
82.2159244049
 30
0.0
 10
92.6846498319
 20
81.895138439
 30
0.0
 10
92.4087279429
 20
81.6051861786
 30
0.0
 10
92.177873723
 20
81.4461650725
 30
0.0
 10
92.0506330001
 20
81.3727030454
 30
0.0
  0
SPLINE
  5
33D
100
AcDbEntity
  8
0
100
AcDbSpline
 62
7
  6
BYLAYER
 70
0
 71
3
 72
16
 73
12
 74
0
 42
0.0000001
 43
0.0000001
 44
0.0000000001
 40
0.0
 40
0.0
 40
0.0
 40
0.0
 40
0.0428749215
 40
0.0875218052
 40
0.1869210508
 40
0.3042319763
 40
0.4379526978
 40
0.5823548967
 40
0.7295670544
 40
0.8712583699
 40
1.0
 40
1.0
 40
1.0
 40
1.0
 10
23.4767463651
 20
82.5426364308
 30
0.0
 10
23.4767471434
 20
82.5853336376
 30
0.0
 10
23.4654085746
 20
82.672876267
 30
0.0
 10
23.3960046006
 20
82.8473595106
 30
0.0
 10
23.2205644164
 20
83.0489110163
 30
0.0
 10
22.9192945227
 20
83.231746296
 30
0.0
 10
22.5433094464
 20
83.3576234134
 30
0.0
 10
22.1217878214
 20
83.4167486773
 30
0.0
 10
21.6883659816
 20
83.4048402612
 30
0.0
 10
21.2786184016
 20
83.3228173827
 30
0.0
 10
21.0271750119
 20
83.2191013133
 30
0.0
 10
20.9161434597
 20
83.1549975994
 30
0.0
  0
SPLINE
  5
33E
100
AcDbEntity
  8
0
100
AcDbSpline
 62
7
  6
BYLAYER
 70
0
 71
3
 72
11
 73
7
 74
0
 42
0.0000001
 43
0.0000001
 44
0.0000000001
 40
0.0
 40
0.0
 40
0.0
 40
0.0
 40
0.2177442246
 40
0.4508817658
 40
0.7104588047
 40
1.0
 40
1.0
 40
1.0
 40
1.0
 10
46.30818264
 20
16.3983144043
 30
0.0
 10
46.275202448
 20
16.417355114
 30
0.0
 10
46.2134340038
 20
16.4691641161
 30
0.0
 10
46.1477274939
 20
16.5766452836
 30
0.0
 10
46.108774324
 20
16.709056401
 30
0.0
 10
46.1010423429
 20
16.8054132364
 30
0.0
 10
46.1010423429
 20
16.8560520954
 30
0.0
  0
SPLINE
  5
33F
100
AcDbEntity
  8
0
100
AcDbSpline
 62
7
  6
BYLAYER
 70
0
 71
3
 72
15
 73
11
 74
0
 42
0.0000001
 43
0.0000001
 44
0.0000000001
 40
0.0
 40
0.0
 40
0.0
 40
0.0
 40
0.1448521773
 40
0.2745451637
 40
0.3911081005
 40
0.4999989894
 40
0.6088900536
 40
0.7254534612
 40
0.8551471319
 40
1.0
 40
1.0
 40
1.0
 40
1.0
 10
22.3067526939
 20
62.06938072
 30
0.0
 10
22.1202676788
 20
61.9617141914
 30
0.0
 10
21.7819370128
 20
61.7286497008
 30
0.0
 10
21.377585402
 20
61.30382269
 30
0.0
 10
21.1218070876
 20
60.8333085559
 30
0.0
 10
21.0330978368
 20
60.334347068
 30
0.0
 10
21.1218143386
 20
59.8353862137
 30
0.0
 10
21.3775992898
 20
59.3648735478
 30
0.0
 10
21.7819569369
 20
58.9400485997
 30
0.0
 10
22.1202910378
 20
58.7069855585
 30
0.0
 10
22.3067777176
 20
58.5993198594
 30
0.0
  0
SPLINE
  5
340
100
AcDbEntity
  8
0
100
AcDbSpline
 62
7
  6
BYLAYER
 70
0
 71
3
 72
9
 73
5
 74
0
 42
0.0000001
 43
0.0000001
 44
0.0000000001
 40
0.0
 40
0.0
 40
0.0
 40
0.0
 40
0.2422491853
 40
1.0
 40
1.0
 40
1.0
 40
1.0
 10
22.3067777176
 20
58.5993198594
 30
0.0
 10
22.350515766
 20
58.5740682566
 30
0.0
 10
22.5330533744
 20
58.4732896602
 30
0.0
 10
22.7228751566
 20
58.3858903374
 30
0.0
 10
22.8692641317
 20
58.3265051327
 30
0.0
  0
SPLINE
  5
341
100
AcDbEntity
  8
0
100
AcDbSpline
 62
7
  6
BYLAYER
 70
0
 71
3
 72
11
 73
7
 74
0
 42
0.0000001
 43
0.0000001
 44
0.0000000001
 40
0.0
 40
0.0
 40
0.0
 40
0.0
 40
0.2422449706
 40
0.5000002851
 40
0.7577554368
 40
1.0
 40
1.0
 40
1.0
 40
1.0
 10
22.8692641317
 20
58.3265051327
 30
0.0
 10
23.2425291074
 20
58.1750837777
 30
0.0
 10
24.0506483236
 20
57.9523628666
 30
0.0
 10
25.3119832894
 20
57.8437045617
 30
0.0
 10
26.5733171676
 20
57.9523676893
 30
0.0
 10
27.3814345345
 20
58.1750919567
 30
0.0
 10
27.7546981041
 20
58.326514976
 30
0.0
  0
SPLINE
  5
342
100
AcDbEntity
  8
0
100
AcDbSpline
 62
7
  6
BYLAYER
 70
0
 71
3
 72
9
 73
5
 74
0
 42
0.0000001
 43
0.0000001
 44
0.0000000001
 40
0.0
 40
0.0
 40
0.0
 40
0.0
 40
0.257635353
 40
1.0
 40
1.0
 40
1.0
 40
1.0
 10
27.7546981041
 20
58.326514976
 30
0.0
 10
27.804469539
 20
58.3467059123
 30
0.0
 10
27.9963899457
 20
58.4281264653
 30
0.0
 10
28.1831540659
 20
58.5219517678
 30
0.0
 10
28.3171853576
 20
58.5993343066
 30
0.0
  0
SPLINE
  5
343
100
AcDbEntity
  8
0
100
AcDbSpline
 62
7
  6
BYLAYER
 70
0
 71
3
 72
15
 73
11
 74
0
 42
0.0000001
 43
0.0000001
 44
0.0000000001
 40
0.0
 40
0.0
 40
0.0
 40
0.0
 40
0.1448521773
 40
0.2745451637
 40
0.3911081005
 40
0.4999989894
 40
0.6088900536
 40
0.7254534612
 40
0.8551471319
 40
1.0
 40
1.0
 40
1.0
 40
1.0
 10
28.3171853576
 20
58.5993343066
 30
0.0
 10
28.5036703727
 20
58.7070008353
 30
0.0
 10
28.8420010387
 20
58.9400653259
 30
0.0
 10
29.2463526495
 20
59.3648923366
 30
0.0
 10
29.5021309639
 20
59.8354064708
 30
0.0
 10
29.5908402147
 20
60.3343679587
 30
0.0
 10
29.5021237129
 20
60.8333288129
 30
0.0
 10
29.2463387617
 20
61.3038414789
 30
0.0
 10
28.8419811147
 20
61.728666427
 30
0.0
 10
28.5036470138
 20
61.9617294682
 30
0.0
 10
28.3171603339
 20
62.0693951673
 30
0.0
  0
SPLINE
  5
344
100
AcDbEntity
  8
0
100
AcDbSpline
 62
7
  6
BYLAYER
 70
0
 71
3
 72
16
 73
12
 74
0
 42
0.0000001
 43
0.0000001
 44
0.0000000001
 40
0.0
 40
0.0
 40
0.0
 40
0.0
 40
0.0428749215
 40
0.0875218052
 40
0.1869210508
 40
0.3042319763
 40
0.4379526978
 40
0.5823548967
 40
0.7295670544
 40
0.8712583699
 40
1.0
 40
1.0
 40
1.0
 40
1.0
 10
57.4996445564
 20
62.8999513783
 30
0.0
 10
57.4996453347
 20
62.9426485852
 30
0.0
 10
57.4883067659
 20
63.0301912146
 30
0.0
 10
57.4189027919
 20
63.2046744582
 30
0.0
 10
57.2434626076
 20
63.4062259639
 30
0.0
 10
56.942192714
 20
63.5890612436
 30
0.0
 10
56.5662076377
 20
63.714938361
 30
0.0
 10
56.1446860126
 20
63.7740636249
 30
0.0
 10
55.7112641729
 20
63.7621552088
 30
0.0
 10
55.3015165928
 20
63.6801323303
 30
0.0
 10
55.0500732032
 20
63.5764162609
 30
0.0
 10
54.9390416509
 20
63.512312547
 30
0.0
  0
SPLINE
  5
345
100
AcDbEntity
  8
0
100
AcDbSpline
 62
7
  6
BYLAYER
 70
0
 71
3
 72
16
 73
12
 74
0
 42
0.0000001
 43
0.0000001
 44
0.0000000001
 40
0.0
 40
0.0
 40
0.0
 40
0.0
 40
0.0428749215
 40
0.0875218052
 40
0.1869210508
 40
0.3042319763
 40
0.4379526978
 40
0.5823548967
 40
0.7295670544
 40
0.8712583699
 40
1.0
 40
1.0
 40
1.0
 40
1.0
 10
91.52385803
 20
82.5437229288
 30
0.0
 10
91.5238588083
 20
82.5864201357
 30
0.0
 10
91.5125202395
 20
82.673962765
 30
0.0
 10
91.4431162655
 20
82.8484460087
 30
0.0
 10
91.2676760813
 20
83.0499975144
 30
0.0
 10
90.9664061876
 20
83.2328327941
 30
0.0
 10
90.5904211113
 20
83.3587099115
 30
0.0
 10
90.1688994863
 20
83.4178351754
 30
0.0
 10
89.7354776465
 20
83.4059267593
 30
0.0
 10
89.3257300665
 20
83.3239038808
 30
0.0
 10
89.0742866768
 20
83.2201878114
 30
0.0
 10
88.9632551246
 20
83.1560840974
 30
0.0
  0
SPLINE
  5
346
100
AcDbEntity
  8
0
100
AcDbSpline
 62
7
  6
BYLAYER
 70
0
 71
3
 72
15
 73
11
 74
0
 42
0.0000001
 43
0.0000001
 44
0.0000000001
 40
0.0
 40
0.0
 40
0.0
 40
0.0
 40
0.1141236058
 40
0.2373475862
 40
0.3669728832
 40
0.5000004527
 40
0.6330279586
 40
0.7626530686
 40
0.8858767805
 40
1.0
 40
1.0
 40
1.0
 40
1.0
 10
28.3171603339
 20
62.0693951673
 30
0.0
 10
28.1114864444
 20
62.1881383564
 30
0.0
 10
27.6615462276
 20
62.3975536734
 30
0.0
 10
26.9290144693
 20
62.6203388352
 30
0.0
 10
26.1358001946
 20
62.7573027764
 30
0.0
 10
25.3119518599
 20
62.8036219695
 30
0.0
 10
24.4881041285
 20
62.7572989601
 30
0.0
 10
23.6948915757
 20
62.6203313106
 30
0.0
 10
22.9623627205
 20
62.397542578
 30
0.0
 10
22.5124250321
 20
62.1881249885
 30
0.0
 10
22.3067526939
 20
62.06938072
 30
0.0
  0
SPLINE
  5
347
100
AcDbEntity
  8
0
100
AcDbSpline
 62
7
  6
BYLAYER
 70
0
 71
3
 72
15
 73
11
 74
0
 42
0.0000001
 43
0.0000001
 44
0.0000000001
 40
0.0
 40
0.0
 40
0.0
 40
0.0
 40
0.1448521773
 40
0.2745451637
 40
0.3911081005
 40
0.4999989894
 40
0.6088900536
 40
0.7254534612
 40
0.8551471319
 40
1.0
 40
1.0
 40
1.0
 40
1.0
 10
32.9133985711
 20
55.9457694022
 30
0.0
 10
32.726913556
 20
55.8381028736
 30
0.0
 10
32.38858289
 20
55.605038383
 30
0.0
 10
31.9842312792
 20
55.1802113722
 30
0.0
 10
31.7284529648
 20
54.7096972381
 30
0.0
 10
31.639743714
 20
54.2107357502
 30
0.0
 10
31.7284602158
 20
53.7117748959
 30
0.0
 10
31.984245167
 20
53.24126223
 30
0.0
 10
32.3886028141
 20
52.8164372819
 30
0.0
 10
32.726936915
 20
52.5833742407
 30
0.0
 10
32.9134235948
 20
52.4757085416
 30
0.0
  0
SPLINE
  5
348
100
AcDbEntity
  8
0
100
AcDbSpline
 62
7
  6
BYLAYER
 70
0
 71
3
 72
11
 73
7
 74
0
 42
0.0000001
 43
0.0000001
 44
0.0000000001
 40
0.0
 40
0.0
 40
0.0
 40
0.0
 40
0.2372480941
 40
0.5000010917
 40
0.7627534955
 40
1.0
 40
1.0
 40
1.0
 40
1.0
 10
96.305459239
 20
99.689853621
 30
0.0
 10
96.305459239
 20
99.8057768601
 30
0.0
 10
96.2619995712
 20
100.0502506006
 30
0.0
 10
96.1103954354
 20
100.3937321799
 30
0.0
 10
95.8887328189
 20
100.6967643691
 30
0.0
 10
95.698741879
 20
100.8566365448
 30
0.0
 10
95.5983495139
 20
100.9145967926
 30
0.0
  0
SPLINE
  5
349
100
AcDbEntity
  8
0
100
AcDbSpline
 62
7
  6
BYLAYER
 70
0
 71
3
 72
11
 73
7
 74
0
 42
0.0000001
 43
0.0000001
 44
0.0000000001
 40
0.0
 40
0.0
 40
0.0
 40
0.0
 40
0.2895353844
 40
0.5491065881
 40
0.7822495581
 40
1.0
 40
1.0
 40
1.0
 40
1.0
 10
95.598337738
 20
102.5475666094
 30
0.0
 10
95.6421902128
 20
102.5728846964
 30
0.0
 10
95.7294981153
 20
102.614367579
 30
0.0
 10
95.8636408074
 20
102.6468382792
 30
0.0
 10
95.9895729362
 20
102.6436816363
 30
0.0
 10
96.0653258262
 20
102.6160949622
 30
0.0
 10
96.0983060259
 20
102.5970542599
 30
0.0
  0
SPLINE
  5
34A
100
AcDbEntity
  8
0
100
AcDbSpline
 62
7
  6
BYLAYER
 70
0
 71
3
 72
11
 73
7
 74
0
 42
0.0000001
 43
0.0000001
 44
0.0000000001
 40
0.0
 40
0.0
 40
0.0
 40
0.0
 40
0.2372483561
 40
0.5000016178
 40
0.7627539995
 40
1.0
 40
1.0
 40
1.0
 40
1.0
 10
53.8792113424
 20
77.6446591139
 30
0.0
 10
53.8792113424
 20
77.7605824151
 30
0.0
 10
53.9226706525
 20
78.0050562648
 30
0.0
 10
54.0742734227
 20
78.3485384274
 30
0.0
 10
54.2959340503
 20
78.6515715834
 30
0.0
 10
54.4859235028
 20
78.8114448692
 30
0.0
 10
54.5863151796
 20
78.8694056849
 30
0.0
  0
SPLINE
  5
34B
100
AcDbEntity
  8
0
100
AcDbSpline
 62
7
  6
BYLAYER
 70
0
 71
3
 72
11
 73
7
 74
0
 42
0.0000001
 43
0.0000001
 44
0.0000000001
 40
0.0
 40
0.0
 40
0.0
 40
0.0
 40
0.2372465045
 40
0.4999989083
 40
0.7627519059
 40
1.0
 40
1.0
 40
1.0
 40
1.0
 10
57.4147423043
 20
78.8694124836
 30
0.0
 10
57.5151346694
 20
78.8114522358
 30
0.0
 10
57.7051256094
 20
78.6515800601
 30
0.0
 10
57.9267882259
 20
78.3485478708
 30
0.0
 10
58.0783923616
 20
78.0050662915
 30
0.0
 10
58.1218520295
 20
77.760592551
 30
0.0
 10
58.1218520295
 20
77.6446693119
 30
0.0
  0
SPLINE
  5
34C
100
AcDbEntity
  8
0
100
AcDbSpline
 62
7
  6
BYLAYER
 70
0
 71
3
 72
13
 73
9
 74
0
 42
0.0000001
 43
0.0000001
 44
0.0000000001
 40
0.0
 40
0.0
 40
0.0
 40
0.0
 40
0.1142233651
 40
0.237555422
 40
0.4999994775
 40
0.7624438189
 40
0.88577621
 40
1.0
 40
1.0
 40
1.0
 40
1.0
 10
58.1218520295
 20
77.6446693119
 30
0.0
 10
57.9766734509
 20
77.5608509208
 30
0.0
 10
57.6590626227
 20
77.4129880808
 30
0.0
 10
56.9552592674
 20
77.1991498952
 30
0.0
 10
56.000535008
 20
77.0953350464
 30
0.0
 10
55.0458098308
 20
77.1991454814
 30
0.0
 10
54.3420038376
 20
77.412980205
 30
0.0
 10
54.0243910637
 20
77.5608414588
 30
0.0
 10
53.8792113407
 20
77.6446591148
 30
0.0
  0
SPLINE
  5
34D
100
AcDbEntity
  8
0
100
AcDbSpline
 62
7
  6
BYLAYER
 70
0
 71
3
 72
9
 73
5
 74
0
 42
0.0000001
 43
0.0000001
 44
0.0000000001
 40
0.0
 40
0.0
 40
0.0
 40
0.0
 40
0.2422491853
 40
1.0
 40
1.0
 40
1.0
 40
1.0
 10
32.9134235948
 20
52.4757085416
 30
0.0
 10
32.9571616432
 20
52.4504569388
 30
0.0
 10
33.1396992516
 20
52.3496783424
 30
0.0
 10
33.3295210338
 20
52.2622790196
 30
0.0
 10
33.4759100089
 20
52.2028938149
 30
0.0
  0
SPLINE
  5
34E
100
AcDbEntity
  8
0
100
AcDbSpline
 62
7
  6
BYLAYER
 70
0
 71
3
 72
11
 73
7
 74
0
 42
0.0000001
 43
0.0000001
 44
0.0000000001
 40
0.0
 40
0.0
 40
0.0
 40
0.0
 40
0.2422449706
 40
0.5000002851
 40
0.7577554368
 40
1.0
 40
1.0
 40
1.0
 40
1.0
 10
33.4759100089
 20
52.2028938149
 30
0.0
 10
33.8491749846
 20
52.0514724599
 30
0.0
 10
34.6572942008
 20
51.8287515488
 30
0.0
 10
35.9186291666
 20
51.7200932439
 30
0.0
 10
37.1799630448
 20
51.8287563715
 30
0.0
 10
37.9880804117
 20
52.0514806389
 30
0.0
 10
38.3613439813
 20
52.2029036582
 30
0.0
  0
SPLINE
  5
34F
100
AcDbEntity
  8
0
100
AcDbSpline
 62
7
  6
BYLAYER
 70
0
 71
3
 72
9
 73
5
 74
0
 42
0.0000001
 43
0.0000001
 44
0.0000000001
 40
0.0
 40
0.0
 40
0.0
 40
0.0
 40
0.257635353
 40
1.0
 40
1.0
 40
1.0
 40
1.0
 10
38.3613439813
 20
52.2029036582
 30
0.0
 10
38.4111154162
 20
52.2230945945
 30
0.0
 10
38.6030358229
 20
52.3045151475
 30
0.0
 10
38.7897999431
 20
52.39834045
 30
0.0
 10
38.9238312348
 20
52.4757229888
 30
0.0
  0
SPLINE
  5
350
100
AcDbEntity
  8
0
100
AcDbSpline
 62
7
  6
BYLAYER
 70
0
 71
3
 72
11
 73
7
 74
0
 42
0.0000001
 43
0.0000001
 44
0.0000000001
 40
0.0
 40
0.0
 40
0.0
 40
0.0
 40
0.2372460005
 40
0.4999983822
 40
0.7627516439
 40
1.0
 40
1.0
 40
1.0
 40
1.0
 10
16.4023900217
 20
100.914406429
 30
0.0
 10
16.3019983449
 20
100.8564456133
 30
0.0
 10
16.1120088924
 20
100.6965723275
 30
0.0
 10
15.8903482648
 20
100.3935391715
 30
0.0
 10
15.7387454946
 20
100.0500570089
 30
0.0
 10
15.6952861845
 20
99.8055831592
 30
0.0
 10
15.6952861845
 20
99.689659858
 30
0.0
  0
SPLINE
  5
351
100
AcDbEntity
  8
0
100
AcDbSpline
 62
7
  6
BYLAYER
 70
0
 71
3
 72
11
 73
7
 74
0
 42
0.0000001
 43
0.0000001
 44
0.0000000001
 40
0.0
 40
0.0
 40
0.0
 40
0.0
 40
0.2897023113
 40
0.5490868678
 40
0.7822157677
 40
1.0
 40
1.0
 40
1.0
 40
1.0
 10
15.6952861845
 20
99.689659858
 30
0.0
 10
15.5636484848
 20
99.7656591999
 30
0.0
 10
15.324822074
 20
99.9301482238
 30
0.0
 10
15.0393894888
 20
100.2301163905
 30
0.0
 10
14.858827533
 20
100.5619559514
 30
0.0
 10
14.8165976906
 20
100.8001250974
 30
0.0
 10
14.8165976961
 20
100.9143923196
 30
0.0
  0
SPLINE
  5
352
100
AcDbEntity
  8
0
100
AcDbSpline
 62
7
  6
BYLAYER
 70
0
 71
3
 72
15
 73
11
 74
0
 42
0.0000001
 43
0.0000001
 44
0.0000000001
 40
0.0
 40
0.0
 40
0.0
 40
0.0
 40
0.1448521773
 40
0.2745451637
 40
0.3911081005
 40
0.4999989894
 40
0.6088900536
 40
0.7254534612
 40
0.8551471319
 40
1.0
 40
1.0
 40
1.0
 40
1.0
 10
38.9238312348
 20
52.4757229888
 30
0.0
 10
39.1103162499
 20
52.5833895175
 30
0.0
 10
39.4486469159
 20
52.8164540081
 30
0.0
 10
39.8529985267
 20
53.2412810188
 30
0.0
 10
40.1087768411
 20
53.711795153
 30
0.0
 10
40.1974860919
 20
54.2107566408
 30
0.0
 10
40.1087695901
 20
54.7097174951
 30
0.0
 10
39.8529846389
 20
55.1802301611
 30
0.0
 10
39.4486269919
 20
55.6050551092
 30
0.0
 10
39.110292891
 20
55.8381181504
 30
0.0
 10
38.9238062111
 20
55.9457838495
 30
0.0
  0
SPLINE
  5
353
100
AcDbEntity
  8
0
100
AcDbSpline
 62
7
  6
BYLAYER
 70
0
 71
3
 72
15
 73
11
 74
0
 42
0.0000001
 43
0.0000001
 44
0.0000000001
 40
0.0
 40
0.0
 40
0.0
 40
0.0
 40
0.1141236058
 40
0.2373475862
 40
0.3669728832
 40
0.5000004527
 40
0.6330279586
 40
0.7626530686
 40
0.8858767805
 40
1.0
 40
1.0
 40
1.0
 40
1.0
 10
38.9238062111
 20
55.9457838495
 30
0.0
 10
38.7181323216
 20
56.0645270386
 30
0.0
 10
38.2681921048
 20
56.2739423556
 30
0.0
 10
37.5356603465
 20
56.4967275174
 30
0.0
 10
36.7424460718
 20
56.6336914586
 30
0.0
 10
35.9185977371
 20
56.6800106517
 30
0.0
 10
35.0947500057
 20
56.6336876423
 30
0.0
 10
34.3015374529
 20
56.4967199928
 30
0.0
 10
33.5690085977
 20
56.2739312602
 30
0.0
 10
33.1190709094
 20
56.0645136707
 30
0.0
 10
32.9133985711
 20
55.9457694022
 30
0.0
  0
SPLINE
  5
354
100
AcDbEntity
  8
0
100
AcDbSpline
 62
7
  6
BYLAYER
 70
0
 71
3
 72
15
 73
11
 74
0
 42
0.0000001
 43
0.0000001
 44
0.0000000001
 40
0.0
 40
0.0
 40
0.0
 40
0.0
 40
0.1448521773
 40
0.2745451637
 40
0.3911081005
 40
0.4999989894
 40
0.6088900536
 40
0.7254534612
 40
0.8551471319
 40
1.0
 40
1.0
 40
1.0
 40
1.0
 10
43.5200444483
 20
49.8221580844
 30
0.0
 10
43.3335594332
 20
49.7144915558
 30
0.0
 10
42.9952287672
 20
49.4814270652
 30
0.0
 10
42.5908771564
 20
49.0566000544
 30
0.0
 10
42.335098842
 20
48.5860859202
 30
0.0
 10
42.2463895912
 20
48.0871244324
 30
0.0
 10
42.335106093
 20
47.5881635781
 30
0.0
 10
42.5908910442
 20
47.1176509122
 30
0.0
 10
42.9952486913
 20
46.6928259641
 30
0.0
 10
43.3335827922
 20
46.4597629229
 30
0.0
 10
43.520069472
 20
46.3520972238
 30
0.0
  0
SPLINE
  5
355
100
AcDbEntity
  8
0
100
AcDbSpline
 62
7
  6
BYLAYER
 70
0
 71
3
 72
9
 73
5
 74
0
 42
0.0000001
 43
0.0000001
 44
0.0000000001
 40
0.0
 40
0.0
 40
0.0
 40
0.0
 40
0.2605006528
 40
1.0
 40
1.0
 40
1.0
 40
1.0
 10
95.598337738
 20
102.5475666094
 30
0.0
 10
95.6232141955
 20
102.5332045049
 30
0.0
 10
95.717397598
 20
102.4758690728
 30
0.0
 10
95.806246596
 20
102.4094839232
 30
0.0
 10
95.8669073257
 20
102.3549911024
 30
0.0
  0
SPLINE
  5
356
100
AcDbEntity
  8
0
100
AcDbSpline
 62
7
  6
BYLAYER
 70
0
 71
3
 72
15
 73
11
 74
0
 42
0.0000001
 43
0.0000001
 44
0.0000000001
 40
0.0
 40
0.0
 40
0.0
 40
0.0
 40
0.1325783865
 40
0.2532723824
 40
0.3660683121
 40
0.476613296
 40
0.5910143154
 40
0.7145643754
 40
0.8506729682
 40
1.0
 40
1.0
 40
1.0
 40
1.0
 10
95.8669073257
 20
102.3549911024
 30
0.0
 10
95.9250804301
 20
102.3027329681
 30
0.0
 10
96.0279239642
 20
102.1927439594
 30
0.0
 10
96.1375057343
 20
102.0042140185
 30
0.0
 10
96.1898607653
 20
101.805281119
 30
0.0
 10
96.1817949394
 20
101.6032483182
 30
0.0
 10
96.1136838189
 20
101.4065089079
 30
0.0
 10
95.9896885474
 20
101.2215523496
 30
0.0
 10
95.8148271344
 20
101.053297835
 30
0.0
 10
95.674626938
 20
100.9586353211
 30
0.0
 10
95.5983495139
 20
100.9145967926
 30
0.0
  0
SPLINE
  5
357
100
AcDbEntity
  8
0
100
AcDbSpline
 62
7
  6
BYLAYER
 70
0
 71
3
 72
13
 73
9
 74
0
 42
0.0000001
 43
0.0000001
 44
0.0000000001
 40
0.0
 40
0.0
 40
0.0
 40
0.0
 40
0.1141757996
 40
0.2375697486
 40
0.4999996443
 40
0.7624297362
 40
0.885823858
 40
1.0
 40
1.0
 40
1.0
 40
1.0
 10
57.4147423043
 20
78.8694124836
 30
0.0
 10
57.3179977914
 20
78.8135573464
 30
0.0
 10
57.1062129996
 20
78.7150587134
 30
0.0
 10
56.6370678376
 20
78.5723235982
 30
0.0
 10
56.0005305392
 20
78.5033547537
 30
0.0
 10
55.3639928428
 20
78.5723208514
 30
0.0
 10
54.8948462106
 20
78.7150535051
 30
0.0
 10
54.6830603854
 20
78.8135510778
 30
0.0
 10
54.5863151796
 20
78.8694056849
 30
0.0
  0
SPLINE
  5
358
100
AcDbEntity
  8
0
100
AcDbSpline
 62
7
  6
BYLAYER
 70
0
 71
3
 72
15
 73
11
 74
0
 42
0.0000001
 43
0.0000001
 44
0.0000000001
 40
0.0
 40
0.0
 40
0.0
 40
0.0
 40
0.1493278097
 40
0.2854373937
 40
0.4089883102
 40
0.5233898637
 40
0.6339349121
 40
0.7467303439
 40
0.8674232378
 40
1.0
 40
1.0
 40
1.0
 40
1.0
 10
16.4023900217
 20
100.914406429
 30
0.0
 10
16.3261125099
 20
100.9584442746
 30
0.0
 10
16.185911896
 20
101.0531054978
 30
0.0
 10
16.0110488389
 20
101.2213575985
 30
0.0
 10
15.8870509894
 20
101.4063118188
 30
0.0
 10
15.8189359419
 20
101.6030488916
 30
0.0
 10
15.8108652893
 20
101.8050798329
 30
0.0
 10
15.8632142309
 20
102.0040116339
 30
0.0
 10
15.9727895416
 20
102.1925410867
 30
0.0
 10
16.0756285729
 20
102.3025304227
 30
0.0
 10
16.1337993854
 20
102.3547887122
 30
0.0
  0
SPLINE
  5
359
100
AcDbEntity
  8
0
100
AcDbSpline
 62
7
  6
BYLAYER
 70
0
 71
3
 72
9
 73
5
 74
0
 42
0.0000001
 43
0.0000001
 44
0.0000000001
 40
0.0
 40
0.0
 40
0.0
 40
0.0
 40
0.2396688464
 40
1.0
 40
1.0
 40
1.0
 40
1.0
 10
16.1337993854
 20
102.3547887122
 30
0.0
 10
16.1534608448
 20
102.3724517668
 30
0.0
 10
16.2376746612
 20
102.4437140863
 30
0.0
 10
16.3297637638
 20
102.5054525052
 30
0.0
 10
16.4023782458
 20
102.5473762457
 30
0.0
  0
SPLINE
  5
35A
100
AcDbEntity
  8
0
100
AcDbSpline
 62
7
  6
BYLAYER
 70
0
 71
3
 72
11
 73
7
 74
0
 42
0.0000001
 43
0.0000001
 44
0.0000000001
 40
0.0
 40
0.0
 40
0.0
 40
0.0
 40
0.2897018303
 40
0.5490862153
 40
0.7822153083
 40
1.0
 40
1.0
 40
1.0
 40
1.0
 10
23.0138624295
 20
61.252888763
 30
0.0
 10
22.8712575879
 20
61.170556311
 30
0.0
 10
22.6125338836
 20
60.9923605482
 30
0.0
 10
22.303321528
 20
60.6673974413
 30
0.0
 10
22.1077169535
 20
60.3079080645
 30
0.0
 10
22.0619690317
 20
60.0498944629
 30
0.0
 10
22.0619690258
 20
59.9261063048
 30
0.0
  0
SPLINE
  5
35B
100
AcDbEntity
  8
0
100
AcDbSpline
 62
7
  6
BYLAYER
 70
0
 71
3
 72
15
 73
11
 74
0
 42
0.0000001
 43
0.0000001
 44
0.0000000001
 40
0.0
 40
0.0
 40
0.0
 40
0.0
 40
0.1485649113
 40
0.289509507
 40
0.4227287909
 40
0.5486398889
 40
0.6680022041
 40
0.7819385873
 40
0.8919862779
 40
1.0
 40
1.0
 40
1.0
 40
1.0
 10
71.9103326956
 20
92.5455695425
 30
0.0
 10
72.4177139643
 20
92.8385045059
 30
0.0
 10
73.3834710036
 20
93.4507165257
 30
0.0
 10
74.703905369
 20
94.4726047527
 30
0.0
 10
75.84599922
 20
95.5658122995
 30
0.0
 10
76.7982391765
 20
96.7201713644
 30
0.0
 10
77.5512505788
 20
97.9253409295
 30
0.0
 10
78.0961559211
 20
99.1706753493
 30
0.0
 10
78.4263884309
 20
100.4433605718
 30
0.0
 10
78.5002962563
 20
101.3050295913
 30
0.0
 10
78.5003238477
 20
101.7309866634
 30
0.0
  0
SPLINE
  5
35C
100
AcDbEntity
  8
0
100
AcDbSpline
 62
7
  6
BYLAYER
 70
0
 71
3
 72
9
 73
5
 74
0
 42
0.0000001
 43
0.0000001
 44
0.0000000001
 40
0.0
 40
0.0
 40
0.0
 40
0.0
 40
0.2422491853
 40
1.0
 40
1.0
 40
1.0
 40
1.0
 10
43.520069472
 20
46.3520972238
 30
0.0
 10
43.5638075204
 20
46.326845621
 30
0.0
 10
43.7463451288
 20
46.2260670246
 30
0.0
 10
43.936166911
 20
46.1386677018
 30
0.0
 10
44.0825558861
 20
46.0792824971
 30
0.0
  0
SPLINE
  5
35D
100
AcDbEntity
  8
0
100
AcDbSpline
 62
7
  6
BYLAYER
 70
0
 71
3
 72
11
 73
7
 74
0
 42
0.0000001
 43
0.0000001
 44
0.0000000001
 40
0.0
 40
0.0
 40
0.0
 40
0.0
 40
0.2422449706
 40
0.5000002851
 40
0.7577554368
 40
1.0
 40
1.0
 40
1.0
 40
1.0
 10
44.0825558861
 20
46.0792824971
 30
0.0
 10
44.4558208618
 20
45.9278611421
 30
0.0
 10
45.263940078
 20
45.705140231
 30
0.0
 10
46.5252750438
 20
45.5964819261
 30
0.0
 10
47.786608922
 20
45.7051450537
 30
0.0
 10
48.5947262889
 20
45.9278693211
 30
0.0
 10
48.9679898585
 20
46.0792923404
 30
0.0
  0
SPLINE
  5
35E
100
AcDbEntity
  8
0
100
AcDbSpline
 62
7
  6
BYLAYER
 70
0
 71
3
 72
9
 73
5
 74
0
 42
0.0000001
 43
0.0000001
 44
0.0000000001
 40
0.0
 40
0.0
 40
0.0
 40
0.0
 40
0.257635353
 40
1.0
 40
1.0
 40
1.0
 40
1.0
 10
48.9679898585
 20
46.0792923404
 30
0.0
 10
49.0177612934
 20
46.0994832767
 30
0.0
 10
49.2096817001
 20
46.1809038297
 30
0.0
 10
49.3964458203
 20
46.2747291322
 30
0.0
 10
49.530477112
 20
46.352111671
 30
0.0
  0
SPLINE
  5
35F
100
AcDbEntity
  8
0
100
AcDbSpline
 62
7
  6
BYLAYER
 70
0
 71
3
 72
15
 73
11
 74
0
 42
0.0000001
 43
0.0000001
 44
0.0000000001
 40
0.0
 40
0.0
 40
0.0
 40
0.0
 40
0.1141220302
 40
0.2373445468
 40
0.3669709618
 40
0.5000005211
 40
0.6330300079
 40
0.7626562113
 40
0.8858783941
 40
1.0
 40
1.0
 40
1.0
 40
1.0
 10
27.6100564967
 20
61.2528998048
 30
0.0
 10
27.4527784639
 20
61.3437022652
 30
0.0
 10
27.108712551
 20
61.5038454685
 30
0.0
 10
26.548544095
 20
61.6742122113
 30
0.0
 10
25.9419661195
 20
61.7789547717
 30
0.0
 10
25.3119555895
 20
61.8143774822
 30
0.0
 10
24.681945563
 20
61.7789517832
 30
0.0
 10
24.0753690748
 20
61.6742063441
 30
0.0
 10
23.5152030297
 20
61.5038369401
 30
0.0
 10
23.1711392228
 20
61.3436920197
 30
0.0
 10
23.0138624295
 20
61.252888763
 30
0.0
  0
SPLINE
  5
360
100
AcDbEntity
  8
0
100
AcDbSpline
 62
7
  6
BYLAYER
 70
0
 71
3
 72
9
 73
5
 74
0
 42
0.0000001
 43
0.0000001
 44
0.0000000001
 40
0.0
 40
0.0
 40
0.0
 40
0.0
 40
0.5000680723
 40
1.0
 40
1.0
 40
1.0
 40
1.0
 10
74.0708911345
 20
125.0185498171
 30
0.0
 10
74.134751529
 20
122.8499770236
 30
0.0
 10
74.2637129137
 20
118.5134585025
 30
0.0
 10
74.3875789356
 20
114.1767914459
 30
0.0
 10
74.4500344091
 20
112.0087686355
 30
0.0
  0
SPLINE
  5
361
100
AcDbEntity
  8
0
100
AcDbSpline
 62
7
  6
BYLAYER
 70
0
 71
3
 72
9
 73
5
 74
0
 42
0.0000001
 43
0.0000001
 44
0.0000000001
 40
0.0
 40
0.0
 40
0.0
 40
0.0
 40
0.2681114721
 40
1.0
 40
1.0
 40
1.0
 40
1.0
 10
23.8123242242
 20
59.4977399488
 30
0.0
 10
23.7420927418
 20
59.4704471478
 30
0.0
 10
23.4839503742
 20
59.3597408767
 30
0.0
 10
23.2401285805
 20
59.2111606393
 30
0.0
 10
23.0840072718
 20
59.0772484703
 30
0.0
  0
SPLINE
  5
362
100
AcDbEntity
  8
0
100
AcDbSpline
 62
7
  6
BYLAYER
 70
0
 71
3
 72
22
 73
18
 74
0
 42
0.0000001
 43
0.0000001
 44
0.0000000001
 40
0.0
 40
0.0
 40
0.0
 40
0.0
 40
0.2105248174
 40
0.304028694
 40
0.389190337
 40
0.4658158909
 40
0.5338541429
 40
0.593467124
 40
0.645154222
 40
0.6899414391
 40
0.729602288
 40
0.7667298017
 40
0.8043443247
 40
0.8451071155
 40
0.8907971669
 40
0.9423276694
 40
1.0
 40
1.0
 40
1.0
 40
1.0
 10
74.4500344091
 20
112.0087686355
 30
0.0
 10
74.468552541
 20
111.3620692365
 30
0.0
 10
74.560322239
 20
110.4261708961
 30
0.0
 10
74.8474408903
 20
109.2634508062
 30
0.0
 10
75.1140235005
 20
108.5238667745
 30
0.0
 10
75.4299550316
 20
107.8901786032
 30
0.0
 10
75.7833513804
 20
107.3687383912
 30
0.0
 10
76.1614475283
 20
106.9641222688
 30
0.0
 10
76.551529805
 20
106.6790749901
 30
0.0
 10
76.9416417296
 20
106.5153169358
 30
0.0
 10
77.319621957
 20
106.4754088261
 30
0.0
 10
77.6682996322
 20
106.5612913605
 30
0.0
 10
77.9672329976
 20
106.765012256
 30
0.0
 10
78.2043967908
 20
107.0698182429
 30
0.0
 10
78.3760012552
 20
107.4612725688
 30
0.0
 10
78.4795374664
 20
107.9282468516
 30
0.0
 10
78.500294757
 20
108.2645034297
 30
0.0
 10
78.500357442
 20
108.4417364387
 30
0.0
  0
SPLINE
  5
363
100
AcDbEntity
  8
0
100
AcDbSpline
 62
7
  6
BYLAYER
 70
0
 71
3
 72
9
 73
5
 74
0
 42
0.0000001
 43
0.0000001
 44
0.0000000001
 40
0.0
 40
0.0
 40
0.0
 40
0.0
 40
0.2376129864
 40
1.0
 40
1.0
 40
1.0
 40
1.0
 10
42.5161646297
 20
141.7370323433
 30
0.0
 10
42.5242071761
 20
141.7424057572
 30
0.0
 10
42.5588252221
 20
141.7638604008
 30
0.0
 10
42.5961074188
 20
141.780876898
 30
0.0
 10
42.625214567
 20
141.7916425569
 30
0.0
  0
SPLINE
  5
364
100
AcDbEntity
  8
0
100
AcDbSpline
 62
7
  6
BYLAYER
 70
0
 71
3
 72
9
 73
5
 74
0
 42
0.0000001
 43
0.0000001
 44
0.0000000001
 40
0.0
 40
0.0
 40
0.0
 40
0.0
 40
0.4901832862
 40
1.0
 40
1.0
 40
1.0
 40
1.0
 10
42.625214567
 20
141.7916425569
 30
0.0
 10
42.6897625658
 20
141.8155164771
 30
0.0
 10
42.8294026506
 20
141.8432355306
 30
0.0
 10
42.9712001461
 20
141.8369178308
 30
0.0
 10
43.0416755328
 20
141.8244021013
 30
0.0
  0
SPLINE
  5
365
100
AcDbEntity
  8
0
100
AcDbSpline
 62
7
  6
BYLAYER
 70
0
 71
3
 72
11
 73
7
 74
0
 42
0.0000001
 43
0.0000001
 44
0.0000000001
 40
0.0
 40
0.0
 40
0.0
 40
0.0
 40
0.2330564769
 40
0.4908925024
 40
0.7535999082
 40
1.0
 40
1.0
 40
1.0
 40
1.0
 10
23.013862419
 20
59.538233681
 30
0.0
 10
23.3051409686
 20
59.7064024246
 30
0.0
 10
23.9758845568
 20
59.9628297218
 30
0.0
 10
25.0590208271
 20
60.1193229623
 30
0.0
 10
26.1710621974
 20
60.0597452865
 30
0.0
 10
26.8887313944
 20
59.8687679971
 30
0.0
 10
27.2168589994
 20
59.7317248815
 30
0.0
  0
SPLINE
  5
366
100
AcDbEntity
  8
0
100
AcDbSpline
 62
7
  6
BYLAYER
 70
0
 71
3
 72
11
 73
7
 74
0
 42
0.0000001
 43
0.0000001
 44
0.0000000001
 40
0.0
 40
0.0
 40
0.0
 40
0.0
 40
0.2372428732
 40
0.4999994739
 40
0.7627563609
 40
1.0
 40
1.0
 40
1.0
 40
1.0
 10
25.5240971446
 20
58.7544142028
 30
0.0
 10
25.4939801489
 20
58.737026251
 30
0.0
 10
25.4239431996
 20
58.7116562327
 30
0.0
 10
25.3119654438
 20
58.6995000825
 30
0.0
 10
25.199987519
 20
58.7116557217
 30
0.0
 10
25.1299502943
 20
58.7370253922
 30
0.0
 10
25.0998330759
 20
58.754413183
 30
0.0
  0
SPLINE
  5
367
100
AcDbEntity
  8
0
100
AcDbSpline
 62
7
  6
BYLAYER
 70
0
 71
3
 72
9
 73
5
 74
0
 42
0.0000001
 43
0.0000001
 44
0.0000000001
 40
0.0
 40
0.0
 40
0.0
 40
0.0
 40
0.2426964861
 40
1.0
 40
1.0
 40
1.0
 40
1.0
 10
74.0708911345
 20
125.0185498171
 30
0.0
 10
73.9048417221
 20
124.8893208159
 30
0.0
 10
73.2106593603
 20
124.3697488456
 30
0.0
 10
72.4789302576
 20
123.9009393893
 30
0.0
 10
71.9103326956
 20
123.5726613934
 30
0.0
  0
SPLINE
  5
368
100
AcDbEntity
  8
0
100
AcDbSpline
 62
7
  6
BYLAYER
 70
0
 71
3
 72
9
 73
5
 74
0
 42
0.0000001
 43
0.0000001
 44
0.0000000001
 40
0.0
 40
0.0
 40
0.0
 40
0.0
 40
0.2441423056
 40
1.0
 40
1.0
 40
1.0
 40
1.0
 10
71.7388218588
 20
123.4746962983
 30
0.0
 10
71.5545106754
 20
123.3705427741
 30
0.0
 10
70.793312812
 20
122.9550696836
 30
0.0
 10
70.0084559609
 20
122.5833179466
 30
0.0
 10
69.4059626722
 20
122.3252681904
 30
0.0
  0
SPLINE
  5
369
100
AcDbEntity
  8
0
100
AcDbSpline
 62
7
  6
BYLAYER
 70
0
 71
3
 72
9
 73
5
 74
0
 42
0.0000001
 43
0.0000001
 44
0.0000000001
 40
0.0
 40
0.0
 40
0.0
 40
0.0
 40
0.5255728688
 40
1.0
 40
1.0
 40
1.0
 40
1.0
 10
26.2000492372
 20
58.1297679954
 30
0.0
 10
26.1892393505
 20
58.1414100131
 30
0.0
 10
26.1714445147
 20
58.1666447096
 30
0.0
 10
26.1645595861
 20
58.1971132169
 30
0.0
 10
26.164559587
 20
58.2114539993
 30
0.0
  0
SPLINE
  5
36A
100
AcDbEntity
  8
0
100
AcDbSpline
 62
7
  6
BYLAYER
 70
0
 71
3
 72
9
 73
5
 74
0
 42
0.0000001
 43
0.0000001
 44
0.0000000001
 40
0.0
 40
0.0
 40
0.0
 40
0.0
 40
0.2566151337
 40
1.0
 40
1.0
 40
1.0
 40
1.0
 10
27.9451820163
 20
59.3112369044
 30
0.0
 10
27.9650328657
 20
59.2953944176
 30
0.0
 10
28.0413808935
 20
59.2324123866
 30
0.0
 10
28.113589571
 20
59.1643547849
 30
0.0
 10
28.1641539882
 20
59.110909594
 30
0.0
  0
SPLINE
  5
36B
100
AcDbEntity
  8
0
100
AcDbSpline
 62
7
  6
BYLAYER
 70
0
 71
3
 72
15
 73
11
 74
0
 42
0.0000001
 43
0.0000001
 44
0.0000000001
 40
0.0
 40
0.0
 40
0.0
 40
0.0
 40
0.1448521773
 40
0.2745451637
 40
0.3911081005
 40
0.4999989894
 40
0.6088900536
 40
0.7254534612
 40
0.8551471319
 40
1.0
 40
1.0
 40
1.0
 40
1.0
 10
49.530477112
 20
46.352111671
 30
0.0
 10
49.7169621271
 20
46.4597781997
 30
0.0
 10
50.0552927931
 20
46.6928426903
 30
0.0
 10
50.4596444039
 20
47.117669701
 30
0.0
 10
50.7154227183
 20
47.5881838352
 30
0.0
 10
50.8041319691
 20
48.087145323
 30
0.0
 10
50.7154154674
 20
48.5861061773
 30
0.0
 10
50.4596305161
 20
49.0566188433
 30
0.0
 10
50.0552728691
 20
49.4814437914
 30
0.0
 10
49.7169387682
 20
49.7145068326
 30
0.0
 10
49.5304520883
 20
49.8221725317
 30
0.0
  0
SPLINE
  5
36C
100
AcDbEntity
  8
0
100
AcDbSpline
 62
7
  6
BYLAYER
 70
0
 71
3
 72
11
 73
7
 74
0
 42
0.0000001
 43
0.0000001
 44
0.0000000001
 40
0.0
 40
0.0
 40
0.0
 40
0.0
 40
0.2897018303
 40
0.5490862153
 40
0.7822153083
 40
1.0
 40
1.0
 40
1.0
 40
1.0
 10
33.6205083067
 20
55.1292774452
 30
0.0
 10
33.4779034651
 20
55.0469449932
 30
0.0
 10
33.2191797608
 20
54.8687492304
 30
0.0
 10
32.9099674052
 20
54.5437861235
 30
0.0
 10
32.7143628307
 20
54.1842967466
 30
0.0
 10
32.6686149089
 20
53.9262831451
 30
0.0
 10
32.668614903
 20
53.802494987
 30
0.0
  0
SPLINE
  5
36D
100
AcDbEntity
  8
0
100
AcDbSpline
 62
7
  6
BYLAYER
 70
0
 71
3
 72
9
 73
5
 74
0
 42
0.0000001
 43
0.0000001
 44
0.0000000001
 40
0.0
 40
0.0
 40
0.0
 40
0.0
 40
0.4999192022
 40
1.0
 40
1.0
 40
1.0
 40
1.0
 10
68.8791687305
 20
108.7924470352
 30
0.0
 10
68.9674958266
 20
111.0475316323
 30
0.0
 10
69.1449841443
 20
115.5583984481
 30
0.0
 10
69.3186507387
 20
120.0694140138
 30
0.0
 10
69.4059626722
 20
122.3252681904
 30
0.0
  0
SPLINE
  5
36E
100
AcDbEntity
  8
0
100
AcDbSpline
 62
7
  6
BYLAYER
 70
0
 71
3
 72
15
 73
11
 74
0
 42
0.0000001
 43
0.0000001
 44
0.0000000001
 40
0.0
 40
0.0
 40
0.0
 40
0.0
 40
0.1141236058
 40
0.2373475862
 40
0.3669728832
 40
0.5000004527
 40
0.6330279586
 40
0.7626530686
 40
0.8858767805
 40
1.0
 40
1.0
 40
1.0
 40
1.0
 10
49.5304520883
 20
49.8221725317
 30
0.0
 10
49.3247781988
 20
49.9409157208
 30
0.0
 10
48.874837982
 20
50.1503310378
 30
0.0
 10
48.1423062237
 20
50.3731161996
 30
0.0
 10
47.349091949
 20
50.5100801408
 30
0.0
 10
46.5252436143
 20
50.5563993339
 30
0.0
 10
45.7013958829
 20
50.5100763245
 30
0.0
 10
44.9081833301
 20
50.373108675
 30
0.0
 10
44.1756544749
 20
50.1503199424
 30
0.0
 10
43.7257167866
 20
49.9409023529
 30
0.0
 10
43.5200444483
 20
49.8221580844
 30
0.0
  0
SPLINE
  5
36F
100
AcDbEntity
  8
0
100
AcDbSpline
 62
7
  6
BYLAYER
 70
0
 71
3
 72
15
 73
11
 74
0
 42
0.0000001
 43
0.0000001
 44
0.0000000001
 40
0.0
 40
0.0
 40
0.0
 40
0.0
 40
0.1141220302
 40
0.2373445468
 40
0.3669709618
 40
0.5000005211
 40
0.6330300079
 40
0.7626562113
 40
0.8858783941
 40
1.0
 40
1.0
 40
1.0
 40
1.0
 10
38.2167023739
 20
55.129288487
 30
0.0
 10
38.0594243411
 20
55.2200909474
 30
0.0
 10
37.7153584282
 20
55.3802341507
 30
0.0
 10
37.1551899722
 20
55.5506008935
 30
0.0
 10
36.5486119967
 20
55.6553434538
 30
0.0
 10
35.9186014667
 20
55.6907661644
 30
0.0
 10
35.2885914402
 20
55.6553404654
 30
0.0
 10
34.682014952
 20
55.5505950263
 30
0.0
 10
34.1218489069
 20
55.3802256223
 30
0.0
 10
33.7777851
 20
55.2200807018
 30
0.0
 10
33.6205083067
 20
55.1292774452
 30
0.0
  0
SPLINE
  5
370
100
AcDbEntity
  8
0
100
AcDbSpline
 62
7
  6
BYLAYER
 70
0
 71
3
 72
15
 73
11
 74
0
 42
0.0000001
 43
0.0000001
 44
0.0000000001
 40
0.0
 40
0.0
 40
0.0
 40
0.0
 40
0.1141231813
 40
0.2373468277
 40
0.366971913
 40
0.4999994099
 40
0.6330269884
 40
0.76265231
 40
0.885876356
 40
1.0
 40
1.0
 40
1.0
 40
1.0
 10
33.6205082962
 20
53.4146223632
 30
0.0
 10
33.7777870899
 20
53.5054267742
 30
0.0
 10
34.1218569126
 20
53.6655696178
 30
0.0
 10
34.682025845
 20
53.8359374048
 30
0.0
 10
35.2885999789
 20
53.940677416
 30
0.0
 10
35.9186011428
 20
53.9761009657
 30
0.0
 10
36.5486028529
 20
53.9406804783
 30
0.0
 10
37.155178646
 20
53.8359433904
 30
0.0
 10
37.7153501828
 20
53.6655781997
 30
0.0
 10
38.059422288
 20
53.5054370567
 30
0.0
 10
38.2167023739
 20
53.4146334111
 30
0.0
  0
SPLINE
  5
371
100
AcDbEntity
  8
0
100
AcDbSpline
 62
7
  6
BYLAYER
 70
0
 71
3
 72
9
 73
5
 74
0
 42
0.0000001
 43
0.0000001
 44
0.0000000001
 40
0.0
 40
0.0
 40
0.0
 40
0.0
 40
0.2651746622
 40
1.0
 40
1.0
 40
1.0
 40
1.0
 10
38.2167023739
 20
53.4146334111
 30
0.0
 10
38.2716655871
 20
53.382901103
 30
0.0
 10
38.4750120605
 20
53.2568196851
 30
0.0
 10
38.6627835776
 20
53.1037247071
 30
0.0
 10
38.7825041088
 20
52.9748947402
 30
0.0
  0
SPLINE
  5
372
100
AcDbEntity
  8
0
100
AcDbSpline
 62
7
  6
BYLAYER
 70
0
 71
3
 72
9
 73
5
 74
0
 42
0.0000001
 43
0.0000001
 44
0.0000000001
 40
0.0
 40
0.0
 40
0.0
 40
0.0
 40
0.7474004303
 40
1.0
 40
1.0
 40
1.0
 40
1.0
 10
69.7090132721
 20
127.5734627413
 30
0.0
 10
69.7090148534
 20
127.6144931514
 30
0.0
 10
69.7036347501
 20
127.6695899237
 30
0.0
 10
69.6914575818
 20
127.723132114
 30
0.0
 10
69.6879667906
 20
127.7365526347
 30
0.0
  0
SPLINE
  5
373
100
AcDbEntity
  8
0
100
AcDbSpline
 62
7
  6
BYLAYER
 70
0
 71
3
 72
11
 73
7
 74
0
 42
0.0000001
 43
0.0000001
 44
0.0000000001
 40
0.0
 40
0.0
 40
0.0
 40
0.0
 40
0.21951051
 40
0.45670123
 40
0.7166549872
 40
1.0
 40
1.0
 40
1.0
 40
1.0
 10
69.6879667906
 20
127.7365526347
 30
0.0
 10
69.6726147852
 20
127.7955741834
 30
0.0
 10
69.6236037258
 20
127.9143253652
 30
0.0
 10
69.5062481116
 20
128.0769338646
 30
0.0
 10
69.3467212149
 20
128.2254559064
 30
0.0
 10
69.2207677257
 20
128.3097670255
 30
0.0
 10
69.1525935805
 20
128.3491264962
 30
0.0
  0
SPLINE
  5
374
100
AcDbEntity
  8
0
100
AcDbSpline
 62
7
  6
BYLAYER
 70
0
 71
3
 72
11
 73
7
 74
0
 42
0.0000001
 43
0.0000001
 44
0.0000000001
 40
0.0
 40
0.0
 40
0.0
 40
0.0
 40
0.2372428732
 40
0.4999994739
 40
0.7627563609
 40
1.0
 40
1.0
 40
1.0
 40
1.0
 10
36.1307430218
 20
52.630802885
 30
0.0
 10
36.1006260261
 20
52.6134149332
 30
0.0
 10
36.0305890768
 20
52.5880449149
 30
0.0
 10
35.918611321
 20
52.5758887647
 30
0.0
 10
35.8066333962
 20
52.5880444039
 30
0.0
 10
35.7365961715
 20
52.6134140744
 30
0.0
 10
35.7064789531
 20
52.6308018652
 30
0.0
  0
SPLINE
  5
375
100
AcDbEntity
  8
0
100
AcDbSpline
 62
7
  6
BYLAYER
 70
0
 71
3
 72
9
 73
5
 74
0
 42
0.0000001
 43
0.0000001
 44
0.0000000001
 40
0.0
 40
0.0
 40
0.0
 40
0.0
 40
0.2681114721
 40
1.0
 40
1.0
 40
1.0
 40
1.0
 10
34.4189701014
 20
53.374128631
 30
0.0
 10
34.3487386191
 20
53.34683583
 30
0.0
 10
34.0905962514
 20
53.2361295589
 30
0.0
 10
33.8467744577
 20
53.0875493215
 30
0.0
 10
33.6906531491
 20
52.9536371525
 30
0.0
  0
SPLINE
  5
376
100
AcDbEntity
  8
0
100
AcDbSpline
 62
7
  6
BYLAYER
 70
0
 71
3
 72
11
 73
7
 74
0
 42
0.0000001
 43
0.0000001
 44
0.0000000001
 40
0.0
 40
0.0
 40
0.0
 40
0.0
 40
0.2926512653
 40
0.5551901287
 40
0.7888123763
 40
1.0
 40
1.0
 40
1.0
 40
1.0
 10
43.7863800409
 20
143.8965276803
 30
0.0
 10
43.7304571861
 20
143.9400395073
 30
0.0
 10
43.6191987331
 20
144.0163347386
 30
0.0
 10
43.4462602034
 20
144.0995707067
 30
0.0
 10
43.2792025473
 20
144.1427560616
 30
0.0
 10
43.1699275642
 20
144.1433024049
 30
0.0
 10
43.1193445551
 20
144.1358257
 30
0.0
  0
SPLINE
  5
377
100
AcDbEntity
  8
0
100
AcDbSpline
 62
7
  6
BYLAYER
 70
0
 71
3
 72
9
 73
5
 74
0
 42
0.0000001
 43
0.0000001
 44
0.0000000001
 40
0.0
 40
0.0
 40
0.0
 40
0.0
 40
0.2530230306
 40
1.0
 40
1.0
 40
1.0
 40
1.0
 10
43.1193445551
 20
144.1358257
 30
0.0
 10
43.1088951334
 20
144.1342811647
 30
0.0
 10
43.0677970715
 20
144.1268976037
 30
0.0
 10
43.0276439719
 20
144.1142101804
 30
0.0
 10
42.9989856098
 20
144.1019161397
 30
0.0
  0
SPLINE
  5
378
100
AcDbEntity
  8
0
100
AcDbSpline
 62
7
  6
BYLAYER
 70
0
 71
3
 72
9
 73
5
 74
0
 42
0.0000001
 43
0.0000001
 44
0.0000000001
 40
0.0
 40
0.0
 40
0.0
 40
0.0
 40
0.4744317054
 40
1.0
 40
1.0
 40
1.0
 40
1.0
 10
45.672670219
 20
45.9642258227
 30
0.0
 10
45.6726702181
 20
45.9498866174
 30
0.0
 10
45.6657869396
 20
45.9194217806
 30
0.0
 10
45.6479958201
 20
45.8941890855
 30
0.0
 10
45.6371880525
 20
45.8825478821
 30
0.0
  0
SPLINE
  5
379
100
AcDbEntity
  8
0
100
AcDbSpline
 62
7
  6
BYLAYER
 70
0
 71
3
 72
9
 73
5
 74
0
 42
0.0000001
 43
0.0000001
 44
0.0000000001
 40
0.0
 40
0.0
 40
0.0
 40
0.0
 40
0.5255728688
 40
1.0
 40
1.0
 40
1.0
 40
1.0
 10
36.8066951144
 20
52.0061566776
 30
0.0
 10
36.7958852277
 20
52.0177986953
 30
0.0
 10
36.7780903919
 20
52.0430333918
 30
0.0
 10
36.7712054633
 20
52.0735018991
 30
0.0
 10
36.7712054642
 20
52.0878426815
 30
0.0
  0
SPLINE
  5
37A
100
AcDbEntity
  8
0
100
AcDbSpline
 62
7
  6
BYLAYER
 70
0
 71
3
 72
9
 73
5
 74
0
 42
0.0000001
 43
0.0000001
 44
0.0000000001
 40
0.0
 40
0.0
 40
0.0
 40
0.0
 40
0.2414949811
 40
1.0
 40
1.0
 40
1.0
 40
1.0
 10
38.4009176893
 20
53.1004980596
 30
0.0
 10
38.3757336789
 20
53.1210751095
 30
0.0
 10
38.2695462877
 20
53.2039425011
 30
0.0
 10
38.1562934378
 20
53.2776114239
 30
0.0
 10
38.0678319392
 20
53.3286835386
 30
0.0
  0
SPLINE
  5
37B
100
AcDbEntity
  8
0
100
AcDbSpline
 62
7
  6
BYLAYER
 70
0
 71
3
 72
9
 73
5
 74
0
 42
0.0000001
 43
0.0000001
 44
0.0000000001
 40
0.0
 40
0.0
 40
0.0
 40
0.0
 40
0.2427431976
 40
1.0
 40
1.0
 40
1.0
 40
1.0
 10
38.0678319392
 20
53.3286835386
 30
0.0
 10
38.0370180659
 20
53.3464735341
 30
0.0
 10
37.9087173864
 20
53.4173929274
 30
0.0
 10
37.775368415
 20
53.4790601163
 30
0.0
 10
37.6725946724
 20
53.5209860368
 30
0.0
  0
SPLINE
  5
37C
100
AcDbEntity
  8
0
100
AcDbSpline
 62
7
  6
BYLAYER
 70
0
 71
3
 72
9
 73
5
 74
0
 42
0.0000001
 43
0.0000001
 44
0.0000000001
 40
0.0
 40
0.0
 40
0.0
 40
0.0
 40
0.2427431976
 40
1.0
 40
1.0
 40
1.0
 40
1.0
 10
88.8379757701
 20
70.3933401607
 30
0.0
 10
88.8071618968
 20
70.4111301562
 30
0.0
 10
88.6788612174
 20
70.4820495495
 30
0.0
 10
88.5455122459
 20
70.5437167384
 30
0.0
 10
88.4427385033
 20
70.5856426589
 30
0.0
  0
SPLINE
  5
37D
100
AcDbEntity
  8
0
100
AcDbSpline
 62
7
  6
BYLAYER
 70
0
 71
3
 72
9
 73
5
 74
0
 42
0.0000001
 43
0.0000001
 44
0.0000000001
 40
0.0
 40
0.0
 40
0.0
 40
0.0
 40
0.2414949811
 40
1.0
 40
1.0
 40
1.0
 40
1.0
 10
89.1710615202
 20
70.1651546817
 30
0.0
 10
89.1458775099
 20
70.1857317316
 30
0.0
 10
89.0396901187
 20
70.2685991232
 30
0.0
 10
88.9264372687
 20
70.342268046
 30
0.0
 10
88.8379757701
 20
70.3933401607
 30
0.0
  0
SPLINE
  5
37E
100
AcDbEntity
  8
0
100
AcDbSpline
 62
7
  6
BYLAYER
 70
0
 71
3
 72
12
 73
8
 74
0
 42
0.0000001
 43
0.0000001
 44
0.0000000001
 40
0.0
 40
0.0
 40
0.0
 40
0.0
 40
0.2825065021
 40
0.5155307437
 40
0.6258634213
 40
0.7402898241
 40
1.0
 40
1.0
 40
1.0
 40
1.0
 10
39.5839305338
 20
141.0664032161
 30
0.0
 10
39.5460107518
 20
141.0883080838
 30
0.0
 10
39.4807308809
 20
141.1377354779
 30
0.0
 10
39.4355827648
 20
141.22969136
 30
0.0
 10
39.437785216
 20
141.3018579227
 30
0.0
 10
39.4628768147
 20
141.3736661449
 30
0.0
 10
39.5043654304
 20
141.4179653281
 30
0.0
 10
39.5361433923
 20
141.4426814291
 30
0.0
  0
SPLINE
  5
37F
100
AcDbEntity
  8
0
100
AcDbSpline
 62
7
  6
BYLAYER
 70
0
 71
3
 72
9
 73
5
 74
0
 42
0.0000001
 43
0.0000001
 44
0.0000000001
 40
0.0
 40
0.0
 40
0.0
 40
0.0
 40
0.2421994395
 40
1.0
 40
1.0
 40
1.0
 40
1.0
 10
39.5361433923
 20
141.4426814291
 30
0.0
 10
39.6985744205
 20
141.5690943997
 30
0.0
 10
40.3797463491
 20
142.0774544132
 30
0.0
 10
41.1002150501
 20
142.5324462346
 30
0.0
 10
41.6608799434
 20
142.8492757587
 30
0.0
  0
SPLINE
  5
380
100
AcDbEntity
  8
0
100
AcDbSpline
 62
7
  6
BYLAYER
 70
0
 71
3
 72
9
 73
5
 74
0
 42
0.0000001
 43
0.0000001
 44
0.0000000001
 40
0.0
 40
0.0
 40
0.0
 40
0.0
 40
0.244142369
 40
1.0
 40
1.0
 40
1.0
 40
1.0
 10
41.6608799434
 20
142.8492757587
 30
0.0
 10
41.8288048406
 20
142.9441694571
 30
0.0
 10
42.5223277703
 20
143.3227046387
 30
0.0
 10
43.2374056731
 20
143.6614068573
 30
0.0
 10
43.786333779
 20
143.8965144784
 30
0.0
  0
SPLINE
  5
381
100
AcDbEntity
  8
0
100
AcDbSpline
 62
7
  6
BYLAYER
 70
0
 71
3
 72
11
 73
7
 74
0
 42
0.0000001
 43
0.0000001
 44
0.0000000001
 40
0.0
 40
0.0
 40
0.0
 40
0.0
 40
0.2457308543
 40
0.5084452903
 40
0.7666401512
 40
1.0
 40
1.0
 40
1.0
 40
1.0
 10
43.786333779
 20
143.8965144784
 30
0.0
 10
43.8368942544
 20
143.9181816139
 30
0.0
 10
43.947907092
 20
143.9485105415
 30
0.0
 10
44.1203038477
 20
143.9585007163
 30
0.0
 10
44.2885447647
 20
143.934700898
 30
0.0
 10
44.3928118378
 20
143.8950362115
 30
0.0
 10
44.4380588551
 20
143.8689298891
 30
0.0
  0
SPLINE
  5
382
100
AcDbEntity
  8
0
100
AcDbSpline
 62
7
  6
BYLAYER
 70
0
 71
3
 72
9
 73
5
 74
0
 42
0.0000001
 43
0.0000001
 44
0.0000000001
 40
0.0
 40
0.0
 40
0.0
 40
0.0
 40
0.2651746622
 40
1.0
 40
1.0
 40
1.0
 40
1.0
 10
88.9868462049
 20
70.4792900332
 30
0.0
 10
89.0418094181
 20
70.4475577251
 30
0.0
 10
89.2451558914
 20
70.3214763072
 30
0.0
 10
89.4329274086
 20
70.1683813292
 30
0.0
 10
89.5526479397
 20
70.0395513623
 30
0.0
  0
SPLINE
  5
383
100
AcDbEntity
  8
0
100
AcDbSpline
 62
7
  6
BYLAYER
 70
0
 71
3
 72
9
 73
5
 74
0
 42
0.0000001
 43
0.0000001
 44
0.0000000001
 40
0.0
 40
0.0
 40
0.0
 40
0.0
 40
0.5207492411
 40
1.0
 40
1.0
 40
1.0
 40
1.0
 10
87.7682879717
 20
70.9223145004
 30
0.0
 10
87.9895447066
 20
70.8773257891
 30
0.0
 10
88.4092809609
 20
70.7624061919
 30
0.0
 10
88.8068924586
 20
70.5831840266
 30
0.0
 10
88.9868462049
 20
70.4792900332
 30
0.0
  0
SPLINE
  5
384
100
AcDbEntity
  8
0
100
AcDbSpline
 62
7
  6
BYLAYER
 70
0
 71
3
 72
13
 73
9
 74
0
 42
0.0000001
 43
0.0000001
 44
0.0000000001
 40
0.0
 40
0.0
 40
0.0
 40
0.0
 40
0.2981105943
 40
0.5808278637
 40
0.7054774444
 40
0.8154889032
 40
0.9119316779
 40
1.0
 40
1.0
 40
1.0
 40
1.0
 10
43.0416755328
 20
142.2326533099
 30
0.0
 10
42.9657928398
 20
142.2461293233
 30
0.0
 10
42.8138252323
 20
142.2514434128
 30
0.0
 10
42.6330699719
 20
142.2105025234
 30
0.0
 10
42.5140344955
 20
142.147819183
 30
0.0
 10
42.447909841
 20
142.0921147006
 30
0.0
 10
42.4049734048
 20
142.0276388344
 30
0.0
 10
42.3947330026
 20
141.9795096589
 30
0.0
 10
42.3947701119
 20
141.9567415408
 30
0.0
  0
SPLINE
  5
385
100
AcDbEntity
  8
0
100
AcDbSpline
 62
7
  6
BYLAYER
 70
0
 71
3
 72
9
 73
5
 74
0
 42
0.0000001
 43
0.0000001
 44
0.0000000001
 40
0.0
 40
0.0
 40
0.0
 40
0.0
 40
0.4792473682
 40
1.0
 40
1.0
 40
1.0
 40
1.0
 10
88.9868462049
 20
72.1939451091
 30
0.0
 10
88.8068710022
 20
72.2978514902
 30
0.0
 10
88.4092087109
 20
72.4770960371
 30
0.0
 10
87.989416109
 20
72.5920196791
 30
0.0
 10
87.7681287984
 20
72.6370085211
 30
0.0
  0
SPLINE
  5
386
100
AcDbEntity
  8
0
100
AcDbSpline
 62
7
  6
BYLAYER
 70
0
 71
3
 72
11
 73
7
 74
0
 42
0.0000001
 43
0.0000001
 44
0.0000000001
 40
0.0
 40
0.0
 40
0.0
 40
0.0
 40
0.2897018303
 40
0.5490862153
 40
0.7822153083
 40
1.0
 40
1.0
 40
1.0
 40
1.0
 10
44.2271541839
 20
49.0056661274
 30
0.0
 10
44.0845493423
 20
48.9233336754
 30
0.0
 10
43.825825638
 20
48.7451379126
 30
0.0
 10
43.5166132824
 20
48.4201748057
 30
0.0
 10
43.3210087079
 20
48.0606854288
 30
0.0
 10
43.2752607861
 20
47.8026718273
 30
0.0
 10
43.2752607802
 20
47.6788836692
 30
0.0
  0
SPLINE
  5
387
100
AcDbEntity
  8
0
100
AcDbSpline
 62
7
  6
BYLAYER
 70
0
 71
3
 72
11
 73
7
 74
0
 42
0.0000001
 43
0.0000001
 44
0.0000000001
 40
0.0
 40
0.0
 40
0.0
 40
0.0
 40
0.2372542275
 40
0.5000017852
 40
0.7627483734
 40
1.0
 40
1.0
 40
1.0
 40
1.0
 10
46.1010423429
 20
40.9428734007
 30
0.0
 10
46.1010423429
 20
41.058799346
 30
0.0
 10
46.1445062508
 20
41.3032724798
 30
0.0
 10
46.2961106404
 20
41.6467493616
 30
0.0
 10
46.5177658898
 20
41.9497811276
 30
0.0
 10
46.7077523174
 20
42.109657894
 30
0.0
 10
46.8081461802
 20
42.1676199718
 30
0.0
  0
SPLINE
  5
388
100
AcDbEntity
  8
0
100
AcDbSpline
 62
7
  6
BYLAYER
 70
0
 71
3
 72
15
 73
11
 74
0
 42
0.0000001
 43
0.0000001
 44
0.0000000001
 40
0.0
 40
0.0
 40
0.0
 40
0.0
 40
0.1141220302
 40
0.2373445468
 40
0.3669709618
 40
0.5000005211
 40
0.6330300079
 40
0.7626562113
 40
0.8858783941
 40
1.0
 40
1.0
 40
1.0
 40
1.0
 10
48.8233482511
 20
49.0056771692
 30
0.0
 10
48.6660702183
 20
49.0964796296
 30
0.0
 10
48.3220043054
 20
49.2566228329
 30
0.0
 10
47.7618358494
 20
49.4269895757
 30
0.0
 10
47.1552578739
 20
49.531732136
 30
0.0
 10
46.5252473439
 20
49.5671548466
 30
0.0
 10
45.8952373174
 20
49.5317291476
 30
0.0
 10
45.2886608292
 20
49.4269837085
 30
0.0
 10
44.7284947841
 20
49.2566143045
 30
0.0
 10
44.3844309772
 20
49.096469384
 30
0.0
 10
44.2271541839
 20
49.0056661274
 30
0.0
  0
SPLINE
  5
389
100
AcDbEntity
  8
0
100
AcDbSpline
 62
7
  6
BYLAYER
 70
0
 71
3
 72
15
 73
11
 74
0
 42
0.0000001
 43
0.0000001
 44
0.0000000001
 40
0.0
 40
0.0
 40
0.0
 40
0.0
 40
0.1141231813
 40
0.2373468277
 40
0.366971913
 40
0.4999994099
 40
0.6330269884
 40
0.76265231
 40
0.885876356
 40
1.0
 40
1.0
 40
1.0
 40
1.0
 10
44.2271541734
 20
47.2910110454
 30
0.0
 10
44.3844329671
 20
47.3818154564
 30
0.0
 10
44.7285027898
 20
47.5419583
 30
0.0
 10
45.2886717222
 20
47.712326087
 30
0.0
 10
45.8952458561
 20
47.8170660982
 30
0.0
 10
46.52524702
 20
47.8524896479
 30
0.0
 10
47.1552487301
 20
47.8170691605
 30
0.0
 10
47.7618245232
 20
47.7123320726
 30
0.0
 10
48.32199606
 20
47.5419668819
 30
0.0
 10
48.6660681652
 20
47.3818257389
 30
0.0
 10
48.8233482511
 20
47.2910220933
 30
0.0
  0
SPLINE
  5
38A
100
AcDbEntity
  8
0
100
AcDbSpline
 62
7
  6
BYLAYER
 70
0
 71
3
 72
9
 73
5
 74
0
 42
0.0000001
 43
0.0000001
 44
0.0000000001
 40
0.0
 40
0.0
 40
0.0
 40
0.0
 40
0.2651746622
 40
1.0
 40
1.0
 40
1.0
 40
1.0
 10
48.8233482511
 20
47.2910220933
 30
0.0
 10
48.8783114643
 20
47.2592897852
 30
0.0
 10
49.0816579377
 20
47.1332083673
 30
0.0
 10
49.2694294548
 20
46.9801133893
 30
0.0
 10
49.389149986
 20
46.8512834224
 30
0.0
  0
SPLINE
  5
38B
100
AcDbEntity
  8
0
100
AcDbSpline
 62
7
  6
BYLAYER
 70
0
 71
3
 72
9
 73
5
 74
0
 42
0.0000001
 43
0.0000001
 44
0.0000000001
 40
0.0
 40
0.0
 40
0.0
 40
0.0
 40
0.2332493982
 40
1.0
 40
1.0
 40
1.0
 40
1.0
 10
46.8532466728
 20
141.5206464244
 30
0.0
 10
46.8384802164
 20
141.5291716491
 30
0.0
 10
46.7731940372
 20
141.562276495
 30
0.0
 10
46.701883796
 20
141.5826366348
 30
0.0
 10
46.6466971337
 20
141.5924372385
 30
0.0
  0
SPLINE
  5
38C
100
AcDbEntity
  8
0
100
AcDbSpline
 62
7
  6
BYLAYER
 70
0
 71
3
 72
9
 73
5
 74
0
 42
0.0000001
 43
0.0000001
 44
0.0000000001
 40
0.0
 40
0.0
 40
0.0
 40
0.0
 40
0.2681114721
 40
1.0
 40
1.0
 40
1.0
 40
1.0
 10
45.0256159786
 20
47.2505173132
 30
0.0
 10
44.9553844963
 20
47.2232245122
 30
0.0
 10
44.6972421286
 20
47.1125182411
 30
0.0
 10
44.4534203349
 20
46.9639380037
 30
0.0
 10
44.2972990263
 20
46.8300258347
 30
0.0
  0
SPLINE
  5
38D
100
AcDbEntity
  8
0
100
AcDbSpline
 62
7
  6
BYLAYER
 70
0
 71
3
 72
17
 73
13
 74
0
 42
0.0000001
 43
0.0000001
 44
0.0000000001
 40
0.0
 40
0.0
 40
0.0
 40
0.0
 40
0.0428562083
 40
0.0874835942
 40
0.1353101945
 40
0.1872756535
 40
0.3045352252
 40
0.4381974174
 40
0.5825364891
 40
0.729684431
 40
0.8713141331
 40
1.0
 40
1.0
 40
1.0
 40
1.0
 10
69.5090263834
 20
127.5734626456
 30
0.0
 10
69.5090272689
 20
127.5250726506
 30
0.0
 10
69.4961824423
 20
127.4258549831
 30
0.0
 10
69.439192363
 20
127.2826600232
 30
0.0
 10
69.346959825
 20
127.1468134831
 30
0.0
 10
69.1730903745
 20
126.9724621085
 30
0.0
 10
68.8770118963
 20
126.7921472356
 30
0.0
 10
68.4512115379
 20
126.6499126954
 30
0.0
 10
67.9733945044
 20
126.5827742689
 30
0.0
 10
67.482210973
 20
126.5963046713
 30
0.0
 10
67.0178240831
 20
126.6892525823
 30
0.0
 10
66.732856018
 20
126.8067975922
 30
0.0
 10
66.6070197665
 20
126.8794475423
 30
0.0
  0
SPLINE
  5
38E
100
AcDbEntity
  8
0
100
AcDbSpline
 62
7
  6
BYLAYER
 70
0
 71
3
 72
11
 73
7
 74
0
 42
0.0000001
 43
0.0000001
 44
0.0000000001
 40
0.0
 40
0.0
 40
0.0
 40
0.0
 40
0.223156785
 40
0.4591669314
 40
0.7172967346
 40
1.0
 40
1.0
 40
1.0
 40
1.0
 10
38.3078433146
 20
141.3879595234
 30
0.0
 10
38.3833872134
 20
141.4466773855
 30
0.0
 10
38.5606011753
 20
141.5416794162
 30
0.0
 10
38.8678165126
 20
141.5952164112
 30
0.0
 10
39.2025559122
 20
141.5629167344
 30
0.0
 10
39.4246986697
 20
141.490380921
 30
0.0
 10
39.5361158678
 20
141.4426492327
 30
0.0
  0
SPLINE
  5
38F
100
AcDbEntity
  8
0
100
AcDbSpline
 62
7
  6
BYLAYER
 70
0
 71
3
 72
9
 73
5
 74
0
 42
0.0000001
 43
0.0000001
 44
0.0000000001
 40
0.0
 40
0.0
 40
0.0
 40
0.0
 40
0.5255728688
 40
1.0
 40
1.0
 40
1.0
 40
1.0
 10
47.4133409916
 20
45.8825453598
 30
0.0
 10
47.4025311049
 20
45.8941873775
 30
0.0
 10
47.3847362691
 20
45.919422074
 30
0.0
 10
47.3778513405
 20
45.9498905813
 30
0.0
 10
47.3778513414
 20
45.9642313637
 30
0.0
  0
SPLINE
  5
390
100
AcDbEntity
  8
0
100
AcDbSpline
 62
7
  6
BYLAYER
 70
0
 71
3
 72
9
 73
5
 74
0
 42
0.0000001
 43
0.0000001
 44
0.0000000001
 40
0.0
 40
0.0
 40
0.0
 40
0.0
 40
0.2414949811
 40
1.0
 40
1.0
 40
1.0
 40
1.0
 10
49.0075635665
 20
46.9768867418
 30
0.0
 10
48.9823795561
 20
46.9974637917
 30
0.0
 10
48.8761921649
 20
47.0803311833
 30
0.0
 10
48.762939315
 20
47.1540001061
 30
0.0
 10
48.6744778164
 20
47.2050722207
 30
0.0
  0
SPLINE
  5
391
100
AcDbEntity
  8
0
100
AcDbSpline
 62
7
  6
BYLAYER
 70
0
 71
3
 72
9
 73
5
 74
0
 42
0.0000001
 43
0.0000001
 44
0.0000000001
 40
0.0
 40
0.0
 40
0.0
 40
0.0
 40
0.2427431976
 40
1.0
 40
1.0
 40
1.0
 40
1.0
 10
48.6744778164
 20
47.2050722207
 30
0.0
 10
48.6436639431
 20
47.2228622163
 30
0.0
 10
48.5153632636
 20
47.2937816096
 30
0.0
 10
48.3820142922
 20
47.3554487985
 30
0.0
 10
48.2792405496
 20
47.397374719
 30
0.0
  0
SPLINE
  5
392
100
AcDbEntity
  8
0
100
AcDbSpline
 62
7
  6
BYLAYER
 70
0
 71
3
 72
11
 73
7
 74
0
 42
0.0000001
 43
0.0000001
 44
0.0000000001
 40
0.0
 40
0.0
 40
0.0
 40
0.0
 40
0.2372428732
 40
0.4999994739
 40
0.7627563609
 40
1.0
 40
1.0
 40
1.0
 40
1.0
 10
46.737388899
 20
46.5071915672
 30
0.0
 10
46.7072719033
 20
46.4898036154
 30
0.0
 10
46.637234954
 20
46.4644335971
 30
0.0
 10
46.5252571982
 20
46.4522774469
 30
0.0
 10
46.4132792734
 20
46.4644330861
 30
0.0
 10
46.3432420487
 20
46.4898027566
 30
0.0
 10
46.3131248303
 20
46.5071905474
 30
0.0
  0
SPLINE
  5
393
100
AcDbEntity
  8
0
100
AcDbSpline
 62
7
  6
BYLAYER
 70
0
 71
3
 72
11
 73
7
 74
0
 42
0.0000001
 43
0.0000001
 44
0.0000000001
 40
0.0
 40
0.0
 40
0.0
 40
0.0
 40
0.2575407347
 40
0.5165383384
 40
0.7653586493
 40
1.0
 40
1.0
 40
1.0
 40
1.0
 10
74.8981649705
 20
113.8396060534
 30
0.0
 10
75.1011150721
 20
113.8802039635
 30
0.0
 10
75.518737535
 20
113.9187520504
 30
0.0
 10
76.1333262199
 20
113.817693885
 30
0.0
 10
76.6763996018
 20
113.544158481
 30
0.0
 10
76.9432445708
 20
113.2470570908
 30
0.0
 10
77.0408862812
 20
113.0857376665
 30
0.0
  0
SPLINE
  5
394
100
AcDbEntity
  8
0
100
AcDbSpline
 62
7
  6
BYLAYER
 70
0
 71
3
 72
11
 73
7
 74
0
 42
0.0000001
 43
0.0000001
 44
0.0000000001
 40
0.0
 40
0.0
 40
0.0
 40
0.0
 40
0.2896008509
 40
0.5491402412
 40
0.7822375356
 40
1.0
 40
1.0
 40
1.0
 40
1.0
 10
72.4167583375
 20
127.7157856444
 30
0.0
 10
72.5044834413
 20
127.7664334544
 30
0.0
 10
72.6791095219
 20
127.8494090963
 30
0.0
 10
72.9473951311
 20
127.9143356543
 30
0.0
 10
73.1992387359
 20
127.9080098088
 30
0.0
 10
73.3507251745
 20
127.8528351214
 30
0.0
 10
73.4167012854
 20
127.814771966
 30
0.0
  0
SPLINE
  5
395
100
AcDbEntity
  8
0
100
AcDbSpline
 62
7
  6
BYLAYER
 70
0
 71
3
 72
9
 73
5
 74
0
 42
0.0000001
 43
0.0000001
 44
0.0000000001
 40
0.0
 40
0.0
 40
0.0
 40
0.0
 40
0.235274099
 40
1.0
 40
1.0
 40
1.0
 40
1.0
 10
43.6613664832
 20
46.8512779356
 30
0.0
 10
43.6997039306
 20
46.8925327645
 30
0.0
 10
43.8705754108
 20
47.0604994216
 30
0.0
 10
44.0686245475
 20
47.1994844703
 30
0.0
 10
44.2271541734
 20
47.2910110454
 30
0.0
  0
SPLINE
  5
396
100
AcDbEntity
  8
0
100
AcDbSpline
 62
7
  6
BYLAYER
 70
0
 71
3
 72
11
 73
7
 74
0
 42
0.0000001
 43
0.0000001
 44
0.0000000001
 40
0.0
 40
0.0
 40
0.0
 40
0.0
 40
0.2328730207
 40
0.4909415469
 40
0.7540293557
 40
1.0
 40
1.0
 40
1.0
 40
1.0
 10
74.070879815
 20
125.0185550773
 30
0.0
 10
74.0708799811
 20
125.2479760081
 30
0.0
 10
73.9725021483
 20
125.7323821423
 30
0.0
 10
73.6239011117
 20
126.3968454819
 30
0.0
 10
73.1148576857
 20
126.9654176523
 30
0.0
 10
72.6873564007
 20
127.2440919703
 30
0.0
 10
72.4646117936
 20
127.3395170879
 30
0.0
  0
SPLINE
  5
397
100
AcDbEntity
  8
0
100
AcDbSpline
 62
7
  6
BYLAYER
 70
0
 71
3
 72
11
 73
7
 74
0
 42
0.0000001
 43
0.0000001
 44
0.0000000001
 40
0.0
 40
0.0
 40
0.0
 40
0.0
 40
0.2457308349
 40
0.5084452589
 40
0.7666401357
 40
1.0
 40
1.0
 40
1.0
 40
1.0
 10
68.214393689
 20
124.8856517994
 30
0.0
 10
68.1638332779
 20
124.8639846945
 30
0.0
 10
68.0528205864
 20
124.8336557904
 30
0.0
 10
67.8804240446
 20
124.8236656323
 30
0.0
 10
67.7121833221
 20
124.8474653458
 30
0.0
 10
67.6079163491
 20
124.8871299499
 30
0.0
 10
67.562669384
 20
124.9132362428
 30
0.0
  0
SPLINE
  5
398
100
AcDbEntity
  8
0
100
AcDbSpline
 62
7
  6
BYLAYER
 70
0
 71
3
 72
11
 73
7
 74
0
 42
0.0000001
 43
0.0000001
 44
0.0000000001
 40
0.0
 40
0.0
 40
0.0
 40
0.0
 40
0.2177842323
 40
0.4509131322
 40
0.7102976887
 40
1.0
 40
1.0
 40
1.0
 40
1.0
 10
49.7752607802
 20
47.6788836692
 30
0.0
 10
49.7752607861
 20
47.8026731598
 30
0.0
 10
49.7295117902
 20
48.0606897347
 30
0.0
 10
49.5339030048
 20
48.4201825923
 30
0.0
 10
49.2246843708
 20
48.7451481063
 30
0.0
 10
48.965955759
 20
48.9233445488
 30
0.0
 10
48.8233482511
 20
49.0056771692
 30
0.0
  0
SPLINE
  5
399
100
AcDbEntity
  8
0
100
AcDbSpline
 62
7
  6
BYLAYER
 70
0
 71
3
 72
9
 73
5
 74
0
 42
0.0000001
 43
0.0000001
 44
0.0000000001
 40
0.0
 40
0.0
 40
0.0
 40
0.0
 40
0.4744317054
 40
1.0
 40
1.0
 40
1.0
 40
1.0
 10
35.0660243418
 20
52.0878371405
 30
0.0
 10
35.0660243409
 20
52.0734979353
 30
0.0
 10
35.0591410624
 20
52.0430330984
 30
0.0
 10
35.0413499429
 20
52.0178004033
 30
0.0
 10
35.0305421753
 20
52.0061591999
 30
0.0
  0
SPLINE
  5
39A
100
AcDbEntity
  8
0
100
AcDbSpline
 62
7
  6
BYLAYER
 70
0
 71
3
 72
12
 73
8
 74
0
 42
0.0000001
 43
0.0000001
 44
0.0000000001
 40
0.0
 40
0.0
 40
0.0
 40
0.0
 40
0.2825065051
 40
0.5155307481
 40
0.6258634139
 40
0.7402898204
 40
1.0
 40
1.0
 40
1.0
 40
1.0
 10
72.416796795
 20
127.7157634414
 30
0.0
 10
72.4547166367
 20
127.693858542
 30
0.0
 10
72.5199966005
 20
127.6444310811
 30
0.0
 10
72.5651448581
 20
127.5524750846
 30
0.0
 10
72.5629423784
 20
127.480308407
 30
0.0
 10
72.5378506954
 20
127.4085000918
 30
0.0
 10
72.4963620099
 20
127.364200856
 30
0.0
 10
72.4645840031
 20
127.3394847112
 30
0.0
  0
SPLINE
  5
39B
100
AcDbEntity
  8
0
100
AcDbSpline
 62
7
  6
BYLAYER
 70
0
 71
3
 72
9
 73
5
 74
0
 42
0.0000001
 43
0.0000001
 44
0.0000000001
 40
0.0
 40
0.0
 40
0.0
 40
0.0
 40
0.2421994393
 40
1.0
 40
1.0
 40
1.0
 40
1.0
 10
72.4645840031
 20
127.3394847112
 30
0.0
 10
72.3021530039
 20
127.2130717632
 30
0.0
 10
71.6209811902
 20
126.7047118473
 30
0.0
 10
70.9005126104
 20
126.2497201181
 30
0.0
 10
70.3398478163
 20
125.93289065
 30
0.0
  0
SPLINE
  5
39C
100
AcDbEntity
  8
0
100
AcDbSpline
 62
7
  6
BYLAYER
 70
0
 71
3
 72
9
 73
5
 74
0
 42
0.0000001
 43
0.0000001
 44
0.0000000001
 40
0.0
 40
0.0
 40
0.0
 40
0.0
 40
0.2441423685
 40
1.0
 40
1.0
 40
1.0
 40
1.0
 10
70.3398478163
 20
125.93289065
 30
0.0
 10
70.1719228967
 20
125.837996939
 30
0.0
 10
69.4783998729
 20
125.4594617072
 30
0.0
 10
68.7633218692
 20
125.1207594523
 30
0.0
 10
68.214393689
 20
124.8856517994
 30
0.0
  0
SPLINE
  5
39D
100
AcDbEntity
  8
0
100
AcDbSpline
 62
7
  6
BYLAYER
 70
0
 71
3
 72
13
 73
9
 74
0
 42
0.0000001
 43
0.0000001
 44
0.0000000001
 40
0.0
 40
0.0
 40
0.0
 40
0.0
 40
0.1084429462
 40
0.2285214307
 40
0.4905489175
 40
0.7577091661
 40
0.8838369307
 40
1.0
 40
1.0
 40
1.0
 40
1.0
 10
68.2143477636
 20
124.8856386864
 30
0.0
 10
68.2971150732
 20
124.8212400493
 30
0.0
 10
68.4596933377
 20
124.6701069421
 30
0.0
 10
68.763086217
 20
124.3042248123
 30
0.0
 10
69.0800136827
 20
123.7569770642
 30
0.0
 10
69.2952950268
 20
123.1566400929
 30
0.0
 10
69.388450884
 20
122.6720533684
 30
0.0
 10
69.4059563828
 20
122.4376081858
 30
0.0
 10
69.4059565535
 20
122.3252729587
 30
0.0
  0
SPLINE
  5
39E
100
AcDbEntity
  8
0
100
AcDbSpline
 62
7
  6
BYLAYER
 70
0
 71
3
 72
11
 73
7
 74
0
 42
0.0000001
 43
0.0000001
 44
0.0000000001
 40
0.0
 40
0.0
 40
0.0
 40
0.0
 40
0.2442980468
 40
0.5068935439
 40
0.7658056976
 40
1.0
 40
1.0
 40
1.0
 40
1.0
 10
69.4062455736
 20
122.3250420455
 30
0.0
 10
69.1526155721
 20
122.2236538531
 30
0.0
 10
68.5963907496
 20
122.0862859688
 30
0.0
 10
67.7356943983
 20
122.054325336
 30
0.0
 10
66.8960159805
 20
122.1863846043
 30
0.0
 10
66.3757870084
 20
122.389591302
 30
0.0
 10
66.1495330178
 20
122.5213987289
 30
0.0
  0
ENDSEC
  0
SECTION
  2
OBJECTS
  0
DICTIONARY
  5
C
100
AcDbDictionary
280
0
281
1
  3
ACAD_GROUP
350
D
  3
ACAD_MLINESTYLE
350
17
  3
ACAD_LAYOUT
350
1A
  3
ACAD_PLOTSETTINGS
350
19
  3
ACAD_PLOTSTYLENAME
350
E
  0
DICTIONARY
  5
D
102
{ACAD_REACTORS
330
C
102
}
100
AcDbDictionary
280
0
281
1
  0
ACDBDICTIONARYWDFLT
  5
E
102
{ACAD_REACTORS
330
C
102
}
100
AcDbDictionary
281
1
  3
Normal
350
F
100
AcDbDictionaryWithDefault
340
F
  0
DICTIONARY
  5
17
102
{ACAD_REACTORS
330
C
102
}
100
AcDbDictionary
280
0
281
1
  3
Standard
350
18
  0
DICTIONARY
  5
19
102
{ACAD_REACTORS
330
C
102
}
100
AcDbDictionary
281
1
  0
DICTIONARY
  5
1A
102
{ACAD_REACTORS
330
C
102
}
100
AcDbDictionary
281
1
  3
Model
350
39F
  3
Layout1
350
3A0
  0
ACDBPLACEHOLDER
  5
F
102
{ACAD_REACTORS
330
E
102
}
  0
MLINESTYLE
  5
18
102
{ACAD_REACTORS
330
17
102
}
100
AcDbMlineStyle
  2
STANDARD
 70
0
  3

 62
256
 51
90.0
 52
90.0
 71
2
 49
0.5
 62
256
  6
BYLAYER
 49
-0.5
 62
256
  6
BYLAYER
  0
LAYOUT
  5
39F
102
{ACAD_REACTORS
330
1A
102
}
100
AcDbPlotSettings
  1

  2
none_device
  4

  6

 40
0.0
 41
0.0
 42
0.0
 43
0.0
 44
210.0
 45
297.0
 46
0.0
 47
0.0
 48
0.0
 49
0.0
140
0.0
141
0.0
142
1.0
143
1.0
 70
1024
 72
1
 73
0
 74
0
  7

 75
0
147
1.0
148
0.0
149
0.0
100
AcDbLayout
  1
Model
 70
0
 71
0
 10
0.0
 20
0.0
 11
210.0
 21
297.0
 12
0.0
 22
0.0
 32
0.0
 14
0.0
 24
0.0
 34
0.0
 15
0.0
 25
0.0
 35
0.0
146
0.0
 13
0.0
 23
0.0
 33
0.0
 16
1.0
 26
0.0
 36
0.0
 17
0.0
 27
1.0
 37
0.0
 76
0
330
210
345
0
346
0
  0
LAYOUT
  5
3A0
102
{ACAD_REACTORS
330
1A
102
}
100
AcDbPlotSettings
  1

  2
none_device
  4

  6

 40
0.0
 41
0.0
 42
0.0
 43
0.0
 44
210.0
 45
297.0
 46
0.0
 47
0.0
 48
0.0
 49
0.0
140
0.0
141
0.0
142
1.0
143
1.0
 70
0
 72
1
 73
0
 74
0
  7

 75
0
147
1.0
148
0.0
149
0.0
100
AcDbLayout
  1
Layout1
 70
0
 71
1
 10
0.0
 20
0.0
 11
210.0
 21
297.0
 12
0.0
 22
0.0
 32
0.0
 14
0.0
 24
0.0
 34
0.0
 15
0.0
 25
0.0
 35
0.0
146
0.0
 13
0.0
 23
0.0
 33
0.0
 16
1.0
 26
0.0
 36
0.0
 17
0.0
 27
1.0
 37
0.0
 76
0
330
211
345
0
346
0
  0
ENDSEC
  0
EOF
