999
DXF file: C:\Users\sesa63760\Dev\_Creo\CAD\MCADPP0003085_3D-CAD\drw0001_3.dxf
999
Pro/ENGINEER 2019471 by Parametric Technology Corporation
  0
SECTION
  2
HEADER
  9
$ACADVER
  1
AC1024
  9
$DWGCODEPAGE
  3
ANSI_1252
  9
$EXTMAX
 10
187.8271135866
 20
265.6412035011
 30
0.0
  9
$EXTMIN
 10
0.0
 20
0.0
 30
0.0
  9
$LIMMIN
 10
0.0
 20
0.0
  9
$LIMMAX
 10
187.8271135866
 20
265.6412035011
  9
$VIEWCTR
 10
93.9135567933
 20
132.8206017505
  9
$VIEWSIZE
 40
265.6412035011
  9
$CLAYER
  8
0
  9
$LTSCALE
 40
17.315871043
  9
$CELTYPE
  6
BYLAYER
  9
$DIMSCALE
 40
1.0
  9
$DIMASZ
 40
2.2360370665
  9
$DIMEXO
 40
1.0
  9
$DIMDLI
 40
11.9636927206
  9
$DIMEXE
 40
1.0
  9
$DIMCEN
 40
2.8335061707
  9
$DIMLFAC
 40
1.0
  9
$DIMBLK
  1
_FILLED
  9
$DIMALT
 70
0
  9
$DIMALTF
 40
0.0393700787
  9
$DIMTXT
 40
3.1304518931
  9
$DIMTOL
 70
1
  9
$DIMLIM
 70
0
  9
$DIMTFAC
 40
1.0
  9
$DIMTP
 40
0.01
  9
$DIMTM
 40
0.01
  9
$DIMGAP
 40
0.625
  9
$DIMDSEP
 70
46
  9
$AUNITS
 70
0
  9
$PDMODE
 70
3
  9
$PDSIZE
 40
0.3125
  9
$HANDSEED
  5
2E3
  9
$TILEMODE
 70
1
  9
$MEASUREMENT
 70
1
  9
$INSUNITS
 70
4
  0
ENDSEC
  0
SECTION
  2
CLASSES
  0
CLASS
  1
ACDBDICTIONARYWDFLT
  2
AcDbDictionaryWithDefault
  3
AutoCAD 2000
 90
0
 91
1
280
0
281
0
  0
CLASS
  1
ACDBPLACEHOLDER
  2
AcDbPlaceHolder
  3
AutoCAD 2000
 90
0
 91
1
280
0
281
0
  0
CLASS
  1
LAYOUT
  2
AcDbLayout
  3
AutoCAD 2000
 90
0
 91
0
280
0
281
0
  0
ENDSEC
  0
SECTION
  2
TABLES
  0
TABLE
  2
VPORT
  5
8
100
AcDbSymbolTable
 70
2
  0
VPORT
  5
1F4
100
AcDbSymbolTableRecord
100
AcDbViewportTableRecord
  2
*ACTIVE
 70
0
 10
0.0
 20
0.0
 11
1.0
 21
1.0
 12
93.9135567933
 22
132.8206017505
 13
0.0
 23
0.0
 14
1.0
 24
1.0
 15
0.0
 25
0.0
 16
0.0
 26
0.0
 36
1.0
 17
0.0
 27
0.0
 37
0.0
 40
265.6412035011
 41
0.7070707071
 42
50.0
 43
0.0
 44
0.0
 50
0.0
 51
0.0
 71
0
 72
100
 73
1
 74
1
 75
0
 76
0
 77
0
 78
0
  0
ENDTAB
  0
TABLE
  2
LTYPE
  5
5
100
AcDbSymbolTable
 70
6
  0
LTYPE
  5
14
100
AcDbSymbolTableRecord
100
AcDbLinetypeTableRecord
  2
BYBLOCK
 70
0
  3

 72
65
 73
0
 40
0.0
  0
LTYPE
  5
15
100
AcDbSymbolTableRecord
100
AcDbLinetypeTableRecord
  2
BYLAYER
 70
0
  3

 72
65
 73
0
 40
0.0
  0
LTYPE
  5
16
100
AcDbSymbolTableRecord
100
AcDbLinetypeTableRecord
  2
CONTINUOUS
 70
64
  3
Solid line
 72
65
 73
0
 40
0.0
  0
LTYPE
  5
1F5
100
AcDbSymbolTableRecord
100
AcDbLinetypeTableRecord
  2
CENTER
 70
64
  3
____ _ ____ _ ____ _ ____ _ ____ _ ____ _ ____
 72
65
 73
4
 40
0.6
 49
0.375
 74
0
 49
-0.075
 74
0
 49
0.075
 74
0
 49
-0.075
 74
0
  0
LTYPE
  5
1F6
100
AcDbSymbolTableRecord
100
AcDbLinetypeTableRecord
  2
HIDDEN
 70
64
  3
- - - - - - - - - - - - - - - - - - - -
 72
65
 73
2
 40
0.2
 49
0.1
 74
0
 49
-0.1
 74
0
  0
LTYPE
  5
1F7
100
AcDbSymbolTableRecord
100
AcDbLinetypeTableRecord
  2
PHANTOM
 70
64
  3
_____ _ _ _____ _ _ _____ _ _ _____
 72
65
 73
6
 40
0.8
 49
0.45
 74
0
 49
-0.05
 74
0
 49
0.1
 74
0
 49
-0.05
 74
0
 49
0.1
 74
0
 49
-0.05
 74
0
  0
LTYPE
  5
1F8
100
AcDbSymbolTableRecord
100
AcDbLinetypeTableRecord
  2
DOT
 70
64
  3
. . . . . . . . . . . . . . . . . . . .
 72
65
 73
2
 40
0.2
 49
0.1
 74
0
 49
-0.1
 74
0
  0
LTYPE
  5
1F9
100
AcDbSymbolTableRecord
100
AcDbLinetypeTableRecord
  2
DASHED
 70
64
  3
- - - - - - - - - - - - - - - - - - - -
 72
65
 73
2
 40
0.2
 49
0.1
 74
0
 49
-0.1
 74
0
  0
ENDTAB
  0
TABLE
  2
LAYER
  5
2
100
AcDbSymbolTable
 70
36
  0
LAYER
  5
10
100
AcDbSymbolTableRecord
100
AcDbLayerTableRecord
  2
0
 70
0
 62
7
  6
CONTINUOUS
370
-3
390
F
  0
LAYER
  5
1FA
100
AcDbSymbolTableRecord
100
AcDbLayerTableRecord
  2
DEFAULT_1
 70
0
 62
7
  6
CENTER
370
-3
390
F
  0
LAYER
  5
1FB
100
AcDbSymbolTableRecord
100
AcDbLayerTableRecord
  2
DEFAULT_2
 70
0
 62
8
  6
HIDDEN
370
-3
390
F
  0
LAYER
  5
1FC
100
AcDbSymbolTableRecord
100
AcDbLayerTableRecord
  2
DEFAULT_3
 70
0
 62
7
  6
PHANTOM
370
-3
390
F
  0
LAYER
  5
1FD
100
AcDbSymbolTableRecord
100
AcDbLayerTableRecord
  2
00_COMPONENTS
 70
0
 62
7
  6
CONTINUOUS
370
-3
390
F
  0
LAYER
  5
1FE
100
AcDbSymbolTableRecord
100
AcDbLayerTableRecord
  2
01_1_DEFAULT_DATUMS
 70
0
 62
7
  6
CONTINUOUS
370
-3
390
F
  0
LAYER
  5
1FF
100
AcDbSymbolTableRecord
100
AcDbLayerTableRecord
  2
01_PLANES
 70
0
 62
7
  6
CONTINUOUS
370
-3
390
F
  0
LAYER
  5
200
100
AcDbSymbolTableRecord
100
AcDbLayerTableRecord
  2
02_COORD_SYS
 70
0
 62
7
  6
CONTINUOUS
370
-3
390
F
  0
LAYER
  5
201
100
AcDbSymbolTableRecord
100
AcDbLayerTableRecord
  2
03_AXES
 70
0
 62
7
  6
CONTINUOUS
370
-3
390
F
  0
LAYER
  5
202
100
AcDbSymbolTableRecord
100
AcDbLayerTableRecord
  2
04_POINTS
 70
0
 62
7
  6
CONTINUOUS
370
-3
390
F
  0
LAYER
  5
203
100
AcDbSymbolTableRecord
100
AcDbLayerTableRecord
  2
05_CURVES
 70
0
 62
7
  6
CONTINUOUS
370
-3
390
F
  0
LAYER
  5
204
100
AcDbSymbolTableRecord
100
AcDbLayerTableRecord
  2
06_SURFS
 70
0
 62
7
  6
CONTINUOUS
370
-3
390
F
  0
LAYER
  5
205
100
AcDbSymbolTableRecord
100
AcDbLayerTableRecord
  2
07_COSMETICS
 70
0
 62
7
  6
CONTINUOUS
370
-3
390
F
  0
LAYER
  5
206
100
AcDbSymbolTableRecord
100
AcDbLayerTableRecord
  2
10_NOTES
 70
0
 62
7
  6
CONTINUOUS
370
-3
390
F
  0
LAYER
  5
207
100
AcDbSymbolTableRecord
100
AcDbLayerTableRecord
  2
11_NOTES_PUB
 70
0
 62
7
  6
CONTINUOUS
370
-3
390
F
  0
LAYER
  5
208
100
AcDbSymbolTableRecord
100
AcDbLayerTableRecord
  2
13_REF_GTOL
 70
0
 62
7
  6
CONTINUOUS
370
-3
390
F
  0
LAYER
  5
209
100
AcDbSymbolTableRecord
100
AcDbLayerTableRecord
  2
16_MISC
 70
0
 62
7
  6
CONTINUOUS
370
-3
390
F
  0
LAYER
  5
20A
100
AcDbSymbolTableRecord
100
AcDbLayerTableRecord
  2
17_NO_PRINT
 70
0
 62
7
  6
CONTINUOUS
370
-3
390
F
  0
LAYER
  5
20B
100
AcDbSymbolTableRecord
100
AcDbLayerTableRecord
  2
18_DATUM_CAMS_JOINTS
 70
0
 62
7
  6
CONTINUOUS
370
-3
390
F
  0
LAYER
  5
20C
100
AcDbSymbolTableRecord
100
AcDbLayerTableRecord
  2
19_DATUM_FUNCTIONAL
 70
0
 62
7
  6
CONTINUOUS
370
-3
390
F
  0
LAYER
  5
20D
100
AcDbSymbolTableRecord
100
AcDbLayerTableRecord
  2
20_DATUM_KINEMATIC_SCHEME
 70
0
 62
7
  6
CONTINUOUS
370
-3
390
F
  0
LAYER
  5
20E
100
AcDbSymbolTableRecord
100
AcDbLayerTableRecord
  2
SHELL2
 70
0
 62
7
  6
CONTINUOUS
370
-3
390
F
  0
ENDTAB
  0
TABLE
  2
STYLE
  5
3
100
AcDbSymbolTable
 70
1
  0
STYLE
  5
11
100
AcDbSymbolTableRecord
100
AcDbTextStyleTableRecord
  2
STANDARD
 70
0
 40
0.0
 41
0.8
 50
0.0
 71
0
 42
0.2
  3
txt
  4

  0
STYLE
  5
20F
100
AcDbSymbolTableRecord
100
AcDbTextStyleTableRecord
  2
TEXTSTYLE_1
 70
0
 40
0.0
 41
0.8
 50
0.0
 71
0
 42
0.2
  3
gdt
  4

  0
ENDTAB
  0
TABLE
  2
VIEW
  5
6
100
AcDbSymbolTable
 70
0
  0
ENDTAB
  0
TABLE
  2
UCS
  5
7
100
AcDbSymbolTable
 70
0
  0
ENDTAB
  0
TABLE
  2
APPID
  5
9
100
AcDbSymbolTable
 70
1
  0
APPID
  5
210
100
AcDbSymbolTableRecord
100
AcDbRegAppTableRecord
  2
ACAD
 70
0
  0
ENDTAB
  0
TABLE
  2
BLOCK_RECORD
  5
1
100
AcDbSymbolTable
 70
0
  0
BLOCK_RECORD
  5
211
100
AcDbSymbolTableRecord
100
AcDbBlockTableRecord
  2
*Model_Space
  0
BLOCK_RECORD
  5
212
100
AcDbSymbolTableRecord
100
AcDbBlockTableRecord
  2
*Paper_Space
  0
BLOCK_RECORD
  5
213
100
AcDbSymbolTableRecord
100
AcDbBlockTableRecord
  2
_FILLED
  0
ENDTAB
  0
TABLE
  2
DIMSTYLE
  5
A
100
AcDbSymbolTable
 70
1
100
AcDbDimStyleTable
 71
0
  0
DIMSTYLE
105
214
100
AcDbSymbolTableRecord
100
AcDbDimStyleTableRecord
  2
STANDARD
 70
0
  3

  4

 40
1.0
 41
2.2360370665
 42
1.0
 43
0.38
 44
1.0
 45
0.0
 46
0.0
 47
0.01
 48
0.01
140
3.1304518931
141
0.09
142
0.0
143
25.4
144
1.0
145
0.0
146
1.0
147
0.625
 71
1
 72
0
 73
0
 74
0
 75
0
 76
0
 77
1
 78
8
 79
2
170
0
171
1
172
0
173
0
174
0
175
0
176
0
177
0
178
0
270
2
179
2
271
2
272
2
273
2
274
2
275
0
280
0
281
0
282
0
283
1
284
8
285
0
286
0
287
3
288
0
340
11
278
46
341
213
342
213
343
213
344
213
  0
ENDTAB
  0
ENDSEC
  0
SECTION
  2
BLOCKS
  0
BLOCK
  5
20
100
AcDbEntity
  8
0
100
AcDbBlockBegin
  2
*Model_Space
 70
0
 10
0.0
 20
0.0
 30
0.0
  3
*Model_Space
  1

  0
ENDBLK
  5
21
100
AcDbEntity
  8
0
100
AcDbBlockEnd
  0
BLOCK
  5
1C
100
AcDbEntity
  8
0
100
AcDbBlockBegin
  2
*Paper_Space
 70
0
 10
0.0
 20
0.0
 30
0.0
  3
*Paper_Space
  1

  0
ENDBLK
  5
1D
100
AcDbEntity
  8
0
100
AcDbBlockEnd
  0
BLOCK
  5
215
100
AcDbEntity
  8
0
100
AcDbBlockBegin
  2
_FILLED
 70
64
 10
0.0
 20
0.0
  3
_FILLED
  1

  0
SOLID
  5
216
100
AcDbEntity
  8
0
  6
BYBLOCK
 62
0
100
AcDbTrace
 10
0.0
 20
0.0
 11
-1.0
 21
0.25
 12
-1.0
 22
-0.25
 13
-1.0
 23
-0.25
  0
ENDBLK
  5
217
100
AcDbEntity
  8
0
  6
BYBLOCK
 62
0
100
AcDbBlockEnd
  0
ENDSEC
  0
SECTION
  2
ENTITIES
  0
LINE
  5
218
100
AcDbEntity
  8
SHELL2
100
AcDbLine
 62
7
  6
CONTINUOUS
 10
22.2196946489
 20
203.3208862144
 11
22.2196946489
 21
63.6208862144
  0
LINE
  5
219
100
AcDbEntity
  8
SHELL2
100
AcDbLine
 62
7
  6
CONTINUOUS
 10
22.2450946489
 20
185.8583862119
 11
22.2450946489
 21
81.083386217
  0
LINE
  5
21A
100
AcDbEntity
  8
SHELL2
100
AcDbLine
 62
7
  6
CONTINUOUS
 10
170.8096946489
 20
63.6208862144
 11
22.2196946489
 21
63.6208862144
  0
LINE
  5
21B
100
AcDbEntity
  8
SHELL2
100
AcDbLine
 62
7
  6
CONTINUOUS
 10
30.8556946489
 20
203.3208862119
 11
30.8556946489
 21
182.3930176973
  0
LINE
  5
21C
100
AcDbEntity
  8
SHELL2
100
AcDbLine
 62
7
  6
CONTINUOUS
 10
30.8556946489
 20
173.4487547316
 11
30.8556946489
 21
137.9430176973
  0
LINE
  5
21D
100
AcDbEntity
  8
SHELL2
100
AcDbLine
 62
7
  6
CONTINUOUS
 10
30.8556946489
 20
128.9987547316
 11
30.8556946489
 21
93.4930176973
  0
LINE
  5
21E
100
AcDbEntity
  8
SHELL2
100
AcDbLine
 62
7
  6
CONTINUOUS
 10
30.8556946489
 20
84.5487547316
 11
30.8556946489
 21
63.620886217
  0
LINE
  5
21F
100
AcDbEntity
  8
SHELL2
100
AcDbLine
 62
7
  6
CONTINUOUS
 10
33.3956946489
 20
89.0208862144
 11
33.3956946489
 21
177.9208862144
  0
LINE
  5
220
100
AcDbEntity
  8
SHELL2
100
AcDbLine
 62
7
  6
CONTINUOUS
 10
41.8220639919
 20
97.2758862144
 11
43.1968793204
 21
94.8946362144
  0
LINE
  5
221
100
AcDbEntity
  8
SHELL2
100
AcDbLine
 62
7
  6
CONTINUOUS
 10
45.9465099774
 20
99.6571362144
 11
47.3213253059
 21
97.2758862144
  0
LINE
  5
222
100
AcDbEntity
  8
SHELL2
100
AcDbLine
 62
7
  6
CONTINUOUS
 10
38.8884446489
 20
89.0208862144
 11
38.8884446489
 21
122.0154862144
  0
LINE
  5
223
100
AcDbEntity
  8
SHELL2
100
AcDbLine
 62
7
  6
CONTINUOUS
 10
170.8096946489
 20
76.3208862144
 11
162.1736946489
 21
76.3208862144
  0
LINE
  5
224
100
AcDbEntity
  8
SHELL2
100
AcDbLine
 62
7
  6
CONTINUOUS
 10
99.1816946489
 20
76.3208862144
 11
93.8476946489
 21
76.3208862144
  0
LINE
  5
225
100
AcDbEntity
  8
SHELL2
100
AcDbLine
 62
7
  6
CONTINUOUS
 10
30.8556946489
 20
76.3208862144
 11
22.2196946489
 21
76.3208862144
  0
LINE
  5
226
100
AcDbEntity
  8
SHELL2
100
AcDbLine
 62
7
  6
CONTINUOUS
 10
41.8220639919
 20
113.7858862144
 11
43.1968793204
 21
111.4046362144
  0
LINE
  5
227
100
AcDbEntity
  8
SHELL2
100
AcDbLine
 62
7
  6
CONTINUOUS
 10
59.6020639919
 20
166.1733862144
 11
56.8524333349
 21
161.4108862144
  0
LINE
  5
228
100
AcDbEntity
  8
SHELL2
100
AcDbLine
 62
7
  6
CONTINUOUS
 10
22.2450946489
 20
81.083386217
 11
22.2196946489
 21
81.083386217
  0
LINE
  5
229
100
AcDbEntity
  8
SHELL2
100
AcDbLine
 62
7
  6
CONTINUOUS
 10
45.9465099774
 20
116.1671362144
 11
47.3213253059
 21
113.7858862144
  0
LINE
  5
22A
100
AcDbEntity
  8
SHELL2
100
AcDbLine
 62
7
  6
CONTINUOUS
 10
59.6020639919
 20
97.2758862144
 11
60.9768793204
 21
94.8946362144
  0
LINE
  5
22B
100
AcDbEntity
  8
SHELL2
100
AcDbLine
 62
7
  6
CONTINUOUS
 10
50.2549446489
 20
89.0208862144
 11
50.2549446489
 21
122.0154862144
  0
LINE
  5
22C
100
AcDbEntity
  8
SHELL2
100
AcDbLine
 62
7
  6
CONTINUOUS
 10
52.0202446489
 20
177.9208862144
 11
52.0202446489
 21
144.9262862144
  0
LINE
  5
22D
100
AcDbEntity
  8
SHELL2
100
AcDbLine
 62
7
  6
CONTINUOUS
 10
159.6336946489
 20
89.0208862144
 11
101.7216946489
 21
89.0208862144
  0
LINE
  5
22E
100
AcDbEntity
  8
SHELL2
100
AcDbLine
 62
7
  6
CONTINUOUS
 10
91.3076946489
 20
89.0208862144
 11
33.3956946489
 21
89.0208862144
  0
LINE
  5
22F
100
AcDbEntity
  8
SHELL2
100
AcDbLine
 62
7
  6
CONTINUOUS
 10
22.2450946489
 20
89.9733862144
 11
22.2196946489
 21
89.9733862144
  0
LINE
  5
230
100
AcDbEntity
  8
SHELL2
100
AcDbLine
 62
7
  6
CONTINUOUS
 10
63.7265099774
 20
99.6571362144
 11
65.1013253059
 21
97.2758862144
  0
LINE
  5
231
100
AcDbEntity
  8
SHELL2
100
AcDbLine
 62
7
  6
CONTINUOUS
 10
59.6020639919
 20
113.7858862144
 11
60.9768793204
 21
111.4046362144
  0
LINE
  5
232
100
AcDbEntity
  8
SHELL2
100
AcDbLine
 62
7
  6
CONTINUOUS
 10
56.6684446489
 20
89.0208862144
 11
56.6684446489
 21
122.0154862144
  0
LINE
  5
233
100
AcDbEntity
  8
SHELL2
100
AcDbLine
 62
7
  6
CONTINUOUS
 10
67.8509559629
 20
161.4108862144
 11
65.1013253059
 21
156.6483862144
  0
LINE
  5
234
100
AcDbEntity
  8
SHELL2
100
AcDbLine
 62
7
  6
CONTINUOUS
 10
43.1968793204
 20
116.1671362144
 11
41.8220639919
 21
113.7858862144
  0
LINE
  5
235
100
AcDbEntity
  8
SHELL2
100
AcDbLine
 62
7
  6
CONTINUOUS
 10
149.8325099774
 20
94.8946362144
 11
147.0828793204
 21
94.8946362144
  0
LINE
  5
236
100
AcDbEntity
  8
SHELL2
100
AcDbLine
 62
7
  6
CONTINUOUS
 10
132.0525099774
 20
94.8946362144
 11
129.3028793204
 21
94.8946362144
  0
LINE
  5
237
100
AcDbEntity
  8
SHELL2
100
AcDbLine
 62
7
  6
CONTINUOUS
 10
114.2725099774
 20
94.8946362144
 11
111.5228793204
 21
94.8946362144
  0
LINE
  5
238
100
AcDbEntity
  8
SHELL2
100
AcDbLine
 62
7
  6
CONTINUOUS
 10
81.5065099774
 20
94.8946362144
 11
78.7568793204
 21
94.8946362144
  0
LINE
  5
239
100
AcDbEntity
  8
SHELL2
100
AcDbLine
 62
7
  6
CONTINUOUS
 10
63.7265099774
 20
94.8946362144
 11
60.9768793204
 21
94.8946362144
  0
LINE
  5
23A
100
AcDbEntity
  8
SHELL2
100
AcDbLine
 62
7
  6
CONTINUOUS
 10
45.9465099774
 20
94.8946362144
 11
43.1968793204
 21
94.8946362144
  0
LINE
  5
23B
100
AcDbEntity
  8
SHELL2
100
AcDbLine
 62
7
  6
CONTINUOUS
 10
159.6336946489
 20
95.3708862144
 11
101.7216946489
 21
95.3708862144
  0
LINE
  5
23C
100
AcDbEntity
  8
SHELL2
100
AcDbLine
 62
7
  6
CONTINUOUS
 10
91.3076946489
 20
95.3708862144
 11
33.3956946489
 21
95.3708862144
  0
LINE
  5
23D
100
AcDbEntity
  8
SHELL2
100
AcDbLine
 62
7
  6
CONTINUOUS
 10
149.8325099774
 20
99.6571362144
 11
147.0828793204
 21
99.6571362144
  0
LINE
  5
23E
100
AcDbEntity
  8
SHELL2
100
AcDbLine
 62
7
  6
CONTINUOUS
 10
132.0525099774
 20
99.6571362144
 11
129.3028793204
 21
99.6571362144
  0
LINE
  5
23F
100
AcDbEntity
  8
SHELL2
100
AcDbLine
 62
7
  6
CONTINUOUS
 10
114.2725099774
 20
99.6571362144
 11
111.5228793204
 21
99.6571362144
  0
LINE
  5
240
100
AcDbEntity
  8
SHELL2
100
AcDbLine
 62
7
  6
CONTINUOUS
 10
81.5065099774
 20
99.6571362144
 11
78.7568793204
 21
99.6571362144
  0
LINE
  5
241
100
AcDbEntity
  8
SHELL2
100
AcDbLine
 62
7
  6
CONTINUOUS
 10
63.7265099774
 20
99.6571362144
 11
60.9768793204
 21
99.6571362144
  0
LINE
  5
242
100
AcDbEntity
  8
SHELL2
100
AcDbLine
 62
7
  6
CONTINUOUS
 10
45.9465099774
 20
99.6571362144
 11
43.1968793204
 21
99.6571362144
  0
LINE
  5
243
100
AcDbEntity
  8
SHELL2
100
AcDbLine
 62
7
  6
CONTINUOUS
 10
63.7265099774
 20
116.1671362144
 11
65.1013253059
 21
113.7858862144
  0
LINE
  5
244
100
AcDbEntity
  8
SHELL2
100
AcDbLine
 62
7
  6
CONTINUOUS
 10
77.3820639919
 20
97.2758862144
 11
78.7568793204
 21
94.8946362144
  0
LINE
  5
245
100
AcDbEntity
  8
SHELL2
100
AcDbLine
 62
7
  6
CONTINUOUS
 10
68.0349446489
 20
89.0208862144
 11
68.0349446489
 21
122.0154862144
  0
LINE
  5
246
100
AcDbEntity
  8
SHELL2
100
AcDbLine
 62
7
  6
CONTINUOUS
 10
47.3213253059
 20
113.7858862144
 11
45.9465099774
 21
111.4046362144
  0
LINE
  5
247
100
AcDbEntity
  8
SHELL2
100
AcDbLine
 62
7
  6
CONTINUOUS
 10
43.1968793204
 20
99.6571362144
 11
41.8220639919
 21
97.2758862144
  0
LINE
  5
248
100
AcDbEntity
  8
SHELL2
100
AcDbLine
 62
7
  6
CONTINUOUS
 10
154.1409446489
 20
105.5054862144
 11
142.7744446489
 21
105.5054862144
  0
LINE
  5
249
100
AcDbEntity
  8
SHELL2
100
AcDbLine
 62
7
  6
CONTINUOUS
 10
136.3609446489
 20
105.5054862144
 11
124.9944446489
 21
105.5054862144
  0
LINE
  5
24A
100
AcDbEntity
  8
SHELL2
100
AcDbLine
 62
7
  6
CONTINUOUS
 10
118.5809446489
 20
105.5054862144
 11
107.2144446489
 21
105.5054862144
  0
LINE
  5
24B
100
AcDbEntity
  8
SHELL2
100
AcDbLine
 62
7
  6
CONTINUOUS
 10
85.8149446489
 20
105.5054862144
 11
74.4484446489
 21
105.5054862144
  0
LINE
  5
24C
100
AcDbEntity
  8
SHELL2
100
AcDbLine
 62
7
  6
CONTINUOUS
 10
68.0349446489
 20
105.5054862144
 11
56.6684446489
 21
105.5054862144
  0
LINE
  5
24D
100
AcDbEntity
  8
SHELL2
100
AcDbLine
 62
7
  6
CONTINUOUS
 10
50.2549446489
 20
105.5054862144
 11
38.8884446489
 21
105.5054862144
  0
LINE
  5
24E
100
AcDbEntity
  8
SHELL2
100
AcDbLine
 62
7
  6
CONTINUOUS
 10
159.6336946489
 20
105.5308862144
 11
101.7216946489
 21
105.5308862144
  0
LINE
  5
24F
100
AcDbEntity
  8
SHELL2
100
AcDbLine
 62
7
  6
CONTINUOUS
 10
91.3076946489
 20
105.5308862144
 11
33.3956946489
 21
105.5308862144
  0
LINE
  5
250
100
AcDbEntity
  8
SHELL2
100
AcDbLine
 62
7
  6
CONTINUOUS
 10
81.5065099774
 20
99.6571362144
 11
82.8813253059
 21
97.2758862144
  0
LINE
  5
251
100
AcDbEntity
  8
SHELL2
100
AcDbLine
 62
7
  6
CONTINUOUS
 10
77.3820639919
 20
113.7858862144
 11
78.7568793204
 21
111.4046362144
  0
LINE
  5
252
100
AcDbEntity
  8
SHELL2
100
AcDbLine
 62
7
  6
CONTINUOUS
 10
72.6831446489
 20
177.9208862144
 11
72.6831446489
 21
144.9262862144
  0
LINE
  5
253
100
AcDbEntity
  8
SHELL2
100
AcDbLine
 62
7
  6
CONTINUOUS
 10
74.4484446489
 20
89.0208862144
 11
74.4484446489
 21
122.0154862144
  0
LINE
  5
254
100
AcDbEntity
  8
SHELL2
100
AcDbLine
 62
7
  6
CONTINUOUS
 10
47.3213253059
 20
97.2758862144
 11
45.9465099774
 21
94.8946362144
  0
LINE
  5
255
100
AcDbEntity
  8
SHELL2
100
AcDbLine
 62
7
  6
CONTINUOUS
 10
60.9768793204
 20
116.1671362144
 11
59.6020639919
 21
113.7858862144
  0
LINE
  5
256
100
AcDbEntity
  8
SHELL2
100
AcDbLine
 62
7
  6
CONTINUOUS
 10
149.8325099774
 20
111.4046362144
 11
147.0828793204
 21
111.4046362144
  0
LINE
  5
257
100
AcDbEntity
  8
SHELL2
100
AcDbLine
 62
7
  6
CONTINUOUS
 10
132.0525099774
 20
111.4046362144
 11
129.3028793204
 21
111.4046362144
  0
LINE
  5
258
100
AcDbEntity
  8
SHELL2
100
AcDbLine
 62
7
  6
CONTINUOUS
 10
114.2725099774
 20
111.4046362144
 11
111.5228793204
 21
111.4046362144
  0
LINE
  5
259
100
AcDbEntity
  8
SHELL2
100
AcDbLine
 62
7
  6
CONTINUOUS
 10
81.5065099774
 20
111.4046362144
 11
78.7568793204
 21
111.4046362144
  0
LINE
  5
25A
100
AcDbEntity
  8
SHELL2
100
AcDbLine
 62
7
  6
CONTINUOUS
 10
63.7265099774
 20
111.4046362144
 11
60.9768793204
 21
111.4046362144
  0
LINE
  5
25B
100
AcDbEntity
  8
SHELL2
100
AcDbLine
 62
7
  6
CONTINUOUS
 10
45.9465099774
 20
111.4046362144
 11
43.1968793204
 21
111.4046362144
  0
LINE
  5
25C
100
AcDbEntity
  8
SHELL2
100
AcDbLine
 62
7
  6
CONTINUOUS
 10
81.5065099774
 20
116.1671362144
 11
82.8813253059
 21
113.7858862144
  0
LINE
  5
25D
100
AcDbEntity
  8
SHELL2
100
AcDbLine
 62
7
  6
CONTINUOUS
 10
56.8524333349
 20
161.4108862144
 11
59.6020639919
 21
156.6483862144
  0
LINE
  5
25E
100
AcDbEntity
  8
SHELL2
100
AcDbLine
 62
7
  6
CONTINUOUS
 10
65.1013253059
 20
113.7858862144
 11
63.7265099774
 21
111.4046362144
  0
LINE
  5
25F
100
AcDbEntity
  8
SHELL2
100
AcDbLine
 62
7
  6
CONTINUOUS
 10
60.9768793204
 20
99.6571362144
 11
59.6020639919
 21
97.2758862144
  0
LINE
  5
260
100
AcDbEntity
  8
SHELL2
100
AcDbLine
 62
7
  6
CONTINUOUS
 10
149.8325099774
 20
116.1671362144
 11
147.0828793204
 21
116.1671362144
  0
LINE
  5
261
100
AcDbEntity
  8
SHELL2
100
AcDbLine
 62
7
  6
CONTINUOUS
 10
132.0525099774
 20
116.1671362144
 11
129.3028793204
 21
116.1671362144
  0
LINE
  5
262
100
AcDbEntity
  8
SHELL2
100
AcDbLine
 62
7
  6
CONTINUOUS
 10
114.2725099774
 20
116.1671362144
 11
111.5228793204
 21
116.1671362144
  0
LINE
  5
263
100
AcDbEntity
  8
SHELL2
100
AcDbLine
 62
7
  6
CONTINUOUS
 10
81.5065099774
 20
116.1671362144
 11
78.7568793204
 21
116.1671362144
  0
LINE
  5
264
100
AcDbEntity
  8
SHELL2
100
AcDbLine
 62
7
  6
CONTINUOUS
 10
63.7265099774
 20
116.1671362144
 11
60.9768793204
 21
116.1671362144
  0
LINE
  5
265
100
AcDbEntity
  8
SHELL2
100
AcDbLine
 62
7
  6
CONTINUOUS
 10
45.9465099774
 20
116.1671362144
 11
43.1968793204
 21
116.1671362144
  0
LINE
  5
266
100
AcDbEntity
  8
SHELL2
100
AcDbLine
 62
7
  6
CONTINUOUS
 10
85.8149446489
 20
89.0208862144
 11
85.8149446489
 21
122.0154862144
  0
LINE
  5
267
100
AcDbEntity
  8
SHELL2
100
AcDbLine
 62
7
  6
CONTINUOUS
 10
65.1013253059
 20
97.2758862144
 11
63.7265099774
 21
94.8946362144
  0
LINE
  5
268
100
AcDbEntity
  8
SHELL2
100
AcDbLine
 62
7
  6
CONTINUOUS
 10
78.7568793204
 20
116.1671362144
 11
77.3820639919
 21
113.7858862144
  0
LINE
  5
269
100
AcDbEntity
  8
SHELL2
100
AcDbLine
 62
7
  6
CONTINUOUS
 10
154.1409446489
 20
122.0154862144
 11
142.7744446489
 21
122.0154862144
  0
LINE
  5
26A
100
AcDbEntity
  8
SHELL2
100
AcDbLine
 62
7
  6
CONTINUOUS
 10
136.3609446489
 20
122.0154862144
 11
124.9944446489
 21
122.0154862144
  0
LINE
  5
26B
100
AcDbEntity
  8
SHELL2
100
AcDbLine
 62
7
  6
CONTINUOUS
 10
118.5809446489
 20
122.0154862144
 11
107.2144446489
 21
122.0154862144
  0
LINE
  5
26C
100
AcDbEntity
  8
SHELL2
100
AcDbLine
 62
7
  6
CONTINUOUS
 10
85.8149446489
 20
122.0154862144
 11
74.4484446489
 21
122.0154862144
  0
LINE
  5
26D
100
AcDbEntity
  8
SHELL2
100
AcDbLine
 62
7
  6
CONTINUOUS
 10
68.0349446489
 20
122.0154862144
 11
56.6684446489
 21
122.0154862144
  0
LINE
  5
26E
100
AcDbEntity
  8
SHELL2
100
AcDbLine
 62
7
  6
CONTINUOUS
 10
50.2549446489
 20
122.0154862144
 11
38.8884446489
 21
122.0154862144
  0
LINE
  5
26F
100
AcDbEntity
  8
SHELL2
100
AcDbLine
 62
7
  6
CONTINUOUS
 10
159.6336946489
 20
122.0408862144
 11
101.7216946489
 21
122.0408862144
  0
LINE
  5
270
100
AcDbEntity
  8
SHELL2
100
AcDbLine
 62
7
  6
CONTINUOUS
 10
91.3076946489
 20
122.0408862144
 11
33.3956946489
 21
122.0408862144
  0
LINE
  5
271
100
AcDbEntity
  8
SHELL2
100
AcDbLine
 62
7
  6
CONTINUOUS
 10
65.1013253059
 20
166.1733862144
 11
67.8509559629
 21
161.4108862144
  0
LINE
  5
272
100
AcDbEntity
  8
SHELL2
100
AcDbLine
 62
7
  6
CONTINUOUS
 10
111.5228793204
 20
94.8946362144
 11
110.1480639919
 21
97.2758862144
  0
LINE
  5
273
100
AcDbEntity
  8
SHELL2
100
AcDbLine
 62
7
  6
CONTINUOUS
 10
91.3076946489
 20
89.0208862144
 11
91.3076946489
 21
177.9208862144
  0
LINE
  5
274
100
AcDbEntity
  8
SHELL2
100
AcDbLine
 62
7
  6
CONTINUOUS
 10
93.8476946489
 20
63.620886217
 11
93.8476946489
 21
84.5487547316
  0
LINE
  5
275
100
AcDbEntity
  8
SHELL2
100
AcDbLine
 62
7
  6
CONTINUOUS
 10
93.8476946489
 20
93.4930176973
 11
93.8476946489
 21
128.9987547316
  0
LINE
  5
276
100
AcDbEntity
  8
SHELL2
100
AcDbLine
 62
7
  6
CONTINUOUS
 10
93.8476946489
 20
137.9430176973
 11
93.8476946489
 21
173.4487547316
  0
LINE
  5
277
100
AcDbEntity
  8
SHELL2
100
AcDbLine
 62
7
  6
CONTINUOUS
 10
93.8476946489
 20
182.3930176973
 11
93.8476946489
 21
203.3208862144
  0
LINE
  5
278
100
AcDbEntity
  8
SHELL2
100
AcDbLine
 62
7
  6
CONTINUOUS
 10
82.8813253059
 20
113.7858862144
 11
81.5065099774
 21
111.4046362144
  0
LINE
  5
279
100
AcDbEntity
  8
SHELL2
100
AcDbLine
 62
7
  6
CONTINUOUS
 10
115.6473253059
 20
97.2758862144
 11
114.2725099774
 21
99.6571362144
  0
LINE
  5
27A
100
AcDbEntity
  8
SHELL2
100
AcDbLine
 62
7
  6
CONTINUOUS
 10
99.1816946489
 20
203.3208862119
 11
99.1816946489
 21
182.3930176973
  0
LINE
  5
27B
100
AcDbEntity
  8
SHELL2
100
AcDbLine
 62
7
  6
CONTINUOUS
 10
99.1816946489
 20
173.4487547316
 11
99.1816946489
 21
137.9430176973
  0
LINE
  5
27C
100
AcDbEntity
  8
SHELL2
100
AcDbLine
 62
7
  6
CONTINUOUS
 10
99.1816946489
 20
128.9987547316
 11
99.1816946489
 21
93.4930176973
  0
LINE
  5
27D
100
AcDbEntity
  8
SHELL2
100
AcDbLine
 62
7
  6
CONTINUOUS
 10
99.1816946489
 20
84.5487547316
 11
99.1816946489
 21
63.620886217
  0
LINE
  5
27E
100
AcDbEntity
  8
SHELL2
100
AcDbLine
 62
7
  6
CONTINUOUS
 10
101.7216946489
 20
89.0208862144
 11
101.7216946489
 21
177.9208862144
  0
LINE
  5
27F
100
AcDbEntity
  8
SHELL2
100
AcDbLine
 62
7
  6
CONTINUOUS
 10
78.7568793204
 20
99.6571362144
 11
77.3820639919
 21
97.2758862144
  0
LINE
  5
280
100
AcDbEntity
  8
SHELL2
100
AcDbLine
 62
7
  6
CONTINUOUS
 10
82.8813253059
 20
97.2758862144
 11
81.5065099774
 21
94.8946362144
  0
LINE
  5
281
100
AcDbEntity
  8
SHELL2
100
AcDbLine
 62
7
  6
CONTINUOUS
 10
110.1480639919
 20
113.7858862144
 11
111.5228793204
 21
111.4046362144
  0
LINE
  5
282
100
AcDbEntity
  8
SHELL2
100
AcDbLine
 62
7
  6
CONTINUOUS
 10
114.2725099774
 20
116.1671362144
 11
115.6473253059
 21
113.7858862144
  0
LINE
  5
283
100
AcDbEntity
  8
SHELL2
100
AcDbLine
 62
7
  6
CONTINUOUS
 10
107.2144446489
 20
89.0208862144
 11
107.2144446489
 21
122.0154862144
  0
LINE
  5
284
100
AcDbEntity
  8
SHELL2
100
AcDbLine
 62
7
  6
CONTINUOUS
 10
127.9280639919
 20
166.1733862144
 11
125.1784333349
 21
161.4108862144
  0
LINE
  5
285
100
AcDbEntity
  8
SHELL2
100
AcDbLine
 62
7
  6
CONTINUOUS
 10
159.6336946489
 20
144.9008862144
 11
101.7216946489
 21
144.9008862144
  0
LINE
  5
286
100
AcDbEntity
  8
SHELL2
100
AcDbLine
 62
7
  6
CONTINUOUS
 10
91.3076946489
 20
144.9008862144
 11
33.3956946489
 21
144.9008862144
  0
LINE
  5
287
100
AcDbEntity
  8
SHELL2
100
AcDbLine
 62
7
  6
CONTINUOUS
 10
141.0091446489
 20
144.9262862144
 11
120.3462446489
 21
144.9262862144
  0
LINE
  5
288
100
AcDbEntity
  8
SHELL2
100
AcDbLine
 62
7
  6
CONTINUOUS
 10
72.6831446489
 20
144.9262862144
 11
52.0202446489
 21
144.9262862144
  0
LINE
  5
289
100
AcDbEntity
  8
SHELL2
100
AcDbLine
 62
7
  6
CONTINUOUS
 10
129.3028793204
 20
94.8946362144
 11
127.9280639919
 21
97.2758862144
  0
LINE
  5
28A
100
AcDbEntity
  8
SHELL2
100
AcDbLine
 62
7
  6
CONTINUOUS
 10
133.4273253059
 20
97.2758862144
 11
132.0525099774
 21
99.6571362144
  0
LINE
  5
28B
100
AcDbEntity
  8
SHELL2
100
AcDbLine
 62
7
  6
CONTINUOUS
 10
136.1769559629
 20
161.4108862144
 11
133.4273253059
 21
156.6483862144
  0
LINE
  5
28C
100
AcDbEntity
  8
SHELL2
100
AcDbLine
 62
7
  6
CONTINUOUS
 10
127.9280639919
 20
113.7858862144
 11
129.3028793204
 21
111.4046362144
  0
LINE
  5
28D
100
AcDbEntity
  8
SHELL2
100
AcDbLine
 62
7
  6
CONTINUOUS
 10
118.5809446489
 20
89.0208862144
 11
118.5809446489
 21
122.0154862144
  0
LINE
  5
28E
100
AcDbEntity
  8
SHELL2
100
AcDbLine
 62
7
  6
CONTINUOUS
 10
120.3462446489
 20
177.9208862144
 11
120.3462446489
 21
144.9262862144
  0
LINE
  5
28F
100
AcDbEntity
  8
SHELL2
100
AcDbLine
 62
7
  6
CONTINUOUS
 10
111.5228793204
 20
116.1671362144
 11
110.1480639919
 21
113.7858862144
  0
LINE
  5
290
100
AcDbEntity
  8
SHELL2
100
AcDbLine
 62
7
  6
CONTINUOUS
 10
115.6473253059
 20
113.7858862144
 11
114.2725099774
 21
111.4046362144
  0
LINE
  5
291
100
AcDbEntity
  8
SHELL2
100
AcDbLine
 62
7
  6
CONTINUOUS
 10
133.4273253059
 20
156.6483862144
 11
127.9280639919
 21
156.6483862144
  0
LINE
  5
292
100
AcDbEntity
  8
SHELL2
100
AcDbLine
 62
7
  6
CONTINUOUS
 10
65.1013253059
 20
156.6483862144
 11
59.6020639919
 21
156.6483862144
  0
LINE
  5
293
100
AcDbEntity
  8
SHELL2
100
AcDbLine
 62
7
  6
CONTINUOUS
 10
132.0525099774
 20
116.1671362144
 11
133.4273253059
 21
113.7858862144
  0
LINE
  5
294
100
AcDbEntity
  8
SHELL2
100
AcDbLine
 62
7
  6
CONTINUOUS
 10
147.0828793204
 20
94.8946362144
 11
145.7080639919
 21
97.2758862144
  0
LINE
  5
295
100
AcDbEntity
  8
SHELL2
100
AcDbLine
 62
7
  6
CONTINUOUS
 10
124.9944446489
 20
89.0208862144
 11
124.9944446489
 21
122.0154862144
  0
LINE
  5
296
100
AcDbEntity
  8
SHELL2
100
AcDbLine
 62
7
  6
CONTINUOUS
 10
111.5228793204
 20
99.6571362144
 11
110.1480639919
 21
97.2758862144
  0
LINE
  5
297
100
AcDbEntity
  8
SHELL2
100
AcDbLine
 62
7
  6
CONTINUOUS
 10
115.6473253059
 20
97.2758862144
 11
114.2725099774
 21
94.8946362144
  0
LINE
  5
298
100
AcDbEntity
  8
SHELL2
100
AcDbLine
 62
7
  6
CONTINUOUS
 10
133.4273253059
 20
166.1733862144
 11
127.9280639919
 21
166.1733862144
  0
LINE
  5
299
100
AcDbEntity
  8
SHELL2
100
AcDbLine
 62
7
  6
CONTINUOUS
 10
65.1013253059
 20
166.1733862144
 11
59.6020639919
 21
166.1733862144
  0
LINE
  5
29A
100
AcDbEntity
  8
SHELL2
100
AcDbLine
 62
7
  6
CONTINUOUS
 10
151.2073253059
 20
97.2758862144
 11
149.8325099774
 21
99.6571362144
  0
LINE
  5
29B
100
AcDbEntity
  8
SHELL2
100
AcDbLine
 62
7
  6
CONTINUOUS
 10
147.0828793204
 20
111.4046362144
 11
145.7080639919
 21
113.7858862144
  0
LINE
  5
29C
100
AcDbEntity
  8
SHELL2
100
AcDbLine
 62
7
  6
CONTINUOUS
 10
136.3609446489
 20
89.0208862144
 11
136.3609446489
 21
122.0154862144
  0
LINE
  5
29D
100
AcDbEntity
  8
SHELL2
100
AcDbLine
 62
7
  6
CONTINUOUS
 10
129.3028793204
 20
116.1671362144
 11
127.9280639919
 21
113.7858862144
  0
LINE
  5
29E
100
AcDbEntity
  8
SHELL2
100
AcDbLine
 62
7
  6
CONTINUOUS
 10
159.6336946489
 20
171.5708862144
 11
101.7216946489
 21
171.5708862144
  0
LINE
  5
29F
100
AcDbEntity
  8
SHELL2
100
AcDbLine
 62
7
  6
CONTINUOUS
 10
91.3076946489
 20
171.5708862144
 11
33.3956946489
 21
171.5708862144
  0
LINE
  5
2A0
100
AcDbEntity
  8
SHELL2
100
AcDbLine
 62
7
  6
CONTINUOUS
 10
151.2073253059
 20
113.7858862144
 11
149.8325099774
 21
116.1671362144
  0
LINE
  5
2A1
100
AcDbEntity
  8
SHELL2
100
AcDbLine
 62
7
  6
CONTINUOUS
 10
125.1784333349
 20
161.4108862144
 11
127.9280639919
 21
156.6483862144
  0
LINE
  5
2A2
100
AcDbEntity
  8
SHELL2
100
AcDbLine
 62
7
  6
CONTINUOUS
 10
141.0091446489
 20
177.9208862144
 11
141.0091446489
 21
144.9262862144
  0
LINE
  5
2A3
100
AcDbEntity
  8
SHELL2
100
AcDbLine
 62
7
  6
CONTINUOUS
 10
142.7744446489
 20
89.0208862144
 11
142.7744446489
 21
122.0154862144
  0
LINE
  5
2A4
100
AcDbEntity
  8
SHELL2
100
AcDbLine
 62
7
  6
CONTINUOUS
 10
133.4273253059
 20
113.7858862144
 11
132.0525099774
 21
111.4046362144
  0
LINE
  5
2A5
100
AcDbEntity
  8
SHELL2
100
AcDbLine
 62
7
  6
CONTINUOUS
 10
129.3028793204
 20
99.6571362144
 11
127.9280639919
 21
97.2758862144
  0
LINE
  5
2A6
100
AcDbEntity
  8
SHELL2
100
AcDbLine
 62
7
  6
CONTINUOUS
 10
22.2450946489
 20
176.9683862144
 11
22.2196946489
 21
176.9683862144
  0
LINE
  5
2A7
100
AcDbEntity
  8
SHELL2
100
AcDbLine
 62
7
  6
CONTINUOUS
 10
159.6336946489
 20
177.9208862144
 11
101.7216946489
 21
177.9208862144
  0
LINE
  5
2A8
100
AcDbEntity
  8
SHELL2
100
AcDbLine
 62
7
  6
CONTINUOUS
 10
91.3076946489
 20
177.9208862144
 11
33.3956946489
 21
177.9208862144
  0
LINE
  5
2A9
100
AcDbEntity
  8
SHELL2
100
AcDbLine
 62
7
  6
CONTINUOUS
 10
133.4273253059
 20
166.1733862144
 11
136.1769559629
 21
161.4108862144
  0
LINE
  5
2AA
100
AcDbEntity
  8
SHELL2
100
AcDbLine
 62
7
  6
CONTINUOUS
 10
133.4273253059
 20
97.2758862144
 11
132.0525099774
 21
94.8946362144
  0
LINE
  5
2AB
100
AcDbEntity
  8
SHELL2
100
AcDbLine
 62
7
  6
CONTINUOUS
 10
147.0828793204
 20
116.1671362144
 11
145.7080639919
 21
113.7858862144
  0
LINE
  5
2AC
100
AcDbEntity
  8
SHELL2
100
AcDbLine
 62
7
  6
CONTINUOUS
 10
22.2450946489
 20
185.8583862119
 11
22.2196946489
 21
185.8583862119
  0
LINE
  5
2AD
100
AcDbEntity
  8
SHELL2
100
AcDbLine
 62
7
  6
CONTINUOUS
 10
154.1409446489
 20
89.0208862144
 11
154.1409446489
 21
122.0154862144
  0
LINE
  5
2AE
100
AcDbEntity
  8
SHELL2
100
AcDbLine
 62
7
  6
CONTINUOUS
 10
151.2073253059
 20
113.7858862144
 11
149.8325099774
 21
111.4046362144
  0
LINE
  5
2AF
100
AcDbEntity
  8
SHELL2
100
AcDbLine
 62
7
  6
CONTINUOUS
 10
147.0828793204
 20
99.6571362144
 11
145.7080639919
 21
97.2758862144
  0
LINE
  5
2B0
100
AcDbEntity
  8
SHELL2
100
AcDbLine
 62
7
  6
CONTINUOUS
 10
22.2196946489
 20
190.6208862144
 11
30.8556946489
 21
190.6208862144
  0
LINE
  5
2B1
100
AcDbEntity
  8
SHELL2
100
AcDbLine
 62
7
  6
CONTINUOUS
 10
93.8476946489
 20
190.6208862144
 11
99.1816946489
 21
190.6208862144
  0
LINE
  5
2B2
100
AcDbEntity
  8
SHELL2
100
AcDbLine
 62
7
  6
CONTINUOUS
 10
162.1736946489
 20
190.6208862144
 11
170.8096946489
 21
190.6208862144
  0
LINE
  5
2B3
100
AcDbEntity
  8
SHELL2
100
AcDbLine
 62
7
  6
CONTINUOUS
 10
159.6336946489
 20
89.0208862144
 11
159.6336946489
 21
177.9208862144
  0
LINE
  5
2B4
100
AcDbEntity
  8
SHELL2
100
AcDbLine
 62
7
  6
CONTINUOUS
 10
162.1736946489
 20
84.5487547316
 11
162.1736946489
 21
63.6208862144
  0
LINE
  5
2B5
100
AcDbEntity
  8
SHELL2
100
AcDbLine
 62
7
  6
CONTINUOUS
 10
162.1736946489
 20
93.4930176973
 11
162.1736946489
 21
128.9987547316
  0
LINE
  5
2B6
100
AcDbEntity
  8
SHELL2
100
AcDbLine
 62
7
  6
CONTINUOUS
 10
162.1736946489
 20
137.9430176973
 11
162.1736946489
 21
173.4487547316
  0
LINE
  5
2B7
100
AcDbEntity
  8
SHELL2
100
AcDbLine
 62
7
  6
CONTINUOUS
 10
162.1736946489
 20
182.3930176973
 11
162.1736946489
 21
203.3208862144
  0
LINE
  5
2B8
100
AcDbEntity
  8
SHELL2
100
AcDbLine
 62
7
  6
CONTINUOUS
 10
151.2073253059
 20
97.2758862144
 11
149.8325099774
 21
94.8946362144
  0
LINE
  5
2B9
100
AcDbEntity
  8
SHELL2
100
AcDbLine
 62
7
  6
CONTINUOUS
 10
170.8096946489
 20
203.3208862119
 11
170.8096946489
 21
63.620886217
  0
LINE
  5
2BA
100
AcDbEntity
  8
SHELL2
100
AcDbLine
 62
7
  6
CONTINUOUS
 10
170.8096946489
 20
203.3208862119
 11
22.2196946489
 21
203.3208862144
  0
CIRCLE
  5
2BB
100
AcDbEntity
  8
SHELL2
100
AcDbCircle
 62
7
  6
CONTINUOUS
 10
62.3516946489
 20
73.1458862144
 40
6.35
  0
CIRCLE
  5
2BC
100
AcDbEntity
  8
SHELL2
100
AcDbCircle
 62
7
  6
CONTINUOUS
 10
80.1316946489
 20
113.7858862144
 40
5.55625
  0
CIRCLE
  5
2BD
100
AcDbEntity
  8
SHELL2
100
AcDbCircle
 62
7
  6
CONTINUOUS
 10
62.3516946489
 20
113.7858862144
 40
5.55625
  0
CIRCLE
  5
2BE
100
AcDbEntity
  8
SHELL2
100
AcDbCircle
 62
7
  6
CONTINUOUS
 10
44.5716946489
 20
113.7858862144
 40
5.55625
  0
CIRCLE
  5
2BF
100
AcDbEntity
  8
SHELL2
100
AcDbCircle
 62
7
  6
CONTINUOUS
 10
80.1316946489
 20
97.2758862144
 40
5.55625
  0
CIRCLE
  5
2C0
100
AcDbEntity
  8
SHELL2
100
AcDbCircle
 62
7
  6
CONTINUOUS
 10
62.3516946489
 20
97.2758862144
 40
5.55625
  0
CIRCLE
  5
2C1
100
AcDbEntity
  8
SHELL2
100
AcDbCircle
 62
7
  6
CONTINUOUS
 10
44.5716946489
 20
97.2758862144
 40
5.55625
  0
ARC
  5
2C2
100
AcDbEntity
  8
SHELL2
100
AcDbCircle
 62
7
  6
CONTINUOUS
 10
28.1886946489
 20
89.0208862144
 40
5.207
100
AcDbArc
 50
300.8101566431
 51
59.1898433569
  0
CIRCLE
  5
2C3
100
AcDbEntity
  8
SHELL2
100
AcDbCircle
 62
7
  6
CONTINUOUS
 10
62.3516946489
 20
73.1458862144
 40
3.302
  0
CIRCLE
  5
2C4
100
AcDbEntity
  8
SHELL2
100
AcDbCircle
 62
7
  6
CONTINUOUS
 10
62.3516946489
 20
161.4108862144
 40
10.31875
  0
CIRCLE
  5
2C5
100
AcDbEntity
  8
SHELL2
100
AcDbCircle
 62
7
  6
CONTINUOUS
 10
62.3516946489
 20
193.7958862144
 40
6.35
  0
CIRCLE
  5
2C6
100
AcDbEntity
  8
SHELL2
100
AcDbCircle
 62
7
  6
CONTINUOUS
 10
62.3516946489
 20
133.4708862144
 40
6.35
  0
ARC
  5
2C7
100
AcDbEntity
  8
SHELL2
100
AcDbCircle
 62
7
  6
CONTINUOUS
 10
28.1886946489
 20
133.4708862144
 40
5.207
100
AcDbArc
 50
300.8101566431
 51
59.1898433569
  0
ARC
  5
2C8
100
AcDbEntity
  8
SHELL2
100
AcDbCircle
 62
7
  6
CONTINUOUS
 10
28.1886946489
 20
177.9208862144
 40
5.207
100
AcDbArc
 50
300.8101566431
 51
59.1898433569
  0
CIRCLE
  5
2C9
100
AcDbEntity
  8
SHELL2
100
AcDbCircle
 62
7
  6
CONTINUOUS
 10
62.3516946489
 20
193.7958862144
 40
3.302
  0
ARC
  5
2CA
100
AcDbEntity
  8
SHELL2
100
AcDbCircle
 62
7
  6
CONTINUOUS
 10
96.5146946489
 20
89.0208862144
 40
5.207
100
AcDbArc
 50
300.8101566431
 51
59.1898433569
  0
ARC
  5
2CB
100
AcDbEntity
  8
SHELL2
100
AcDbCircle
 62
7
  6
CONTINUOUS
 10
96.5146946489
 20
89.0208862144
 40
5.207
100
AcDbArc
 50
120.8101566431
 51
239.1898433569
  0
CIRCLE
  5
2CC
100
AcDbEntity
  8
SHELL2
100
AcDbCircle
 62
7
  6
CONTINUOUS
 10
112.8976946489
 20
97.2758862144
 40
5.55625
  0
CIRCLE
  5
2CD
100
AcDbEntity
  8
SHELL2
100
AcDbCircle
 62
7
  6
CONTINUOUS
 10
112.8976946489
 20
113.7858862144
 40
5.55625
  0
CIRCLE
  5
2CE
100
AcDbEntity
  8
SHELL2
100
AcDbCircle
 62
7
  6
CONTINUOUS
 10
130.6776946489
 20
73.1458862144
 40
6.35
  0
ARC
  5
2CF
100
AcDbEntity
  8
SHELL2
100
AcDbCircle
 62
7
  6
CONTINUOUS
 10
164.8406946489
 20
89.0208862144
 40
5.207
100
AcDbArc
 50
120.8101566431
 51
239.1898433569
  0
CIRCLE
  5
2D0
100
AcDbEntity
  8
SHELL2
100
AcDbCircle
 62
7
  6
CONTINUOUS
 10
130.6776946489
 20
73.1458862144
 40
3.302
  0
CIRCLE
  5
2D1
100
AcDbEntity
  8
SHELL2
100
AcDbCircle
 62
7
  6
CONTINUOUS
 10
148.4576946489
 20
97.2758862144
 40
5.55625
  0
CIRCLE
  5
2D2
100
AcDbEntity
  8
SHELL2
100
AcDbCircle
 62
7
  6
CONTINUOUS
 10
130.6776946489
 20
97.2758862144
 40
5.55625
  0
CIRCLE
  5
2D3
100
AcDbEntity
  8
SHELL2
100
AcDbCircle
 62
7
  6
CONTINUOUS
 10
148.4576946489
 20
113.7858862144
 40
5.55625
  0
CIRCLE
  5
2D4
100
AcDbEntity
  8
SHELL2
100
AcDbCircle
 62
7
  6
CONTINUOUS
 10
130.6776946489
 20
113.7858862144
 40
5.55625
  0
ARC
  5
2D5
100
AcDbEntity
  8
SHELL2
100
AcDbCircle
 62
7
  6
CONTINUOUS
 10
96.5146946489
 20
133.4708862144
 40
5.207
100
AcDbArc
 50
120.8101566431
 51
239.1898433569
  0
ARC
  5
2D6
100
AcDbEntity
  8
SHELL2
100
AcDbCircle
 62
7
  6
CONTINUOUS
 10
96.5146946489
 20
133.4708862144
 40
5.207
100
AcDbArc
 50
300.8101566431
 51
59.1898433569
  0
ARC
  5
2D7
100
AcDbEntity
  8
SHELL2
100
AcDbCircle
 62
7
  6
CONTINUOUS
 10
96.5146946489
 20
177.9208862144
 40
5.207
100
AcDbArc
 50
120.8101566431
 51
239.1898433569
  0
ARC
  5
2D8
100
AcDbEntity
  8
SHELL2
100
AcDbCircle
 62
7
  6
CONTINUOUS
 10
96.5146946489
 20
177.9208862144
 40
5.207
100
AcDbArc
 50
300.8101566431
 51
59.1898433569
  0
CIRCLE
  5
2D9
100
AcDbEntity
  8
SHELL2
100
AcDbCircle
 62
7
  6
CONTINUOUS
 10
130.6776946489
 20
161.4108862144
 40
10.31875
  0
CIRCLE
  5
2DA
100
AcDbEntity
  8
SHELL2
100
AcDbCircle
 62
7
  6
CONTINUOUS
 10
130.6776946489
 20
133.4708862144
 40
6.35
  0
ARC
  5
2DB
100
AcDbEntity
  8
SHELL2
100
AcDbCircle
 62
7
  6
CONTINUOUS
 10
164.8406946489
 20
133.4708862144
 40
5.207
100
AcDbArc
 50
120.8101566431
 51
239.1898433569
  0
CIRCLE
  5
2DC
100
AcDbEntity
  8
SHELL2
100
AcDbCircle
 62
7
  6
CONTINUOUS
 10
130.6776946489
 20
193.7958862144
 40
6.35
  0
ARC
  5
2DD
100
AcDbEntity
  8
SHELL2
100
AcDbCircle
 62
7
  6
CONTINUOUS
 10
164.8406946489
 20
177.9208862144
 40
5.207
100
AcDbArc
 50
120.8101566431
 51
239.1898433569
  0
CIRCLE
  5
2DE
100
AcDbEntity
  8
SHELL2
100
AcDbCircle
 62
7
  6
CONTINUOUS
 10
130.6776946489
 20
193.7958862144
 40
3.302
  0
SPLINE
  5
2DF
100
AcDbEntity
  8
SHELL2
100
AcDbSpline
 62
7
  6
CONTINUOUS
 70
0
 71
3
 72
11
 73
7
 74
0
 42
0.0000001
 43
0.0000001
 44
0.0000000001
 40
0.0
 40
0.0
 40
0.0
 40
0.0
 40
0.2499774886
 40
0.5
 40
0.7500225114
 40
1.0
 40
1.0
 40
1.0
 40
1.0
 10
159.6336946489
 20
89.0208862144
 30
0.0
 10
159.6355421668
 20
89.4678573484
 30
0.0
 10
159.7491816474
 20
90.3661991353
 30
0.0
 10
160.2628878845
 20
91.6209057412
 30
0.0
 10
161.0773988082
 20
92.7047667655
 30
0.0
 10
161.7907512362
 20
93.2624944867
 30
0.0
 10
162.1736946489
 20
93.4930176973
 30
0.0
  0
SPLINE
  5
2E0
100
AcDbEntity
  8
SHELL2
100
AcDbSpline
 62
7
  6
CONTINUOUS
 70
0
 71
3
 72
11
 73
7
 74
0
 42
0.0000001
 43
0.0000001
 44
0.0000000001
 40
0.0
 40
0.0
 40
0.0
 40
0.0
 40
0.2499774886
 40
0.5
 40
0.7500225114
 40
1.0
 40
1.0
 40
1.0
 40
1.0
 10
162.1736946489
 20
84.5487547316
 30
0.0
 10
161.7907512362
 20
84.7792779421
 30
0.0
 10
161.0773988082
 20
85.3370056634
 30
0.0
 10
160.2628878845
 20
86.4208666877
 30
0.0
 10
159.7491816474
 20
87.6755732936
 30
0.0
 10
159.6355421668
 20
88.5739150805
 30
0.0
 10
159.6336946489
 20
89.0208862144
 30
0.0
  0
ENDSEC
  0
SECTION
  2
OBJECTS
  0
DICTIONARY
  5
C
100
AcDbDictionary
280
0
281
1
  3
ACAD_GROUP
350
D
  3
ACAD_MLINESTYLE
350
17
  3
ACAD_LAYOUT
350
1A
  3
ACAD_PLOTSETTINGS
350
19
  3
ACAD_PLOTSTYLENAME
350
E
  0
DICTIONARY
  5
D
102
{ACAD_REACTORS
330
C
102
}
100
AcDbDictionary
280
0
281
1
  0
ACDBDICTIONARYWDFLT
  5
E
102
{ACAD_REACTORS
330
C
102
}
100
AcDbDictionary
281
1
  3
Normal
350
F
100
AcDbDictionaryWithDefault
340
F
  0
DICTIONARY
  5
17
102
{ACAD_REACTORS
330
C
102
}
100
AcDbDictionary
280
0
281
1
  3
Standard
350
18
  0
DICTIONARY
  5
19
102
{ACAD_REACTORS
330
C
102
}
100
AcDbDictionary
281
1
  0
DICTIONARY
  5
1A
102
{ACAD_REACTORS
330
C
102
}
100
AcDbDictionary
281
1
  3
Model
350
2E1
  3
Layout1
350
2E2
  0
ACDBPLACEHOLDER
  5
F
102
{ACAD_REACTORS
330
E
102
}
  0
MLINESTYLE
  5
18
102
{ACAD_REACTORS
330
17
102
}
100
AcDbMlineStyle
  2
STANDARD
 70
0
  3

 62
256
 51
90.0
 52
90.0
 71
2
 49
0.5
 62
256
  6
BYLAYER
 49
-0.5
 62
256
  6
BYLAYER
  0
LAYOUT
  5
2E1
102
{ACAD_REACTORS
330
1A
102
}
100
AcDbPlotSettings
  1

  2
none_device
  4

  6

 40
0.0
 41
0.0
 42
0.0
 43
0.0
 44
210.0
 45
297.0
 46
0.0
 47
0.0
 48
0.0
 49
0.0
140
0.0
141
0.0
142
1.0
143
1.0
 70
1024
 72
1
 73
0
 74
0
  7

 75
0
147
1.0
148
0.0
149
0.0
100
AcDbLayout
  1
Model
 70
0
 71
0
 10
0.0
 20
0.0
 11
210.0
 21
297.0
 12
0.0
 22
0.0
 32
0.0
 14
0.0
 24
0.0
 34
0.0
 15
0.0
 25
0.0
 35
0.0
146
0.0
 13
0.0
 23
0.0
 33
0.0
 16
1.0
 26
0.0
 36
0.0
 17
0.0
 27
1.0
 37
0.0
 76
0
330
211
345
0
346
0
  0
LAYOUT
  5
2E2
102
{ACAD_REACTORS
330
1A
102
}
100
AcDbPlotSettings
  1

  2
none_device
  4

  6

 40
0.0
 41
0.0
 42
0.0
 43
0.0
 44
210.0
 45
297.0
 46
0.0
 47
0.0
 48
0.0
 49
0.0
140
0.0
141
0.0
142
1.0
143
1.0
 70
0
 72
1
 73
0
 74
0
  7

 75
0
147
1.0
148
0.0
149
0.0
100
AcDbLayout
  1
Layout1
 70
0
 71
1
 10
0.0
 20
0.0
 11
210.0
 21
297.0
 12
0.0
 22
0.0
 32
0.0
 14
0.0
 24
0.0
 34
0.0
 15
0.0
 25
0.0
 35
0.0
146
0.0
 13
0.0
 23
0.0
 33
0.0
 16
1.0
 26
0.0
 36
0.0
 17
0.0
 27
1.0
 37
0.0
 76
0
330
212
345
0
346
0
  0
ENDSEC
  0
EOF
