999
DXF file: C:\Users\sesa63760\OneDrive - Schneider Electric\Documents\7-Dev\_Creo\CAD\MCADPP0000153_3D-CAD\drw0001_4.dxf
999
Pro/ENGINEER 2019471 by Parametric Technology Corporation
  0
SECTION
  2
HEADER
  9
$ACADVER
  1
AC1024
  9
$DWGCODEPAGE
  3
ANSI_1252
  9
$EXTMAX
 10
89.6394984326
 20
126.775862069
 30
0.0
  9
$EXTMIN
 10
0.0
 20
0.0
 30
0.0
  9
$LIMMIN
 10
0.0
 20
0.0
  9
$LIMMAX
 10
89.6394984326
 20
126.775862069
  9
$VIEWCTR
 10
44.8197492163
 20
63.3879310345
  9
$VIEWSIZE
 40
126.775862069
  9
$CLAYER
  8
0
  9
$LTSCALE
 40
8.263908046
  9
$CELTYPE
  6
BYLAYER
  9
$DIMSCALE
 40
1.0
  9
$DIMASZ
 40
1.0671368861
  9
$DIMEXO
 40
1.0
  9
$DIMDLI
 40
5.7096091954
  9
$DIMEXE
 40
1.0
  9
$DIMCEN
 40
1.3522758621
  9
$DIMLFAC
 40
1.0
  9
$DIMBLK
  1
_FILLED
  9
$DIMALT
 70
0
  9
$DIMALTF
 40
0.0393700787
  9
$DIMTXT
 40
1.4939916405
  9
$DIMTOL
 70
1
  9
$DIMLIM
 70
0
  9
$DIMTFAC
 40
1.0
  9
$DIMTP
 40
0.01
  9
$DIMTM
 40
0.01
  9
$DIMGAP
 40
0.625
  9
$DIMDSEP
 70
46
  9
$AUNITS
 70
0
  9
$PDMODE
 70
3
  9
$PDSIZE
 40
0.3125
  9
$HANDSEED
  5
25B
  9
$TILEMODE
 70
1
  9
$MEASUREMENT
 70
1
  9
$INSUNITS
 70
4
  0
ENDSEC
  0
SECTION
  2
CLASSES
  0
CLASS
  1
ACDBDICTIONARYWDFLT
  2
AcDbDictionaryWithDefault
  3
AutoCAD 2000
 90
0
 91
1
280
0
281
0
  0
CLASS
  1
ACDBPLACEHOLDER
  2
AcDbPlaceHolder
  3
AutoCAD 2000
 90
0
 91
1
280
0
281
0
  0
CLASS
  1
LAYOUT
  2
AcDbLayout
  3
AutoCAD 2000
 90
0
 91
0
280
0
281
0
  0
ENDSEC
  0
SECTION
  2
TABLES
  0
TABLE
  2
VPORT
  5
8
100
AcDbSymbolTable
 70
2
  0
VPORT
  5
1F4
100
AcDbSymbolTableRecord
100
AcDbViewportTableRecord
  2
*ACTIVE
 70
0
 10
0.0
 20
0.0
 11
1.0
 21
1.0
 12
44.8197492163
 22
63.3879310345
 13
0.0
 23
0.0
 14
1.0
 24
1.0
 15
0.0
 25
0.0
 16
0.0
 26
0.0
 36
1.0
 17
0.0
 27
0.0
 37
0.0
 40
126.775862069
 41
0.7070707071
 42
50.0
 43
0.0
 44
0.0
 50
0.0
 51
0.0
 71
0
 72
100
 73
1
 74
1
 75
0
 76
0
 77
0
 78
0
  0
ENDTAB
  0
TABLE
  2
LTYPE
  5
5
100
AcDbSymbolTable
 70
6
  0
LTYPE
  5
14
100
AcDbSymbolTableRecord
100
AcDbLinetypeTableRecord
  2
BYBLOCK
 70
0
  3

 72
65
 73
0
 40
0.0
  0
LTYPE
  5
15
100
AcDbSymbolTableRecord
100
AcDbLinetypeTableRecord
  2
BYLAYER
 70
0
  3

 72
65
 73
0
 40
0.0
  0
LTYPE
  5
16
100
AcDbSymbolTableRecord
100
AcDbLinetypeTableRecord
  2
CONTINUOUS
 70
64
  3
Solid line
 72
65
 73
0
 40
0.0
  0
LTYPE
  5
1F5
100
AcDbSymbolTableRecord
100
AcDbLinetypeTableRecord
  2
CENTER
 70
64
  3
____ _ ____ _ ____ _ ____ _ ____ _ ____ _ ____
 72
65
 73
4
 40
0.6
 49
0.375
 74
0
 49
-0.075
 74
0
 49
0.075
 74
0
 49
-0.075
 74
0
  0
LTYPE
  5
1F6
100
AcDbSymbolTableRecord
100
AcDbLinetypeTableRecord
  2
HIDDEN
 70
64
  3
- - - - - - - - - - - - - - - - - - - -
 72
65
 73
2
 40
0.2
 49
0.1
 74
0
 49
-0.1
 74
0
  0
LTYPE
  5
1F7
100
AcDbSymbolTableRecord
100
AcDbLinetypeTableRecord
  2
PHANTOM
 70
64
  3
_____ _ _ _____ _ _ _____ _ _ _____
 72
65
 73
6
 40
0.8
 49
0.45
 74
0
 49
-0.05
 74
0
 49
0.1
 74
0
 49
-0.05
 74
0
 49
0.1
 74
0
 49
-0.05
 74
0
  0
LTYPE
  5
1F8
100
AcDbSymbolTableRecord
100
AcDbLinetypeTableRecord
  2
DOT
 70
64
  3
. . . . . . . . . . . . . . . . . . . .
 72
65
 73
2
 40
0.2
 49
0.1
 74
0
 49
-0.1
 74
0
  0
LTYPE
  5
1F9
100
AcDbSymbolTableRecord
100
AcDbLinetypeTableRecord
  2
DASHED
 70
64
  3
- - - - - - - - - - - - - - - - - - - -
 72
65
 73
2
 40
0.2
 49
0.1
 74
0
 49
-0.1
 74
0
  0
ENDTAB
  0
TABLE
  2
LAYER
  5
2
100
AcDbSymbolTable
 70
36
  0
LAYER
  5
10
100
AcDbSymbolTableRecord
100
AcDbLayerTableRecord
  2
0
 70
0
 62
7
  6
CONTINUOUS
370
-3
390
F
  0
LAYER
  5
1FA
100
AcDbSymbolTableRecord
100
AcDbLayerTableRecord
  2
DEFAULT_1
 70
0
 62
7
  6
CENTER
370
-3
390
F
  0
LAYER
  5
1FB
100
AcDbSymbolTableRecord
100
AcDbLayerTableRecord
  2
DEFAULT_2
 70
0
 62
8
  6
HIDDEN
370
-3
390
F
  0
LAYER
  5
1FC
100
AcDbSymbolTableRecord
100
AcDbLayerTableRecord
  2
DEFAULT_3
 70
0
 62
7
  6
PHANTOM
370
-3
390
F
  0
LAYER
  5
1FD
100
AcDbSymbolTableRecord
100
AcDbLayerTableRecord
  2
00_COMPONENTS
 70
0
 62
7
  6
CONTINUOUS
370
-3
390
F
  0
LAYER
  5
1FE
100
AcDbSymbolTableRecord
100
AcDbLayerTableRecord
  2
01_1_DEFAULT_DATUMS
 70
0
 62
7
  6
CONTINUOUS
370
-3
390
F
  0
LAYER
  5
1FF
100
AcDbSymbolTableRecord
100
AcDbLayerTableRecord
  2
01_PLANES
 70
0
 62
7
  6
CONTINUOUS
370
-3
390
F
  0
LAYER
  5
200
100
AcDbSymbolTableRecord
100
AcDbLayerTableRecord
  2
02_COORD_SYS
 70
0
 62
7
  6
CONTINUOUS
370
-3
390
F
  0
LAYER
  5
201
100
AcDbSymbolTableRecord
100
AcDbLayerTableRecord
  2
03_AXES
 70
0
 62
7
  6
CONTINUOUS
370
-3
390
F
  0
LAYER
  5
202
100
AcDbSymbolTableRecord
100
AcDbLayerTableRecord
  2
04_POINTS
 70
0
 62
7
  6
CONTINUOUS
370
-3
390
F
  0
LAYER
  5
203
100
AcDbSymbolTableRecord
100
AcDbLayerTableRecord
  2
05_CURVES
 70
0
 62
7
  6
CONTINUOUS
370
-3
390
F
  0
LAYER
  5
204
100
AcDbSymbolTableRecord
100
AcDbLayerTableRecord
  2
06_SURFS
 70
0
 62
7
  6
CONTINUOUS
370
-3
390
F
  0
LAYER
  5
205
100
AcDbSymbolTableRecord
100
AcDbLayerTableRecord
  2
07_COSMETICS
 70
0
 62
7
  6
CONTINUOUS
370
-3
390
F
  0
LAYER
  5
206
100
AcDbSymbolTableRecord
100
AcDbLayerTableRecord
  2
10_NOTES
 70
0
 62
7
  6
CONTINUOUS
370
-3
390
F
  0
LAYER
  5
207
100
AcDbSymbolTableRecord
100
AcDbLayerTableRecord
  2
11_NOTES_PUB
 70
0
 62
7
  6
CONTINUOUS
370
-3
390
F
  0
LAYER
  5
208
100
AcDbSymbolTableRecord
100
AcDbLayerTableRecord
  2
13_REF_GTOL
 70
0
 62
7
  6
CONTINUOUS
370
-3
390
F
  0
LAYER
  5
209
100
AcDbSymbolTableRecord
100
AcDbLayerTableRecord
  2
16_MISC
 70
0
 62
7
  6
CONTINUOUS
370
-3
390
F
  0
LAYER
  5
20A
100
AcDbSymbolTableRecord
100
AcDbLayerTableRecord
  2
17_NO_PRINT
 70
0
 62
7
  6
CONTINUOUS
370
-3
390
F
  0
LAYER
  5
20B
100
AcDbSymbolTableRecord
100
AcDbLayerTableRecord
  2
18_DATUM_CAMS_JOINTS
 70
0
 62
7
  6
CONTINUOUS
370
-3
390
F
  0
LAYER
  5
20C
100
AcDbSymbolTableRecord
100
AcDbLayerTableRecord
  2
19_DATUM_FUNCTIONAL
 70
0
 62
7
  6
CONTINUOUS
370
-3
390
F
  0
LAYER
  5
20D
100
AcDbSymbolTableRecord
100
AcDbLayerTableRecord
  2
20_DATUM_KINEMATIC_SCHEME
 70
0
 62
7
  6
CONTINUOUS
370
-3
390
F
  0
ENDTAB
  0
TABLE
  2
STYLE
  5
3
100
AcDbSymbolTable
 70
1
  0
STYLE
  5
11
100
AcDbSymbolTableRecord
100
AcDbTextStyleTableRecord
  2
STANDARD
 70
0
 40
0.0
 41
0.8
 50
0.0
 71
0
 42
0.2
  3
txt
  4

  0
STYLE
  5
20E
100
AcDbSymbolTableRecord
100
AcDbTextStyleTableRecord
  2
TEXTSTYLE_1
 70
0
 40
0.0
 41
0.8
 50
0.0
 71
0
 42
0.2
  3
gdt
  4

  0
ENDTAB
  0
TABLE
  2
VIEW
  5
6
100
AcDbSymbolTable
 70
0
  0
ENDTAB
  0
TABLE
  2
UCS
  5
7
100
AcDbSymbolTable
 70
0
  0
ENDTAB
  0
TABLE
  2
APPID
  5
9
100
AcDbSymbolTable
 70
1
  0
APPID
  5
20F
100
AcDbSymbolTableRecord
100
AcDbRegAppTableRecord
  2
ACAD
 70
0
  0
ENDTAB
  0
TABLE
  2
BLOCK_RECORD
  5
1
100
AcDbSymbolTable
 70
0
  0
BLOCK_RECORD
  5
210
100
AcDbSymbolTableRecord
100
AcDbBlockTableRecord
  2
*Model_Space
  0
BLOCK_RECORD
  5
211
100
AcDbSymbolTableRecord
100
AcDbBlockTableRecord
  2
*Paper_Space
  0
BLOCK_RECORD
  5
212
100
AcDbSymbolTableRecord
100
AcDbBlockTableRecord
  2
_FILLED
  0
ENDTAB
  0
TABLE
  2
DIMSTYLE
  5
A
100
AcDbSymbolTable
 70
1
100
AcDbDimStyleTable
 71
0
  0
DIMSTYLE
105
213
100
AcDbSymbolTableRecord
100
AcDbDimStyleTableRecord
  2
STANDARD
 70
0
  3

  4

 40
1.0
 41
1.0671368861
 42
1.0
 43
0.38
 44
1.0
 45
0.0
 46
0.0
 47
0.01
 48
0.01
140
1.4939916405
141
0.09
142
0.0
143
25.4
144
1.0
145
0.0
146
1.0
147
0.625
 71
1
 72
0
 73
0
 74
0
 75
0
 76
0
 77
1
 78
8
 79
2
170
0
171
1
172
0
173
0
174
0
175
0
176
0
177
0
178
0
270
2
179
2
271
2
272
2
273
2
274
2
275
0
280
0
281
0
282
0
283
1
284
8
285
0
286
0
287
3
288
0
340
11
278
46
341
212
342
212
343
212
344
212
  0
ENDTAB
  0
ENDSEC
  0
SECTION
  2
BLOCKS
  0
BLOCK
  5
20
100
AcDbEntity
  8
0
100
AcDbBlockBegin
  2
*Model_Space
 70
0
 10
0.0
 20
0.0
 30
0.0
  3
*Model_Space
  1

  0
ENDBLK
  5
21
100
AcDbEntity
  8
0
100
AcDbBlockEnd
  0
BLOCK
  5
1C
100
AcDbEntity
  8
0
100
AcDbBlockBegin
  2
*Paper_Space
 70
0
 10
0.0
 20
0.0
 30
0.0
  3
*Paper_Space
  1

  0
ENDBLK
  5
1D
100
AcDbEntity
  8
0
100
AcDbBlockEnd
  0
BLOCK
  5
214
100
AcDbEntity
  8
0
100
AcDbBlockBegin
  2
_FILLED
 70
64
 10
0.0
 20
0.0
  3
_FILLED
  1

  0
SOLID
  5
215
100
AcDbEntity
  8
0
  6
BYBLOCK
 62
0
100
AcDbTrace
 10
0.0
 20
0.0
 11
-1.0
 21
0.25
 12
-1.0
 22
-0.25
 13
-1.0
 23
-0.25
  0
ENDBLK
  5
216
100
AcDbEntity
  8
0
  6
BYBLOCK
 62
0
100
AcDbBlockEnd
  0
ENDSEC
  0
SECTION
  2
ENTITIES
  0
LINE
  5
217
100
AcDbEntity
  8
0
100
AcDbLine
 62
7
  6
CONTINUOUS
 10
15.7835423197
 20
27.05
 11
9.9835423197
 21
29.97
  0
LINE
  5
218
100
AcDbEntity
  8
0
100
AcDbLine
 62
7
  6
CONTINUOUS
 10
25.8514915122
 20
24.05
 11
27.5835423197
 21
23.05
  0
LINE
  5
219
100
AcDbEntity
  8
0
100
AcDbLine
 62
7
  6
CONTINUOUS
 10
70.5835423197
 20
21.05
 11
15.7835423197
 21
21.05
  0
LINE
  5
21A
100
AcDbEntity
  8
0
100
AcDbLine
 62
7
  6
CONTINUOUS
 10
70.5835423197
 20
22.05
 11
55.5835423197
 21
22.05
  0
LINE
  5
21B
100
AcDbEntity
  8
0
100
AcDbLine
 62
7
  6
CONTINUOUS
 10
27.5835423197
 20
22.05
 11
15.7835423197
 21
22.05
  0
LINE
  5
21C
100
AcDbEntity
  8
0
100
AcDbLine
 62
7
  6
CONTINUOUS
 10
55.5835423197
 20
23.75
 11
64.9122605001
 21
23.75
  0
LINE
  5
21D
100
AcDbEntity
  8
0
100
AcDbLine
 62
7
  6
CONTINUOUS
 10
15.7835423197
 20
24.05
 11
25.8514915122
 21
24.05
  0
LINE
  5
21E
100
AcDbEntity
  8
0
100
AcDbLine
 62
7
  6
CONTINUOUS
 10
9.9835423197
 20
29.97
 11
9.9835423197
 21
104.95
  0
LINE
  5
21F
100
AcDbEntity
  8
0
100
AcDbLine
 62
7
  6
CONTINUOUS
 10
64.9122605001
 20
23.75
 11
70.5835423197
 21
22.75
  0
LINE
  5
220
100
AcDbEntity
  8
0
100
AcDbLine
 62
7
  6
CONTINUOUS
 10
15.7835423197
 20
21.05
 11
15.7835423197
 21
27.05
  0
LINE
  5
221
100
AcDbEntity
  8
0
100
AcDbLine
 62
7
  6
CONTINUOUS
 10
70.5835423197
 20
31.65
 11
81.9835423197
 21
31.65
  0
LINE
  5
222
100
AcDbEntity
  8
0
100
AcDbLine
 62
7
  6
CONTINUOUS
 10
21.946641298
 20
60.293968526
 11
21.946641298
 21
65.293968526
  0
LINE
  5
223
100
AcDbEntity
  8
0
100
AcDbLine
 62
7
  6
CONTINUOUS
 10
23.4067271837
 20
65.293968526
 11
23.4067271837
 21
60.293968526
  0
LINE
  5
224
100
AcDbEntity
  8
0
100
AcDbLine
 62
7
  6
CONTINUOUS
 10
27.5835423197
 20
23.05
 11
27.5835423197
 21
22.05
  0
LINE
  5
225
100
AcDbEntity
  8
0
100
AcDbLine
 62
7
  6
CONTINUOUS
 10
78.9835423197
 20
46.65
 11
80.6835423197
 21
46.65
  0
LINE
  5
226
100
AcDbEntity
  8
0
100
AcDbLine
 62
7
  6
CONTINUOUS
 10
39.5583613147
 20
60.293968526
 11
39.5583613147
 21
65.4648821264
  0
LINE
  5
227
100
AcDbEntity
  8
0
100
AcDbLine
 62
7
  6
CONTINUOUS
 10
40.7710665419
 20
65.293968526
 11
40.7710665419
 21
64.0900208467
  0
LINE
  5
228
100
AcDbEntity
  8
0
100
AcDbLine
 62
7
  6
CONTINUOUS
 10
40.8014051014
 20
66.3616958712
 11
40.8013484835
 21
66.3616267422
  0
LINE
  5
229
100
AcDbEntity
  8
0
100
AcDbLine
 62
7
  6
CONTINUOUS
 10
42.1733021454
 20
68.0149870119
 11
42.1732918684
 21
68.0149744913
  0
LINE
  5
22A
100
AcDbEntity
  8
0
100
AcDbLine
 62
7
  6
CONTINUOUS
 10
40.6907407488
 20
66.2337655904
 11
40.7014766284
 21
66.2462732296
  0
LINE
  5
22B
100
AcDbEntity
  8
0
100
AcDbLine
 62
7
  6
CONTINUOUS
 10
40.8014054883
 20
66.3616966991
 11
40.7170368733
 21
66.2634950571
  0
LINE
  5
22C
100
AcDbEntity
  8
0
100
AcDbLine
 62
7
  6
CONTINUOUS
 10
40.7170368733
 20
66.2634950571
 11
40.701473761
 21
66.2462965473
  0
LINE
  5
22D
100
AcDbEntity
  8
0
100
AcDbLine
 62
7
  6
CONTINUOUS
 10
66.3791623324
 20
74.293968526
 11
66.3529394837
 21
74.2805869149
  0
LINE
  5
22E
100
AcDbEntity
  8
0
100
AcDbLine
 62
7
  6
CONTINUOUS
 10
21.9467840622
 20
60.293968526
 11
66.3791623324
 21
60.293968526
  0
LINE
  5
22F
100
AcDbEntity
  8
0
100
AcDbLine
 62
7
  6
CONTINUOUS
 10
46.9052692004
 20
60.293968526
 11
46.9069219051
 21
60.2967759376
  0
LINE
  5
230
100
AcDbEntity
  8
0
100
AcDbLine
 62
7
  6
CONTINUOUS
 10
49.8487362772
 20
65.293968526
 11
40.7710665419
 21
64.0900208467
  0
LINE
  5
231
100
AcDbEntity
  8
0
100
AcDbLine
 62
7
  6
CONTINUOUS
 10
49.8487362772
 20
65.293968526
 11
40.7710665419
 21
65.293968526
  0
LINE
  5
232
100
AcDbEntity
  8
0
100
AcDbLine
 62
7
  6
CONTINUOUS
 10
21.9467840622
 20
65.293968526
 11
38.5622089561
 21
65.293968526
  0
LINE
  5
233
100
AcDbEntity
  8
0
100
AcDbLine
 62
7
  6
CONTINUOUS
 10
66.3529394848
 20
61.1073503989
 11
66.3791623324
 21
61.093968526
  0
LINE
  5
234
100
AcDbEntity
  8
0
100
AcDbLine
 62
7
  6
CONTINUOUS
 10
55.5835423197
 20
22.05
 11
55.5835423197
 21
23.75
  0
LWPOLYLINE
  5
235
100
AcDbEntity
  8
0
100
AcDbPolyline
 62
7
  6
CONTINUOUS
 90
18
 70
0
 10
48.7694223376
 20
75.0939681107
 10
48.5665856524
 20
75.0546094797
 10
48.413323497
 20
74.9710997119
 10
48.2875792044
 20
74.8744810733
 10
48.1447424909
 20
74.7483182789
 10
47.9702442883
 20
74.5820491053
 10
47.7590586529
 20
74.3708727589
 10
47.5077158454
 20
74.1109252402
 10
47.2131222357
 20
73.798470902
 10
46.8727093956
 20
73.4301809201
 10
46.4840482016
 20
73.0027849443
 10
46.0448743515
 20
72.5131058549
 10
45.552166961
 20
71.95701492
 10
45.0022975645
 20
71.3295350111
 10
44.3908576909
 20
70.624576829
 10
43.7127007205
 20
69.8348913368
 10
42.9605603422
 20
68.9502970162
 10
42.1732981528
 20
68.0149875475
  0
LINE
  5
236
100
AcDbEntity
  8
0
100
AcDbLine
 62
7
  6
CONTINUOUS
 10
80.6835423197
 20
74.15
 11
79.6835423197
 21
74.15
  0
LINE
  5
237
100
AcDbEntity
  8
0
100
AcDbLine
 62
7
  6
CONTINUOUS
 10
66.3791623324
 20
75.093968526
 11
48.7694342285
 21
75.093968526
  0
LINE
  5
238
100
AcDbEntity
  8
0
100
AcDbLine
 62
7
  6
CONTINUOUS
 10
70.5835423197
 20
21.05
 11
70.5835423197
 21
31.65
  0
LINE
  5
239
100
AcDbEntity
  8
0
100
AcDbLine
 62
7
  6
CONTINUOUS
 10
75.1835423197
 20
85.95
 11
81.9835423197
 21
85.95
  0
LINE
  5
23A
100
AcDbEntity
  8
0
100
AcDbLine
 62
7
  6
CONTINUOUS
 10
75.1835423197
 20
104.95
 11
75.1835423197
 21
85.95
  0
LINE
  5
23B
100
AcDbEntity
  8
0
100
AcDbLine
 62
7
  6
CONTINUOUS
 10
79.9835423197
 20
31.65
 11
78.9835423197
 21
37.3212818196
  0
LINE
  5
23C
100
AcDbEntity
  8
0
100
AcDbLine
 62
7
  6
CONTINUOUS
 10
78.6835423197
 20
75.8820508076
 11
78.6835423197
 21
85.95
  0
LINE
  5
23D
100
AcDbEntity
  8
0
100
AcDbLine
 62
7
  6
CONTINUOUS
 10
78.9835423197
 20
37.3212818196
 11
78.9835423197
 21
46.65
  0
LINE
  5
23E
100
AcDbEntity
  8
0
100
AcDbLine
 62
7
  6
CONTINUOUS
 10
80.6835423197
 20
85.95
 11
80.6835423197
 21
74.15
  0
LINE
  5
23F
100
AcDbEntity
  8
0
100
AcDbLine
 62
7
  6
CONTINUOUS
 10
80.6835423197
 20
46.65
 11
80.6835423197
 21
31.65
  0
LINE
  5
240
100
AcDbEntity
  8
0
100
AcDbLine
 62
7
  6
CONTINUOUS
 10
81.9835423197
 20
85.95
 11
81.9835423197
 21
31.65
  0
LINE
  5
241
100
AcDbEntity
  8
0
100
AcDbLine
 62
7
  6
CONTINUOUS
 10
79.6835423197
 20
74.15
 11
78.6835423197
 21
75.8820508076
  0
LINE
  5
242
100
AcDbEntity
  8
0
100
AcDbLine
 62
7
  6
CONTINUOUS
 10
9.9835423197
 20
104.95
 11
75.1835423197
 21
104.95
  0
ARC
  5
243
100
AcDbEntity
  8
0
100
AcDbCircle
 62
7
  6
CONTINUOUS
 10
220.695956864
 20
-81.5185299565
 40
232.8746678897
100
AcDbArc
 50
140.0499038754
 51
140.5784830347
  0
ARC
  5
244
100
AcDbEntity
  8
0
100
AcDbCircle
 62
7
  6
CONTINUOUS
 10
223.8403017676
 20
-73.9151155863
 40
230.0615513613
100
AcDbArc
 50
142.0097808893
 51
142.5667764783
  0
ARC
  5
245
100
AcDbEntity
  8
0
100
AcDbCircle
 62
7
  6
CONTINUOUS
 10
30.2508967691
 20
65.6232504175
 40
10.5253217819
100
AcDbArc
 50
358.2072242594
 51
359.3291910101
  0
ARC
  5
246
100
AcDbEntity
  8
0
100
AcDbCircle
 62
7
  6
CONTINUOUS
 10
38.3103524214
 20
68.0990912333
 40
3.5821901239
100
AcDbArc
 50
313.4851798194
 51
322.626391195
  0
ARC
  5
247
100
AcDbEntity
  8
0
100
AcDbCircle
 62
7
  6
CONTINUOUS
 10
38.5621763281
 20
68.2826013304
 40
2.9886328046
100
AcDbArc
 50
270.0006255188
 51
289.4706929999
  0
SPLINE
  5
248
100
AcDbEntity
  8
0
100
AcDbSpline
 62
7
  6
CONTINUOUS
 70
0
 71
3
 72
27
 73
23
 74
0
 42
0.0000001
 43
0.0000001
 44
0.0000000001
 40
0.0
 40
0.0
 40
0.0
 40
0.0
 40
0.1937041441
 40
0.3799805012
 40
0.5517294296
 40
0.6300735
 40
0.7023850639
 40
0.767975662
 40
0.8262272418
 40
0.8765923753
 40
0.898674547
 40
0.9186210936
 40
0.9363900081
 40
0.9519517926
 40
0.9652824589
 40
0.9763700404
 40
0.985232452
 40
0.9919314562
 40
0.9945216042
 40
0.9966608325
 40
0.9984368683
 40
1.0
 40
1.0
 40
1.0
 40
1.0
 10
66.8451515596
 20
67.693968526
 30
0.0
 10
66.8451515596
 20
67.2127235155
 30
0.0
 10
66.8394115783
 20
66.2686754838
 30
0.0
 10
66.8137455259
 20
64.8981460091
 30
0.0
 10
66.7781819067
 20
63.8145473049
 30
0.0
 10
66.7411050878
 20
63.0144021079
 30
0.0
 10
66.7107489373
 20
62.4780002749
 30
0.0
 10
66.6773218581
 20
61.9918018192
 30
0.0
 10
66.6411720111
 20
61.560490302
 30
0.0
 10
66.6078434291
 20
61.2374591208
 30
0.0
 10
66.5795223228
 20
61.0096585175
 30
0.0
 10
66.5587698856
 20
60.8625433502
 30
0.0
 10
66.5376228578
 20
60.7318691415
 30
0.0
 10
66.5161540734
 20
60.6179282307
 30
0.0
 10
66.4944364085
 20
60.5209845257
 30
0.0
 10
66.4725615516
 20
60.4411831372
 30
0.0
 10
66.4506025321
 20
60.3786904163
 30
0.0
 10
66.4310300028
 20
60.3377948568
 30
0.0
 10
66.4145372572
 20
60.3145842686
 30
0.0
 10
66.4031120841
 20
60.3030140356
 30
0.0
 10
66.3913952167
 20
60.2957392868
 30
0.0
 10
66.3830458292
 20
60.2939899993
 30
0.0
 10
66.3791623329
 20
60.2939901168
 30
0.0
  0
SPLINE
  5
249
100
AcDbEntity
  8
0
100
AcDbSpline
 62
7
  6
CONTINUOUS
 70
0
 71
3
 72
23
 73
19
 74
0
 42
0.0000001
 43
0.0000001
 44
0.0000000001
 40
0.0
 40
0.0
 40
0.0
 40
0.0
 40
0.1868525777
 40
0.367105165
 40
0.5344235366
 40
0.6113651729
 40
0.6829114062
 40
0.7484384919
 40
0.8073701191
 40
0.8592026386
 40
0.9034894436
 40
0.939878203
 40
0.9550211965
 40
0.9681011627
 40
0.9791100145
 40
0.9880535697
 40
0.994974298
 40
1.0
 40
1.0
 40
1.0
 40
1.0
 10
65.963550319
 20
67.693968526
 30
0.0
 10
65.963550319
 20
67.2818053533
 30
0.0
 10
65.968282521
 20
66.4720281441
 30
0.0
 10
65.9894512459
 20
65.2933484702
 30
0.0
 10
66.0187996669
 20
64.3573707058
 30
0.0
 10
66.0493778525
 20
63.6614221516
 30
0.0
 10
66.0745372199
 20
63.1900065407
 30
0.0
 10
66.1023101919
 20
62.7585371722
 30
0.0
 10
66.1324435004
 20
62.3708267934
 30
0.0
 10
66.1645976919
 20
62.0303037377
 30
0.0
 10
66.1984834912
 20
61.7399630514
 30
0.0
 10
66.2293100141
 20
61.5307982967
 30
0.0
 10
66.2554372634
 20
61.3906755532
 30
0.0
 10
66.2740356071
 20
61.3061345452
 30
0.0
 10
66.2927693526
 20
61.235702631
 30
0.0
 10
66.3115966132
 20
61.1793950168
 30
0.0
 10
66.3303860301
 20
61.1373069703
 30
0.0
 10
66.3451198276
 20
61.1150079743
 30
0.0
 10
66.3529386829
 20
61.1071491994
 30
0.0
  0
SPLINE
  5
24A
100
AcDbEntity
  8
0
100
AcDbSpline
 62
7
  6
CONTINUOUS
 70
0
 71
3
 72
23
 73
19
 74
0
 42
0.0000001
 43
0.0000001
 44
0.0000000001
 40
0.0
 40
0.0
 40
0.0
 40
0.0
 40
0.0050257014
 40
0.011946429
 40
0.0208899834
 40
0.0318988337
 40
0.0449787983
 40
0.0601217906
 40
0.0965105467
 40
0.1407973488
 40
0.1926298649
 40
0.2515614901
 40
0.3170885732
 40
0.3886348057
 40
0.4655764414
 40
0.6328948156
 40
0.8131474114
 40
1.0
 40
1.0
 40
1.0
 40
1.0
 10
66.3529386829
 20
74.2807878553
 30
0.0
 10
66.345119828
 20
74.272929082
 30
0.0
 10
66.3303860311
 20
74.2506300891
 30
0.0
 10
66.311596616
 20
74.2085420467
 30
0.0
 10
66.2927693582
 20
74.1522344384
 30
0.0
 10
66.2740356132
 20
74.081802533
 30
0.0
 10
66.2554372701
 20
73.9972615346
 30
0.0
 10
66.2293100224
 20
73.8571388043
 30
0.0
 10
66.1984834986
 20
73.647974066
 30
0.0
 10
66.1645977013
 20
73.3576334006
 30
0.0
 10
66.1324435087
 20
73.0171103634
 30
0.0
 10
66.1023102013
 20
72.6294000023
 30
0.0
 10
66.074537227
 20
72.1979306456
 30
0.0
 10
66.0493778601
 20
71.7265150432
 30
0.0
 10
66.0187996714
 20
71.0305664862
 30
0.0
 10
65.9894512486
 20
70.0945886983
 30
0.0
 10
65.9682825217
 20
68.9159089754
 30
0.0
 10
65.963550319
 20
68.1061317229
 30
0.0
 10
65.963550319
 20
67.693968526
 30
0.0
  0
SPLINE
  5
24B
100
AcDbEntity
  8
0
100
AcDbSpline
 62
7
  6
CONTINUOUS
 70
0
 71
3
 72
12
 73
8
 74
0
 42
0.0000001
 43
0.0000001
 44
0.0000000001
 40
0.0
 40
0.0
 40
0.0
 40
0.0
 40
0.0876676072
 40
0.1908076823
 40
0.4306184851
 40
0.7041775506
 40
1.0
 40
1.0
 40
1.0
 40
1.0
 10
40.6907408049
 20
66.2337655176
 30
0.0
 10
40.665232415
 20
66.2023723213
 30
0.0
 10
40.6071642341
 20
66.1360987322
 30
0.0
 10
40.4672504127
 20
65.9948872122
 30
0.0
 10
40.2471797368
 20
65.8131885648
 30
0.0
 10
39.928895422
 20
65.615837653
 30
0.0
 10
39.6870501509
 20
65.5103752765
 30
0.0
 10
39.5583613147
 20
65.4648821264
 30
0.0
  0
SPLINE
  5
24C
100
AcDbEntity
  8
0
100
AcDbSpline
 62
7
  6
CONTINUOUS
 70
0
 71
3
 72
27
 73
23
 74
0
 42
0.0000001
 43
0.0000001
 44
0.0000000001
 40
0.0
 40
0.0
 40
0.0
 40
0.0
 40
0.0015631555
 40
0.003339217
 40
0.0054784072
 40
0.0080684419
 40
0.0147674669
 40
0.0236300314
 40
0.0347175254
 40
0.0480480012
 40
0.0636097879
 40
0.081378605
 40
0.1013247996
 40
0.1234067213
 40
0.1737712001
 40
0.232021917
 40
0.2976116357
 40
0.3699223428
 40
0.448265804
 40
0.6200145082
 40
0.8062923667
 40
1.0
 40
1.0
 40
1.0
 40
1.0
 10
66.3791623319
 20
75.0939469353
 30
0.0
 10
66.3830458872
 20
75.0939468179
 30
0.0
 10
66.3913952637
 20
75.0921970036
 30
0.0
 10
66.4031119812
 20
75.0849220899
 30
0.0
 10
66.4145372485
 20
75.0733524392
 30
0.0
 10
66.4310307827
 20
75.0501427767
 30
0.0
 10
66.4506027021
 20
75.0092466112
 30
0.0
 10
66.4725613826
 20
74.9467536453
 30
0.0
 10
66.4944364556
 20
74.8669526229
 30
0.0
 10
66.5161542746
 20
74.7700096598
 30
0.0
 10
66.537622599
 20
74.6560693829
 30
0.0
 10
66.5587694108
 20
74.5253962761
 30
0.0
 10
66.5795219687
 20
74.3782828856
 30
0.0
 10
66.607842603
 20
74.150485377
 30
0.0
 10
66.6411709394
 20
73.8274586012
 30
0.0
 10
66.6773205238
 20
73.3961530531
 30
0.0
 10
66.710747394
 20
72.909961075
 30
0.0
 10
66.7411035547
 20
72.3735650994
 30
0.0
 10
66.778180541
 20
71.5734241439
 30
0.0
 10
66.8137447243
 20
70.4898238389
 30
0.0
 10
66.8394114075
 20
69.1192825825
 30
0.0
 10
66.8451515596
 20
68.1752221872
 30
0.0
 10
66.8451515596
 20
67.693968526
 30
0.0
  0
SPLINE
  5
24D
100
AcDbEntity
  8
0
100
AcDbSpline
 62
7
  6
CONTINUOUS
 70
0
 71
3
 72
15
 73
11
 74
0
 42
0.0000001
 43
0.0000001
 44
0.0000000001
 40
0.0
 40
0.0
 40
0.0
 40
0.0
 40
0.1209186847
 40
0.2419166103
 40
0.3641653488
 40
0.488211942
 40
0.6141459933
 40
0.7417355488
 40
0.870545881
 40
1.0
 40
1.0
 40
1.0
 40
1.0
 10
40.2264740039
 20
60.293968526
 30
0.0
 10
40.3074628805
 20
60.4276122552
 30
0.0
 10
40.4415526342
 20
60.7122660339
 30
0.0
 10
40.5777168115
 20
61.1638089856
 30
0.0
 10
40.6659801985
 20
61.6308826783
 30
0.0
 10
40.7196037637
 20
62.1092197861
 30
0.0
 10
40.7494003315
 20
62.596389813
 30
0.0
 10
40.7640354731
 20
63.0903223749
 30
0.0
 10
40.770046075
 20
63.5889539049
 30
0.0
 10
40.7710665419
 20
63.9227216308
 30
0.0
 10
40.7710665419
 20
64.0900208467
 30
0.0
  0
SPLINE
  5
24E
100
AcDbEntity
  8
0
100
AcDbSpline
 62
7
  6
CONTINUOUS
 70
0
 71
3
 72
27
 73
23
 74
0
 42
0.0000001
 43
0.0000001
 44
0.0000000001
 40
0.0
 40
0.0
 40
0.0
 40
0.0
 40
0.0015618491
 40
0.0033382126
 40
0.0054783994
 40
0.0080686835
 40
0.0147656675
 40
0.0236287885
 40
0.0347196515
 40
0.0480488913
 40
0.063608683
 40
0.0813802595
 40
0.101327606
 40
0.1234073838
 40
0.1737747703
 40
0.2320230937
 40
0.2976147615
 40
0.3699235671
 40
0.4482684673
 40
0.620018054
 40
0.8062948341
 40
1.0
 40
1.0
 40
1.0
 40
1.0
 10
66.3791623324
 20
61.093968526
 30
0.0
 10
66.3826231493
 20
61.093968526
 30
0.0
 10
66.39006713
 20
61.0955370651
 30
0.0
 10
66.4005082632
 20
61.1020385443
 30
0.0
 10
66.4106949473
 20
61.1123645433
 30
0.0
 10
66.425408398
 20
61.1330601038
 30
0.0
 10
66.4428828278
 20
61.1695232088
 30
0.0
 10
66.4624706644
 20
61.2252646401
 30
0.0
 10
66.4819744968
 20
61.2964461447
 30
0.0
 10
66.5013481983
 20
61.3829082019
 30
0.0
 10
66.5204962388
 20
61.4845295281
 30
0.0
 10
66.5393504205
 20
61.6010811704
 30
0.0
 10
66.5578595807
 20
61.7322942863
 30
0.0
 10
66.5831255572
 20
61.9354684709
 30
0.0
 10
66.6128427127
 20
62.2235707004
 30
0.0
 10
66.6450913478
 20
62.6082534388
 30
0.0
 10
66.6748983207
 20
63.0418793956
 30
0.0
 10
66.7019765033
 20
63.5202896734
 30
0.0
 10
66.7350427554
 20
64.2339299872
 30
0.0
 10
66.7667638002
 20
65.2003869983
 30
0.0
 10
66.7896546832
 20
66.4227557887
 30
0.0
 10
66.7947743459
 20
67.2647477484
 30
0.0
 10
66.7947743459
 20
67.693968526
 30
0.0
  0
SPLINE
  5
24F
100
AcDbEntity
  8
0
100
AcDbSpline
 62
7
  6
CONTINUOUS
 70
0
 71
3
 72
27
 73
23
 74
0
 42
0.0000001
 43
0.0000001
 44
0.0000000001
 40
0.0
 40
0.0
 40
0.0
 40
0.0
 40
0.0015631555
 40
0.003339217
 40
0.0054784072
 40
0.0080684419
 40
0.0147674669
 40
0.0236300314
 40
0.0347175254
 40
0.0480480012
 40
0.0636097879
 40
0.081378605
 40
0.1013247996
 40
0.1234067213
 40
0.1737712001
 40
0.232021917
 40
0.2976116357
 40
0.3699223428
 40
0.448265804
 40
0.6200145082
 40
0.8062923667
 40
1.0
 40
1.0
 40
1.0
 40
1.0
 10
66.3791623329
 20
60.2939901168
 30
0.0
 10
66.3752787776
 20
60.2939902342
 30
0.0
 10
66.3669294011
 20
60.2957400485
 30
0.0
 10
66.3552126836
 20
60.3030149622
 30
0.0
 10
66.3437874163
 20
60.3145846128
 30
0.0
 10
66.3272938821
 20
60.3377942754
 30
0.0
 10
66.3077219628
 20
60.3786904408
 30
0.0
 10
66.2857632823
 20
60.4411834068
 30
0.0
 10
66.2638882093
 20
60.5209844292
 30
0.0
 10
66.2421703903
 20
60.6179273923
 30
0.0
 10
66.2207020658
 20
60.7318676692
 30
0.0
 10
66.1995552541
 20
60.8625407759
 30
0.0
 10
66.1788026962
 20
61.0096541665
 30
0.0
 10
66.1504820618
 20
61.2374516751
 30
0.0
 10
66.1171537254
 20
61.5604784508
 30
0.0
 10
66.081004141
 20
61.9917839989
 30
0.0
 10
66.0475772708
 20
62.477975977
 30
0.0
 10
66.0172211101
 20
63.0143719527
 30
0.0
 10
65.9801441239
 20
63.8145129082
 30
0.0
 10
65.9445799406
 20
64.8981132132
 30
0.0
 10
65.9189132574
 20
66.2686544696
 30
0.0
 10
65.9131731052
 20
67.2127148648
 30
0.0
 10
65.9131731052
 20
67.693968526
 30
0.0
  0
SPLINE
  5
250
100
AcDbEntity
  8
0
100
AcDbSpline
 62
7
  6
CONTINUOUS
 70
0
 71
3
 72
27
 73
23
 74
0
 42
0.0000001
 43
0.0000001
 44
0.0000000001
 40
0.0
 40
0.0
 40
0.0
 40
0.0
 40
0.1937051541
 40
0.379981926
 40
0.5517315103
 40
0.6300764112
 40
0.7023852182
 40
0.767976888
 40
0.8262252147
 40
0.876592604
 40
0.8986723837
 40
0.9186197323
 40
0.9363913101
 40
0.9519511031
 40
0.9652803446
 40
0.9763712092
 40
0.9852343309
 40
0.9919313157
 40
0.9945216002
 40
0.9966617872
 40
0.9984381508
 40
1.0
 40
1.0
 40
1.0
 40
1.0
 10
66.7947743459
 20
67.693968526
 30
0.0
 10
66.7947743459
 20
68.1231892775
 30
0.0
 10
66.7896546838
 20
68.9651811928
 30
0.0
 10
66.7667638031
 20
70.1875499332
 30
0.0
 10
66.7350427607
 20
71.154006922
 30
0.0
 10
66.7019765109
 20
71.8676472349
 30
0.0
 10
66.6748983292
 20
72.3460575219
 30
0.0
 10
66.6450913564
 20
72.7796834938
 30
0.0
 10
66.6128427226
 20
73.1643662501
 30
0.0
 10
66.5831255656
 20
73.4524684971
 30
0.0
 10
66.5578595891
 20
73.6556426967
 30
0.0
 10
66.5393504293
 20
73.7868558246
 30
0.0
 10
66.5204962468
 20
73.9034074773
 30
0.0
 10
66.5013482054
 20
74.0050288131
 30
0.0
 10
66.4819745033
 20
74.0914908805
 30
0.0
 10
66.4624706704
 20
74.1626723941
 30
0.0
 10
66.4428828305
 20
74.2184138315
 30
0.0
 10
66.4254083994
 20
74.2548769405
 30
0.0
 10
66.4106949482
 20
74.2755725044
 30
0.0
 10
66.4005082637
 20
74.2858985054
 30
0.0
 10
66.3900671304
 20
74.2923999864
 30
0.0
 10
66.3826231493
 20
74.293968526
 30
0.0
 10
66.3791623324
 20
74.293968526
 30
0.0
  0
SPLINE
  5
251
100
AcDbEntity
  8
0
100
AcDbSpline
 62
7
  6
CONTINUOUS
 70
0
 71
3
 72
28
 73
24
 74
0
 42
0.0000001
 43
0.0000001
 44
0.0000000001
 40
0.0
 40
0.0
 40
0.0
 40
0.0
 40
0.1704061861
 40
0.3383649615
 40
0.4202764215
 40
0.5001042718
 40
0.5772339972
 40
0.6509607972
 40
0.720471581
 40
0.7848306098
 40
0.8429746223
 40
0.8693526746
 40
0.8937300762
 40
0.9159495534
 40
0.9358589702
 40
0.9533089778
 40
0.968161296
 40
0.9803045774
 40
0.9896473211
 40
0.9932568327
 40
0.9961652853
 40
0.9983940351
 40
1.0
 40
1.0
 40
1.0
 40
1.0
 10
42.5251487842
 20
67.693968526
 30
0.0
 10
42.8641629932
 20
68.1281278472
 30
0.0
 10
43.5402709942
 20
68.9879128009
 30
0.0
 10
44.3874849168
 20
70.0499483056
 30
0.0
 10
45.0569803416
 20
70.8791718771
 30
0.0
 10
45.5445817713
 20
71.4778873993
 30
0.0
 10
46.0181946936
 20
72.0538643258
 30
0.0
 10
46.4735790424
 20
72.6016409241
 30
0.0
 10
46.9058261244
 20
73.1149535978
 30
0.0
 10
47.3092828343
 20
73.5866352239
 30
0.0
 10
47.6256659134
 20
73.9492988859
 30
0.0
 10
47.8598126223
 20
74.21215779
 30
0.0
 10
48.0181492465
 20
74.3870184375
 30
0.0
 10
48.1640024723
 20
74.5449614857
 30
0.0
 10
48.2964358265
 20
74.6848008453
 30
0.0
 10
48.4144810997
 20
74.8054349342
 30
0.0
 10
48.5171709637
 20
74.9059484913
 30
0.0
 10
48.6037697137
 20
74.9853255257
 30
0.0
 10
48.666201889
 20
75.0372649167
 30
0.0
 10
48.7079615223
 20
75.06703696
 30
0.0
 10
48.7321596301
 20
75.081776679
 30
0.0
 10
48.7519298795
 20
75.090972627
 30
0.0
 10
48.7642189158
 20
75.0939642607
 30
0.0
 10
48.7694102167
 20
75.0939685162
 30
0.0
  0
SPLINE
  5
252
100
AcDbEntity
  8
0
100
AcDbSpline
 62
7
  6
CONTINUOUS
 70
0
 71
3
 72
21
 73
17
 74
0
 42
0.0000001
 43
0.0000001
 44
0.0000000001
 40
0.0
 40
0.0
 40
0.0
 40
0.0
 40
0.0032951385
 40
0.0082938366
 40
0.0152532324
 40
0.0242666798
 40
0.0485741224
 40
0.081302473
 40
0.1223885894
 40
0.1716659608
 40
0.2288482071
 40
0.293554296
 40
0.443239754
 40
0.6152110104
 40
0.8028369147
 40
1.0
 40
1.0
 40
1.0
 40
1.0
 10
46.9069219051
 20
60.2967759376
 30
0.0
 10
46.901320663
 20
60.3002525995
 30
0.0
 10
46.8913073815
 20
60.3145846897
 30
0.0
 10
46.8818301402
 20
60.3435039552
 30
0.0
 10
46.8745381341
 20
60.3850200776
 30
0.0
 10
46.8684440166
 20
60.4654076168
 30
0.0
 10
46.87244032
 20
60.5978303956
 30
0.0
 10
46.8946937277
 20
60.7929935752
 30
0.0
 10
46.9396211625
 20
61.0353335024
 30
0.0
 10
47.0116056439
 20
61.3217926257
 30
0.0
 10
47.1150075825
 20
61.6484822546
 30
0.0
 10
47.3098809193
 20
62.1559704631
 30
0.0
 10
47.6556982161
 20
62.8497684264
 30
0.0
 10
48.223459632
 20
63.6992408908
 30
0.0
 10
48.9599487011
 20
64.5390487253
 30
0.0
 10
49.5386694272
 20
65.0501310343
 30
0.0
 10
49.8487362772
 20
65.293968526
 30
0.0
  0
SPLINE
  5
253
100
AcDbEntity
  8
0
100
AcDbSpline
 62
7
  6
CONTINUOUS
 70
0
 71
3
 72
19
 73
15
 74
0
 42
0.0000001
 43
0.0000001
 44
0.0000000001
 40
0.0
 40
0.0
 40
0.0
 40
0.0
 40
0.0056433741
 40
0.0190104901
 40
0.0413449579
 40
0.073353694
 40
0.1151956455
 40
0.1664337613
 40
0.2265864807
 40
0.2951644276
 40
0.4537586455
 40
0.6314265723
 40
0.8168968274
 40
1.0
 40
1.0
 40
1.0
 40
1.0
 10
42.1732972239
 20
68.014970398
 30
0.0
 10
42.1727436952
 20
68.0142632886
 30
0.0
 10
42.1743342302
 20
68.0107742588
 30
0.0
 10
42.1778621888
 20
68.0059873313
 30
0.0
 10
42.1850857795
 20
67.9975088786
 30
0.0
 10
42.1955325067
 20
67.9865396643
 30
0.0
 10
42.2096469778
 20
67.9724128535
 30
0.0
 10
42.2271911837
 20
67.9555113927
 30
0.0
 10
42.248075283
 20
67.9359044033
 30
0.0
 10
42.2817390978
 20
67.90497125
 30
0.0
 10
42.3297360615
 20
67.8619974915
 30
0.0
 10
42.3921820791
 20
67.8072899665
 30
0.0
 10
42.4580920511
 20
67.7506224689
 30
0.0
 10
42.5028475592
 20
67.7127186887
 30
0.0
 10
42.5251487854
 20
67.693968525
 30
0.0
  0
SPLINE
  5
254
100
AcDbEntity
  8
0
100
AcDbSpline
 62
7
  6
CONTINUOUS
 70
0
 71
3
 72
27
 73
23
 74
0
 42
0.0000001
 43
0.0000001
 44
0.0000000001
 40
0.0
 40
0.0
 40
0.0
 40
0.0
 40
0.1937041441
 40
0.3799805012
 40
0.5517294296
 40
0.6300735
 40
0.7023850639
 40
0.767975662
 40
0.8262272418
 40
0.8765923753
 40
0.898674547
 40
0.9186210936
 40
0.9363900081
 40
0.9519517926
 40
0.9652824589
 40
0.9763700404
 40
0.985232452
 40
0.9919314562
 40
0.9945216042
 40
0.9966608325
 40
0.9984368683
 40
1.0
 40
1.0
 40
1.0
 40
1.0
 10
65.9131731052
 20
67.693968526
 30
0.0
 10
65.9131731052
 20
68.1752135366
 30
0.0
 10
65.9189130865
 20
69.1192615683
 30
0.0
 10
65.9445791389
 20
70.489791043
 30
0.0
 10
65.9801427581
 20
71.5733897472
 30
0.0
 10
66.017219577
 20
72.3735349442
 30
0.0
 10
66.0475757275
 20
72.9099367772
 30
0.0
 10
66.0810028067
 20
73.3961352329
 30
0.0
 10
66.1171526537
 20
73.82744675
 30
0.0
 10
66.1504812358
 20
74.1504779313
 30
0.0
 10
66.1788023421
 20
74.3782785346
 30
0.0
 10
66.1995547792
 20
74.5253937019
 30
0.0
 10
66.2207018071
 20
74.6560679106
 30
0.0
 10
66.2421705914
 20
74.7700088214
 30
0.0
 10
66.2638882564
 20
74.8669525264
 30
0.0
 10
66.2857631133
 20
74.9467539149
 30
0.0
 10
66.3077221328
 20
75.0092466358
 30
0.0
 10
66.3272946621
 20
75.0501421953
 30
0.0
 10
66.3437874076
 20
75.0733527834
 30
0.0
 10
66.3552125807
 20
75.0849230164
 30
0.0
 10
66.3669294482
 20
75.0921977653
 30
0.0
 10
66.3752788356
 20
75.0939470527
 30
0.0
 10
66.3791623319
 20
75.0939469353
 30
0.0
  0
SPLINE
  5
255
100
AcDbEntity
  8
0
100
AcDbSpline
 62
7
  6
CONTINUOUS
 70
0
 71
3
 72
10
 73
6
 74
0
 42
0.0000001
 43
0.0000001
 44
0.0000000001
 40
0.0
 40
0.0
 40
0.0
 40
0.0
 40
0.3241820958
 40
0.5992232063
 40
1.0
 40
1.0
 40
1.0
 40
1.0
 10
40.7014735835
 20
66.2462987383
 30
0.0
 10
40.7048355244
 20
66.2499848821
 30
0.0
 10
40.7113561077
 20
66.2566272786
 30
0.0
 10
40.7229610359
 20
66.2662817005
 30
0.0
 10
40.7338465735
 20
66.270961358
 30
0.0
 10
40.7398637401
 20
66.269606672
 30
0.0
  0
SPLINE
  5
256
100
AcDbEntity
  8
0
100
AcDbSpline
 62
7
  6
CONTINUOUS
 70
0
 71
3
 72
21
 73
17
 74
0
 42
0.0000001
 43
0.0000001
 44
0.0000000001
 40
0.0
 40
0.0
 40
0.0
 40
0.0
 40
0.0091585564
 40
0.0202725638
 40
0.0344927111
 40
0.0521758978
 40
0.0731791333
 40
0.0971337244
 40
0.1520793156
 40
0.2137773762
 40
0.2799018532
 40
0.4198994544
 40
0.5650718332
 40
0.7117786812
 40
0.8574990115
 40
1.0
 40
1.0
 40
1.0
 40
1.0
 10
40.7398637401
 20
66.269606672
 30
0.0
 10
40.7421818147
 20
66.269084788
 30
0.0
 10
40.747034793
 20
66.2665415967
 30
0.0
 10
40.7527049779
 20
66.2594294231
 30
0.0
 10
40.7574492372
 20
66.2492692411
 30
0.0
 10
40.7614280413
 20
66.2361016151
 30
0.0
 10
40.7647361776
 20
66.2201774991
 30
0.0
 10
40.7684974843
 20
66.1945226481
 30
0.0
 10
40.7716046662
 20
66.1581542408
 30
0.0
 10
40.7738530268
 20
66.1107878241
 30
0.0
 10
40.7756291205
 20
66.0413230087
 30
0.0
 10
40.7763290443
 20
65.9501825688
 30
0.0
 10
40.776474098
 20
65.838137071
 30
0.0
 10
40.7764750045
 20
65.7246059927
 30
0.0
 10
40.7763726916
 20
65.6117685033
 30
0.0
 10
40.7759498576
 20
65.5369922922
 30
0.0
 10
40.7754971898
 20
65.5000246027
 30
0.0
  0
SPLINE
  5
257
100
AcDbEntity
  8
0
100
AcDbSpline
 62
7
  6
CONTINUOUS
 70
0
 71
3
 72
18
 73
14
 74
0
 42
0.0000001
 43
0.0000001
 44
0.0000000001
 40
0.0
 40
0.0
 40
0.0
 40
0.0
 40
0.0186244362
 40
0.0408767488
 40
0.0691024171
 40
0.1050220984
 40
0.1494420703
 40
0.2022484392
 40
0.3316510127
 40
0.4879545198
 40
0.6593660063
 40
0.8334880545
 40
1.0
 40
1.0
 40
1.0
 40
1.0
 10
40.8013554489
 20
66.3616213078
 30
0.0
 10
40.799076507
 20
66.3588145143
 30
0.0
 10
40.7954539984
 20
66.3514706604
 30
0.0
 10
40.7943004803
 20
66.3378987013
 30
0.0
 10
40.7971426283
 20
66.321249184
 30
0.0
 10
40.8042711112
 20
66.3013409235
 30
0.0
 10
40.8157896712
 20
66.2781585852
 30
0.0
 10
40.8385806843
 20
66.2404844849
 30
0.0
 10
40.8781739437
 20
66.1878512017
 30
0.0
 10
40.9373298879
 20
66.1216346036
 30
0.0
 10
41.0064104923
 20
66.0528684879
 30
0.0
 10
41.0804887831
 20
65.9865341759
 30
0.0
 10
41.1316460816
 20
65.9445980988
 30
0.0
 10
41.157095665
 20
65.9246689164
 30
0.0
  0
ELLIPSE
  5
258
100
AcDbEntity
  8
0
100
AcDbEllipse
 62
7
  6
CONTINUOUS
 10
51.9079401265
 20
67.693968526
 30
0.0
 11
5.0015660965
 21
7.3968375249
 31
0.0
 40
0.0432505858
 41
-3.1399024338
 42
-3.1123559665
  0
ENDSEC
  0
SECTION
  2
OBJECTS
  0
DICTIONARY
  5
C
100
AcDbDictionary
280
0
281
1
  3
ACAD_GROUP
350
D
  3
ACAD_MLINESTYLE
350
17
  3
ACAD_LAYOUT
350
1A
  3
ACAD_PLOTSETTINGS
350
19
  3
ACAD_PLOTSTYLENAME
350
E
  0
DICTIONARY
  5
D
102
{ACAD_REACTORS
330
C
102
}
100
AcDbDictionary
280
0
281
1
  0
ACDBDICTIONARYWDFLT
  5
E
102
{ACAD_REACTORS
330
C
102
}
100
AcDbDictionary
281
1
  3
Normal
350
F
100
AcDbDictionaryWithDefault
340
F
  0
DICTIONARY
  5
17
102
{ACAD_REACTORS
330
C
102
}
100
AcDbDictionary
280
0
281
1
  3
Standard
350
18
  0
DICTIONARY
  5
19
102
{ACAD_REACTORS
330
C
102
}
100
AcDbDictionary
281
1
  0
DICTIONARY
  5
1A
102
{ACAD_REACTORS
330
C
102
}
100
AcDbDictionary
281
1
  3
Model
350
259
  3
Layout1
350
25A
  0
ACDBPLACEHOLDER
  5
F
102
{ACAD_REACTORS
330
E
102
}
  0
MLINESTYLE
  5
18
102
{ACAD_REACTORS
330
17
102
}
100
AcDbMlineStyle
  2
STANDARD
 70
0
  3

 62
256
 51
90.0
 52
90.0
 71
2
 49
0.5
 62
256
  6
BYLAYER
 49
-0.5
 62
256
  6
BYLAYER
  0
LAYOUT
  5
259
102
{ACAD_REACTORS
330
1A
102
}
100
AcDbPlotSettings
  1

  2
none_device
  4

  6

 40
0.0
 41
0.0
 42
0.0
 43
0.0
 44
210.0
 45
297.0
 46
0.0
 47
0.0
 48
0.0
 49
0.0
140
0.0
141
0.0
142
1.0
143
1.0
 70
1024
 72
1
 73
0
 74
0
  7

 75
0
147
1.0
148
0.0
149
0.0
100
AcDbLayout
  1
Model
 70
0
 71
0
 10
0.0
 20
0.0
 11
210.0
 21
297.0
 12
0.0
 22
0.0
 32
0.0
 14
0.0
 24
0.0
 34
0.0
 15
0.0
 25
0.0
 35
0.0
146
0.0
 13
0.0
 23
0.0
 33
0.0
 16
1.0
 26
0.0
 36
0.0
 17
0.0
 27
1.0
 37
0.0
 76
0
330
210
345
0
346
0
  0
LAYOUT
  5
25A
102
{ACAD_REACTORS
330
1A
102
}
100
AcDbPlotSettings
  1

  2
none_device
  4

  6

 40
0.0
 41
0.0
 42
0.0
 43
0.0
 44
210.0
 45
297.0
 46
0.0
 47
0.0
 48
0.0
 49
0.0
140
0.0
141
0.0
142
1.0
143
1.0
 70
0
 72
1
 73
0
 74
0
  7

 75
0
147
1.0
148
0.0
149
0.0
100
AcDbLayout
  1
Layout1
 70
0
 71
1
 10
0.0
 20
0.0
 11
210.0
 21
297.0
 12
0.0
 22
0.0
 32
0.0
 14
0.0
 24
0.0
 34
0.0
 15
0.0
 25
0.0
 35
0.0
146
0.0
 13
0.0
 23
0.0
 33
0.0
 16
1.0
 26
0.0
 36
0.0
 17
0.0
 27
1.0
 37
0.0
 76
0
330
211
345
0
346
0
  0
ENDSEC
  0
EOF
