999
DXF file: C:\Users\sesa63760\Dev\_Creo\CAD\MCADPP0003329_3D-CAD\drw0001_5.dxf
999
Pro/ENGINEER 2019471 by Parametric Technology Corporation
  0
SECTION
  2
HEADER
  9
$ACADVER
  1
AC1024
  9
$DWGCODEPAGE
  3
ANSI_1252
  9
$EXTMAX
 10
91.4778865576
 20
129.3758681315
 30
0.0
  9
$EXTMIN
 10
0.0
 20
0.0
 30
0.0
  9
$LIMMIN
 10
0.0
 20
0.0
  9
$LIMMAX
 10
91.4778865576
 20
129.3758681315
  9
$VIEWCTR
 10
45.7389432788
 20
64.6879340658
  9
$VIEWSIZE
 40
129.3758681315
  9
$CLAYER
  8
0
  9
$LTSCALE
 40
8.4333899226
  9
$CELTYPE
  6
BYLAYER
  9
$DIMSCALE
 40
1.0
  9
$DIMASZ
 40
1.089022459
  9
$DIMEXO
 40
1.0
  9
$DIMDLI
 40
5.8267057647
  9
$DIMEXE
 40
1.0
  9
$DIMCEN
 40
1.3800092601
  9
$DIMLFAC
 40
1.0
  9
$DIMBLK
  1
_FILLED
  9
$DIMALT
 70
0
  9
$DIMALTF
 40
0.0393700787
  9
$DIMTXT
 40
1.5246314426
  9
$DIMTOL
 70
1
  9
$DIMLIM
 70
0
  9
$DIMTFAC
 40
1.0
  9
$DIMTP
 40
0.01
  9
$DIMTM
 40
0.01
  9
$DIMGAP
 40
0.625
  9
$DIMDSEP
 70
46
  9
$AUNITS
 70
0
  9
$PDMODE
 70
3
  9
$PDSIZE
 40
0.3125
  9
$HANDSEED
  5
26A
  9
$TILEMODE
 70
1
  9
$MEASUREMENT
 70
1
  9
$INSUNITS
 70
4
  0
ENDSEC
  0
SECTION
  2
CLASSES
  0
CLASS
  1
ACDBDICTIONARYWDFLT
  2
AcDbDictionaryWithDefault
  3
AutoCAD 2000
 90
0
 91
1
280
0
281
0
  0
CLASS
  1
ACDBPLACEHOLDER
  2
AcDbPlaceHolder
  3
AutoCAD 2000
 90
0
 91
1
280
0
281
0
  0
CLASS
  1
LAYOUT
  2
AcDbLayout
  3
AutoCAD 2000
 90
0
 91
0
280
0
281
0
  0
ENDSEC
  0
SECTION
  2
TABLES
  0
TABLE
  2
VPORT
  5
8
100
AcDbSymbolTable
 70
2
  0
VPORT
  5
1F4
100
AcDbSymbolTableRecord
100
AcDbViewportTableRecord
  2
*ACTIVE
 70
0
 10
0.0
 20
0.0
 11
1.0
 21
1.0
 12
45.7389432788
 22
64.6879340658
 13
0.0
 23
0.0
 14
1.0
 24
1.0
 15
0.0
 25
0.0
 16
0.0
 26
0.0
 36
1.0
 17
0.0
 27
0.0
 37
0.0
 40
129.3758681315
 41
0.7070707071
 42
50.0
 43
0.0
 44
0.0
 50
0.0
 51
0.0
 71
0
 72
100
 73
1
 74
1
 75
0
 76
0
 77
0
 78
0
  0
ENDTAB
  0
TABLE
  2
LTYPE
  5
5
100
AcDbSymbolTable
 70
6
  0
LTYPE
  5
14
100
AcDbSymbolTableRecord
100
AcDbLinetypeTableRecord
  2
BYBLOCK
 70
0
  3

 72
65
 73
0
 40
0.0
  0
LTYPE
  5
15
100
AcDbSymbolTableRecord
100
AcDbLinetypeTableRecord
  2
BYLAYER
 70
0
  3

 72
65
 73
0
 40
0.0
  0
LTYPE
  5
16
100
AcDbSymbolTableRecord
100
AcDbLinetypeTableRecord
  2
CONTINUOUS
 70
64
  3
Solid line
 72
65
 73
0
 40
0.0
  0
LTYPE
  5
1F5
100
AcDbSymbolTableRecord
100
AcDbLinetypeTableRecord
  2
CENTER
 70
64
  3
____ _ ____ _ ____ _ ____ _ ____ _ ____ _ ____
 72
65
 73
4
 40
0.6
 49
0.375
 74
0
 49
-0.075
 74
0
 49
0.075
 74
0
 49
-0.075
 74
0
  0
LTYPE
  5
1F6
100
AcDbSymbolTableRecord
100
AcDbLinetypeTableRecord
  2
HIDDEN
 70
64
  3
- - - - - - - - - - - - - - - - - - - -
 72
65
 73
2
 40
0.2
 49
0.1
 74
0
 49
-0.1
 74
0
  0
LTYPE
  5
1F7
100
AcDbSymbolTableRecord
100
AcDbLinetypeTableRecord
  2
PHANTOM
 70
64
  3
_____ _ _ _____ _ _ _____ _ _ _____
 72
65
 73
6
 40
0.8
 49
0.45
 74
0
 49
-0.05
 74
0
 49
0.1
 74
0
 49
-0.05
 74
0
 49
0.1
 74
0
 49
-0.05
 74
0
  0
LTYPE
  5
1F8
100
AcDbSymbolTableRecord
100
AcDbLinetypeTableRecord
  2
DOT
 70
64
  3
. . . . . . . . . . . . . . . . . . . .
 72
65
 73
2
 40
0.2
 49
0.1
 74
0
 49
-0.1
 74
0
  0
LTYPE
  5
1F9
100
AcDbSymbolTableRecord
100
AcDbLinetypeTableRecord
  2
DASHED
 70
64
  3
- - - - - - - - - - - - - - - - - - - -
 72
65
 73
2
 40
0.2
 49
0.1
 74
0
 49
-0.1
 74
0
  0
ENDTAB
  0
TABLE
  2
LAYER
  5
2
100
AcDbSymbolTable
 70
36
  0
LAYER
  5
10
100
AcDbSymbolTableRecord
100
AcDbLayerTableRecord
  2
0
 70
0
 62
7
  6
CONTINUOUS
370
-3
390
F
  0
LAYER
  5
1FA
100
AcDbSymbolTableRecord
100
AcDbLayerTableRecord
  2
DEFAULT_1
 70
0
 62
7
  6
CENTER
370
-3
390
F
  0
LAYER
  5
1FB
100
AcDbSymbolTableRecord
100
AcDbLayerTableRecord
  2
DEFAULT_2
 70
0
 62
8
  6
HIDDEN
370
-3
390
F
  0
LAYER
  5
1FC
100
AcDbSymbolTableRecord
100
AcDbLayerTableRecord
  2
DEFAULT_3
 70
0
 62
7
  6
PHANTOM
370
-3
390
F
  0
LAYER
  5
1FD
100
AcDbSymbolTableRecord
100
AcDbLayerTableRecord
  2
00_COMPONENTS
 70
0
 62
7
  6
CONTINUOUS
370
-3
390
F
  0
LAYER
  5
1FE
100
AcDbSymbolTableRecord
100
AcDbLayerTableRecord
  2
01_1_DEFAULT_DATUMS
 70
0
 62
7
  6
CONTINUOUS
370
-3
390
F
  0
LAYER
  5
1FF
100
AcDbSymbolTableRecord
100
AcDbLayerTableRecord
  2
01_PLANES
 70
0
 62
7
  6
CONTINUOUS
370
-3
390
F
  0
LAYER
  5
200
100
AcDbSymbolTableRecord
100
AcDbLayerTableRecord
  2
02_COORD_SYS
 70
0
 62
7
  6
CONTINUOUS
370
-3
390
F
  0
LAYER
  5
201
100
AcDbSymbolTableRecord
100
AcDbLayerTableRecord
  2
03_AXES
 70
0
 62
7
  6
CONTINUOUS
370
-3
390
F
  0
LAYER
  5
202
100
AcDbSymbolTableRecord
100
AcDbLayerTableRecord
  2
04_POINTS
 70
0
 62
7
  6
CONTINUOUS
370
-3
390
F
  0
LAYER
  5
203
100
AcDbSymbolTableRecord
100
AcDbLayerTableRecord
  2
05_CURVES
 70
0
 62
7
  6
CONTINUOUS
370
-3
390
F
  0
LAYER
  5
204
100
AcDbSymbolTableRecord
100
AcDbLayerTableRecord
  2
06_SURFS
 70
0
 62
7
  6
CONTINUOUS
370
-3
390
F
  0
LAYER
  5
205
100
AcDbSymbolTableRecord
100
AcDbLayerTableRecord
  2
07_COSMETICS
 70
0
 62
7
  6
CONTINUOUS
370
-3
390
F
  0
LAYER
  5
206
100
AcDbSymbolTableRecord
100
AcDbLayerTableRecord
  2
10_NOTES
 70
0
 62
7
  6
CONTINUOUS
370
-3
390
F
  0
LAYER
  5
207
100
AcDbSymbolTableRecord
100
AcDbLayerTableRecord
  2
11_NOTES_PUB
 70
0
 62
7
  6
CONTINUOUS
370
-3
390
F
  0
LAYER
  5
208
100
AcDbSymbolTableRecord
100
AcDbLayerTableRecord
  2
13_REF_GTOL
 70
0
 62
7
  6
CONTINUOUS
370
-3
390
F
  0
LAYER
  5
209
100
AcDbSymbolTableRecord
100
AcDbLayerTableRecord
  2
16_MISC
 70
0
 62
7
  6
CONTINUOUS
370
-3
390
F
  0
LAYER
  5
20A
100
AcDbSymbolTableRecord
100
AcDbLayerTableRecord
  2
17_NO_PRINT
 70
0
 62
7
  6
CONTINUOUS
370
-3
390
F
  0
LAYER
  5
20B
100
AcDbSymbolTableRecord
100
AcDbLayerTableRecord
  2
18_DATUM_CAMS_JOINTS
 70
0
 62
7
  6
CONTINUOUS
370
-3
390
F
  0
LAYER
  5
20C
100
AcDbSymbolTableRecord
100
AcDbLayerTableRecord
  2
19_DATUM_FUNCTIONAL
 70
0
 62
7
  6
CONTINUOUS
370
-3
390
F
  0
LAYER
  5
20D
100
AcDbSymbolTableRecord
100
AcDbLayerTableRecord
  2
20_DATUM_KINEMATIC_SCHEME
 70
0
 62
7
  6
CONTINUOUS
370
-3
390
F
  0
ENDTAB
  0
TABLE
  2
STYLE
  5
3
100
AcDbSymbolTable
 70
1
  0
STYLE
  5
11
100
AcDbSymbolTableRecord
100
AcDbTextStyleTableRecord
  2
STANDARD
 70
0
 40
0.0
 41
0.8
 50
0.0
 71
0
 42
0.2
  3
txt
  4

  0
STYLE
  5
20E
100
AcDbSymbolTableRecord
100
AcDbTextStyleTableRecord
  2
TEXTSTYLE_1
 70
0
 40
0.0
 41
0.8
 50
0.0
 71
0
 42
0.2
  3
gdt
  4

  0
ENDTAB
  0
TABLE
  2
VIEW
  5
6
100
AcDbSymbolTable
 70
0
  0
ENDTAB
  0
TABLE
  2
UCS
  5
7
100
AcDbSymbolTable
 70
0
  0
ENDTAB
  0
TABLE
  2
APPID
  5
9
100
AcDbSymbolTable
 70
1
  0
APPID
  5
20F
100
AcDbSymbolTableRecord
100
AcDbRegAppTableRecord
  2
ACAD
 70
0
  0
ENDTAB
  0
TABLE
  2
BLOCK_RECORD
  5
1
100
AcDbSymbolTable
 70
0
  0
BLOCK_RECORD
  5
210
100
AcDbSymbolTableRecord
100
AcDbBlockTableRecord
  2
*Model_Space
  0
BLOCK_RECORD
  5
211
100
AcDbSymbolTableRecord
100
AcDbBlockTableRecord
  2
*Paper_Space
  0
BLOCK_RECORD
  5
212
100
AcDbSymbolTableRecord
100
AcDbBlockTableRecord
  2
_FILLED
  0
ENDTAB
  0
TABLE
  2
DIMSTYLE
  5
A
100
AcDbSymbolTable
 70
1
100
AcDbDimStyleTable
 71
0
  0
DIMSTYLE
105
213
100
AcDbSymbolTableRecord
100
AcDbDimStyleTableRecord
  2
STANDARD
 70
0
  3

  4

 40
1.0
 41
1.089022459
 42
1.0
 43
0.38
 44
1.0
 45
0.0
 46
0.0
 47
0.01
 48
0.01
140
1.5246314426
141
0.09
142
0.0
143
25.4
144
1.0
145
0.0
146
1.0
147
0.625
 71
1
 72
0
 73
0
 74
0
 75
0
 76
0
 77
1
 78
8
 79
2
170
0
171
1
172
0
173
0
174
0
175
0
176
0
177
0
178
0
270
2
179
2
271
2
272
2
273
2
274
2
275
0
280
0
281
0
282
0
283
1
284
8
285
0
286
0
287
3
288
0
340
11
278
46
341
212
342
212
343
212
344
212
  0
ENDTAB
  0
ENDSEC
  0
SECTION
  2
BLOCKS
  0
BLOCK
  5
20
100
AcDbEntity
  8
0
100
AcDbBlockBegin
  2
*Model_Space
 70
0
 10
0.0
 20
0.0
 30
0.0
  3
*Model_Space
  1

  0
ENDBLK
  5
21
100
AcDbEntity
  8
0
100
AcDbBlockEnd
  0
BLOCK
  5
1C
100
AcDbEntity
  8
0
100
AcDbBlockBegin
  2
*Paper_Space
 70
0
 10
0.0
 20
0.0
 30
0.0
  3
*Paper_Space
  1

  0
ENDBLK
  5
1D
100
AcDbEntity
  8
0
100
AcDbBlockEnd
  0
BLOCK
  5
214
100
AcDbEntity
  8
0
100
AcDbBlockBegin
  2
_FILLED
 70
64
 10
0.0
 20
0.0
  3
_FILLED
  1

  0
SOLID
  5
215
100
AcDbEntity
  8
0
  6
BYBLOCK
 62
0
100
AcDbTrace
 10
0.0
 20
0.0
 11
-1.0
 21
0.25
 12
-1.0
 22
-0.25
 13
-1.0
 23
-0.25
  0
ENDBLK
  5
216
100
AcDbEntity
  8
0
  6
BYBLOCK
 62
0
100
AcDbBlockEnd
  0
ENDSEC
  0
SECTION
  2
ENTITIES
  0
LINE
  5
217
100
AcDbEntity
  8
0
100
AcDbLine
 62
7
  6
CONTINUOUS
 10
20.0057524817
 20
18.1491439094
 11
45.0058059048
 21
18.1491438164
  0
LINE
  5
218
100
AcDbEntity
  8
0
100
AcDbLine
 62
7
  6
CONTINUOUS
 10
49.0058059048
 20
18.1491438015
 11
74.0057524817
 21
18.1491437085
  0
LINE
  5
219
100
AcDbEntity
  8
0
100
AcDbLine
 62
7
  6
CONTINUOUS
 10
20.0057736974
 20
18.5833750931
 11
45.0058059048
 21
18.5833750001
  0
LINE
  5
21A
100
AcDbEntity
  8
0
100
AcDbLine
 62
7
  6
CONTINUOUS
 10
49.0058059048
 20
18.5833749852
 11
74.0057736974
 21
18.5833748922
  0
LINE
  5
21B
100
AcDbEntity
  8
0
100
AcDbLine
 62
7
  6
CONTINUOUS
 10
20.0057898029
 20
18.9130123355
 11
45.0058059048
 21
18.9130122425
  0
LINE
  5
21C
100
AcDbEntity
  8
0
100
AcDbLine
 62
7
  6
CONTINUOUS
 10
49.0058059048
 20
18.9130122276
 11
74.0057898028
 21
18.9130121346
  0
LINE
  5
21D
100
AcDbEntity
  8
0
100
AcDbLine
 62
7
  6
CONTINUOUS
 10
20.005810808
 20
19.3429339656
 11
74.005810808
 21
19.3429337647
  0
LINE
  5
21E
100
AcDbEntity
  8
0
100
AcDbLine
 62
7
  6
CONTINUOUS
 10
20.0057524817
 20
18.1491439094
 11
20.0057911954
 21
107.4381435239
  0
LINE
  5
21F
100
AcDbEntity
  8
0
100
AcDbLine
 62
7
  6
CONTINUOUS
 10
23.0574556379
 20
77.8454661551
 11
23.057454952
 21
48.9396366761
  0
LINE
  5
220
100
AcDbEntity
  8
0
100
AcDbLine
 62
7
  6
CONTINUOUS
 10
24.3746548174
 20
69.9204225371
 11
24.3746548174
 21
68.2183170671
  0
LINE
  5
221
100
AcDbEntity
  8
0
100
AcDbLine
 62
7
  6
CONTINUOUS
 10
24.4540654344
 20
77.8314277803
 11
24.4540654344
 21
68.2305342165
  0
LINE
  5
222
100
AcDbEntity
  8
0
100
AcDbLine
 62
7
  6
CONTINUOUS
 10
24.5136143004
 20
66.9773960972
 11
24.5136143004
 21
50.4180266512
  0
LINE
  5
223
100
AcDbEntity
  8
0
100
AcDbLine
 62
7
  6
CONTINUOUS
 10
24.4400272161
 20
77.84546615
 11
24.3746548174
 21
69.9204225371
  0
LINE
  5
224
100
AcDbEntity
  8
0
100
AcDbLine
 62
7
  6
CONTINUOUS
 10
27.1544498597
 20
107.4381434973
 11
27.5980517627
 21
119.1619838053
  0
LINE
  5
225
100
AcDbEntity
  8
0
100
AcDbLine
 62
7
  6
CONTINUOUS
 10
27.9305974525
 20
87.2820085262
 11
27.9305974234
 21
68.2305342035
  0
LINE
  5
226
100
AcDbEntity
  8
0
100
AcDbLine
 62
7
  6
CONTINUOUS
 10
29.628658579
 20
87.2820085262
 11
29.628658579
 21
88.7820084258
  0
LINE
  5
227
100
AcDbEntity
  8
0
100
AcDbLine
 62
7
  6
CONTINUOUS
 10
29.8596474412
 20
68.2305341963
 11
29.8596527615
 21
87.2820085457
  0
LINE
  5
228
100
AcDbEntity
  8
0
100
AcDbLine
 62
7
  6
CONTINUOUS
 10
71.1023598826
 20
48.9396364973
 11
50.057454952
 21
48.9396365756
  0
LINE
  5
229
100
AcDbEntity
  8
0
100
AcDbLine
 62
7
  6
CONTINUOUS
 10
44.1023598826
 20
48.9396365978
 11
23.057454952
 21
48.9396366761
  0
LINE
  5
22A
100
AcDbEntity
  8
0
100
AcDbLine
 62
7
  6
CONTINUOUS
 10
71.1023643594
 20
49.0312651201
 11
50.0574594288
 21
49.0312651984
  0
LINE
  5
22B
100
AcDbEntity
  8
0
100
AcDbLine
 62
7
  6
CONTINUOUS
 10
44.1023643594
 20
49.0312652205
 11
23.0574594288
 21
49.0312652988
  0
LINE
  5
22C
100
AcDbEntity
  8
0
100
AcDbLine
 62
7
  6
CONTINUOUS
 10
42.5717934173
 20
77.8215080028
 11
42.5575561815
 21
77.8072720048
  0
LINE
  5
22D
100
AcDbEntity
  8
0
100
AcDbLine
 62
7
  6
CONTINUOUS
 10
24.5136143004
 20
50.4180266512
 11
42.6936143004
 21
50.4180265836
  0
LINE
  5
22E
100
AcDbEntity
  8
0
100
AcDbLine
 62
7
  6
CONTINUOUS
 10
51.5136143004
 20
50.4180265508
 11
69.6936143004
 21
50.4180264831
  0
LINE
  5
22F
100
AcDbEntity
  8
0
100
AcDbLine
 62
7
  6
CONTINUOUS
 10
35.951921565
 20
87.2820085263
 11
35.9519157918
 21
68.2305341737
  0
LINE
  5
230
100
AcDbEntity
  8
0
100
AcDbLine
 62
7
  6
CONTINUOUS
 10
36.1829161457
 20
87.2820085262
 11
36.1829161457
 21
88.7820084258
  0
LINE
  5
231
100
AcDbEntity
  8
0
100
AcDbLine
 62
7
  6
CONTINUOUS
 10
37.8809699298
 20
87.2820151096
 11
37.8809699298
 21
68.2305341665
  0
LINE
  5
232
100
AcDbEntity
  8
0
100
AcDbLine
 62
7
  6
CONTINUOUS
 10
42.6369745583
 20
69.9204224692
 11
42.5717934173
 21
77.8215080028
  0
LINE
  5
233
100
AcDbEntity
  8
0
100
AcDbLine
 62
7
  6
CONTINUOUS
 10
40.005778458
 20
107.4381434494
 11
40.0057763995
 21
119.1619837592
  0
LINE
  5
234
100
AcDbEntity
  8
0
100
AcDbLine
 62
7
  6
CONTINUOUS
 10
42.5575561815
 20
68.2305341491
 11
42.5575561815
 21
77.8072720048
  0
LINE
  5
235
100
AcDbEntity
  8
0
100
AcDbLine
 62
7
  6
CONTINUOUS
 10
42.6369745583
 20
68.2183169991
 11
42.6369745583
 21
69.9204224692
  0
LINE
  5
236
100
AcDbEntity
  8
0
100
AcDbLine
 62
7
  6
CONTINUOUS
 10
42.6936143004
 20
50.4180265836
 11
42.6936143004
 21
66.9773960295
  0
LINE
  5
237
100
AcDbEntity
  8
0
100
AcDbLine
 62
7
  6
CONTINUOUS
 10
24.4540654344
 20
77.8314277803
 11
24.4400272161
 21
77.84546615
  0
LINE
  5
238
100
AcDbEntity
  8
0
100
AcDbLine
 62
7
  6
CONTINUOUS
 10
45.0057572996
 20
10.5480468599
 11
45.0058059048
 21
19.2425787144
  0
LINE
  5
239
100
AcDbEntity
  8
0
100
AcDbLine
 62
7
  6
CONTINUOUS
 10
44.1023605781
 20
77.8215079971
 11
44.1023598826
 21
48.9396365978
  0
LINE
  5
23A
100
AcDbEntity
  8
0
100
AcDbLine
 62
7
  6
CONTINUOUS
 10
49.0057572996
 20
10.5480468451
 11
49.0058059048
 21
19.2425786995
  0
LINE
  5
23B
100
AcDbEntity
  8
0
100
AcDbLine
 62
7
  6
CONTINUOUS
 10
51.3746548174
 20
69.9204224367
 11
51.3746548174
 21
68.2183169666
  0
LINE
  5
23C
100
AcDbEntity
  8
0
100
AcDbLine
 62
7
  6
CONTINUOUS
 10
51.4540654344
 20
77.8314276798
 11
51.4540654344
 21
68.230534116
  0
LINE
  5
23D
100
AcDbEntity
  8
0
100
AcDbLine
 62
7
  6
CONTINUOUS
 10
51.5136143004
 20
66.9773959967
 11
51.5136143004
 21
50.4180265508
  0
LINE
  5
23E
100
AcDbEntity
  8
0
100
AcDbLine
 62
7
  6
CONTINUOUS
 10
50.0574556379
 20
77.8454660547
 11
50.057454952
 21
48.9396365756
  0
LINE
  5
23F
100
AcDbEntity
  8
0
100
AcDbLine
 62
7
  6
CONTINUOUS
 10
51.4400272161
 20
77.8454660495
 11
51.3746548174
 21
69.9204224367
  0
LINE
  5
240
100
AcDbEntity
  8
0
100
AcDbLine
 62
7
  6
CONTINUOUS
 10
69.6936098236
 20
66.8857673063
 11
51.5136098236
 21
66.885767374
  0
LINE
  5
241
100
AcDbEntity
  8
0
100
AcDbLine
 62
7
  6
CONTINUOUS
 10
42.6936098236
 20
66.8857674068
 11
24.5136098236
 21
66.8857674744
  0
LINE
  5
242
100
AcDbEntity
  8
0
100
AcDbLine
 62
7
  6
CONTINUOUS
 10
69.6936143004
 20
66.9773959291
 11
51.5136143004
 21
66.9773959967
  0
LINE
  5
243
100
AcDbEntity
  8
0
100
AcDbLine
 62
7
  6
CONTINUOUS
 10
42.6936143004
 20
66.9773960295
 11
24.5136143004
 21
66.9773960972
  0
LINE
  5
244
100
AcDbEntity
  8
0
100
AcDbLine
 62
7
  6
CONTINUOUS
 10
23.0574594288
 20
68.2305342216
 11
44.1023643594
 21
68.2305341433
  0
LINE
  5
245
100
AcDbEntity
  8
0
100
AcDbLine
 62
7
  6
CONTINUOUS
 10
50.0574594288
 20
68.2305341212
 11
71.1023643594
 21
68.2305340429
  0
LINE
  5
246
100
AcDbEntity
  8
0
100
AcDbLine
 62
7
  6
CONTINUOUS
 10
54.9305974525
 20
87.2820084258
 11
54.9305974234
 21
68.2305341031
  0
LINE
  5
247
100
AcDbEntity
  8
0
100
AcDbLine
 62
7
  6
CONTINUOUS
 10
69.5717934172
 20
77.8215079024
 11
69.5575561815
 21
77.8072719043
  0
LINE
  5
248
100
AcDbEntity
  8
0
100
AcDbLine
 62
7
  6
CONTINUOUS
 10
51.3746548174
 20
69.9204224367
 11
50.0574588319
 21
69.9204224416
  0
LINE
  5
249
100
AcDbEntity
  8
0
100
AcDbLine
 62
7
  6
CONTINUOUS
 10
24.3746548174
 20
69.9204225371
 11
23.0574588319
 21
69.920422542
  0
LINE
  5
24A
100
AcDbEntity
  8
0
100
AcDbLine
 62
7
  6
CONTINUOUS
 10
42.6369745583
 20
69.9204224692
 11
44.1023637625
 21
69.9204224637
  0
LINE
  5
24B
100
AcDbEntity
  8
0
100
AcDbLine
 62
7
  6
CONTINUOUS
 10
69.6369745583
 20
69.9204223687
 11
71.1023637625
 21
69.9204223633
  0
LINE
  5
24C
100
AcDbEntity
  8
0
100
AcDbLine
 62
7
  6
CONTINUOUS
 10
56.628658579
 20
87.2820084258
 11
56.628658579
 21
88.7820084258
  0
LINE
  5
24D
100
AcDbEntity
  8
0
100
AcDbLine
 62
7
  6
CONTINUOUS
 10
56.8596474412
 20
68.2305340959
 11
56.8596527613
 21
87.2820084453
  0
LINE
  5
24E
100
AcDbEntity
  8
0
100
AcDbLine
 62
7
  6
CONTINUOUS
 10
51.4540654344
 20
77.8314276798
 11
51.4400272161
 21
77.8454660495
  0
LINE
  5
24F
100
AcDbEntity
  8
0
100
AcDbLine
 62
7
  6
CONTINUOUS
 10
62.9519215652
 20
87.2820084258
 11
62.9519157918
 21
68.2305340732
  0
LINE
  5
250
100
AcDbEntity
  8
0
100
AcDbLine
 62
7
  6
CONTINUOUS
 10
63.1829161457
 20
87.2820084258
 11
63.1829161457
 21
88.7820084258
  0
LINE
  5
251
100
AcDbEntity
  8
0
100
AcDbLine
 62
7
  6
CONTINUOUS
 10
42.5717934173
 20
77.8215080028
 11
44.1023605781
 21
77.8215079971
  0
LINE
  5
252
100
AcDbEntity
  8
0
100
AcDbLine
 62
7
  6
CONTINUOUS
 10
69.5717934173
 20
77.8215079024
 11
71.1023605781
 21
77.8215078967
  0
LINE
  5
253
100
AcDbEntity
  8
0
100
AcDbLine
 62
7
  6
CONTINUOUS
 10
51.4400272161
 20
77.8454660495
 11
50.0574556379
 21
77.8454660547
  0
LINE
  5
254
100
AcDbEntity
  8
0
100
AcDbLine
 62
7
  6
CONTINUOUS
 10
24.4400272161
 20
77.84546615
 11
23.0574556379
 21
77.8454661551
  0
LINE
  5
255
100
AcDbEntity
  8
0
100
AcDbLine
 62
7
  6
CONTINUOUS
 10
64.8809699298
 20
87.2820150091
 11
64.8809699298
 21
68.230534066
  0
LINE
  5
256
100
AcDbEntity
  8
0
100
AcDbLine
 62
7
  6
CONTINUOUS
 10
69.6369745583
 20
69.9204223687
 11
69.5717934173
 21
77.8215079024
  0
LINE
  5
257
100
AcDbEntity
  8
0
100
AcDbLine
 62
7
  6
CONTINUOUS
 10
69.5575561815
 20
68.2305340486
 11
69.5575561815
 21
77.8072719043
  0
LINE
  5
258
100
AcDbEntity
  8
0
100
AcDbLine
 62
7
  6
CONTINUOUS
 10
69.6369745583
 20
68.2183168986
 11
69.6369745583
 21
69.9204223687
  0
LINE
  5
259
100
AcDbEntity
  8
0
100
AcDbLine
 62
7
  6
CONTINUOUS
 10
69.6936143004
 20
50.4180264831
 11
69.6936143004
 21
66.9773959291
  0
LINE
  5
25A
100
AcDbEntity
  8
0
100
AcDbLine
 62
7
  6
CONTINUOUS
 10
71.1023605781
 20
77.8215078967
 11
71.1023598826
 21
48.9396364973
  0
LINE
  5
25B
100
AcDbEntity
  8
0
100
AcDbLine
 62
7
  6
CONTINUOUS
 10
27.9057873604
 20
87.2820085324
 11
37.8810695148
 21
87.2820085262
  0
LINE
  5
25C
100
AcDbEntity
  8
0
100
AcDbLine
 62
7
  6
CONTINUOUS
 10
54.9057873604
 20
87.282008432
 11
64.8810695149
 21
87.2820084258
  0
LINE
  5
25D
100
AcDbEntity
  8
0
100
AcDbLine
 62
7
  6
CONTINUOUS
 10
63.1829116202
 20
88.7820084258
 11
56.6286631045
 21
88.7820084258
  0
LINE
  5
25E
100
AcDbEntity
  8
0
100
AcDbLine
 62
7
  6
CONTINUOUS
 10
36.1829116202
 20
88.7820084258
 11
29.6286631045
 21
88.7820084258
  0
LINE
  5
25F
100
AcDbEntity
  8
0
100
AcDbLine
 62
7
  6
CONTINUOUS
 10
74.0057524817
 20
18.1491437085
 11
74.0057911953
 21
107.4381433229
  0
LINE
  5
260
100
AcDbEntity
  8
0
100
AcDbLine
 62
7
  6
CONTINUOUS
 10
20.005810808
 20
99.3398878107
 11
74.005810808
 21
99.3398876098
  0
LINE
  5
261
100
AcDbEntity
  8
0
100
AcDbLine
 62
7
  6
CONTINUOUS
 10
20.0057911954
 20
107.4381435239
 11
74.0057911953
 21
107.4381433229
  0
LINE
  5
262
100
AcDbEntity
  8
0
100
AcDbLine
 62
7
  6
CONTINUOUS
 10
27.5980517627
 20
119.1619838053
 11
40.0057763995
 21
119.1619837592
  0
SPLINE
  5
263
100
AcDbEntity
  8
0
100
AcDbSpline
 62
7
  6
CONTINUOUS
 70
0
 71
3
 72
41
 73
37
 74
0
 42
0.0000001
 43
0.0000001
 44
0.0000000001
 40
0.0
 40
0.0
 40
0.0
 40
0.0
 40
0.000642452
 40
0.002466562
 40
0.0054818319
 40
0.0096816317
 40
0.0150574533
 40
0.0216002736
 40
0.0293004005
 40
0.0381391336
 40
0.0591251977
 40
0.0843424273
 40
0.113570592
 40
0.1465263786
 40
0.1828734405
 40
0.2222730484
 40
0.3086948973
 40
0.4024590472
 40
0.4999730589
 40
0.5974924768
 40
0.6912654986
 40
0.7776979528
 40
0.8171002214
 40
0.8534508319
 40
0.8864097652
 40
0.9156399633
 40
0.9408622293
 40
0.9618542942
 40
0.9706953544
 40
0.9783969198
 40
0.9849407639
 40
0.9903173397
 40
0.9945176594
 40
0.9975332506
 40
0.9993575185
 40
1.0
 40
1.0
 40
1.0
 40
1.0
 10
49.0058059048
 20
11.5428718919
 30
0.0
 10
49.005805863
 20
11.54201514
 30
0.0
 10
49.0008364094
 20
11.5421160016
 30
0.0
 10
48.9951794304
 20
11.5407173598
 30
0.0
 10
48.9822397013
 20
11.5402995353
 30
0.0
 10
48.9658679792
 20
11.5393213172
 30
0.0
 10
48.9442333188
 20
11.5385680902
 30
0.0
 10
48.9181385916
 20
11.5377319123
 30
0.0
 10
48.8873491399
 20
11.5369357965
 30
0.0
 10
48.8373276719
 20
11.5358122105
 30
0.0
 10
48.7639321739
 20
11.5344966455
 30
0.0
 10
48.6633515009
 20
11.5330558889
 30
0.0
 10
48.5468033466
 20
11.5317042009
 30
0.0
 10
48.4154118577
 20
11.5304530137
 30
0.0
 10
48.2704543239
 20
11.5293154727
 30
0.0
 10
48.054196367
 20
11.5279265874
 30
0.0
 10
47.7613672666
 20
11.5265952631
 30
0.0
 10
47.391037102
 20
11.5256347447
 30
0.0
 10
47.0059064851
 20
11.5253091628
 30
0.0
 10
46.6207640363
 20
11.5256343587
 30
0.0
 10
46.2504006881
 20
11.5265948504
 30
0.0
 10
45.9575420634
 20
11.5279258478
 30
0.0
 10
45.7412616835
 20
11.5293148345
 30
0.0
 10
45.5962916714
 20
11.5304522184
 30
0.0
 10
45.4648885399
 20
11.5317032458
 30
0.0
 10
45.3483267624
 20
11.5330551405
 30
0.0
 10
45.2477286597
 20
11.5344960208
 30
0.0
 10
45.1743153363
 20
11.5358116836
 30
0.0
 10
45.1242808476
 20
11.5369354044
 30
0.0
 10
45.0934850033
 20
11.5377316638
 30
0.0
 10
45.0673860057
 20
11.5385679441
 30
0.0
 10
45.045748235
 20
11.5393212235
 30
0.0
 10
45.0293744947
 20
11.5402995192
 30
0.0
 10
45.0164332041
 20
11.5407173049
 30
0.0
 10
45.01077591
 20
11.5421160591
 30
0.0
 10
45.005805863
 20
11.5420151154
 30
0.0
 10
45.0058059048
 20
11.5428719068
 30
0.0
  0
SPLINE
  5
264
100
AcDbEntity
  8
0
100
AcDbSpline
 62
7
  6
CONTINUOUS
 70
0
 71
3
 72
41
 73
37
 74
0
 42
0.0000001
 43
0.0000001
 44
0.0000000001
 40
0.0
 40
0.0
 40
0.0
 40
0.0
 40
0.0006424151
 40
0.0024664382
 40
0.0054816169
 40
0.0096813659
 40
0.0150572219
 40
0.0216002062
 40
0.029300667
 40
0.0381398511
 40
0.0591266062
 40
0.0843432907
 40
0.1135686146
 40
0.1465198994
 40
0.1828629763
 40
0.2222611042
 40
0.3086851225
 40
0.4024586755
 40
0.499983477
 40
0.597508822
 40
0.6912833535
 40
0.7777127716
 40
0.8171134797
 40
0.853461388
 40
0.8864176632
 40
0.9156462002
 40
0.9408664655
 40
0.9618566121
 40
0.9706970022
 40
0.97839818
 40
0.9849416964
 40
0.9903179726
 40
0.994518035
 40
0.9975334252
 40
0.9993575627
 40
1.0
 40
1.0
 40
1.0
 40
1.0
 10
49.0057572996
 20
10.5480468451
 30
0.0
 10
49.0057572578
 20
10.5471901423
 30
0.0
 10
49.0007880965
 20
10.5472908868
 30
0.0
 10
48.9951313083
 20
10.5458923416
 30
0.0
 10
48.9821919215
 20
10.5454744695
 30
0.0
 10
48.9658203366
 20
10.5444962681
 30
0.0
 10
48.9441854775
 20
10.5437430347
 30
0.0
 10
48.9180900422
 20
10.5429068545
 30
0.0
 10
48.8872993232
 20
10.5421107369
 30
0.0
 10
48.8372758866
 20
10.540987156
 30
0.0
 10
48.7638795913
 20
10.5396716092
 30
0.0
 10
48.6633025115
 20
10.5382308773
 30
0.0
 10
48.5467648758
 20
10.5368792142
 30
0.0
 10
48.4153884923
 20
10.535628077
 30
0.0
 10
48.2704442486
 20
10.5344906102
 30
0.0
 10
48.0541906844
 20
10.5331018533
 30
0.0
 10
47.7613481243
 20
10.5317702504
 30
0.0
 10
47.3909881353
 20
10.5308097401
 30
0.0
 10
47.0058226832
 20
10.5304840649
 30
0.0
 10
46.6206559257
 20
10.5308094607
 30
0.0
 10
46.2502867061
 20
10.5317699557
 30
0.0
 10
45.9574321972
 20
10.5331011804
 30
0.0
 10
45.7411615488
 20
10.5344900859
 30
0.0
 10
45.5962007655
 20
10.5356275031
 30
0.0
 10
45.4648069976
 20
10.536878571
 30
0.0
 10
45.348253647
 20
10.5382303829
 30
0.0
 10
45.2476629851
 20
10.5396712186
 30
0.0
 10
45.1742557818
 20
10.5409868449
 30
0.0
 10
45.1242252605
 20
10.5421105152
 30
0.0
 10
45.0934312641
 20
10.5429067191
 30
0.0
 10
45.0673336156
 20
10.5437429591
 30
0.0
 10
45.0456970357
 20
10.544496223
 30
0.0
 10
45.0293242739
 20
10.5454744704
 30
0.0
 10
45.0163838491
 20
10.5458923137
 30
0.0
 10
45.0107269067
 20
10.5472909352
 30
0.0
 10
45.0057572578
 20
10.5471901276
 30
0.0
 10
45.0057572996
 20
10.5480468599
 30
0.0
  0
SPLINE
  5
265
100
AcDbEntity
  8
0
100
AcDbSpline
 62
7
  6
CONTINUOUS
 70
0
 71
3
 72
41
 73
37
 74
0
 42
0.0000001
 43
0.0000001
 44
0.0000000001
 40
0.0
 40
0.0
 40
0.0
 40
0.0
 40
0.000642452
 40
0.002466562
 40
0.0054818319
 40
0.0096816317
 40
0.0150574533
 40
0.0216002736
 40
0.0293004005
 40
0.0381391336
 40
0.0591251977
 40
0.0843424273
 40
0.113570592
 40
0.1465263786
 40
0.1828734405
 40
0.2222730484
 40
0.3086948973
 40
0.4024590472
 40
0.4999730589
 40
0.5974924768
 40
0.6912654986
 40
0.7776979528
 40
0.8171002214
 40
0.8534508319
 40
0.8864097652
 40
0.9156399633
 40
0.9408622293
 40
0.9618542942
 40
0.9706953544
 40
0.9783969198
 40
0.9849407639
 40
0.9903173397
 40
0.9945176594
 40
0.9975332506
 40
0.9993575185
 40
1.0
 40
1.0
 40
1.0
 40
1.0
 10
45.0058059048
 20
11.5428719068
 30
0.0
 10
45.0058059467
 20
11.5437286587
 30
0.0
 10
45.0107754003
 20
11.5436277971
 30
0.0
 10
45.0164323793
 20
11.5450264389
 30
0.0
 10
45.0293721083
 20
11.5454442633
 30
0.0
 10
45.0457438304
 20
11.5464224814
 30
0.0
 10
45.0673784909
 20
11.5471757084
 30
0.0
 10
45.093473218
 20
11.5480118864
 30
0.0
 10
45.1242626698
 20
11.5488080022
 30
0.0
 10
45.1742841378
 20
11.5499315882
 30
0.0
 10
45.2476796357
 20
11.5512471531
 30
0.0
 10
45.3482603087
 20
11.5526879097
 30
0.0
 10
45.464808463
 20
11.5540395978
 30
0.0
 10
45.596199952
 20
11.555290785
 30
0.0
 10
45.7411574857
 20
11.5564283259
 30
0.0
 10
45.9574154426
 20
11.5578172112
 30
0.0
 10
46.250244543
 20
11.5591485356
 30
0.0
 10
46.6205747077
 20
11.5601090539
 30
0.0
 10
47.0057053245
 20
11.5604346359
 30
0.0
 10
47.3908477733
 20
11.5601094399
 30
0.0
 10
47.7612111216
 20
11.5591489483
 30
0.0
 10
48.0540697462
 20
11.5578179509
 30
0.0
 10
48.2703501262
 20
11.5564289642
 30
0.0
 10
48.4153201383
 20
11.5552915802
 30
0.0
 10
48.5467232697
 20
11.5540405528
 30
0.0
 10
48.6632850472
 20
11.5526886582
 30
0.0
 10
48.7638831499
 20
11.5512477779
 30
0.0
 10
48.8372964734
 20
11.5499321151
 30
0.0
 10
48.887330962
 20
11.5488083942
 30
0.0
 10
48.9181268063
 20
11.5480121348
 30
0.0
 10
48.9442258039
 20
11.5471758545
 30
0.0
 10
48.9658635747
 20
11.5464225752
 30
0.0
 10
48.9822373149
 20
11.5454442795
 30
0.0
 10
48.9951786056
 20
11.5450264938
 30
0.0
 10
49.0008358997
 20
11.5436277396
 30
0.0
 10
49.0058059467
 20
11.5437286833
 30
0.0
 10
49.0058059048
 20
11.5428718919
 30
0.0
  0
SPLINE
  5
266
100
AcDbEntity
  8
0
100
AcDbSpline
 62
7
  6
CONTINUOUS
 70
0
 71
3
 72
41
 73
37
 74
0
 42
0.0000001
 43
0.0000001
 44
0.0000000001
 40
0.0
 40
0.0
 40
0.0
 40
0.0
 40
0.0006424151
 40
0.0024664382
 40
0.0054816169
 40
0.0096813659
 40
0.0150572219
 40
0.0216002062
 40
0.029300667
 40
0.0381398511
 40
0.0591266062
 40
0.0843432907
 40
0.1135686146
 40
0.1465198994
 40
0.1828629763
 40
0.2222611042
 40
0.3086851225
 40
0.4024586755
 40
0.499983477
 40
0.597508822
 40
0.6912833535
 40
0.7777127716
 40
0.8171134797
 40
0.853461388
 40
0.8864176632
 40
0.9156462002
 40
0.9408664655
 40
0.9618566121
 40
0.9706970022
 40
0.97839818
 40
0.9849416964
 40
0.9903179726
 40
0.994518035
 40
0.9975334252
 40
0.9993575627
 40
1.0
 40
1.0
 40
1.0
 40
1.0
 10
45.0057572996
 20
10.5480468599
 30
0.0
 10
45.0057573415
 20
10.5489035627
 30
0.0
 10
45.0107265028
 20
10.5488028182
 30
0.0
 10
45.016383291
 20
10.5502013634
 30
0.0
 10
45.0293226777
 20
10.5506192355
 30
0.0
 10
45.0456942626
 20
10.5515974369
 30
0.0
 10
45.0673291217
 20
10.5523506703
 30
0.0
 10
45.093424557
 20
10.5531868505
 30
0.0
 10
45.124215276
 20
10.5539829682
 30
0.0
 10
45.1742387127
 20
10.555106549
 30
0.0
 10
45.2476350079
 20
10.5564220958
 30
0.0
 10
45.3482120877
 20
10.5578628277
 30
0.0
 10
45.4647497235
 20
10.5592144909
 30
0.0
 10
45.596126107
 20
10.5604656281
 30
0.0
 10
45.7410703507
 20
10.5616030948
 30
0.0
 10
45.9573239149
 20
10.5629918517
 30
0.0
 10
46.250166475
 20
10.5643234546
 30
0.0
 10
46.6205264639
 20
10.5652839649
 30
0.0
 10
47.005691916
 20
10.5656096401
 30
0.0
 10
47.3908586735
 20
10.5652842443
 30
0.0
 10
47.7612278931
 20
10.5643237493
 30
0.0
 10
48.054082402
 20
10.5629925246
 30
0.0
 10
48.2703530504
 20
10.5616036192
 30
0.0
 10
48.4153138337
 20
10.5604662019
 30
0.0
 10
48.5467076017
 20
10.559215134
 30
0.0
 10
48.6632609523
 20
10.5578633221
 30
0.0
 10
48.7638516142
 20
10.5564224864
 30
0.0
 10
48.8372588175
 20
10.5551068602
 30
0.0
 10
48.8872893387
 20
10.5539831898
 30
0.0
 10
48.9180833352
 20
10.5531869859
 30
0.0
 10
48.9441809837
 20
10.5523507459
 30
0.0
 10
48.9658175635
 20
10.5515974821
 30
0.0
 10
48.9821903253
 20
10.5506192347
 30
0.0
 10
48.9951307502
 20
10.5502013913
 30
0.0
 10
49.0007876925
 20
10.5488027698
 30
0.0
 10
49.0057573415
 20
10.5489035774
 30
0.0
 10
49.0057572996
 20
10.5480468451
 30
0.0
  0
SPLINE
  5
267
100
AcDbEntity
  8
0
100
AcDbSpline
 62
7
  6
CONTINUOUS
 70
0
 71
3
 72
41
 73
37
 74
0
 42
0.0000001
 43
0.0000001
 44
0.0000000001
 40
0.0
 40
0.0
 40
0.0
 40
0.0
 40
0.0006423954
 40
0.0024663978
 40
0.0054815558
 40
0.0096812842
 40
0.0150571197
 40
0.0216000839
 40
0.0293005248
 40
0.0381396894
 40
0.0591264067
 40
0.0843430554
 40
0.1135683456
 40
0.1465195994
 40
0.1828626483
 40
0.2222607513
 40
0.3086847302
 40
0.4024582589
 40
0.4999830522
 40
0.5975084054
 40
0.6912829611
 40
0.7777124187
 40
0.8171131516
 40
0.853461088
 40
0.8864173943
 40
0.9156459648
 40
0.940866266
 40
0.9618564504
 40
0.97069686
 40
0.9783980577
 40
0.9849415943
 40
0.9903178909
 40
0.9945179739
 40
0.9975333848
 40
0.999357543
 40
1.0
 40
1.0
 40
1.0
 40
1.0
 10
49.0058059048
 20
19.2425786995
 30
0.0
 10
49.0058059467
 20
19.2434353761
 30
0.0
 10
49.0008366959
 20
19.2433346951
 30
0.0
 10
48.9951801429
 20
19.2447331851
 30
0.0
 10
48.9822407469
 20
19.2451510843
 30
0.0
 10
48.965869286
 20
19.2461292739
 30
0.0
 10
48.9442344922
 20
19.2468825118
 30
0.0
 10
48.9181391436
 20
19.2477186905
 30
0.0
 10
48.8873485021
 20
19.2485148089
 30
0.0
 10
48.8373251693
 20
19.24963839
 30
0.0
 10
48.7639289978
 20
19.2509539375
 30
0.0
 10
48.6633520613
 20
19.25239467
 30
0.0
 10
48.5468145594
 20
19.253746334
 30
0.0
 10
48.4154382995
 20
19.2549974721
 30
0.0
 10
48.2704941679
 20
19.2561349399
 30
0.0
 10
48.0542407269
 20
19.2575236985
 30
0.0
 10
47.7613982849
 20
19.2588553035
 30
0.0
 10
47.3910383917
 20
19.2598158165
 30
0.0
 10
47.005872972
 20
19.2601414946
 30
0.0
 10
46.6207061821
 20
19.2598161015
 30
0.0
 10
46.2503368668
 20
19.2588556092
 30
0.0
 10
45.9574822398
 20
19.2575243867
 30
0.0
 10
45.7412114682
 20
19.2561354829
 30
0.0
 10
45.5962505728
 20
19.2549980667
 30
0.0
 10
45.4648566812
 20
19.2537469998
 30
0.0
 10
45.3483031968
 20
19.2523951887
 30
0.0
 10
45.2477123916
 20
19.2509543536
 30
0.0
 10
45.1743050645
 20
19.2496387281
 30
0.0
 10
45.1242744394
 20
19.248515058
 30
0.0
 10
45.0934803655
 20
19.2477188548
 30
0.0
 10
45.0673826303
 20
19.2468826133
 30
0.0
 10
45.0457459851
 20
19.2461293539
 30
0.0
 10
45.0293730993
 20
19.2451510947
 30
0.0
 10
45.0164326837
 20
19.2447332784
 30
0.0
 10
45.0107755061
 20
19.2433346017
 30
0.0
 10
45.0058059467
 20
19.243435473
 30
0.0
 10
45.0058059048
 20
19.2425787144
 30
0.0
  0
ENDSEC
  0
SECTION
  2
OBJECTS
  0
DICTIONARY
  5
C
100
AcDbDictionary
280
0
281
1
  3
ACAD_GROUP
350
D
  3
ACAD_MLINESTYLE
350
17
  3
ACAD_LAYOUT
350
1A
  3
ACAD_PLOTSETTINGS
350
19
  3
ACAD_PLOTSTYLENAME
350
E
  0
DICTIONARY
  5
D
102
{ACAD_REACTORS
330
C
102
}
100
AcDbDictionary
280
0
281
1
  0
ACDBDICTIONARYWDFLT
  5
E
102
{ACAD_REACTORS
330
C
102
}
100
AcDbDictionary
281
1
  3
Normal
350
F
100
AcDbDictionaryWithDefault
340
F
  0
DICTIONARY
  5
17
102
{ACAD_REACTORS
330
C
102
}
100
AcDbDictionary
280
0
281
1
  3
Standard
350
18
  0
DICTIONARY
  5
19
102
{ACAD_REACTORS
330
C
102
}
100
AcDbDictionary
281
1
  0
DICTIONARY
  5
1A
102
{ACAD_REACTORS
330
C
102
}
100
AcDbDictionary
281
1
  3
Model
350
268
  3
Layout1
350
269
  0
ACDBPLACEHOLDER
  5
F
102
{ACAD_REACTORS
330
E
102
}
  0
MLINESTYLE
  5
18
102
{ACAD_REACTORS
330
17
102
}
100
AcDbMlineStyle
  2
STANDARD
 70
0
  3

 62
256
 51
90.0
 52
90.0
 71
2
 49
0.5
 62
256
  6
BYLAYER
 49
-0.5
 62
256
  6
BYLAYER
  0
LAYOUT
  5
268
102
{ACAD_REACTORS
330
1A
102
}
100
AcDbPlotSettings
  1

  2
none_device
  4

  6

 40
0.0
 41
0.0
 42
0.0
 43
0.0
 44
210.0
 45
297.0
 46
0.0
 47
0.0
 48
0.0
 49
0.0
140
0.0
141
0.0
142
1.0
143
1.0
 70
1024
 72
1
 73
0
 74
0
  7

 75
0
147
1.0
148
0.0
149
0.0
100
AcDbLayout
  1
Model
 70
0
 71
0
 10
0.0
 20
0.0
 11
210.0
 21
297.0
 12
0.0
 22
0.0
 32
0.0
 14
0.0
 24
0.0
 34
0.0
 15
0.0
 25
0.0
 35
0.0
146
0.0
 13
0.0
 23
0.0
 33
0.0
 16
1.0
 26
0.0
 36
0.0
 17
0.0
 27
1.0
 37
0.0
 76
0
330
210
345
0
346
0
  0
LAYOUT
  5
269
102
{ACAD_REACTORS
330
1A
102
}
100
AcDbPlotSettings
  1

  2
none_device
  4

  6

 40
0.0
 41
0.0
 42
0.0
 43
0.0
 44
210.0
 45
297.0
 46
0.0
 47
0.0
 48
0.0
 49
0.0
140
0.0
141
0.0
142
1.0
143
1.0
 70
0
 72
1
 73
0
 74
0
  7

 75
0
147
1.0
148
0.0
149
0.0
100
AcDbLayout
  1
Layout1
 70
0
 71
1
 10
0.0
 20
0.0
 11
210.0
 21
297.0
 12
0.0
 22
0.0
 32
0.0
 14
0.0
 24
0.0
 34
0.0
 15
0.0
 25
0.0
 35
0.0
146
0.0
 13
0.0
 23
0.0
 33
0.0
 16
1.0
 26
0.0
 36
0.0
 17
0.0
 27
1.0
 37
0.0
 76
0
330
211
345
0
346
0
  0
ENDSEC
  0
EOF
